  0
SECTION
  2
HEADER
  9
$ACADVER
  1
AC1015
  9
$ACADMAINTVER
 70
     6
  9
$DWGCODEPAGE
  3
ANSI_1251
  9
$INSBASE
 10
0.0
 20
0.0
 30
0.0
  9
$EXTMIN
 10
-3227.6250222558
 20
-2030.4448186343
 30
0.0
  9
$EXTMAX
 10
3634.0139014351
 20
2030.4448186343
 30
0.0
  9
$LIMMIN
 10
0.0
 20
0.0
  9
$LIMMAX
 10
420.0
 20
297.0
  9
$ORTHOMODE
 70
     0
  9
$REGENMODE
 70
     1
  9
$FILLMODE
 70
     1
  9
$QTEXTMODE
 70
     0
  9
$MIRRTEXT
 70
     1
  9
$LTSCALE
 40
1.0
  9
$ATTMODE
 70
     1
  9
$TEXTSIZE
 40
3.0
  9
$TRACEWID
 40
1.0
  9
$TEXTSTYLE
  7
Standard
  9
$CLAYER
  8
0
  9
$CELTYPE
  6
ByLayer
  9
$CECOLOR
 62
   256
  9
$CELTSCALE
 40
1.0
  9
$DISPSILH
 70
     0
  9
$DIMSCALE
 40
1.0
  9
$DIMASZ
 40
3.0
  9
$DIMEXO
 40
0.0
  9
$DIMDLI
 40
3.75
  9
$DIMRND
 40
0.0
  9
$DIMDLE
 40
0.0
  9
$DIMEXE
 40
2.0
  9
$DIMTP
 40
0.0
  9
$DIMTM
 40
0.0
  9
$DIMTXT
 40
3.0
  9
$DIMCEN
 40
2.5
  9
$DIMTSZ
 40
0.0
  9
$DIMTOL
 70
     0
  9
$DIMLIM
 70
     0
  9
$DIMTIH
 70
     1
  9
$DIMTOH
 70
     1
  9
$DIMSE1
 70
     0
  9
$DIMSE2
 70
     0
  9
$DIMTAD
 70
     1
  9
$DIMZIN
 70
     0
  9
$DIMBLK
  1

  9
$DIMASO
 70
     1
  9
$DIMSHO
 70
     1
  9
$DIMPOST
  1

  9
$DIMAPOST
  1

  9
$DIMALT
 70
     0
  9
$DIMALTD
 70
     3
  9
$DIMALTF
 40
0.0393700787
  9
$DIMLFAC
 40
1.0
  9
$DIMTOFL
 70
     1
  9
$DIMTVP
 40
0.0
  9
$DIMTIX
 70
     0
  9
$DIMSOXD
 70
     0
  9
$DIMSAH
 70
     0
  9
$DIMBLK1
  1

  9
$DIMBLK2
  1

  9
$DIMSTYLE
  2
ISO-25
  9
$DIMCLRD
 70
     0
  9
$DIMCLRE
 70
     0
  9
$DIMCLRT
 70
     0
  9
$DIMTFAC
 40
1.0
  9
$DIMGAP
 40
2.0
  9
$DIMJUST
 70
     0
  9
$DIMSD1
 70
     0
  9
$DIMSD2
 70
     0
  9
$DIMTOLJ
 70
     0
  9
$DIMTZIN
 70
     0
  9
$DIMALTZ
 70
     0
  9
$DIMALTTZ
 70
     0
  9
$DIMUPT
 70
     0
  9
$DIMDEC
 70
     2
  9
$DIMTDEC
 70
     2
  9
$DIMALTU
 70
     2
  9
$DIMALTTD
 70
     3
  9
$DIMTXSTY
  7
Standard
  9
$DIMAUNIT
 70
     0
  9
$DIMADEC
 70
     2
  9
$DIMALTRND
 40
0.0
  9
$DIMAZIN
 70
     0
  9
$DIMDSEP
 70
    44
  9
$DIMATFIT
 70
     3
  9
$DIMFRAC
 70
     0
  9
$DIMLDRBLK
  1

  9
$DIMLUNIT
 70
     2
  9
$DIMLWD
 70
    -2
  9
$DIMLWE
 70
    -2
  9
$DIMTMOVE
 70
     0
  9
$LUNITS
 70
     2
  9
$LUPREC
 70
     2
  9
$SKETCHINC
 40
1.0
  9
$FILLETRAD
 40
10.0
  9
$AUNITS
 70
     1
  9
$AUPREC
 70
     2
  9
$MENU
  1
.
  9
$ELEVATION
 40
0.0
  9
$PELEVATION
 40
0.0
  9
$THICKNESS
 40
0.0
  9
$LIMCHECK
 70
     0
  9
$CHAMFERA
 40
0.0
  9
$CHAMFERB
 40
0.0
  9
$CHAMFERC
 40
0.0
  9
$CHAMFERD
 40
0.0
  9
$SKPOLY
 70
     0
  9
$TDCREATE
 40
2459306.696841979
  9
$TDUCREATE
 40
2459306.571841979
  9
$TDUPDATE
 40
2459306.697035127
  9
$TDUUPDATE
 40
2459306.572035127
  9
$TDINDWG
 40
0.0000000116
  9
$TDUSRTIMER
 40
0.0000000116
  9
$USRTIMER
 70
     1
  9
$ANGBASE
 50
0.0
  9
$ANGDIR
 70
     0
  9
$PDMODE
 70
     0
  9
$PDSIZE
 40
-1.0
  9
$PLINEWID
 40
0.0
  9
$SPLFRAME
 70
     0
  9
$SPLINETYPE
 70
     6
  9
$SPLINESEGS
 70
     8
  9
$HANDSEED
  5
3B3
  9
$SURFTAB1
 70
     6
  9
$SURFTAB2
 70
     6
  9
$SURFTYPE
 70
     6
  9
$SURFU
 70
     6
  9
$SURFV
 70
     6
  9
$UCSBASE
  2

  9
$UCSNAME
  2

  9
$UCSORG
 10
0.0
 20
0.0
 30
0.0
  9
$UCSXDIR
 10
1.0
 20
0.0
 30
0.0
  9
$UCSYDIR
 10
0.0
 20
1.0
 30
0.0
  9
$UCSORTHOREF
  2

  9
$UCSORTHOVIEW
 70
     0
  9
$UCSORGTOP
 10
0.0
 20
0.0
 30
0.0
  9
$UCSORGBOTTOM
 10
0.0
 20
0.0
 30
0.0
  9
$UCSORGLEFT
 10
0.0
 20
0.0
 30
0.0
  9
$UCSORGRIGHT
 10
0.0
 20
0.0
 30
0.0
  9
$UCSORGFRONT
 10
0.0
 20
0.0
 30
0.0
  9
$UCSORGBACK
 10
0.0
 20
0.0
 30
0.0
  9
$PUCSBASE
  2

  9
$PUCSNAME
  2

  9
$PUCSORG
 10
0.0
 20
0.0
 30
0.0
  9
$PUCSXDIR
 10
1.0
 20
0.0
 30
0.0
  9
$PUCSYDIR
 10
0.0
 20
1.0
 30
0.0
  9
$PUCSORTHOREF
  2

  9
$PUCSORTHOVIEW
 70
     0
  9
$PUCSORGTOP
 10
0.0
 20
0.0
 30
0.0
  9
$PUCSORGBOTTOM
 10
0.0
 20
0.0
 30
0.0
  9
$PUCSORGLEFT
 10
0.0
 20
0.0
 30
0.0
  9
$PUCSORGRIGHT
 10
0.0
 20
0.0
 30
0.0
  9
$PUCSORGFRONT
 10
0.0
 20
0.0
 30
0.0
  9
$PUCSORGBACK
 10
0.0
 20
0.0
 30
0.0
  9
$USERI1
 70
     0
  9
$USERI2
 70
     0
  9
$USERI3
 70
     0
  9
$USERI4
 70
     0
  9
$USERI5
 70
     0
  9
$USERR1
 40
0.0
  9
$USERR2
 40
0.0
  9
$USERR3
 40
0.0
  9
$USERR4
 40
0.0
  9
$USERR5
 40
0.0
  9
$WORLDVIEW
 70
     1
  9
$SHADEDGE
 70
     3
  9
$SHADEDIF
 70
    70
  9
$TILEMODE
 70
     1
  9
$MAXACTVP
 70
    64
  9
$PINSBASE
 10
0.0
 20
0.0
 30
0.0
  9
$PLIMCHECK
 70
     0
  9
$PEXTMIN
 10
1.0000000000E+20
 20
1.0000000000E+20
 30
1.0000000000E+20
  9
$PEXTMAX
 10
-1.0000000000E+20
 20
-1.0000000000E+20
 30
-1.0000000000E+20
  9
$PLIMMIN
 10
0.0
 20
0.0
  9
$PLIMMAX
 10
420.0
 20
297.0
  9
$UNITMODE
 70
     0
  9
$VISRETAIN
 70
     1
  9
$PLINEGEN
 70
     0
  9
$PSLTSCALE
 70
     1
  9
$TREEDEPTH
 70
  3020
  9
$CMLSTYLE
  2
Standard
  9
$CMLJUST
 70
     0
  9
$CMLSCALE
 40
20.0
  9
$PROXYGRAPHICS
 70
     1
  9
$MEASUREMENT
 70
     1
  9
$CELWEIGHT
370
    -1
  9
$ENDCAPS
280
     0
  9
$JOINSTYLE
280
     0
  9
$LWDISPLAY
290
     1
  9
$INSUNITS
 70
     4
  9
$HYPERLINKBASE
  1

  9
$STYLESHEET
  1

  9
$XEDIT
290
     1
  9
$CEPSNTYPE
380
     0
  9
$PSTYLEMODE
290
     1
  9
$FINGERPRINTGUID
  2
{EF02F978-5815-4B4B-BB9D-DC8108C98FBB}
  9
$VERSIONGUID
  2
{FAEB1C32-E019-11D5-929B-00C0DF256EC4}
  9
$EXTNAMES
290
     1
  9
$PSVPSCALE
 40
0.0
  9
$OLESTARTUP
290
     0
  0
ENDSEC
  0
SECTION
  2
CLASSES
  0
CLASS
  1
ACDBDICTIONARYWDFLT
  2
AcDbDictionaryWithDefault
  3
ObjectDBX Classes
 90
        0
280
     0
281
     0
  0
CLASS
  1
VISUALSTYLE
  2
AcDbVisualStyle
  3
ObjectDBX Classes
 90
     4095
280
     0
281
     0
  0
CLASS
  1
MATERIAL
  2
AcDbMaterial
  3
ObjectDBX Classes
 90
     1153
280
     0
281
     0
  0
CLASS
  1
SCALE
  2
AcDbScale
  3
ObjectDBX Classes
 90
     1153
280
     0
281
     0
  0
CLASS
  1
SUN
  2
AcDbSun
  3
SCENEOE
 90
     1153
280
     0
281
     0
  0
CLASS
  1
ACDBPLACEHOLDER
  2
AcDbPlaceHolder
  3
ObjectDBX Classes
 90
        0
280
     0
281
     0
  0
CLASS
  1
LAYOUT
  2
AcDbLayout
  3
ObjectDBX Classes
 90
        0
280
     0
281
     0
  0
ENDSEC
  0
SECTION
  2
TABLES
  0
TABLE
  2
VPORT
  5
8
330
0
100
AcDbSymbolTable
 70
     1
  0
VPORT
  5
29
330
8
100
AcDbSymbolTableRecord
100
AcDbViewportTableRecord
  2
*Active
 70
     0
 10
0.0
 20
0.0
 11
1.0
 21
1.0
 12
203.1944395896
 22
0.0
 13
0.0
 23
0.0
 14
10.0
 24
10.0
 15
10.0
 25
10.0
 16
0.0
 26
0.0
 36
1.0
 17
0.0
 27
0.0
 37
0.0
 40
4142.107430014
 41
1.6896885994
 42
50.0
 43
0.0
 44
0.0
 50
0.0
 51
0.0
 71
     0
 72
   100
 73
     1
 74
     3
 75
     0
 76
     0
 77
     0
 78
     0
281
     0
 65
     1
110
0.0
120
0.0
130
0.0
111
1.0
121
0.0
131
0.0
112
0.0
122
1.0
132
0.0
 79
     0
146
0.0
  0
ENDTAB
  0
TABLE
  2
LTYPE
  5
5
330
0
100
AcDbSymbolTable
 70
     6
  0
LTYPE
  5
14
330
5
100
AcDbSymbolTableRecord
100
AcDbLinetypeTableRecord
  2
ByBlock
 70
     0
  3

 72
    65
 73
     0
 40
0.0
  0
LTYPE
  5
15
330
5
100
AcDbSymbolTableRecord
100
AcDbLinetypeTableRecord
  2
ByLayer
 70
     0
  3

 72
    65
 73
     0
 40
0.0
  0
LTYPE
  5
16
330
5
100
AcDbSymbolTableRecord
100
AcDbLinetypeTableRecord
  2
Continuous
 70
     0
  3
Solid line
 72
    65
 73
     0
 40
0.0
  0
LTYPE
  5
6A
330
5
100
AcDbSymbolTableRecord
100
AcDbLinetypeTableRecord
  2
HIDDEN
 70
     0
  3
Hidden __ __ __ __ __ __ __ __ __ __ __ __ __ __
 72
    65
 73
     2
 40
1.905
 49
1.27
 74
     0
 49
-0.635
 74
     0
  0
LTYPE
  5
6B
330
5
100
AcDbSymbolTableRecord
100
AcDbLinetypeTableRecord
  2
PHANTOM
 70
     0
  3
Phantom ______  __  __  ______  __  __  ______
 72
    65
 73
     6
 40
12.7
 49
6.35
 74
     0
 49
-1.27
 74
     0
 49
1.27
 74
     0
 49
-1.27
 74
     0
 49
1.27
 74
     0
 49
-1.27
 74
     0
  0
LTYPE
  5
6C
330
5
100
AcDbSymbolTableRecord
100
AcDbLinetypeTableRecord
  2
CENTER
 70
     0
  3
Center ____ _ ____ _ ____ _ ____ _ ____ _ ____
 72
    65
 73
     4
 40
10.16
 49
6.35
 74
     0
 49
-1.27
 74
     0
 49
1.27
 74
     0
 49
-1.27
 74
     0
  0
LTYPE
  5
6D
330
5
100
AcDbSymbolTableRecord
100
AcDbLinetypeTableRecord
  2
CENTERX2
 70
     0
  3
Center (2x) ________  __  ________  __  _____
 72
    65
 73
     4
 40
20.32
 49
12.7
 74
     0
 49
-2.54
 74
     0
 49
2.54
 74
     0
 49
-2.54
 74
     0
  0
LTYPE
  5
6E
330
5
100
AcDbSymbolTableRecord
100
AcDbLinetypeTableRecord
  2
DOT2
 70
     0
  3
Dot (.5x) ........................................
 72
    65
 73
     2
 40
0.635
 49
0.0
 74
     0
 49
-0.635
 74
     0
  0
ENDTAB
  0
TABLE
  2
LAYER
  5
2
330
0
100
AcDbSymbolTable
 70
     1
  0
LAYER
  5
10
330
2
100
AcDbSymbolTableRecord
100
AcDbLayerTableRecord
  2
0
 70
     0
 62
     7
  6
Continuous
370
    -3
390
F
  0
ENDTAB
  0
TABLE
  2
STYLE
  5
3
330
0
100
AcDbSymbolTable
 70
     1
  0
STYLE
  5
11
330
3
100
AcDbSymbolTableRecord
100
AcDbTextStyleTableRecord
  2
Standard
 70
     0
 40
0.0
 41
1.0
 50
0.0
 71
     0
 42
3.0
  3
txt
  4

  0
ENDTAB
  0
TABLE
  2
VIEW
  5
6
330
0
100
AcDbSymbolTable
 70
     0
  0
ENDTAB
  0
TABLE
  2
UCS
  5
7
330
0
100
AcDbSymbolTable
 70
     0
  0
ENDTAB
  0
TABLE
  2
APPID
  5
9
330
0
100
AcDbSymbolTable
 70
     1
  0
APPID
  5
12
330
9
100
AcDbSymbolTableRecord
100
AcDbRegAppTableRecord
  2
ACAD
 70
     0
  0
ENDTAB
  0
TABLE
  2
DIMSTYLE
  5
A
330
0
100
AcDbSymbolTable
 70
     1
100
AcDbDimStyleTable
  0
DIMSTYLE
105
27
330
A
100
AcDbSymbolTableRecord
100
AcDbDimStyleTableRecord
  2
ISO-25
 70
     0
 41
2.5
 42
0.625
 43
3.75
 44
1.25
 73
     0
 74
     0
 77
     1
 78
     8
140
2.5
141
2.5
143
0.0393700787
147
0.625
171
     3
172
     1
178
     0
271
     2
272
     2
274
     3
278
    44
283
     0
284
     8
340
11
  0
ENDTAB
  0
TABLE
  2
BLOCK_RECORD
  5
1
330
0
100
AcDbSymbolTable
 70
     1
  0
BLOCK_RECORD
  5
1F
330
1
100
AcDbSymbolTableRecord
100
AcDbBlockTableRecord
  2
*Model_Space
340
22
  0
BLOCK_RECORD
  5
1B
330
1
100
AcDbSymbolTableRecord
100
AcDbBlockTableRecord
  2
*Paper_Space
340
1E
  0
BLOCK_RECORD
  5
23
330
1
100
AcDbSymbolTableRecord
100
AcDbBlockTableRecord
  2
*Paper_Space0
340
26
  0
ENDTAB
  0
ENDSEC
  0
SECTION
  2
BLOCKS
  0
BLOCK
  5
20
330
1F
100
AcDbEntity
  8
0
100
AcDbBlockBegin
  2
*Model_Space
 70
     0
 10
0.0
 20
0.0
 30
0.0
  3
*Model_Space
  1
*Model_Space
  0
ENDBLK
  5
21
330
1F
100
AcDbEntity
  8
0
100
AcDbBlockEnd
  0
BLOCK
  5
1C
330
1B
100
AcDbEntity
 67
     1
  8
0
100
AcDbBlockBegin
  2
*Paper_Space
 70
     0
 10
0.0
 20
0.0
 30
0.0
  3
*Paper_Space
  1
*Paper_Space
  0
ENDBLK
  5
1D
330
1B
100
AcDbEntity
 67
     1
  8
0
100
AcDbBlockEnd
  0
BLOCK
  5
24
330
23
100
AcDbEntity
  8
0
100
AcDbBlockBegin
  2
*Paper_Space0
 70
     0
 10
0.0
 20
0.0
 30
0.0
  3
*Paper_Space0
  1
*Paper_Space0
  0
ENDBLK
  5
25
330
23
100
AcDbEntity
  8
0
100
AcDbBlockEnd
  0
ENDSEC
  0
SECTION
  2
ENTITIES
  0
SPLINE
  5
A7
330
1F
100
AcDbEntity
  8
0
  6
Continuous
 62
     7
370
    15
100
AcDbSpline
210
0.0
220
0.0
230
1.0
 70
     8
 71
     3
 72
    11
 73
     7
 74
     0
 42
0.000000001
 43
0.00000001
 40
0.0
 40
0.0
 40
0.0
 40
0.0
 40
0.2157348223323479
 40
0.6279797732397933
 40
0.9222324957365281
 40
1.0
 40
1.0
 40
1.0
 40
1.0
 10
474.9066614578689
 20
-114.2353656817266
 30
0.0
 10
475.0377568068423
 20
-114.0761469070306
 30
0.0
 10
475.4193606046484
 20
-113.6126789840122
 30
0.0
 10
475.7967842401689
 20
-112.8098484265799
 30
0.0
 10
476.0704296359062
 20
-112.1106965679886
 30
0.0
 10
476.1399343580375
 20
-111.7625012678462
 30
0.0
 10
476.1544636991482
 20
-111.6897141516075
 30
0.0
  0
SPLINE
  5
A8
330
1F
100
AcDbEntity
  8
0
  6
Continuous
 62
     7
370
    15
100
AcDbSpline
210
0.0
220
0.0
230
1.0
 70
     8
 71
     3
 72
    12
 73
     8
 74
     0
 42
0.000000001
 43
0.00000001
 40
0.0
 40
0.0
 40
0.0
 40
0.0
 40
0.2481141722315474
 40
0.404066768028176
 40
0.6640350924070512
 40
0.9369728423082583
 40
1.0
 40
1.0
 40
1.0
 40
1.0
 10
462.4340699737743
 20
-110.5482518493758
 30
0.0
 10
462.4565261541202
 20
-110.8804951290003
 30
0.0
 10
462.4930972057979
 20
-111.4215705016384
 30
0.0
 10
462.7390862716638
 20
-112.2789655676305
 30
0.0
 10
463.0901421372699
 20
-113.1298942813177
 30
0.0
 10
463.4754228808744
 20
-113.8381806635721
 30
0.0
 10
463.7702984409905
 20
-114.1776546748763
 30
0.0
 10
463.8256172198477
 20
-114.2413401418973
 30
0.0
  0
SPLINE
  5
AF
330
1F
100
AcDbEntity
  8
0
  6
Continuous
 62
     7
370
    15
100
AcDbSpline
210
0.0
220
0.0
230
1.0
 70
     8
 71
     3
 72
    11
 73
     7
 74
     0
 42
0.000000001
 43
0.00000001
 40
0.0
 40
0.0
 40
0.0
 40
0.0
 40
0.2157348223315803
 40
0.6279797732365704
 40
0.9222324957316915
 40
1.0
 40
1.0
 40
1.0
 40
1.0
 10
16.16044472699746
 20
-114.2353656817264
 30
0.0
 10
16.29154007597108
 20
-114.0761469070301
 30
0.0
 10
16.67314387377747
 20
-113.6126789840114
 30
0.0
 10
17.05056750929815
 20
-112.8098484265788
 30
0.0
 10
17.32421290503644
 20
-112.1106965679826
 30
0.0
 10
17.39371762716851
 20
-111.7625012678352
 30
0.0
 10
17.40824696828014
 20
-111.6897141515916
 30
0.0
  0
SPLINE
  5
B0
330
1F
100
AcDbEntity
  8
0
  6
Continuous
 62
     7
370
    15
100
AcDbSpline
210
0.0
220
0.0
230
1.0
 70
     8
 71
     3
 72
    12
 73
     8
 74
     0
 42
0.000000001
 43
0.00000001
 40
0.0
 40
0.0
 40
0.0
 40
0.0
 40
0.2481141722315977
 40
0.4040667680282242
 40
0.6640350924071656
 40
0.9369728423083546
 40
1.0
 40
1.0
 40
1.0
 40
1.0
 10
3.687853242902939
 20
-110.5482518493757
 30
0.0
 10
3.710309423248876
 20
-110.8804951290003
 30
0.0
 10
3.746880474926523
 20
-111.4215705016384
 30
0.0
 10
3.99286954079256
 20
-112.2789655676307
 30
0.0
 10
4.343925406398608
 20
-113.129894281318
 30
0.0
 10
4.729206150003162
 20
-113.8381806635721
 30
0.0
 10
5.024081710119282
 20
-114.1776546748763
 30
0.0
 10
5.079400488976315
 20
-114.2413401418972
 30
0.0
  0
SPLINE
  5
B7
330
1F
100
AcDbEntity
  8
0
  6
Continuous
 62
     7
370
    15
100
AcDbSpline
210
0.0
220
0.0
230
1.0
 70
     8
 71
     3
 72
    11
 73
     7
 74
     0
 42
0.000000001
 43
0.00000001
 40
0.0
 40
0.0
 40
0.0
 40
0.0
 40
0.2157348223321751
 40
0.627979773238379
 40
0.9222324957343727
 40
1.0
 40
1.0
 40
1.0
 40
1.0
 10
-7.77270059122745
 20
-114.2353656817284
 30
0.0
 10
-7.641605242253879
 20
-114.0761469070321
 30
0.0
 10
-7.260001444447495
 20
-113.6126789840134
 30
0.0
 10
-6.882577808926982
 20
-112.8098484265808
 30
0.0
 10
-6.6089324131893
 20
-112.1106965679873
 30
0.0
 10
-6.53942769105767
 20
-111.7625012678427
 30
0.0
 10
-6.524898349946545
 20
-111.6897141516018
 30
0.0
  0
SPLINE
  5
B8
330
1F
100
AcDbEntity
  8
0
  6
Continuous
 62
     7
370
    15
100
AcDbSpline
210
0.0
220
0.0
230
1.0
 70
     8
 71
     3
 72
    12
 73
     8
 74
     0
 42
0.000000001
 43
0.00000001
 40
0.0
 40
0.0
 40
0.0
 40
0.0
 40
0.248114172227399
 40
0.4040667680248901
 40
0.6640350924052836
 40
0.9369728423079833
 40
1.0
 40
1.0
 40
1.0
 40
1.0
 10
-20.24529207531953
 20
-110.5482518493999
 30
0.0
 10
-20.22283589497398
 20
-110.880495129017
 30
0.0
 10
-20.18626484329664
 20
-111.4215705016476
 30
0.0
 10
-19.94027577743227
 20
-112.2789655676326
 30
0.0
 10
-19.58921991182641
 20
-113.1298942813199
 30
0.0
 10
-19.20393916822177
 20
-113.8381806635739
 30
0.0
 10
-18.90906360810565
 20
-114.1776546748782
 30
0.0
 10
-18.85374482924859
 20
-114.2413401418991
 30
0.0
  0
SPLINE
  5
C6
330
1F
100
AcDbEntity
  8
0
  6
Continuous
 62
     7
370
    15
100
AcDbSpline
210
0.0
220
0.0
230
1.0
 70
     8
 71
     3
 72
    16
 73
    12
 74
     0
 42
0.000000001
 43
0.00000001
 40
0.0
 40
0.0
 40
0.0
 40
0.0
 40
0.0169170027848273
 40
0.1265463559491626
 40
0.2451806932374511
 40
0.3709806370406937
 40
0.5023210770387124
 40
0.6378884627573668
 40
0.7766315555415165
 40
0.9176828459072142
 40
1.0
 40
1.0
 40
1.0
 40
1.0
 10
4.942777390901959
 20
-10.34940972350205
 30
0.0
 10
5.012038785020323
 20
-10.43960557722496
 30
0.0
 10
5.530143389312098
 20
-11.11430881842766
 30
0.0
 10
6.690202797062561
 20
-12.2358146133344
 30
0.0
 10
8.461733300981683
 20
-13.71398195507866
 30
0.0
 10
10.50651177818404
 20
-15.03034411685562
 30
0.0
 10
12.77099019658778
 20
-16.15687660065141
 30
0.0
 10
15.22246062016083
 20
-17.04933432570673
 30
0.0
 10
17.81652076018911
 20
-17.66063194593166
 30
0.0
 10
20.123891331359
 20
-17.97995137908394
 30
0.0
 10
21.55583083926488
 20
-17.96671301610867
 30
0.0
 10
22.0835382574259
 20
-17.96183433072581
 30
0.0
  0
SPLINE
  5
C7
330
1F
100
AcDbEntity
  8
0
  6
Continuous
 62
     7
370
    15
100
AcDbSpline
210
0.0
220
0.0
230
1.0
 70
     8
 71
     3
 72
    15
 73
    11
 74
     0
 42
0.000000001
 43
0.00000001
 40
0.0
 40
0.0
 40
0.0
 40
0.0
 40
0.0647138022488613
 40
0.2180337894777146
 40
0.3714049118005631
 40
0.5241394612857456
 40
0.6755578735782006
 40
0.824943735403521
 40
0.9536842346154693
 40
1.0
 40
1.0
 40
1.0
 40
1.0
 10
22.08755507551796
 20
17.96178806394479
 30
0.0
 10
21.69942494487359
 20
17.97093641961243
 30
0.0
 10
20.39173662717214
 20
18.0017590661637
 30
0.0
 10
18.1721720035673
 20
17.72151941164664
 30
0.0
 10
15.47767261319302
 20
17.13017282757218
 30
0.0
 10
12.88219676597904
 20
16.20953169260472
 30
0.0
 10
10.42741089833279
 20
15.00183785926504
 30
0.0
 10
8.265200055656507
 20
13.55479843796256
 30
0.0
 10
6.72672349926548
 20
12.30667872961819
 30
0.0
 10
5.997925361800243
 20
11.50198596382564
 30
0.0
 10
5.80510253637706
 20
11.28908320691495
 30
0.0
  0
SPLINE
  5
D1
330
1F
100
AcDbEntity
  8
0
  6
Continuous
 62
     7
370
    15
100
AcDbSpline
210
0.0
220
0.0
230
1.0
 70
     8
 71
     3
 72
    16
 73
    12
 74
     0
 42
0.000000001
 43
0.00000001
 40
0.0
 40
0.0
 40
0.0
 40
0.0
 40
0.016917002784485
 40
0.1265463559490284
 40
0.2451806932374692
 40
0.3709806370407227
 40
0.5023210770387101
 40
0.637888462757392
 40
0.7766315555415385
 40
0.9176828459072461
 40
1.0
 40
1.0
 40
1.0
 40
1.0
 10
604.4946539003578
 20
-10.34940972313155
 30
0.0
 10
604.5639152944748
 20
-10.43960557685262
 30
0.0
 10
605.0820198987653
 20
-11.11430881805443
 30
0.0
 10
606.2420793065155
 20
-12.23581461296195
 30
0.0
 10
608.013609810437
 20
-13.713981954708
 30
0.0
 10
610.0583882876398
 20
-15.03034411648508
 30
0.0
 10
612.3228667060436
 20
-16.15687660028102
 30
0.0
 10
614.7743371296166
 20
-17.04933432533618
 30
0.0
 10
617.3683972696451
 20
-17.6606319455612
 30
0.0
 10
619.675767840815
 20
-17.97995137871342
 30
0.0
 10
621.1077073487206
 20
-17.96671301573808
 30
0.0
 10
621.6354147668815
 20
-17.96183433035521
 30
0.0
  0
SPLINE
  5
D2
330
1F
100
AcDbEntity
  8
0
  6
Continuous
 62
     7
370
    15
100
AcDbSpline
210
0.0
220
0.0
230
1.0
 70
     8
 71
     3
 72
    15
 73
    11
 74
     0
 42
0.000000001
 43
0.00000001
 40
0.0
 40
0.0
 40
0.0
 40
0.0
 40
0.064713802248079
 40
0.2180337894770098
 40
0.3714049117996437
 40
0.5241394612851725
 40
0.6755578735773636
 40
0.824943735402805
 40
0.9536842346147356
 40
1.0
 40
1.0
 40
1.0
 40
1.0
 10
621.6394315849735
 20
17.96178806431555
 30
0.0
 10
621.2513014543339
 20
17.97093641998324
 30
0.0
 10
619.9436131366372
 20
18.00175906653493
 30
0.0
 10
617.7240485130368
 20
17.72151941201985
 30
0.0
 10
615.0295491226632
 20
17.13017282794642
 30
0.0
 10
612.4340732754478
 20
16.20953169298148
 30
0.0
 10
609.9792874078008
 20
15.00183785964263
 30
0.0
 10
607.8170765651241
 20
13.55479843834235
 30
0.0
 10
606.2786000087285
 20
12.3066787299956
 30
0.0
 10
605.5498018712603
 20
11.5019859642006
 30
0.0
 10
605.3569790458344
 20
11.28908320728677
 30
0.0
  0
SPLINE
  5
E2
330
1F
100
AcDbEntity
  8
0
  6
Continuous
 62
     7
370
    15
100
AcDbSpline
210
0.0
220
0.0
230
1.0
 70
     8
 71
     3
 72
    15
 73
    11
 74
     0
 42
0.000000001
 43
0.00000001
 40
0.0
 40
0.0
 40
0.0
 40
0.0
 40
0.0879392066980262
 40
0.2118360193774834
 40
0.3432162961902372
 40
0.4803828388935003
 40
0.6219638295048506
 40
0.7668613976978792
 40
0.914169552318932
 40
1.0
 40
1.0
 40
1.0
 40
1.0
 10
-1679.176497374019
 20
-10.97899397470303
 30
0.0
 10
-1678.796598990048
 20
-11.38602893601724
 30
0.0
 10
-1677.881464950862
 20
-12.36653204935956
 30
0.0
 10
-1676.210376689371
 20
-13.70599013608204
 30
0.0
 10
-1674.174059262896
 20
-15.0326436725821
 30
0.0
 10
-1671.907156536673
 20
-16.15622636195825
 30
0.0
 10
-1669.456368914626
 20
-17.04951900436992
 30
0.0
 10
-1666.862117718503
 20
-17.66056712835076
 30
0.0
 10
-1664.555639839805
 20
-17.97988617564968
 30
0.0
 10
-1663.124545584023
 20
-17.96667550146528
 30
0.0
 10
-1662.597685341082
 20
-17.96181196506153
 30
0.0
  0
SPLINE
  5
E3
330
1F
100
AcDbEntity
  8
0
  6
Continuous
 62
     7
370
    15
100
AcDbSpline
210
0.0
220
0.0
230
1.0
 70
     8
 71
     3
 72
    15
 73
    11
 74
     0
 42
0.000000001
 43
0.00000001
 40
0.0
 40
0.0
 40
0.0
 40
0.0
 40
0.0611235461892999
 40
0.2059534297270374
 40
0.3508316167497214
 40
0.4951084811948978
 40
0.63814208962477
 40
0.7792557001945618
 40
0.9008671863709293
 40
1.0
 40
1.0
 40
1.0
 40
1.0
 10
-1662.591253577526
 20
17.96178919056196
 30
0.0
 10
-1662.979340429333
 20
17.97093537929823
 30
0.0
 10
-1664.286984097688
 20
18.00175310923379
 30
0.0
 10
-1666.50653579471
 20
17.72155375121778
 30
0.0
 10
-1669.200908806832
 20
17.13004456816401
 30
0.0
 10
-1671.796850327834
 20
16.2100064886608
 30
0.0
 10
-1674.249922677107
 20
15.00009257725254
 30
0.0
 10
-1676.418145116673
 20
13.56084219717187
 30
0.0
 10
-1678.216344222725
 20
12.0634857479537
 30
0.0
 10
-1679.18140788928
 20
10.97916361513688
 30
0.0
 10
-1679.614802892825
 20
10.49221149904079
 30
0.0
  0
SPLINE
  5
E6
330
1F
100
AcDbEntity
  8
0
  6
Continuous
 62
     7
370
    15
100
AcDbSpline
210
0.0
220
0.0
230
1.0
 70
     8
 71
     3
 72
    15
 73
    11
 74
     0
 42
0.000000001
 43
0.00000001
 40
0.0
 40
0.0
 40
0.0
 40
0.0
 40
0.0879392066979727
 40
0.2118360193773658
 40
0.3432162961901368
 40
0.4803828388935194
 40
0.6219638295050453
 40
0.7668613976977805
 40
0.9141695523189285
 40
1.0
 40
1.0
 40
1.0
 40
1.0
 10
-1537.180075527629
 20
-10.97899397463006
 30
0.0
 10
-1536.800177143658
 20
-11.38602893594401
 30
0.0
 10
-1535.885043104473
 20
-12.36653204928578
 30
0.0
 10
-1534.213954842982
 20
-13.70599013600782
 30
0.0
 10
-1532.177637416507
 20
-15.03264367250825
 30
0.0
 10
-1529.910734690284
 20
-16.15622636188575
 30
0.0
 10
-1527.459947068236
 20
-17.04951900429635
 30
0.0
 10
-1524.865695872114
 20
-17.66056712827728
 30
0.0
 10
-1522.559217993416
 20
-17.97988617557626
 30
0.0
 10
-1521.128123737633
 20
-17.9666755013918
 30
0.0
 10
-1520.601263494693
 20
-17.96181196498803
 30
0.0
  0
SPLINE
  5
E7
330
1F
100
AcDbEntity
  8
0
  6
Continuous
 62
     7
370
    15
100
AcDbSpline
210
0.0
220
0.0
230
1.0
 70
     8
 71
     3
 72
    15
 73
    11
 74
     0
 42
0.000000001
 43
0.00000001
 40
0.0
 40
0.0
 40
0.0
 40
0.0
 40
0.0611235461893881
 40
0.2059534297271947
 40
0.3508316167498376
 40
0.4951084811949406
 40
0.6381420896249846
 40
0.7792557001946095
 40
0.9008671863708985
 40
1.0
 40
1.0
 40
1.0
 40
1.0
 10
-1520.594831731136
 20
17.96178919063535
 30
0.0
 10
-1520.982918582944
 20
17.97093537937163
 30
0.0
 10
-1522.290562251299
 20
18.00175310930718
 30
0.0
 10
-1524.510113948323
 20
17.72155375129087
 30
0.0
 10
-1527.204486960444
 20
17.13004456823715
 30
0.0
 10
-1529.800428481447
 20
16.2100064887331
 30
0.0
 10
-1532.253500830719
 20
15.0000925773255
 30
0.0
 10
-1534.421723270285
 20
13.56084219724441
 30
0.0
 10
-1536.219922376336
 20
12.06348574802727
 30
0.0
 10
-1537.18498604289
 20
10.97916361521067
 30
0.0
 10
-1537.618381046436
 20
10.49221149911443
 30
0.0
  0
SPLINE
  5
EA
330
1F
100
AcDbEntity
  8
0
  6
Continuous
 62
     7
370
    15
100
AcDbSpline
210
0.0
220
0.0
230
1.0
 70
     8
 71
     3
 72
    15
 73
    11
 74
     0
 42
0.000000001
 43
0.00000001
 40
0.0
 40
0.0
 40
0.0
 40
0.0
 40
0.0879392066976595
 40
0.2118360193769501
 40
0.3432162961896288
 40
0.4803828388928787
 40
0.621963829504337
 40
0.7668613976974503
 40
0.914169552318476
 40
0.9999999999999999
 40
0.9999999999999999
 40
0.9999999999999999
 40
0.9999999999999999
 10
1848.581122483111
 20
-10.97899397462997
 30
0.0
 10
1848.96102086708
 20
-11.38602893594246
 30
0.0
 10
1849.876154906264
 20
-12.36653204928228
 30
0.0
 10
1851.547243167751
 20
-13.70599013600278
 30
0.0
 10
1853.583560594224
 20
-15.03264367250251
 30
0.0
 10
1855.850463320446
 20
-16.15622636188012
 30
0.0
 10
1858.301250942493
 20
-17.0495190042929
 30
0.0
 10
1860.895502138617
 20
-17.66056712827491
 30
0.0
 10
1863.201980017318
 20
-17.97988617557485
 30
0.0
 10
1864.633074273103
 20
-17.96667550139082
 30
0.0
 10
1865.159934516046
 20
-17.96181196498719
 30
0.0
  0
SPLINE
  5
EB
330
1F
100
AcDbEntity
  8
0
  6
Continuous
 62
     7
370
    15
100
AcDbSpline
210
0.0
220
0.0
230
1.0
 70
     8
 71
     3
 72
    15
 73
    11
 74
     0
 42
0.000000001
 43
0.00000001
 40
0.0
 40
0.0
 40
0.0
 40
0.0
 40
0.0611235461893112
 40
0.2059534297270917
 40
0.3508316167497781
 40
0.4951084811949381
 40
0.6381420896248479
 40
0.7792557001946374
 40
0.9008671863710705
 40
0.9999999999999999
 40
0.9999999999999999
 40
0.9999999999999999
 40
0.9999999999999999
 10
1865.166366279603
 20
17.96178919063632
 30
0.0
 10
1864.778279427795
 20
17.97093537937259
 30
0.0
 10
1863.470635759441
 20
18.00175310930814
 30
0.0
 10
1861.251084062418
 20
17.72155375129211
 30
0.0
 10
1858.556711050296
 20
17.13004456823833
 30
0.0
 10
1855.960769529294
 20
16.210006488735
 30
0.0
 10
1853.507697180021
 20
15.00009257732682
 30
0.0
 10
1851.339474740454
 20
13.56084219724576
 30
0.0
 10
1849.541275634403
 20
12.06348574802785
 30
0.0
 10
1848.576211967849
 20
10.97916361521156
 30
0.0
 10
1848.142816964304
 20
10.49221149911624
 30
0.0
  0
SPLINE
  5
EE
330
1F
100
AcDbEntity
  8
0
  6
Continuous
 62
     7
370
    15
100
AcDbSpline
210
0.0
220
0.0
230
1.0
 70
     8
 71
     3
 72
    15
 73
    11
 74
     0
 42
0.000000001
 43
0.00000001
 40
0.0
 40
0.0
 40
0.0
 40
0.0
 40
0.0879392066975863
 40
0.2118360193766035
 40
0.3432162961899626
 40
0.4803828388927887
 40
0.6219638295043584
 40
0.7668613976973355
 40
0.9141695523183545
 40
1.0
 40
1.0
 40
1.0
 40
1.0
 10
1991.239599927386
 20
-10.97899397463108
 30
0.0
 10
1991.619498311355
 20
-11.3860289359431
 30
0.0
 10
1992.534632350537
 20
-12.366532049281
 30
0.0
 10
1994.205720612025
 20
-13.70599013600408
 30
0.0
 10
1996.242038038497
 20
-15.03264367250274
 30
0.0
 10
1998.508940764721
 20
-16.15622636188118
 30
0.0
 10
2000.959728386766
 20
-17.0495190042927
 30
0.0
 10
2003.553979582889
 20
-17.66056712827461
 30
0.0
 10
2005.86045746159
 20
-17.97988617557471
 30
0.0
 10
2007.291551717376
 20
-17.96667550139076
 30
0.0
 10
2007.81841196032
 20
-17.96181196498715
 30
0.0
  0
SPLINE
  5
EF
330
1F
100
AcDbEntity
  8
0
  6
Continuous
 62
     7
370
    15
100
AcDbSpline
210
0.0
220
0.0
230
1.0
 70
     8
 71
     3
 72
    15
 73
    11
 74
     0
 42
0.000000001
 43
0.00000001
 40
0.0
 40
0.0
 40
0.0
 40
0.0
 40
0.0611235461896268
 40
0.2059534297273629
 40
0.3508316167501932
 40
0.4951084811952722
 40
0.638142089624952
 40
0.7792557001949572
 40
0.9008671863714095
 40
1.0
 40
1.0
 40
1.0
 40
1.0
 10
2007.824843723876
 20
17.96178919063632
 30
0.0
 10
2007.436756872066
 20
17.97093537937254
 30
0.0
 10
2006.129113203711
 20
18.00175310930784
 30
0.0
 10
2003.909561506685
 20
17.72155375129094
 30
0.0
 10
2001.215188494565
 20
17.13004456823665
 30
0.0
 10
1998.619246973562
 20
16.21000648873321
 30
0.0
 10
1996.166174624293
 20
15.00009257732486
 30
0.0
 10
1993.997952184724
 20
13.56084219724369
 30
0.0
 10
1992.199753078673
 20
12.06348574802578
 30
0.0
 10
1991.234689412121
 20
10.97916361521104
 30
0.0
 10
1990.801294408579
 20
10.49221149911738
 30
0.0
  0
SPLINE
  5
F2
330
1F
100
AcDbEntity
  8
0
  6
Continuous
 62
     7
370
    15
100
AcDbSpline
210
0.0
220
0.0
230
1.0
 70
     8
 71
     3
 72
    16
 73
    12
 74
     0
 42
0.000000001
 43
0.00000001
 40
0.0
 40
0.0
 40
0.0
 40
0.0
 40
0.0169170027843741
 40
0.1265463559488932
 40
0.2451806932373652
 40
0.3709806370404946
 40
0.5023210770384948
 40
0.6378884627571529
 40
0.7766315555412877
 40
0.9176828459069473
 40
1.0
 40
1.0
 40
1.0
 40
1.0
 10
304.5255800238783
 20
-10.34940972350215
 30
0.0
 10
304.5948414179948
 20
-10.43960557722269
 30
0.0
 10
305.1129460222851
 20
-11.11430881842427
 30
0.0
 10
306.2730054300346
 20
-12.23581461333101
 30
0.0
 10
308.0445359339554
 20
-13.7139819550767
 30
0.0
 10
310.0893144111571
 20
-15.03034411685389
 30
0.0
 10
312.3537928295603
 20
-16.15687660064993
 30
0.0
 10
314.805263253133
 20
-17.04933432570549
 30
0.0
 10
317.3993233931604
 20
-17.66063194593082
 30
0.0
 10
319.7066939643321
 20
-17.97995137908365
 30
0.0
 10
321.1386334722394
 20
-17.9667130161086
 30
0.0
 10
321.6663408904021
 20
-17.96183433072581
 30
0.0
  0
SPLINE
  5
F3
330
1F
100
AcDbEntity
  8
0
  6
Continuous
 62
     7
370
    15
100
AcDbSpline
210
0.0
220
0.0
230
1.0
 70
     8
 71
     3
 72
    15
 73
    11
 74
     0
 42
0.000000001
 43
0.00000001
 40
0.0
 40
0.0
 40
0.0
 40
0.0
 40
0.0647138022486334
 40
0.2180337894774943
 40
0.3714049118000762
 40
0.5241394612855529
 40
0.6755578735776122
 40
0.8249437354033732
 40
0.9536842346153168
 40
1.0
 40
1.0
 40
1.0
 40
1.0
 10
321.6703577084944
 20
17.96178806394495
 30
0.0
 10
321.2822275778514
 20
17.97093641961257
 30
0.0
 10
319.9745392601512
 20
18.00175906616386
 30
0.0
 10
317.7549746365479
 20
17.72151941164794
 30
0.0
 10
315.060475246175
 20
17.13017282757335
 30
0.0
 10
312.4649993989608
 20
16.20953169260818
 30
0.0
 10
310.0102135313145
 20
15.00183785926721
 30
0.0
 10
307.8480026886361
 20
13.5547984379655
 30
0.0
 10
306.3095261322425
 20
12.30667872961843
 30
0.0
 10
305.5807279947764
 20
11.50198596382564
 30
0.0
 10
305.3879051693525
 20
11.28908320691437
 30
0.0
  0
SPLINE
  5
F7
330
1F
100
AcDbEntity
  8
0
  6
Continuous
 62
     7
370
    15
100
AcDbSpline
210
0.0
220
0.0
230
1.0
 70
     8
 71
     3
 72
    16
 73
    12
 74
     0
 42
0.000000001
 43
0.00000001
 40
0.0
 40
0.0
 40
0.0
 40
0.0
 40
0.0169170027843754
 40
0.1265463559489194
 40
0.2451806932373973
 40
0.3709806370401232
 40
0.5023210770387585
 40
0.6378884627571243
 40
0.7766315555413528
 40
0.9176828459070008
 40
1.0
 40
1.0
 40
1.0
 40
1.0
 10
-294.6400252420745
 20
-10.34940972350226
 30
0.0
 10
-294.570763847958
 20
-10.4396055772228
 30
0.0
 10
-294.0526592436676
 20
-11.11430881842448
 30
0.0
 10
-292.8925998359184
 20
-12.2358146133315
 30
0.0
 10
-291.1210693319975
 20
-13.71398195507467
 30
0.0
 10
-289.0762908547969
 20
-15.03034411685453
 30
0.0
 10
-286.811812436393
 20
-16.15687660064939
 30
0.0
 10
-284.3603420128179
 20
-17.04933432570626
 30
0.0
 10
-281.7662818727914
 20
-17.66063194593098
 30
0.0
 10
-279.4589113016199
 20
-17.97995137908386
 30
0.0
 10
-278.026971793713
 20
-17.9667130161087
 30
0.0
 10
-277.4992643755505
 20
-17.96183433072587
 30
0.0
  0
SPLINE
  5
F8
330
1F
100
AcDbEntity
  8
0
  6
Continuous
 62
     7
370
    15
100
AcDbSpline
210
0.0
220
0.0
230
1.0
 70
     8
 71
     3
 72
    15
 73
    11
 74
     0
 42
0.000000001
 43
0.00000001
 40
0.0
 40
0.0
 40
0.0
 40
0.0
 40
0.0647138022483285
 40
0.2180337894772067
 40
0.371404911799785
 40
0.5241394612853163
 40
0.6755578735774008
 40
0.8249437354032131
 40
0.9536842346148712
 40
0.9999999999999999
 40
0.9999999999999999
 40
0.9999999999999999
 40
0.9999999999999999
 10
-277.4952475574586
 20
17.96178806394485
 30
0.0
 10
-277.8833776880998
 20
17.9709364196125
 30
0.0
 10
-279.1910660057982
 20
18.00175906616397
 30
0.0
 10
-281.4106306293991
 20
17.72151941164865
 30
0.0
 10
-284.1051300197728
 20
17.1301728275746
 30
0.0
 10
-286.700605866987
 20
16.20953169261007
 30
0.0
 10
-289.1553917346343
 20
15.00183785926924
 30
0.0
 10
-291.3176025773114
 20
13.55479843796869
 30
0.0
 10
-292.856079133707
 20
12.30667872962168
 30
0.0
 10
-293.5848772711734
 20
11.50198596382844
 30
0.0
 10
-293.7777000965991
 20
11.2890832069152
 30
0.0
  0
SPLINE
  5
104
330
1F
100
AcDbEntity
  8
0
  6
Continuous
 62
     7
370
    15
100
AcDbSpline
210
0.0
220
0.0
230
1.0
 70
     8
 71
     3
 72
    11
 73
     7
 74
     0
 42
0.000000001
 43
0.00000001
 40
0.0
 40
0.0
 40
0.0
 40
0.0
 40
0.2089953166831497
 40
0.6264456240976014
 40
0.9244138325460634
 40
1.0
 40
1.0
 40
1.0
 40
1.0
 10
487.7563006140295
 20
114.2142483902988
 30
0.0
 10
487.6310071680721
 20
114.0618430994925
 30
0.0
 10
487.2554507575564
 20
113.6050212480265
 30
0.0
 10
486.8828914274782
 20
112.8096936809258
 30
0.0
 10
486.6097707931871
 20
112.1135533869362
 30
0.0
 10
486.5407258532047
 20
111.768313423581
 30
0.0
 10
486.5267550828646
 20
111.6984564834263
 30
0.0
  0
SPLINE
  5
105
330
1F
100
AcDbEntity
  8
0
  6
Continuous
 62
     7
370
    15
100
AcDbSpline
210
0.0
220
0.0
230
1.0
 70
     8
 71
     3
 72
    12
 73
     8
 74
     0
 42
0.000000001
 43
0.00000001
 40
0.0
 40
0.0
 40
0.0
 40
0.0
 40
0.2530293322404688
 40
0.4111073983660599
 40
0.6746188183701756
 40
0.9512764235654377
 40
1.0
 40
1.0
 40
1.0
 40
1.0
 10
500.2459629605649
 20
110.5422182653644
 30
0.0
 10
500.2233880851832
 20
110.8764828433944
 30
0.0
 10
500.1867097356635
 20
111.4195765623047
 30
0.0
 10
499.9404075877868
 20
112.2790485649985
 30
0.0
 10
499.5885104583071
 20
113.1293543520699
 30
0.0
 10
499.2153687271482
 20
113.8217561774111
 30
0.0
 10
498.9345364137582
 20
114.1468195564361
 30
0.0
 10
498.8924837215336
 20
114.1954955441336
 30
0.0
  0
SPLINE
  5
10C
330
1F
100
AcDbEntity
  8
0
  6
Continuous
 62
     7
370
    15
100
AcDbSpline
210
0.0
220
0.0
230
1.0
 70
     8
 71
     3
 72
    11
 73
     7
 74
     0
 42
0.000000001
 43
0.00000001
 40
0.0
 40
0.0
 40
0.0
 40
0.0
 40
0.2089953166830747
 40
0.626445624097548
 40
0.9244138325459985
 40
1.0
 40
1.0
 40
1.0
 40
1.0
 10
463.8231552960271
 20
114.2142483902855
 30
0.0
 10
463.6978618500696
 20
114.0618430994793
 30
0.0
 10
463.3223054395535
 20
113.6050212480134
 30
0.0
 10
462.9497461094762
 20
112.8096936809128
 30
0.0
 10
462.676625475184
 20
112.1135533869228
 30
0.0
 10
462.6075805352023
 20
111.7683134235678
 30
0.0
 10
462.593609764862
 20
111.698456483413
 30
0.0
  0
SPLINE
  5
10D
330
1F
100
AcDbEntity
  8
0
  6
Continuous
 62
     7
370
    15
100
AcDbSpline
210
0.0
220
0.0
230
1.0
 70
     8
 71
     3
 72
    12
 73
     8
 74
     0
 42
0.000000001
 43
0.00000001
 40
0.0
 40
0.0
 40
0.0
 40
0.0
 40
0.2530293322404604
 40
0.411107398366106
 40
0.6746188183704801
 40
0.9512764235655949
 40
1.0
 40
1.0
 40
1.0
 40
1.0
 10
476.3128176425623
 20
110.5422182653511
 30
0.0
 10
476.2902427671806
 20
110.8764828433811
 30
0.0
 10
476.2535644176607
 20
111.4195765622914
 30
0.0
 10
476.0072622697841
 20
112.2790485649856
 30
0.0
 10
475.6553651403043
 20
113.1293543520573
 30
0.0
 10
475.2822234091456
 20
113.8217561773983
 30
0.0
 10
475.0013910957556
 20
114.146819556423
 30
0.0
 10
474.9593384035311
 20
114.1954955441203
 30
0.0
  0
SPLINE
  5
114
330
1F
100
AcDbEntity
  8
0
  6
Continuous
 62
     7
370
    15
100
AcDbSpline
210
0.0
220
0.0
230
1.0
 70
     8
 71
     3
 72
    11
 73
     7
 74
     0
 42
0.000000001
 43
0.00000001
 40
0.0
 40
0.0
 40
0.0
 40
0.0
 40
0.2089953166836528
 40
0.6264456240979769
 40
0.9244138325464734
 40
1.0
 40
1.0
 40
1.0
 40
1.0
 10
5.076938565155675
 20
114.2142483902854
 30
0.0
 10
4.951645119198017
 20
114.0618430994787
 30
0.0
 10
4.576088708682146
 20
113.6050212480124
 30
0.0
 10
4.203529378603937
 20
112.8096936809114
 30
0.0
 10
3.930408744312774
 20
112.1135533869221
 30
0.0
 10
3.861363804330803
 20
111.7683134235674
 30
0.0
 10
3.84739303399062
 20
111.6984564834131
 30
0.0
  0
SPLINE
  5
115
330
1F
100
AcDbEntity
  8
0
  6
Continuous
 62
     7
370
    15
100
AcDbSpline
210
0.0
220
0.0
230
1.0
 70
     8
 71
     3
 72
    12
 73
     8
 74
     0
 42
0.000000001
 43
0.00000001
 40
0.0
 40
0.0
 40
0.0
 40
0.0
 40
0.2530293322404692
 40
0.411107398366099
 40
0.6746188183705378
 40
0.9512764235657426
 40
1.0
 40
1.0
 40
1.0
 40
1.0
 10
17.56660091169099
 20
110.542218265351
 30
0.0
 10
17.54402603630914
 20
110.876482843381
 30
0.0
 10
17.50734768678938
 20
111.4195765622913
 30
0.0
 10
17.26104553891272
 20
112.2790485649856
 30
0.0
 10
16.90914840943278
 20
113.1293543520574
 30
0.0
 10
16.53600667827404
 20
113.8217561773985
 30
0.0
 10
16.25517436488411
 20
114.1468195564231
 30
0.0
 10
16.21312167265976
 20
114.1954955441202
 30
0.0
  0
SPLINE
  5
11C
330
1F
100
AcDbEntity
  8
0
  6
Continuous
 62
     7
370
    15
100
AcDbSpline
210
0.0
220
0.0
230
1.0
 70
     8
 71
     3
 72
    11
 73
     7
 74
     0
 42
0.000000001
 43
0.00000001
 40
0.0
 40
0.0
 40
0.0
 40
0.0
 40
0.2089953166835864
 40
0.6264456240979098
 40
0.9244138325463936
 40
1.0
 40
1.0
 40
1.0
 40
1.0
 10
-18.85620675306926
 20
114.214248390285
 30
0.0
 10
-18.98150019902689
 20
114.0618430994784
 30
0.0
 10
-19.35705660954271
 20
113.6050212480121
 30
0.0
 10
-19.72961593962094
 20
112.8096936809112
 30
0.0
 10
-20.00273657391213
 20
112.1135533869218
 30
0.0
 10
-20.07178151389411
 20
111.768313423567
 30
0.0
 10
-20.08575228423431
 20
111.6984564834126
 30
0.0
  0
SPLINE
  5
11D
330
1F
100
AcDbEntity
  8
0
  6
Continuous
 62
     7
370
    15
100
AcDbSpline
210
0.0
220
0.0
230
1.0
 70
     8
 71
     3
 72
    12
 73
     8
 74
     0
 42
0.000000001
 43
0.00000001
 40
0.0
 40
0.0
 40
0.0
 40
0.0
 40
0.253029332240458
 40
0.4111073983660981
 40
0.6746188183705362
 40
0.9512764235657436
 40
1.0
 40
1.0
 40
1.0
 40
1.0
 10
-6.366544406533947
 20
110.5422182653506
 30
0.0
 10
-6.389119281915795
 20
110.8764828433806
 30
0.0
 10
-6.425797631435554
 20
111.4195765622909
 30
0.0
 10
-6.672099779312185
 20
112.2790485649851
 30
0.0
 10
-7.023996908792157
 20
113.129354352057
 30
0.0
 10
-7.397138639950923
 20
113.8217561773981
 30
0.0
 10
-7.677970953340829
 20
114.1468195564227
 30
0.0
 10
-7.720023645565178
 20
114.1954955441199
 30
0.0
  0
SPLINE
  5
124
330
1F
100
AcDbEntity
  8
0
  6
Continuous
 62
     7
370
    15
100
AcDbSpline
210
0.0
220
0.0
230
1.0
 70
     8
 71
     3
 72
    11
 73
     7
 74
     0
 42
0.000000001
 43
0.00000001
 40
0.0
 40
0.0
 40
0.0
 40
0.0
 40
0.2157348223325791
 40
0.6279797732399833
 40
0.9222324957367167
 40
1.0
 40
1.0
 40
1.0
 40
1.0
 10
498.8398067758715
 20
-114.2353656817422
 30
0.0
 10
498.9709021248449
 20
-114.076146907046
 30
0.0
 10
499.352505922651
 20
-113.6126789840274
 30
0.0
 10
499.729929558172
 20
-112.809848426595
 30
0.0
 10
500.0035749539087
 20
-112.1106965680039
 30
0.0
 10
500.0730796760401
 20
-111.7625012678617
 30
0.0
 10
500.0876090171507
 20
-111.6897141516232
 30
0.0
  0
SPLINE
  5
125
330
1F
100
AcDbEntity
  8
0
  6
Continuous
 62
     7
370
    15
100
AcDbSpline
210
0.0
220
0.0
230
1.0
 70
     8
 71
     3
 72
    12
 73
     8
 74
     0
 42
0.000000001
 43
0.00000001
 40
0.0
 40
0.0
 40
0.0
 40
0.0
 40
0.2481141722315941
 40
0.4040667680282296
 40
0.6640350924071425
 40
0.9369728423082895
 40
1.0
 40
1.0
 40
1.0
 40
1.0
 10
486.3672152917769
 20
-110.5482518493914
 30
0.0
 10
486.3896714721228
 20
-110.880495129016
 30
0.0
 10
486.4262425238005
 20
-111.4215705016541
 30
0.0
 10
486.6722315896665
 20
-112.2789655676464
 30
0.0
 10
487.0232874552723
 20
-113.1298942813336
 30
0.0
 10
487.4085681988774
 20
-113.8381806635877
 30
0.0
 10
487.703443758993
 20
-114.1776546748919
 30
0.0
 10
487.7587625378501
 20
-114.2413401419129
 30
0.0
  0
SPLINE
  5
12C
330
1F
100
AcDbEntity
  8
0
  6
Continuous
 62
     7
370
    15
100
AcDbSpline
210
0.0
220
0.0
230
1.0
 70
     8
 71
     3
 72
    31
 73
    27
 74
     0
 42
0.000000001
 43
0.00000001
 40
0.0
 40
0.0
 40
0.0
 40
0.0
 40
0.0142912465574844
 40
0.0547308698256616
 40
0.0970693705334218
 40
0.1371090774198961
 40
0.1787831228974003
 40
0.2221032939243026
 40
0.2667266439179762
 40
0.3121193724018129
 40
0.3578141324346209
 40
0.4034679609083695
 40
0.4489627376410643
 40
0.4942847195572085
 40
0.5394378667667546
 40
0.584435673634044
 40
0.629293794225558
 40
0.6740266527013538
 40
0.718645849625134
 40
0.7631593253097625
 40
0.8075706987165745
 40
0.8518783704488357
 40
0.8960739538538004
 40
0.9401393462928016
 40
0.984041065570618
 40
0.9999999999999999
 40
0.9999999999999999
 40
0.9999999999999999
 40
0.9999999999999999
 10
2101.43249332687
 20
-99.96456502482518
 30
0.0
 10
2101.6845362765
 20
-99.97416181946342
 30
0.0
 10
2102.649779567992
 20
-100.0109144509415
 30
0.0
 10
2104.354379433329
 20
-99.74094867694114
 30
0.0
 10
2106.447109957382
 20
-99.15773923580441
 30
0.0
 10
2108.466662148936
 20
-98.2546727510151
 30
0.0
 10
2110.39675452698
 20
-97.08930013282674
 30
0.0
 10
2112.286031707
 20
-95.62671813085286
 30
0.0
 10
2114.121629147616
 20
-93.87504054469495
 30
0.0
 10
2115.89130833799
 20
-91.8478757417762
 30
0.0
 10
2117.586339876395
 20
-89.56441726471228
 30
0.0
 10
2119.203569977581
 20
-87.04235326125495
 30
0.0
 10
2120.743833840636
 20
-84.29529007872608
 30
0.0
 10
2122.209904712416
 20
-81.33212553292715
 30
0.0
 10
2123.604125969493
 20
-78.16001988543739
 30
0.0
 10
2124.927720536547
 20
-74.78624031358757
 30
0.0
 10
2126.181004184602
 20
-71.21850448889067
 30
0.0
 10
2127.363580551118
 20
-67.46522942195551
 30
0.0
 10
2128.474548667617
 20
-63.53568196668554
 30
0.0
 10
2129.512608390244
 20
-59.43999024467448
 30
0.0
 10
2130.476401765077
 20
-55.18946818058802
 30
0.0
 10
2131.363828356888
 20
-50.79577940560552
 30
0.0
 10
2132.175045482637
 20
-46.2746252904022
 30
0.0
 10
2132.90166123462
 20
-41.63311978311264
 30
0.0
 10
2133.426998736544
 20
-37.91144623622888
 30
0.0
 10
2133.682147366365
 20
-35.70900737611897
 30
0.0
 10
2133.750170349759
 20
-35.12183407986428
 30
0.0
  0
SPLINE
  5
12D
330
1F
100
AcDbEntity
  8
0
  6
Continuous
 62
     7
370
    15
100
AcDbSpline
210
0.0
220
0.0
230
1.0
 70
     8
 71
     3
 72
    32
 73
    28
 74
     0
 42
0.000000001
 43
0.00000001
 40
0.0
 40
0.0
 40
0.0
 40
0.0
 40
0.0223551790752808
 40
0.0630606472932791
 40
0.1041321730896569
 40
0.1454839973505862
 40
0.1870498451790785
 40
0.2287780928528491
 40
0.270628481154487
 40
0.3125698881608299
 40
0.3545788418549251
 40
0.3966385451533005
 40
0.4387382187138572
 40
0.480872535982838
 40
0.5230408037945761
 40
0.5652452757321895
 40
0.6074874961022655
 40
0.6497608286372826
 40
0.6920366530820169
 40
0.7341907553688123
 40
0.7760263845606641
 40
0.8173008967369367
 40
0.8577941964387443
 40
0.897446106221696
 40
0.9364505560802061
 40
0.9752528578911007
 40
1.0
 40
1.0
 40
1.0
 40
1.0
 10
2133.75236878137
 20
35.11214615247825
 30
0.0
 10
2133.654987483354
 20
35.93159257560228
 30
0.0
 10
2133.380289272861
 20
38.24312949912007
 30
0.0
 10
2132.851797619061
 20
41.9651606420358
 30
0.0
 10
2132.171483445357
 20
46.28082129926986
 30
0.0
 10
2131.415900871878
 20
50.51075680010341
 30
0.0
 10
2130.590833062036
 20
54.64115522798458
 30
0.0
 10
2129.696947911351
 20
58.65411022019792
 30
0.0
 10
2128.736476749586
 20
62.53548305465895
 30
0.0
 10
2127.711296590231
 20
66.27244838200484
 30
0.0
 10
2126.623322449583
 20
69.85393404688496
 30
0.0
 10
2125.474256621927
 20
73.27034674392053
 30
0.0
 10
2124.265482827943
 20
76.51352238586765
 30
0.0
 10
2122.997886352078
 20
79.57661497127263
 30
0.0
 10
2121.671656702222
 20
82.45395959989092
 30
0.0
 10
2120.286067947925
 20
85.1408427555616
 30
0.0
 10
2118.839277769089
 20
87.63311461024055
 30
0.0
 10
2117.32823234895
 20
89.9265606976806
 30
0.0
 10
2115.749490011689
 20
92.01509805131522
 30
0.0
 10
2114.100127399982
 20
93.89005091672117
 30
0.0
 10
2112.378928091381
 20
95.53993998040718
 30
0.0
 10
2110.586815030005
 20
96.95235846286319
 30
0.0
 10
2108.726720821467
 20
98.11356443890871
 30
0.0
 10
2106.802673313472
 20
99.01679007128361
 30
0.0
 10
2104.818231216836
 20
99.63532988181792
 30
0.0
 10
2103.029855868617
 20
99.96967062306594
 30
0.0
 10
2101.908531559356
 20
99.96584172439141
 30
0.0
 10
2101.471870428749
 20
99.96435069168092
 30
0.0
  0
SPLINE
  5
130
330
1F
100
AcDbEntity
  8
0
  6
Continuous
 62
     7
370
    15
100
AcDbSpline
210
0.0
220
0.0
230
1.0
 70
     8
 71
     3
 72
    40
 73
    36
 74
     0
 42
0.000000001
 43
0.00000001
 40
0.0
 40
0.0
 40
0.0
 40
0.0
 40
0.0377556615027519
 40
0.0528175782315496
 40
0.0778234207007711
 40
0.1037035082551975
 40
0.1313908676766789
 40
0.1602068308208862
 40
0.1898775119958125
 40
0.2201841477887604
 40
0.2509715507591132
 40
0.2821251253746278
 40
0.3135588589609312
 40
0.3452071165291822
 40
0.3770191751657934
 40
0.4089555251057304
 40
0.4409853543084873
 40
0.4730848438821108
 40
0.505236029723285
 40
0.5374260563307811
 40
0.5696466738295222
 40
0.6018938055879232
 40
0.6341669210977412
 40
0.6664677451190266
 40
0.698797459573513
 40
0.7311509854517165
 40
0.7635064184912574
 40
0.7957686925402082
 40
0.8277872259872722
 40
0.8593763134267395
 40
0.8903675067212351
 40
0.92071474958931
 40
0.950566464658533
 40
0.9802634674849183
 40
1.0
 40
1.0
 40
1.0
 40
1.0
 10
-1727.62502512339
 20
0.0000000000016636
 30
0.0
 10
-1727.615260381946
 20
-1.933228974330955
 30
0.0
 10
-1727.60160017909
 20
-4.637683578678681
 30
0.0
 10
-1727.510778771668
 20
-8.611962234645675
 30
0.0
 10
-1727.403173034691
 20
-11.97133710278642
 30
0.0
 10
-1727.224003963192
 20
-15.95421438648524
 30
0.0
 10
-1726.981582226847
 20
-20.10167721285621
 30
0.0
 10
-1726.667866298282
 20
-24.40008699494949
 30
0.0
 10
-1726.281210911776
 20
-28.77752638526578
 30
0.0
 10
-1725.820280956062
 20
-33.18836731134679
 30
0.0
 10
-1725.284804360028
 20
-37.59521135099128
 30
0.0
 10
-1724.675160863206
 20
-41.9676401927148
 30
0.0
 10
-1723.992251464032
 20
-46.28014944815479
 30
0.0
 10
-1723.237371682613
 20
-50.51093835466941
 30
0.0
 10
-1722.412114040199
 20
-54.64110626743047
 30
0.0
 10
-1721.5182800651
 20
-58.65412340254202
 30
0.0
 10
-1720.557795128166
 20
-62.53547950971222
 30
0.0
 10
-1719.532618672423
 20
-66.27244933438296
 30
0.0
 10
-1718.444643536889
 20
-69.85393379116832
 30
0.0
 10
-1717.295577976317
 20
-73.27034681250784
 30
0.0
 10
-1716.086804110667
 20
-76.51352236749645
 30
0.0
 10
-1714.819207654012
 20
-79.57661497598468
 30
0.0
 10
-1713.492977999062
 20
-82.45395959935041
 30
0.0
 10
-1712.107389245913
 20
-85.14084275291974
 30
0.0
 10
-1710.660599067589
 20
-87.63311462128077
 30
0.0
 10
-1709.149553644263
 20
-89.92656065604693
 30
0.0
 10
-1707.570811319222
 20
-92.01509820653665
 30
0.0
 10
-1705.921448662065
 20
-93.89005034104581
 30
0.0
 10
-1704.200249521025
 20
-95.53994209888033
 30
0.0
 10
-1702.408135847231
 20
-96.95235073475205
 30
0.0
 10
-1700.548043860851
 20
-98.11359243901181
 30
0.0
 10
-1698.6239883017
 20
-99.01668862362239
 30
0.0
 10
-1696.639575601554
 20
-99.63570107553062
 30
0.0
 10
-1694.832954709325
 20
-99.97188068635573
 30
0.0
 10
-1693.69322537737
 20
-99.96732653388104
 30
0.0
 10
-1693.238183979599
 20
-99.9655082706762
 30
0.0
  0
SPLINE
  5
131
330
1F
100
AcDbEntity
  8
0
  6
Continuous
 62
     7
370
    15
100
AcDbSpline
210
0.0
220
0.0
230
1.0
 70
     8
 71
     3
 72
    39
 73
    35
 74
     0
 42
0.000000001
 43
0.00000001
 40
0.0
 40
0.0
 40
0.0
 40
0.0
 40
0.0112849075324997
 40
0.0422515395390508
 40
0.0746722364983702
 40
0.1053326326297063
 40
0.1372445231527581
 40
0.170416933928063
 40
0.2045872536906925
 40
0.2393467248512065
 40
0.2743374765993312
 40
0.3092968850157053
 40
0.3441344995987675
 40
0.3788397965917088
 40
0.4134158084478121
 40
0.4478728684733179
 40
0.4822229637660735
 40
0.5164771396231058
 40
0.550644279173454
 40
0.5847304627097594
 40
0.6187384614508581
 40
0.6526670506590316
 40
0.68650980825689
 40
0.7202528721532442
 40
0.7538706033649207
 40
0.787316742746121
 40
0.8205048392641369
 40
0.8532594620033933
 40
0.8851714779095153
 40
0.9150283538679195
 40
0.9398156035682704
 40
0.9605095857096408
 40
0.9856929072985325
 40
1.0
 40
1.0
 40
1.0
 40
1.0
 10
-1693.230235580099
 20
99.96406882914054
 30
0.0
 10
-1693.490143271993
 20
99.97406232760676
 30
0.0
 10
-1694.463257148992
 20
100.0114787348182
 30
0.0
 10
-1696.175706431617
 20
99.7412092198105
 30
0.0
 10
-1698.268429794198
 20
99.15767245572863
 30
0.0
 10
-1700.287983845964
 20
98.25469099393129
 30
0.0
 10
-1702.21807571145
 20
97.08929494876985
 30
0.0
 10
-1704.107353036798
 20
95.62671958902631
 30
0.0
 10
-1705.94295043668
 20
93.87504014156606
 30
0.0
 10
-1707.712629638313
 20
91.8478758514032
 30
0.0
 10
-1709.407661173514
 20
89.5644172351174
 30
0.0
 10
-1711.024891276119
 20
87.04235326965704
 30
0.0
 10
-1712.565155136712
 20
84.29529007449531
 30
0.0
 10
-1714.031226016883
 20
81.33212554131508
 30
0.0
 10
-1715.425447243011
 20
78.16001985610743
 30
0.0
 10
-1716.749041924922
 20
74.7862404218579
 30
0.0
 10
-1718.002325146322
 20
71.21850408662772
 30
0.0
 10
-1719.184903098502
 20
67.46523091691289
 30
0.0
 10
-1720.295865319701
 20
63.53567640804314
 30
0.0
 10
-1721.333946965609
 20
59.44001091674681
 30
0.0
 10
-1722.29765880513
 20
55.18939129748237
 30
0.0
 10
-1723.185388609014
 20
50.79606530896316
 30
0.0
 10
-1723.995478534855
 20
46.27356252429935
 30
0.0
 10
-1724.72628175352
 20
41.6370672271874
 30
0.0
 10
-1725.376198965095
 20
36.90417666045897
 30
0.0
 10
-1725.943686785134
 20
32.09653922635975
 30
0.0
 10
-1726.427214718047
 20
27.24375708059874
 30
0.0
 10
-1726.825042830406
 20
22.39421594253183
 30
0.0
 10
-1727.134304965811
 20
17.65395822413129
 30
0.0
 10
-1727.351156191297
 20
13.27491378280263
 30
0.0
 10
-1727.48868478115
 20
9.44158639045786
 30
0.0
 10
-1727.576822496093
 20
5.834036956909806
 30
0.0
 10
-1727.619211824606
 20
2.75445321390026
 30
0.0
 10
-1727.623479114862
 20
0.7325286928105968
 30
0.0
 10
-1727.62502512339
 20
0.0000000000016636
 30
0.0
  0
SPLINE
  5
13B
330
1F
100
AcDbEntity
  8
0
  6
Continuous
 62
     7
370
    15
100
AcDbSpline
210
0.0
220
0.0
230
1.0
 70
     8
 71
     3
 72
    95
 73
    91
 74
     0
 42
0.000000001
 43
0.00000001
 40
0.0
 40
0.0
 40
0.0
 40
0.0
 40
0.0625
 40
0.0625
 40
0.0625
 40
0.09375
 40
0.09375
 40
0.09375
 40
0.125
 40
0.125
 40
0.125
 40
0.15625
 40
0.15625
 40
0.15625
 40
0.1875
 40
0.1875
 40
0.1875
 40
0.21875
 40
0.21875
 40
0.21875
 40
0.25
 40
0.25
 40
0.25
 40
0.28125
 40
0.28125
 40
0.28125
 40
0.3125
 40
0.3125
 40
0.3125
 40
0.34375
 40
0.34375
 40
0.34375
 40
0.375
 40
0.375
 40
0.375
 40
0.40625
 40
0.40625
 40
0.40625
 40
0.4375
 40
0.4375
 40
0.4375
 40
0.46875
 40
0.46875
 40
0.46875
 40
0.5
 40
0.5
 40
0.5
 40
0.53125
 40
0.53125
 40
0.53125
 40
0.5625
 40
0.5625
 40
0.5625
 40
0.59375
 40
0.59375
 40
0.59375
 40
0.625
 40
0.625
 40
0.625
 40
0.65625
 40
0.65625
 40
0.65625
 40
0.6875
 40
0.6875
 40
0.6875
 40
0.71875
 40
0.71875
 40
0.71875
 40
0.75
 40
0.75
 40
0.75
 40
0.78125
 40
0.78125
 40
0.78125
 40
0.8125
 40
0.8125
 40
0.8125
 40
0.84375
 40
0.84375
 40
0.84375
 40
0.875
 40
0.875
 40
0.875
 40
0.90625
 40
0.90625
 40
0.90625
 40
0.9375
 40
0.9375
 40
0.9375
 40
1.0
 40
1.0
 40
1.0
 40
1.0
 10
-1727.625022255821
 20
2030.444818634307
 30
0.0
 10
-1772.643121351863
 20
2030.444818634307
 30
0.0
 10
-1817.570340300716
 20
2028.422272940746
 30
0.0
 10
-1862.406679102378
 20
2024.377181553625
 30
0.0
 10
-1885.38685522992
 20
2022.303932153418
 30
0.0
 10
-1908.307332169561
 20
2019.7017801811
 30
0.0
 10
-1931.1681099213
 20
2016.570725636672
 30
0.0
 10
-1954.388844901453
 20
2013.390370682256
 30
0.0
 10
-1977.522675219032
 20
2009.667752556421
 30
0.0
 10
-2000.569600874039
 20
2005.402871259168
 30
0.0
 10
-2023.956406818253
 20
2001.075094410881
 30
0.0
 10
-2047.227461815403
 20
1996.193760723966
 30
0.0
 10
-2070.38276586549
 20
1990.758870198425
 30
0.0
 10
-2093.855354083402
 20
1985.249508410754
 30
0.0
 10
-2117.181880302864
 20
1979.177636982897
 30
0.0
 10
-2140.362344523875
 20
1972.543255914855
 30
0.0
 10
-2163.835183782116
 20
1965.825195443618
 30
0.0
 10
-2187.130431217071
 20
1958.538265770941
 30
0.0
 10
-2210.24808682874
 20
1950.682466896824
 30
0.0
 10
-2233.631140664381
 20
1942.736480890235
 30
0.0
 10
-2256.804140587678
 20
1934.218082000611
 30
0.0
 10
-2279.76708659863
 20
1925.127270227953
 30
0.0
 10
-2302.966720652023
 20
1915.942755912004
 30
0.0
 10
-2325.923206138511
 20
1906.185299259165
 30
0.0
 10
-2348.636543058091
 20
1895.854900269437
 30
0.0
 10
-2371.556527373209
 20
1885.430514647377
 30
0.0
 10
-2394.199983633788
 20
1874.435824183877
 30
0.0
 10
-2416.566911839826
 20
1862.870828878936
 30
0.0
 10
-2439.109555993904
 20
1851.214978267655
 30
0.0
 10
-2461.342381625478
 20
1838.994731726494
 30
0.0
 10
-2483.265388734548
 20
1826.210089255454
 30
0.0
 10
-2505.332770775027
 20
1813.341252956867
 30
0.0
 10
-2527.057525308023
 20
1799.917251692477
 30
0.0
 10
-2548.439652333535
 20
1785.938085462284
 30
0.0
 10
-2569.934912721359
 20
1771.884955118228
 30
0.0
 10
-2591.055620790188
 20
1757.289204563409
 30
0.0
 10
-2611.801776540023
 20
1742.150833797826
 30
0.0
 10
-2632.630446395483
 20
1726.952252883462
 30
0.0
 10
-2653.053924833698
 20
1711.226841616377
 30
0.0
 10
-2673.072211854666
 20
1694.974599996572
 30
0.0
 10
-2693.143536393865
 20
1678.679298820258
 30
0.0
 10
-2712.780707890347
 20
1661.876071145715
 30
0.0
 10
-2731.983726344113
 20
1644.564916972942
 30
0.0
 10
-2751.211951299483
 20
1627.23103962066
 30
0.0
 10
-2769.97910719666
 20
1609.411064101056
 30
0.0
 10
-2788.285194035643
 20
1591.104990414128
 30
0.0
 10
-2806.590772940242
 20
1572.79942466122
 30
0.0
 10
-2824.410748459846
 20
1554.032268764043
 30
0.0
 10
-2841.745120594457
 20
1534.803522722597
 30
0.0
 10
-2859.055808460228
 20
1515.601049267615
 30
0.0
 10
-2875.859036134772
 20
1495.963877771133
 30
0.0
 10
-2892.154803618087
 20
1475.892008233152
 30
0.0
 10
-2908.406609216615
 20
1455.874287554193
 30
0.0
 10
-2924.132020483699
 20
1435.450809115979
 30
0.0
 10
-2939.33103741934
 20
1414.621572918509
 30
0.0
 10
-2954.469003431938
 20
1393.876002927972
 30
0.0
 10
-2969.064753986757
 20
1372.755294859143
 30
0.0
 10
-2983.118289083798
 20
1351.25944871202
 30
0.0
 10
-2997.097083060853
 20
1329.87792423592
 30
0.0
 10
-3010.521084325243
 20
1308.153169702924
 30
0.0
 10
-3023.390292876969
 20
1286.085185113034
 30
0.0
 10
-3036.174596667796
 20
1264.162794321517
 30
0.0
 10
-3048.394843208956
 20
1241.929968689943
 30
0.0
 10
-3060.05103250045
 20
1219.386708218312
 30
0.0
 10
-3071.615723223213
 20
1197.020407473062
 30
0.0
 10
-3082.610413686713
 20
1174.376951212483
 30
0.0
 10
-3093.035103890951
 20
1151.456339436576
 30
0.0
 10
-3103.365232685332
 20
1128.743638430376
 30
0.0
 10
-3113.12268933817
 20
1105.787152943889
 30
0.0
 10
-3122.307473849466
 20
1082.586882977116
 30
0.0
 10
-3131.398049639277
 20
1059.624579156305
 30
0.0
 10
-3139.916448528901
 20
1036.451579233008
 30
0.0
 10
-3147.862670518338
 20
1013.067883207226
 30
0.0
 10
-3155.718267537385
 20
989.9508732572607
 30
0.0
 10
-3163.005197210061
 20
966.6556258223059
 30
0.0
 10
-3169.723459536367
 20
943.1821409023614
 30
0.0
 10
-3176.357665424664
 20
920.0023476297797
 30
0.0
 10
-3182.429536852522
 20
896.6758214103181
 30
0.0
 10
-3187.939073819939
 20
873.2025622439768
 30
0.0
 10
-3193.373818599415
 20
850.0479535234931
 30
0.0
 10
-3198.25515228633
 20
826.7768985263419
 30
0.0
 10
-3202.583074880683
 20
803.3893972525234
 30
0.0
 10
-3206.84784487767
 20
780.3431639702562
 30
0.0
 10
-3210.570463003504
 20
757.2093336526765
 30
0.0
 10
-3213.750929258188
 20
733.9879062997841
 30
0.0
 10
-3216.881906049042
 20
711.1278146433054
 30
0.0
 10
-3219.484058021359
 20
688.207337703665
 30
0.0
 10
-3221.55738517514
 20
665.2264754808625
 30
0.0
 10
-3225.602476562261
 20
620.3904795423545
 30
0.0
 10
-3227.625022255822
 20
575.4632605935022
 30
0.0
 10
-3227.625022255822
 20
530.4448186343058
 30
0.0
  0
SPLINE
  5
13D
330
1F
100
AcDbEntity
  8
0
  6
Continuous
 62
     7
370
    15
100
AcDbSpline
210
0.0
220
0.0
230
1.0
 70
     8
 71
     3
 72
    95
 73
    91
 74
     0
 42
0.000000001
 43
0.00000001
 40
0.0
 40
0.0
 40
0.0
 40
0.0
 40
0.0625
 40
0.0625
 40
0.0625
 40
0.09375
 40
0.09375
 40
0.09375
 40
0.125
 40
0.125
 40
0.125
 40
0.15625
 40
0.15625
 40
0.15625
 40
0.1875
 40
0.1875
 40
0.1875
 40
0.21875
 40
0.21875
 40
0.21875
 40
0.25
 40
0.25
 40
0.25
 40
0.28125
 40
0.28125
 40
0.28125
 40
0.3125
 40
0.3125
 40
0.3125
 40
0.34375
 40
0.34375
 40
0.34375
 40
0.375
 40
0.375
 40
0.375
 40
0.40625
 40
0.40625
 40
0.40625
 40
0.4375
 40
0.4375
 40
0.4375
 40
0.46875
 40
0.46875
 40
0.46875
 40
0.5
 40
0.5
 40
0.5
 40
0.53125
 40
0.53125
 40
0.53125
 40
0.5625
 40
0.5625
 40
0.5625
 40
0.59375
 40
0.59375
 40
0.59375
 40
0.625
 40
0.625
 40
0.625
 40
0.65625
 40
0.65625
 40
0.65625
 40
0.6875
 40
0.6875
 40
0.6875
 40
0.71875
 40
0.71875
 40
0.71875
 40
0.75
 40
0.75
 40
0.75
 40
0.78125
 40
0.78125
 40
0.78125
 40
0.8125
 40
0.8125
 40
0.8125
 40
0.84375
 40
0.84375
 40
0.84375
 40
0.875
 40
0.875
 40
0.875
 40
0.90625
 40
0.90625
 40
0.90625
 40
0.9375
 40
0.9375
 40
0.9375
 40
1.0
 40
1.0
 40
1.0
 40
1.0
 10
3634.013901435111
 20
530.4448186343106
 30
0.0
 10
3634.013901435111
 20
575.4629178847309
 30
0.0
 10
3631.991355741551
 20
620.3901368335831
 30
0.0
 10
3627.94626435443
 20
665.2264754808672
 30
0.0
 10
3625.873014974924
 20
688.2066512998176
 30
0.0
 10
3623.270863002607
 20
711.127128239458
 30
0.0
 10
3620.139808437477
 20
733.9879062997885
 30
0.0
 10
3616.95945353473
 20
757.2086410626043
 30
0.0
 10
3613.236835408895
 20
780.3424713801842
 30
0.0
 10
3608.971954059972
 20
803.3893972525279
 30
0.0
 10
3604.644177122685
 20
826.7762036148941
 30
0.0
 10
3599.762843435769
 20
850.0472586120451
 30
0.0
 10
3594.327952999228
 20
873.2025622439808
 30
0.0
 10
3588.818591166522
 20
896.6751506142602
 30
0.0
 10
3582.746719738665
 20
920.001676833722
 30
0.0
 10
3576.112338715658
 20
943.1821409023655
 30
0.0
 10
3569.394278095124
 20
966.6549806873004
 30
0.0
 10
3562.107348422447
 20
989.9502281222551
 30
0.0
 10
3554.251549697627
 20
1013.06788320723
 30
0.0
 10
3546.305563355624
 20
1036.450937941561
 30
0.0
 10
3537.787164466
 20
1059.623937864857
 30
0.0
 10
3528.696353028756
 20
1082.58688297712
 30
0.0
 10
3519.511838732144
 20
1105.786516929687
 30
0.0
 10
3509.754382079306
 20
1128.743002416174
 30
0.0
 10
3499.423983070241
 20
1151.45633943658
 30
0.0
 10
3488.999597802046
 20
1174.3763230325
 30
0.0
 10
3478.004907338545
 20
1197.019779293079
 30
0.0
 10
3466.43991167974
 20
1219.386708218315
 30
0.0
 10
3454.784061499226
 20
1241.92935157437
 30
0.0
 10
3442.563814958066
 20
1264.162177205944
 30
0.0
 10
3429.779172056259
 20
1286.085185113037
 30
0.0
 10
3416.910335951788
 20
1308.152566880386
 30
0.0
 10
3403.486334687397
 20
1329.877321413382
 30
0.0
 10
3389.507168263088
 20
1351.259448712023
 30
0.0
 10
3375.454037957287
 20
1372.754709017423
 30
0.0
 10
3360.858287402468
 20
1393.875417086252
 30
0.0
 10
3345.71991659863
 20
1414.621572918511
 30
0.0
 10
3330.521336245395
 20
1435.450242035099
 30
0.0
 10
3314.795924978311
 20
1455.873720473313
 30
0.0
 10
3298.543682797378
 20
1475.892008233155
 30
0.0
 10
3282.24838160332
 20
1495.963332842051
 30
0.0
 10
3265.445153928777
 20
1515.600504338533
 30
0.0
 10
3248.133999773746
 20
1534.803522722599
 30
0.0
 10
3230.800121963165
 20
1554.031748136271
 30
0.0
 10
3212.98014644356
 20
1572.798904033448
 30
0.0
 10
3194.674073214932
 20
1591.10499041413
 30
0.0
 10
3176.368507204046
 20
1609.410569576709
 30
0.0
 10
3157.601351306868
 20
1627.230545096313
 30
0.0
 10
3138.372605523401
 20
1644.564916972944
 30
0.0
 10
3119.170131859577
 20
1661.8756050016
 30
0.0
 10
3099.532960363096
 20
1678.678832676144
 30
0.0
 10
3079.461091033957
 20
1694.974599996574
 30
0.0
 10
3059.443370328628
 20
1711.226405623161
 30
0.0
 10
3039.019891890413
 20
1726.951816890246
 30
0.0
 10
3018.190655719313
 20
1742.150833797828
 30
0.0
 10
2997.445085661919
 20
1757.28879985043
 30
0.0
 10
2976.32437759309
 20
1771.88455040525
 30
0.0
 10
2954.828531512825
 20
1785.938085462286
 30
0.0
 10
2933.447006956254
 20
1799.916879495637
 30
0.0
 10
2911.722252423258
 20
1813.340880760027
 30
0.0
 10
2889.654267913838
 20
1826.210089255456
 30
0.0
 10
2867.73187722748
 20
1838.994392975652
 30
0.0
 10
2845.499051595906
 20
1851.214639516812
 30
0.0
 10
2822.955791019117
 20
1862.870828878937
 30
0.0
 10
2800.589490666166
 20
1874.435519414991
 30
0.0
 10
2777.946034405586
 20
1885.430209878491
 30
0.0
 10
2755.025422237381
 20
1895.854900269439
 30
0.0
 10
2732.312721844718
 20
1906.185028792982
 30
0.0
 10
2709.356236358231
 20
1915.94248544582
 30
0.0
 10
2686.155965777921
 20
1925.127270227953
 30
0.0
 10
2663.193662865845
 20
1934.217845685662
 30
0.0
 10
2640.020662942549
 20
1942.736244575285
 30
0.0
 10
2616.636966008031
 20
1950.682466896825
 30
0.0
 10
2593.519956688051
 20
1958.538063724823
 30
0.0
 10
2570.224709253097
 20
1965.8249933975
 30
0.0
 10
2546.751223703166
 20
1972.543255914855
 30
0.0
 10
2523.571430682117
 20
1979.17746174177
 30
0.0
 10
2500.244904462656
 20
1985.249333169627
 30
0.0
 10
2476.771645044782
 20
1990.758870198425
 30
0.0
 10
2453.617036169747
 20
1996.193615016488
 30
0.0
 10
2430.345981172595
 20
2001.074948703403
 30
0.0
 10
2406.958480053328
 20
2005.402871259169
 30
0.0
 10
2383.912245763879
 20
2009.667641432697
 30
0.0
 10
2360.778415446299
 20
2013.390259558532
 30
0.0
 10
2337.55698910059
 20
2016.570725636674
 30
0.0
 10
2314.696896193911
 20
2019.701702560763
 30
0.0
 10
2291.77641925427
 20
2022.303854533081
 30
0.0
 10
2268.795558281668
 20
2024.377181553626
 30
0.0
 10
2223.959561901093
 20
2028.422272940747
 30
0.0
 10
2179.032342952241
 20
2030.444818634308
 30
0.0
 10
2134.013901435112
 20
2030.444818634308
 30
0.0
  0
SPLINE
  5
13F
330
1F
100
AcDbEntity
  8
0
  6
Continuous
 62
     7
370
    15
100
AcDbSpline
210
0.0
220
0.0
230
1.0
 70
     8
 71
     3
 72
    95
 73
    91
 74
     0
 42
0.000000001
 43
0.00000001
 40
0.0
 40
0.0
 40
0.0
 40
0.0
 40
0.0625
 40
0.0625
 40
0.0625
 40
0.09375
 40
0.09375
 40
0.09375
 40
0.125
 40
0.125
 40
0.125
 40
0.15625
 40
0.15625
 40
0.15625
 40
0.1875
 40
0.1875
 40
0.1875
 40
0.21875
 40
0.21875
 40
0.21875
 40
0.25
 40
0.25
 40
0.25
 40
0.28125
 40
0.28125
 40
0.28125
 40
0.3125
 40
0.3125
 40
0.3125
 40
0.34375
 40
0.34375
 40
0.34375
 40
0.375
 40
0.375
 40
0.375
 40
0.40625
 40
0.40625
 40
0.40625
 40
0.4375
 40
0.4375
 40
0.4375
 40
0.46875
 40
0.46875
 40
0.46875
 40
0.5
 40
0.5
 40
0.5
 40
0.53125
 40
0.53125
 40
0.53125
 40
0.5625
 40
0.5625
 40
0.5625
 40
0.59375
 40
0.59375
 40
0.59375
 40
0.625
 40
0.625
 40
0.625
 40
0.65625
 40
0.65625
 40
0.65625
 40
0.6875
 40
0.6875
 40
0.6875
 40
0.71875
 40
0.71875
 40
0.71875
 40
0.75
 40
0.75
 40
0.75
 40
0.78125
 40
0.78125
 40
0.78125
 40
0.8125
 40
0.8125
 40
0.8125
 40
0.84375
 40
0.84375
 40
0.84375
 40
0.875
 40
0.875
 40
0.875
 40
0.90625
 40
0.90625
 40
0.90625
 40
0.9375
 40
0.9375
 40
0.9375
 40
1.0
 40
1.0
 40
1.0
 40
1.0
 10
2134.013901435113
 20
-2030.444818634306
 30
0.0
 10
2179.032000726175
 20
-2030.444818634306
 30
0.0
 10
2223.959219675028
 20
-2028.422272940745
 30
0.0
 10
2268.79555828167
 20
-2024.377181553624
 30
0.0
 10
2291.775734259074
 20
-2022.303932157944
 30
0.0
 10
2314.696211198715
 20
-2019.701780185626
 30
0.0
 10
2337.556989100592
 20
-2016.570725636672
 30
0.0
 10
2360.777723953926
 20
-2013.390370715913
 30
0.0
 10
2383.911554271506
 20
-2009.667752590078
 30
0.0
 10
2406.95848005333
 20
-2005.402871259167
 30
0.0
 10
2430.34528632113
 20
-2001.075094340658
 30
0.0
 10
2453.616341318281
 20
-1996.193760653744
 30
0.0
 10
2476.771645044782
 20
-1990.758870198424
 30
0.0
 10
2500.244233229121
 20
-1985.249508412825
 30
0.0
 10
2523.570759448583
 20
-1979.177636984969
 30
0.0
 10
2546.751223703167
 20
-1972.543255914853
 30
0.0
 10
2570.224062798916
 20
-1965.825195497754
 30
0.0
 10
2593.519310233871
 20
-1958.538265825077
 30
0.0
 10
2616.636966008031
 20
-1950.682466896823
 30
0.0
 10
2640.020019911101
 20
-1942.736480868414
 30
0.0
 10
2663.193019834398
 20
-1934.21808197879
 30
0.0
 10
2686.155965777923
 20
-1925.127270227952
 30
0.0
 10
2709.355599751362
 20
-1915.942755938731
 30
0.0
 10
2732.312085237849
 20
-1906.185299285893
 30
0.0
 10
2755.025422237381
 20
-1895.854900269436
 30
0.0
 10
2777.945406077919
 20
-1885.430514872946
 30
0.0
 10
2800.588862338497
 20
-1874.435824409446
 30
0.0
 10
2822.955791019117
 20
-1862.870828878936
 30
0.0
 10
2845.498434736702
 20
-1851.214978513318
 30
0.0
 10
2867.731260368276
 20
-1838.994731972157
 30
0.0
 10
2889.654267913839
 20
-1826.210089255453
 30
0.0
 10
2911.721649589906
 20
-1813.341253178318
 30
0.0
 10
2933.446404122902
 20
-1799.917251913928
 30
0.0
 10
2954.828531512826
 20
-1785.938085462283
 30
0.0
 10
2976.32379172563
 20
-1771.884955249535
 30
0.0
 10
2997.444499794459
 20
-1757.289204694716
 30
0.0
 10
3018.190655719314
 20
-1742.150833797825
 30
0.0
 10
3039.019325366948
 20
-1726.9522530315
 30
0.0
 10
3059.442803805163
 20
-1711.226841764415
 30
0.0
 10
3079.461091033958
 20
-1694.974599996571
 30
0.0
 10
3099.532415462471
 20
-1678.679298930865
 30
0.0
 10
3119.169586958953
 20
-1661.876071256321
 30
0.0
 10
3138.372605523403
 20
-1644.564916972942
 30
0.0
 10
3157.600830859708
 20
-1627.231039266415
 30
0.0
 10
3176.367986756885
 20
-1609.41106374681
 30
0.0
 10
3194.674073214933
 20
-1591.104990414128
 30
0.0
 10
3212.97965254694
 20
-1572.799424207124
 30
0.0
 10
3230.799628066546
 20
-1554.032268309947
 30
0.0
 10
3248.133999773747
 20
-1534.803522722598
 30
0.0
 10
3265.444687748515
 20
-1515.601049126712
 30
0.0
 10
3282.247915423059
 20
-1495.96387763023
 30
0.0
 10
3298.543682797378
 20
-1475.892008233153
 30
0.0
 10
3314.795488273796
 20
-1455.874287711229
 30
0.0
 10
3330.520899540881
 20
-1435.450809273015
 30
0.0
 10
3345.71991659863
 20
-1414.621572918509
 30
0.0
 10
3360.857882671311
 20
-1393.876002855899
 30
0.0
 10
3375.453633226131
 20
-1372.755294787069
 30
0.0
 10
3389.507168263089
 20
-1351.259448712021
 30
0.0
 10
3403.485962201842
 20
-1329.877924274786
 30
0.0
 10
3416.909963466233
 20
-1308.153169741791
 30
0.0
 10
3429.77917205626
 20
-1286.085185113034
 30
0.0
 10
3442.563475290183
 20
-1264.162795303129
 30
0.0
 10
3454.783721831344
 20
-1241.929969671555
 30
0.0
 10
3466.439911679741
 20
-1219.386708218313
 30
0.0
 10
3478.004601984175
 20
-1197.020408376821
 30
0.0
 10
3488.999292447675
 20
-1174.376952116243
 30
0.0
 10
3499.423983070242
 20
-1151.456339436577
 30
0.0
 10
3509.754111531474
 20
-1128.743639178736
 30
0.0
 10
3519.511568184313
 20
-1105.787153692249
 30
0.0
 10
3528.696353028758
 20
-1082.586882977117
 30
0.0
 10
3537.786928387237
 20
-1059.624580338031
 30
0.0
 10
3546.305327276862
 20
-1036.451580414734
 30
0.0
 10
3554.25154969763
 20
-1013.067883207226
 30
0.0
 10
3562.107146457777
 20
-989.9508741057126
 30
0.0
 10
3569.394076130453
 20
-966.6556266707579
 30
0.0
 10
3576.11233871566
 20
-943.1821409023624
 30
0.0
 10
3582.746544501916
 20
-920.0023480417481
 30
0.0
 10
3588.818415929773
 20
-896.6758218222864
 30
0.0
 10
3594.32795299923
 20
-873.2025622439774
 30
0.0
 10
3599.762697749827
 20
-850.0479536689944
 30
0.0
 10
3604.644031436741
 20
-826.7768986718439
 30
0.0
 10
3608.971954059974
 20
-803.3893972525256
 30
0.0
 10
3613.236724256595
 20
-780.3431629018677
 30
0.0
 10
3616.95934238243
 20
-757.2093325842882
 30
0.0
 10
3620.139808437478
 20
-733.987906299787
 30
0.0
 10
3623.270785356707
 20
-711.1278133228689
 30
0.0
 10
3625.872937329024
 20
-688.2073363832285
 30
0.0
 10
3627.946264354431
 20
-665.2264754808654
 30
0.0
 10
3631.991355741553
 20
-620.3904793424698
 30
0.0
 10
3634.013901435113
 20
-575.4632603936176
 30
0.0
 10
3634.013901435113
 20
-530.4448186343087
 30
0.0
  0
SPLINE
  5
141
330
1F
100
AcDbEntity
  8
0
  6
Continuous
 62
     7
370
    15
100
AcDbSpline
210
0.0
220
0.0
230
1.0
 70
     8
 71
     3
 72
    95
 73
    91
 74
     0
 42
0.000000001
 43
0.00000001
 40
0.0
 40
0.0
 40
0.0
 40
0.0
 40
0.0625
 40
0.0625
 40
0.0625
 40
0.09375
 40
0.09375
 40
0.09375
 40
0.125
 40
0.125
 40
0.125
 40
0.15625
 40
0.15625
 40
0.15625
 40
0.1875
 40
0.1875
 40
0.1875
 40
0.21875
 40
0.21875
 40
0.21875
 40
0.25
 40
0.25
 40
0.25
 40
0.28125
 40
0.28125
 40
0.28125
 40
0.3125
 40
0.3125
 40
0.3125
 40
0.34375
 40
0.34375
 40
0.34375
 40
0.375
 40
0.375
 40
0.375
 40
0.40625
 40
0.40625
 40
0.40625
 40
0.4375
 40
0.4375
 40
0.4375
 40
0.46875
 40
0.46875
 40
0.46875
 40
0.5
 40
0.5
 40
0.5
 40
0.53125
 40
0.53125
 40
0.53125
 40
0.5625
 40
0.5625
 40
0.5625
 40
0.59375
 40
0.59375
 40
0.59375
 40
0.625
 40
0.625
 40
0.625
 40
0.65625
 40
0.65625
 40
0.65625
 40
0.6875
 40
0.6875
 40
0.6875
 40
0.71875
 40
0.71875
 40
0.71875
 40
0.75
 40
0.75
 40
0.75
 40
0.78125
 40
0.78125
 40
0.78125
 40
0.8125
 40
0.8125
 40
0.8125
 40
0.84375
 40
0.84375
 40
0.84375
 40
0.875
 40
0.875
 40
0.875
 40
0.90625
 40
0.90625
 40
0.90625
 40
0.9375
 40
0.9375
 40
0.9375
 40
1.0
 40
1.0
 40
1.0
 40
1.0
 10
-3227.625022255822
 20
-530.4448186343083
 30
0.0
 10
-3227.625022255822
 20
-575.4629174475273
 30
0.0
 10
-3225.602476562261
 20
-620.3901363963795
 30
0.0
 10
-3221.557385175141
 20
-665.2264754808649
 30
0.0
 10
-3219.484135798568
 20
-688.2066514913851
 30
0.0
 10
-3216.881983826251
 20
-711.1271284310255
 30
0.0
 10
-3213.750929258188
 20
-733.9879062997863
 30
0.0
 10
-3210.570574266856
 20
-757.2086414930492
 30
0.0
 10
-3206.847956141021
 20
-780.3424718106289
 30
0.0
 10
-3202.583074880683
 20
-803.3893972525257
 30
0.0
 10
-3198.255297986224
 20
-826.7762034324188
 30
0.0
 10
-3193.37396429931
 20
-850.0472584295699
 30
0.0
 10
-3187.939073819939
 20
-873.2025622439788
 30
0.0
 10
-3182.429712028672
 20
-896.6751504377047
 30
0.0
 10
-3176.357840600815
 20
-920.0016766571664
 30
0.0
 10
-3169.723459536369
 20
-943.1821409023634
 30
0.0
 10
-3163.00539904047
 20
-966.6549802839827
 30
0.0
 10
-3155.718469367795
 20
-989.9502277189378
 30
0.0
 10
-3147.862670518338
 20
-1013.067883207228
 30
0.0
 10
-3139.91668439375
 20
-1036.450937338726
 30
0.0
 10
-3131.398285504126
 20
-1059.623937262023
 30
0.0
 10
-3122.307473849467
 20
-1082.586882977118
 30
0.0
 10
-3113.122959845059
 20
-1105.786516245801
 30
0.0
 10
-3103.36550319222
 20
-1128.743001732288
 30
0.0
 10
-3093.035103890951
 20
-1151.456339436578
 30
0.0
 10
-3082.610718567651
 20
-1174.376323195451
 30
0.0
 10
-3071.616028104151
 20
-1197.019779456029
 30
0.0
 10
-3060.05103250045
 20
-1219.386708218314
 30
0.0
 10
-3048.395182036469
 20
-1241.929352065776
 30
0.0
 10
-3036.174935495309
 20
-1264.16217769735
 30
0.0
 10
-3023.390292876969
 20
-1286.085185113036
 30
0.0
 10
-3010.521456949872
 20
-1308.152566570871
 30
0.0
 10
-2997.097455685482
 20
-1329.877321103866
 30
0.0
 10
-2983.118289083799
 20
-1351.259448712022
 30
0.0
 10
-2969.065158802406
 20
-1372.754709018501
 30
0.0
 10
-2954.469408247586
 20
-1393.87541708733
 30
0.0
 10
-2939.33103741934
 20
-1414.621572918511
 30
0.0
 10
-2924.132456665282
 20
-1435.450242549733
 30
0.0
 10
-2908.407045398198
 20
-1455.873720987947
 30
0.0
 10
-2892.154803618086
 20
-1475.892008233154
 30
0.0
 10
-2875.85950220904
 20
-1495.963333085871
 30
0.0
 10
-2859.056274534497
 20
-1515.600504582353
 30
0.0
 10
-2841.745120594457
 20
-1534.803522722599
 30
0.0
 10
-2824.411242783844
 20
-1554.031748130964
 30
0.0
 10
-2806.591267264239
 20
-1572.798904028142
 30
0.0
 10
-2788.285194035643
 20
-1591.10499041413
 30
0.0
 10
-2769.979628230901
 20
-1609.4105693759
 30
0.0
 10
-2751.212472333724
 20
-1627.230544895505
 30
0.0
 10
-2731.98372634411
 20
-1644.564916972944
 30
0.0
 10
-2712.781252653434
 20
-1661.875605040759
 30
0.0
 10
-2693.144081156953
 20
-1678.678832715302
 30
0.0
 10
-2673.072211854666
 20
-1694.974599996574
 30
0.0
 10
-2653.054491128646
 20
-1711.226405622649
 30
0.0
 10
-2632.631012690432
 20
-1726.951816889733
 30
0.0
 10
-2611.801776540023
 20
-1742.150833797828
 30
0.0
 10
-2591.056206709114
 20
-1757.288799700714
 30
0.0
 10
-2569.935498640284
 20
-1771.884550255533
 30
0.0
 10
-2548.439652333535
 20
-1785.938085462286
 30
0.0
 10
-2527.058127812765
 20
-1799.916879473869
 30
0.0
 10
-2505.33337327977
 20
-1813.340880738259
 30
0.0
 10
-2483.265388734548
 20
-1826.210089255457
 30
0.0
 10
-2461.342998137107
 20
-1838.994392924684
 30
0.0
 10
-2439.110172505533
 20
-1851.214639465844
 30
0.0
 10
-2416.566911839826
 20
-1862.870828878939
 30
0.0
 10
-2394.200611472532
 20
-1874.435519427361
 30
0.0
 10
-2371.557155211954
 20
-1885.430209890862
 30
0.0
 10
-2348.636543058091
 20
-1895.854900269439
 30
0.0
 10
-2325.923842730246
 20
-1906.185028757709
 30
0.0
 10
-2302.967357243759
 20
-1915.942485410547
 30
0.0
 10
-2279.76708659863
 20
-1925.127270227955
 30
0.0
 10
-2256.804783695439
 20
-1934.21784569166
 30
0.0
 10
-2233.631783772142
 20
-1942.736244581284
 30
0.0
 10
-2210.24808682874
 20
-1950.682466896826
 30
0.0
 10
-2187.131077500018
 20
-1958.53806371888
 30
0.0
 10
-2163.835830065063
 20
-1965.824993391557
 30
0.0
 10
-2140.362344523876
 20
-1972.543255914856
 30
0.0
 10
-2117.182551864575
 20
-1979.177461646578
 30
0.0
 10
-2093.856025645113
 20
-1985.249333074435
 30
0.0
 10
-2070.38276586549
 20
-1990.758870198426
 30
0.0
 10
-2047.228157030894
 20
-1996.193615017144
 30
0.0
 10
-2023.957102033743
 20
-2001.074948704059
 30
0.0
 10
-2000.569600874037
 20
-2005.402871259171
 30
0.0
 10
-1977.523366181626
 20
-2009.667641499248
 30
0.0
 10
-1954.389535864046
 20
-2013.390259625082
 30
0.0
 10
-1931.168109921298
 20
-2016.570725636675
 30
0.0
 10
-1908.308016989213
 20
-2019.701702553061
 30
0.0
 10
-1885.387540049573
 20
-2022.303854525379
 30
0.0
 10
-1862.406679102377
 20
-2024.377181553627
 30
0.0
 10
-1817.570682937961
 20
-2028.422272940749
 30
0.0
 10
-1772.643463989109
 20
-2030.444818634309
 30
0.0
 10
-1727.62502225582
 20
-2030.444818634309
 30
0.0
  0
SPLINE
  5
142
330
1F
100
AcDbEntity
  8
0
  6
Continuous
 62
     7
370
    15
100
AcDbSpline
210
0.0
220
0.0
230
1.0
 70
    24
 71
     3
 72
    12
 73
     8
 74
     0
 42
0.000000001
 43
0.00000001
 40
0.0
 40
0.0
 40
0.0
 40
0.0
 40
0.1086256577188281
 40
0.2642534783988337
 40
0.4199119220002944
 40
0.7183901219164374
 40
1.0
 40
1.0
 40
1.0
 40
1.0
 10
213.5302677635028
 20
-114.9999999999988
 30
0.0
 10
213.5310076324762
 20
-114.9999999999988
 30
0.0
 10
213.532807510644
 20
-114.9999999999988
 30
0.0
 10
213.8493396194926
 20
-114.9999999999988
 30
0.0
 10
214.6165225639352
 20
-114.9999999999988
 30
0.0
 10
216.1148826551938
 20
-114.9999999999988
 30
0.0
 10
217.9873199300642
 20
-114.9999999999988
 30
0.0
 10
218.8963143615885
 20
-114.9999999999988
 30
0.0
  0
SPLINE
  5
143
330
1F
100
AcDbEntity
  8
0
  6
Continuous
 62
     7
370
    15
100
AcDbSpline
210
0.0
220
0.0
230
1.0
 70
    24
 71
     3
 72
    27
 73
    23
 74
     0
 42
0.000000001
 43
0.00000001
 40
0.0
 40
0.0
 40
0.0
 40
0.0
 40
0.048946720045845
 40
0.0994113936471649
 40
0.1512984575542466
 40
0.19185557748451
 40
0.23242067784945
 40
0.315158202637879
 40
0.3565783041357854
 40
0.3980065558848557
 40
0.4385636764574672
 40
0.4791287774649179
 40
0.556913175457245
 40
0.6303016334470728
 40
0.6792465659115484
 40
0.7297130404875265
 40
0.7816001043942571
 40
0.822157224324618
 40
0.8627223246894544
 40
0.9454598494778877
 40
0.9868799509763343
 40
1.0
 40
1.0
 40
1.0
 40
1.0
 10
218.8963143615885
 20
-114.9999999999988
 30
0.0
 10
219.578074007265
 20
-114.9999999999988
 30
0.0
 10
220.9627362777016
 20
-114.9999999999988
 30
0.0
 10
223.4529466527057
 20
-114.9999999999988
 30
0.0
 10
226.0339284892395
 20
-114.9999999999988
 30
0.0
 10
228.6150120609436
 20
-114.9999999999988
 30
0.0
 10
231.9486621025248
 20
-114.9999999999988
 30
0.0
 10
235.4985107198154
 20
-114.9999999999989
 30
0.0
 10
239.132300965996
 20
-114.9999999999988
 30
0.0
 10
241.8510424997682
 20
-114.9999999999989
 30
0.0
 10
244.5314247854581
 20
-114.9999999999988
 30
0.0
 10
247.9453343475884
 20
-114.9999999999989
 30
0.0
 10
251.9047529472417
 20
-114.9999999999987
 30
0.0
 10
255.6593090858694
 20
-114.9999999999989
 30
0.0
 10
258.5469249466507
 20
-114.9999999999988
 30
0.0
 10
260.7880813928039
 20
-114.9999999999988
 30
0.0
 10
262.5908888271036
 20
-114.9999999999988
 30
0.0
 10
263.9793676023751
 20
-114.9999999999988
 30
0.0
 10
265.3650931835488
 20
-114.9999999999988
 30
0.0
 10
266.1994029171731
 20
-114.9999999999988
 30
0.0
 10
266.5140656846515
 20
-114.9999999999988
 30
0.0
 10
266.4783289700706
 20
-114.9999999999988
 30
0.0
 10
266.4697322309204
 20
-114.9999999999988
 30
0.0
  0
SPLINE
  5
144
330
1F
100
AcDbEntity
  8
0
  6
Continuous
 62
     7
370
    15
100
AcDbSpline
210
0.0
220
0.0
230
1.0
 70
    24
 71
     3
 72
    12
 73
     8
 74
     0
 42
0.000000001
 43
0.00000001
 40
0.0
 40
0.0
 40
0.0
 40
0.0
 40
0.1084149676265015
 40
0.2640731746448262
 40
0.4197748098767942
 40
0.7183235593893863
 40
1.0
 40
1.0
 40
1.0
 40
1.0
 10
221.3987883893728
 20
-117.9999999999988
 30
0.0
 10
221.3716154328015
 20
-117.9999999999988
 30
0.0
 10
221.3054285486158
 20
-117.9999999999988
 30
0.0
 10
221.5639797992172
 20
-117.9999999999988
 30
0.0
 10
222.092373167971
 20
-117.9999999999988
 30
0.0
 10
223.155009724442
 20
-117.9999999999988
 30
0.0
 10
224.4747635173413
 20
-117.9999999999988
 30
0.0
 10
225.1154519210752
 20
-117.9999999999988
 30
0.0
  0
SPLINE
  5
145
330
1F
100
AcDbEntity
  8
0
  6
Continuous
 62
     7
370
    15
100
AcDbSpline
210
0.0
220
0.0
230
1.0
 70
    24
 71
     3
 72
    21
 73
    17
 74
     0
 42
0.000000001
 43
0.00000001
 40
0.0
 40
0.0
 40
0.0
 40
0.0
 40
0.0734339375493357
 40
0.1512665393090394
 40
0.2323349493912717
 40
0.315123747449169
 40
0.3979125455070646
 40
0.4384931316176576
 40
0.4790850395985615
 40
0.5569176413582688
 40
0.630351578907604
 40
0.7037855164569415
 40
0.7816181182166477
 40
0.8626865282988785
 40
0.9454753263567688
 40
1.0
 40
1.0
 40
1.0
 40
1.0
 10
225.1154519210752
 20
-117.9999999999988
 30
0.0
 10
225.8532152165961
 20
-117.9999999999988
 30
0.0
 10
227.3729335412155
 20
-117.9999999999988
 30
0.0
 10
230.3078706470349
 20
-117.9999999999988
 30
0.0
 10
233.7071511048547
 20
-117.9999999999988
 30
0.0
 10
237.4504384189894
 20
-117.9999999999988
 30
0.0
 10
240.6688548638998
 20
-117.9999999999989
 30
0.0
 10
243.1959102068768
 20
-117.9999999999988
 30
0.0
 10
245.6039133921947
 20
-117.9999999999988
 30
0.0
 10
248.3965416557066
 20
-117.9999999999988
 30
0.0
 10
251.3678157480647
 20
-117.9999999999988
 30
0.0
 10
253.9507971469406
 20
-117.9999999999988
 30
0.0
 10
256.1252451741475
 20
-117.9999999999988
 30
0.0
 10
257.7192479113625
 20
-117.9999999999988
 30
0.0
 10
258.6083718584696
 20
-117.9999999999988
 30
0.0
 10
258.603246708548
 20
-117.9999999999988
 30
0.0
 10
258.6012116050479
 20
-117.9999999999988
 30
0.0
  0
SPLINE
  5
146
330
1F
100
AcDbEntity
  8
0
  6
Continuous
 62
     7
370
    15
100
AcDbSpline
210
0.0
220
0.0
230
1.0
 70
    24
 71
     3
 72
    12
 73
     8
 74
     0
 42
0.000000001
 43
0.00000001
 40
0.0
 40
0.0
 40
0.0
 40
0.0
 40
0.1086256577241281
 40
0.2642534784031725
 40
0.4199119220037315
 40
0.7183901219180916
 40
1.0
 40
1.0
 40
1.0
 40
1.0
 10
266.469732230921
 20
114.9999999999989
 30
0.0
 10
266.4689923619454
 20
114.9999999999989
 30
0.0
 10
266.4671924837726
 20
114.9999999999989
 30
0.0
 10
266.1506603749121
 20
114.999999999999
 30
0.0
 10
265.3834774304557
 20
114.9999999999989
 30
0.0
 10
263.8851173391819
 20
114.9999999999989
 30
0.0
 10
262.012680064301
 20
114.9999999999989
 30
0.0
 10
261.1036856327715
 20
114.9999999999989
 30
0.0
  0
SPLINE
  5
147
330
1F
100
AcDbEntity
  8
0
  6
Continuous
 62
     7
370
    15
100
AcDbSpline
210
0.0
220
0.0
230
1.0
 70
    24
 71
     3
 72
    27
 73
    23
 74
     0
 42
0.000000001
 43
0.00000001
 40
0.0
 40
0.0
 40
0.0
 40
0.0
 40
0.0489467200459175
 40
0.0994113936473182
 40
0.1512984575544747
 40
0.1918555774848026
 40
0.2324206778498069
 40
0.3151582026383645
 40
0.3565783041363346
 40
0.398006555885469
 40
0.4385636764581431
 40
0.4791287774656578
 40
0.556913175458107
 40
0.6303016334480501
 40
0.6792465659126002
 40
0.7297130404886598
 40
0.7816001043954711
 40
0.822157224325889
 40
0.8627223246907894
 40
0.9454598494793434
 40
0.9868799509778611
 40
1.0
 40
1.0
 40
1.0
 40
1.0
 10
261.1036856327716
 20
114.9999999999989
 30
0.0
 10
260.4219259870918
 20
114.999999999999
 30
0.0
 10
259.0372637166486
 20
114.999999999999
 30
0.0
 10
256.5470533416363
 20
114.999999999999
 30
0.0
 10
253.9660715050948
 20
114.9999999999989
 30
0.0
 10
251.3849879333858
 20
114.9999999999989
 30
0.0
 10
248.0513378917993
 20
114.999999999999
 30
0.0
 10
244.5014892745054
 20
114.9999999999989
 30
0.0
 10
240.8676990283234
 20
114.9999999999989
 30
0.0
 10
238.1489574945517
 20
114.999999999999
 30
0.0
 10
235.4685752088626
 20
114.9999999999989
 30
0.0
 10
232.0546656467357
 20
114.9999999999989
 30
0.0
 10
228.0952470470878
 20
114.9999999999989
 30
0.0
 10
224.3406909084696
 20
114.9999999999989
 30
0.0
 10
221.4530750476974
 20
114.9999999999989
 30
0.0
 10
219.2119186015543
 20
114.9999999999989
 30
0.0
 10
217.4091111672644
 20
114.9999999999989
 30
0.0
 10
216.0206323920028
 20
114.9999999999989
 30
0.0
 10
214.6349068108419
 20
114.9999999999989
 30
0.0
 10
213.8005970772329
 20
114.9999999999989
 30
0.0
 10
213.485934309766
 20
114.999999999999
 30
0.0
 10
213.5216710243495
 20
114.9999999999989
 30
0.0
 10
213.5302677634995
 20
114.9999999999989
 30
0.0
  0
SPLINE
  5
148
330
1F
100
AcDbEntity
  8
0
  6
Continuous
 62
     7
370
    15
100
AcDbSpline
210
0.0
220
0.0
230
1.0
 70
    24
 71
     3
 72
    12
 73
     8
 74
     0
 42
0.000000001
 43
0.00000001
 40
0.0
 40
0.0
 40
0.0
 40
0.0
 40
0.1084149676318526
 40
0.2640731746492139
 40
0.4197748098802779
 40
0.7183235593910707
 40
0.9999999999999999
 40
0.9999999999999999
 40
0.9999999999999999
 40
0.9999999999999999
 10
258.6012116050466
 20
117.9999999999989
 30
0.0
 10
258.6283845616181
 20
117.9999999999989
 30
0.0
 10
258.6945714458023
 20
117.999999999999
 30
0.0
 10
258.4360201951926
 20
117.9999999999989
 30
0.0
 10
257.907626826429
 20
117.9999999999989
 30
0.0
 10
256.8449902699475
 20
117.9999999999989
 30
0.0
 10
255.5252364770406
 20
117.9999999999989
 30
0.0
 10
254.884548073303
 20
117.9999999999989
 30
0.0
  0
SPLINE
  5
149
330
1F
100
AcDbEntity
  8
0
  6
Continuous
 62
     7
370
    15
100
AcDbSpline
210
0.0
220
0.0
230
1.0
 70
    24
 71
     3
 72
    21
 73
    17
 74
     0
 42
0.000000001
 43
0.00000001
 40
0.0
 40
0.0
 40
0.0
 40
0.0
 40
0.07343393754945
 40
0.1512665393092813
 40
0.2323349493916372
 40
0.3151237474496619
 40
0.3979125455076857
 40
0.4384931316183404
 40
0.4790850395993029
 40
0.5569176413591338
 40
0.630351578908582
 40
0.7037855164580281
 40
0.781618118217864
 40
0.8626865283002199
 40
0.9454753263582484
 40
1.0
 40
1.0
 40
1.0
 40
1.0
 10
254.884548073303
 20
117.9999999999989
 30
0.0
 10
254.1467847777787
 20
117.9999999999989
 30
0.0
 10
252.6270664531523
 20
117.9999999999989
 30
0.0
 10
249.6921293473249
 20
117.9999999999989
 30
0.0
 10
246.2928488894986
 20
117.9999999999989
 30
0.0
 10
242.5495615753604
 20
117.9999999999989
 30
0.0
 10
239.3311451304497
 20
117.999999999999
 30
0.0
 10
236.804089787474
 20
117.9999999999989
 30
0.0
 10
234.3960866021578
 20
117.9999999999989
 30
0.0
 10
231.6034583386505
 20
117.9999999999989
 30
0.0
 10
228.6321842462994
 20
117.9999999999989
 30
0.0
 10
226.0492028474323
 20
117.9999999999989
 30
0.0
 10
223.874754820237
 20
117.999999999999
 30
0.0
 10
222.2807520830356
 20
117.9999999999989
 30
0.0
 10
221.3916281359448
 20
117.9999999999989
 30
0.0
 10
221.3967532858736
 20
117.9999999999989
 30
0.0
 10
221.3987883893764
 20
117.9999999999989
 30
0.0
  0
LWPOLYLINE
  5
14C
330
1F
100
AcDbEntity
  8
0
  6
Continuous
 62
     7
370
    15
100
AcDbPolyline
 90
       17
 70
   128
 43
0.0
 10
613.8884528839
 20
0.0
 10
613.9608477506
 20
0.3826834324
 10
614.1670108883
 20
0.7071067812
 10
614.4755558282
 20
0.9238795325
 10
614.8395094002
 20
1.0
 10
615.2034629723
 20
0.9238795325
 10
615.5120079122
 20
0.7071067812
 10
615.7181710499
 20
0.3826834324
 10
615.7905659165
 20
0.0
 10
615.7181710499
 20
-0.3826834324
 10
615.5120079122
 20
-0.7071067812
 10
615.2034629723
 20
-0.9238795325
 10
614.8395094002
 20
-1.0
 10
614.4755558282
 20
-0.9238795325
 10
614.1670108883
 20
-0.7071067812
 10
613.9608477506
 20
-0.3826834324
 10
613.8884528839
 20
0.0
  0
LWPOLYLINE
  5
153
330
1F
100
AcDbEntity
  8
0
  6
Continuous
 62
     7
370
    15
100
AcDbPolyline
 90
       39
 70
   128
 43
0.0
 10
-1664.6666891807
 20
12.8562595325
 10
-1662.7076152169
 20
12.002943204
 10
-1660.9088375465
 20
10.8222178742
 10
-1659.3194221352
 20
9.3462906523
 10
-1657.9827240921
 20
7.6154209853
 10
-1656.9352050554
 20
5.6768224857
 10
-1656.2054386137
 20
3.5833750671
 10
-1655.8133308931
 20
1.3921825179
 10
-1655.7695775702
 20
-0.8369851413
 10
-1656.0753721215
 20
-3.0433220277
 10
-1656.7223732688
 20
-5.1666450225
 10
-1657.6929325074
 20
-7.1490354096
 10
-1658.9605755114
 20
-8.9364187468
 10
-1660.4907242841
 20
-10.4800398761
 10
-1662.2416403557
 20
-11.737792837
 10
-1664.1655633002
 20
-12.6753694075
 10
-1666.2100135149
 20
-13.2671949427
 10
-1668.3192237274
 20
-13.4971259849
 10
-1670.4356601815
 20
-13.3588906147
 10
-1672.5015920078
 20
-12.8562595325
 10
-1674.4606659716
 20
-12.002943204
 10
-1676.259443642
 20
-10.8222178742
 10
-1677.8488590533
 20
-9.3462906522
 10
-1679.1855570964
 20
-7.6154209852
 10
-1680.2330761331
 20
-5.6768224857
 10
-1680.9628425748
 20
-3.5833750671
 10
-1681.3549502954
 20
-1.3921825179
 10
-1681.3987036183
 20
0.8369851413
 10
-1681.092909067
 20
3.0433220277
 10
-1680.4459079197
 20
5.1666450226
 10
-1679.4753486811
 20
7.1490354096
 10
-1678.2077056771
 20
8.9364187468
 10
-1676.6775569044
 20
10.4800398761
 10
-1674.9266408328
 20
11.7377928371
 10
-1673.0027178883
 20
12.6753694075
 10
-1670.9582676736
 20
13.2671949428
 10
-1668.8490574611
 20
13.497125985
 10
-1666.732621007
 20
13.3588906147
 10
-1664.6666891807
 20
12.8562595325
  0
LWPOLYLINE
  5
154
330
1F
100
AcDbEntity
  8
0
  6
Continuous
 62
     7
370
    15
100
AcDbPolyline
 90
       17
 70
   128
 43
0.0
 10
-1669.1008661202
 20
0.9523155209
 10
-1668.7763562427
 20
0.763062372
 10
-1668.5454275683
 20
0.4576398941
 10
-1668.4432368944
 20
0.0825458908
 10
-1668.4853418247
 20
-0.305114976
 10
-1668.6653322652
 20
-0.6463248537
 10
-1668.9558063031
 20
-0.8891376313
 10
-1669.3125418991
 20
-0.9965872646
 10
-1669.6812292926
 20
-0.9523155209
 10
-1670.0057391702
 20
-0.763062372
 10
-1670.2366678445
 20
-0.4576398941
 10
-1670.3388585185
 20
-0.0825458908
 10
-1670.2967535882
 20
0.3051149761
 10
-1670.1167631476
 20
0.6463248537
 10
-1669.8262891098
 20
0.8891376313
 10
-1669.4695535138
 20
0.9965872646
 10
-1669.1008661202
 20
0.9523155209
  0
LWPOLYLINE
  5
155
330
1F
100
AcDbEntity
  8
0
  6
Continuous
 62
     7
370
    15
100
AcDbPolyline
 90
       39
 70
   128
 43
0.0
 10
-1522.6702673344
 20
12.8562595327
 10
-1520.7111933706
 20
12.0029432042
 10
-1518.9124157002
 20
10.8222178744
 10
-1517.3230002889
 20
9.3462906524
 10
-1515.9863022458
 20
7.6154209855
 10
-1514.9387832091
 20
5.6768224859
 10
-1514.2090167674
 20
3.5833750673
 10
-1513.8169090468
 20
1.3921825181
 10
-1513.7731557239
 20
-0.8369851411
 10
-1514.0789502752
 20
-3.0433220275
 10
-1514.7259514225
 20
-5.1666450223
 10
-1515.6965106611
 20
-7.1490354094
 10
-1516.9641536651
 20
-8.9364187466
 10
-1518.4943024377
 20
-10.4800398759
 10
-1520.2452185094
 20
-11.7377928368
 10
-1522.1691414539
 20
-12.6753694073
 10
-1524.2135916686
 20
-13.2671949426
 10
-1526.3228018811
 20
-13.4971259848
 10
-1528.4392383352
 20
-13.3588906145
 10
-1530.5051701615
 20
-12.8562595323
 10
-1532.4642441252
 20
-12.0029432038
 10
-1534.2630217957
 20
-10.822217874
 10
-1535.852437207
 20
-9.3462906521
 10
-1537.18913525
 20
-7.6154209851
 10
-1538.2366542868
 20
-5.6768224855
 10
-1538.9664207285
 20
-3.5833750669
 10
-1539.358528449
 20
-1.3921825177
 10
-1539.402281772
 20
0.8369851415
 10
-1539.0964872207
 20
3.0433220279
 10
-1538.4494860734
 20
5.1666450227
 10
-1537.4789268348
 20
7.1490354098
 10
-1536.2112838308
 20
8.936418747
 10
-1534.6811350581
 20
10.4800398763
 10
-1532.9302189865
 20
11.7377928372
 10
-1531.006296042
 20
12.6753694077
 10
-1528.9618458273
 20
13.267194943
 10
-1526.8526356148
 20
13.4971259852
 10
-1524.7361991607
 20
13.3588906149
 10
-1522.6702673344
 20
12.8562595327
  0
LWPOLYLINE
  5
156
330
1F
100
AcDbEntity
  8
0
  6
Continuous
 62
     7
370
    15
100
AcDbPolyline
 90
       17
 70
   128
 43
0.0
 10
-1527.1044442739
 20
0.9523155211
 10
-1526.7799343964
 20
0.7630623722
 10
-1526.549005722
 20
0.4576398943
 10
-1526.4468150481
 20
0.082545891
 10
-1526.4889199784
 20
-0.3051149759
 10
-1526.6689104189
 20
-0.6463248535
 10
-1526.9593844567
 20
-0.8891376311
 10
-1527.3161200528
 20
-0.9965872644
 10
-1527.6848074463
 20
-0.9523155207
 10
-1528.0093173239
 20
-0.7630623718
 10
-1528.2402459982
 20
-0.4576398939
 10
-1528.3424366721
 20
-0.0825458906
 10
-1528.3003317419
 20
0.3051149762
 10
-1528.1203413013
 20
0.6463248539
 10
-1527.8298672635
 20
0.8891376315
 10
-1527.4731316675
 20
0.9965872648
 10
-1527.1044442739
 20
0.9523155211
  0
LWPOLYLINE
  5
157
330
1F
100
AcDbEntity
  8
0
  6
Continuous
 62
     7
370
    15
100
AcDbPolyline
 90
       39
 70
   128
 43
0.0
 10
1863.0909306764
 20
12.8562595327
 10
1865.0500046401
 20
12.0029432042
 10
1866.8487823105
 20
10.8222178744
 10
1868.4381977218
 20
9.3462906524
 10
1869.7748957649
 20
7.6154209855
 10
1870.8224148016
 20
5.6768224859
 10
1871.5521812433
 20
3.5833750673
 10
1871.9442889639
 20
1.3921825181
 10
1871.9880422868
 20
-0.8369851411
 10
1871.6822477356
 20
-3.0433220275
 10
1871.0352465883
 20
-5.1666450223
 10
1870.0646873496
 20
-7.1490354094
 10
1868.7970443457
 20
-8.9364187466
 10
1867.266895573
 20
-10.4800398759
 10
1865.5159795014
 20
-11.7377928368
 10
1863.5920565569
 20
-12.6753694073
 10
1861.5476063422
 20
-13.2671949426
 10
1859.4383961296
 20
-13.4971259848
 10
1857.3219596755
 20
-13.3588906145
 10
1855.2560278493
 20
-12.8562595323
 10
1853.2969538855
 20
-12.0029432038
 10
1851.4981762151
 20
-10.822217874
 10
1849.9087608038
 20
-9.3462906521
 10
1848.5720627607
 20
-7.6154209851
 10
1847.524543724
 20
-5.6768224855
 10
1846.7947772823
 20
-3.5833750669
 10
1846.4026695617
 20
-1.3921825177
 10
1846.3589162388
 20
0.8369851415
 10
1846.6647107901
 20
3.0433220279
 10
1847.3117119374
 20
5.1666450227
 10
1848.282271176
 20
7.1490354098
 10
1849.5499141799
 20
8.936418747
 10
1851.0800629526
 20
10.4800398763
 10
1852.8309790243
 20
11.7377928372
 10
1854.7549019687
 20
12.6753694077
 10
1856.7993521834
 20
13.267194943
 10
1858.908562396
 20
13.4971259852
 10
1861.0249988501
 20
13.3588906149
 10
1863.0909306764
 20
12.8562595327
  0
LWPOLYLINE
  5
158
330
1F
100
AcDbEntity
  8
0
  6
Continuous
 62
     7
370
    15
100
AcDbPolyline
 90
       17
 70
   128
 43
0.0
 10
1858.6567537368
 20
0.9523155211
 10
1858.9812636143
 20
0.7630623722
 10
1859.2121922887
 20
0.4576398943
 10
1859.3143829626
 20
0.082545891
 10
1859.2722780324
 20
-0.3051149759
 10
1859.0922875918
 20
-0.6463248535
 10
1858.801813554
 20
-0.8891376311
 10
1858.445077958
 20
-0.9965872644
 10
1858.0763905644
 20
-0.9523155207
 10
1857.7518806869
 20
-0.7630623718
 10
1857.5209520125
 20
-0.4576398939
 10
1857.4187613386
 20
-0.0825458906
 10
1857.4608662689
 20
0.3051149762
 10
1857.6408567094
 20
0.6463248539
 10
1857.9313307472
 20
0.8891376315
 10
1858.2880663433
 20
0.9965872648
 10
1858.6567537368
 20
0.9523155211
  0
LWPOLYLINE
  5
159
330
1F
100
AcDbEntity
  8
0
  6
Continuous
 62
     7
370
    15
100
AcDbPolyline
 90
       39
 70
   128
 43
0.0
 10
2005.7494081206
 20
12.8562595327
 10
2007.7084820844
 20
12.0029432042
 10
2009.5072597548
 20
10.8222178744
 10
2011.0966751661
 20
9.3462906524
 10
2012.4333732092
 20
7.6154209855
 10
2013.4808922459
 20
5.6768224859
 10
2014.2106586876
 20
3.5833750673
 10
2014.6027664082
 20
1.3921825181
 10
2014.6465197311
 20
-0.8369851411
 10
2014.3407251798
 20
-3.0433220275
 10
2013.6937240325
 20
-5.1666450223
 10
2012.7231647939
 20
-7.1490354094
 10
2011.4555217899
 20
-8.9364187466
 10
2009.9253730173
 20
-10.4800398759
 10
2008.1744569456
 20
-11.7377928368
 10
2006.2505340011
 20
-12.6753694073
 10
2004.2060837864
 20
-13.2671949426
 10
2002.0968735739
 20
-13.4971259848
 10
1999.9804371198
 20
-13.3588906145
 10
1997.9145052935
 20
-12.8562595323
 10
1995.9554313298
 20
-12.0029432038
 10
1994.1566536593
 20
-10.822217874
 10
1992.567238248
 20
-9.3462906521
 10
1991.230540205
 20
-7.6154209851
 10
1990.1830211683
 20
-5.6768224855
 10
1989.4532547265
 20
-3.5833750669
 10
1989.061147006
 20
-1.3921825177
 10
1989.017393683
 20
0.8369851415
 10
1989.3231882343
 20
3.0433220279
 10
1989.9701893816
 20
5.1666450227
 10
1990.9407486202
 20
7.1490354098
 10
1992.2083916242
 20
8.936418747
 10
1993.7385403969
 20
10.4800398763
 10
1995.4894564685
 20
11.7377928372
 10
1997.413379413
 20
12.6753694077
 10
1999.4578296277
 20
13.267194943
 10
2001.5670398403
 20
13.4971259852
 10
2003.6834762943
 20
13.3588906149
 10
2005.7494081206
 20
12.8562595327
  0
LWPOLYLINE
  5
15A
330
1F
100
AcDbEntity
  8
0
  6
Continuous
 62
     7
370
    15
100
AcDbPolyline
 90
       17
 70
   128
 43
0.0
 10
2001.3152311811
 20
0.9523155211
 10
2001.6397410586
 20
0.7630623722
 10
2001.870669733
 20
0.4576398943
 10
2001.9728604069
 20
0.082545891
 10
2001.9307554766
 20
-0.3051149759
 10
2001.7507650361
 20
-0.6463248535
 10
2001.4602909983
 20
-0.8891376311
 10
2001.1035554022
 20
-0.9965872644
 10
2000.7348680087
 20
-0.9523155207
 10
2000.4103581312
 20
-0.7630623718
 10
2000.1794294568
 20
-0.4576398939
 10
2000.0772387829
 20
-0.0825458906
 10
2000.1193437131
 20
0.3051149762
 10
2000.2993341537
 20
0.6463248539
 10
2000.5898081915
 20
0.8891376315
 10
2000.9465437875
 20
0.9965872648
 10
2001.3152311811
 20
0.9523155211
  0
LWPOLYLINE
  5
15D
330
1F
100
AcDbEntity
  8
0
  6
Continuous
 62
     7
370
    15
100
AcDbPolyline
 90
       17
 70
   128
 43
0.0
 10
313.9193790075
 20
-0.0000000004
 10
313.9917738741
 20
0.382683432
 10
314.1979370118
 20
0.7071067808
 10
314.5064819517
 20
0.9238795321
 10
314.8704355238
 20
0.9999999996
 10
315.2343890958
 20
0.9238795321
 10
315.5429340357
 20
0.7071067808
 10
315.7490971734
 20
0.382683432
 10
315.8214920401
 20
-0.0000000004
 10
315.7490971734
 20
-0.3826834328
 10
315.5429340357
 20
-0.7071067816
 10
315.2343890958
 20
-0.9238795329
 10
314.8704355238
 20
-1.0000000004
 10
314.5064819517
 20
-0.9238795329
 10
314.1979370118
 20
-0.7071067816
 10
313.9917738741
 20
-0.3826834328
 10
313.9193790075
 20
-0.0000000004
  0
LWPOLYLINE
  5
162
330
1F
100
AcDbEntity
  8
0
  6
Continuous
 62
     7
370
    15
100
AcDbPolyline
 90
       17
 70
   128
 43
0.0
 10
-285.2462262585
 20
-0.0000000004
 10
-285.1738313919
 20
0.382683432
 10
-284.9676682542
 20
0.7071067808
 10
-284.6591233142
 20
0.9238795321
 10
-284.2951697422
 20
0.9999999996
 10
-283.9312161702
 20
0.9238795321
 10
-283.6226712302
 20
0.7071067808
 10
-283.4165080925
 20
0.382683432
 10
-283.3441132259
 20
-0.0000000004
 10
-283.4165080925
 20
-0.3826834328
 10
-283.6226712302
 20
-0.7071067816
 10
-283.9312161702
 20
-0.9238795329
 10
-284.2951697422
 20
-1.0000000004
 10
-284.6591233142
 20
-0.9238795329
 10
-284.9676682542
 20
-0.7071067816
 10
-285.1738313919
 20
-0.3826834328
 10
-285.2462262585
 20
-0.0000000004
  0
SPLINE
  5
166
330
1F
100
AcDbEntity
  8
0
  6
Continuous
 62
     7
370
    15
100
AcDbSpline
210
0.0
220
0.0
230
1.0
 70
    24
 71
     3
 72
     9
 73
     5
 74
     0
 42
0.000000001
 43
0.00000001
 40
0.0
 40
0.0
 40
0.0
 40
0.0
 40
0.0107193511770459
 40
1.0
 40
1.0
 40
1.0
 40
1.0
 10
467.2494230387613
 20
-111.3999999999983
 30
0.0
 10
467.2496369675874
 20
-111.3999999999983
 30
0.0
 10
467.2695942226952
 20
-111.3999999999976
 30
0.0
 10
467.2292811430082
 20
-111.3999999999979
 30
0.0
 10
467.1894001933793
 20
-111.3999999999983
 30
0.0
  0
SPLINE
  5
167
330
1F
100
AcDbEntity
  8
0
  6
Continuous
 62
     7
370
    15
100
AcDbSpline
210
0.0
220
0.0
230
1.0
 70
     8
 71
     3
 72
    18
 73
    14
 74
     0
 42
0.000000001
 43
0.00000001
 40
0.0000002444738503
 40
0.0000002444738503
 40
0.0000002444738503
 40
0.0000002444738503
 40
0.0625
 40
0.0625
 40
0.25
 40
0.25
 40
0.5
 40
0.5
 40
0.75
 40
0.75
 40
0.9375
 40
0.9375
 40
1.0
 40
1.0
 40
1.0
 40
1.0
 10
473.2472284076391
 20
-111.6479055466982
 30
0.0
 10
473.247678761861
 20
-111.6477065034038
 30
0.0
 10
473.2480870259084
 20
-111.6475199003153
 30
0.0
 10
473.2495557295083
 20
-111.6468232487856
 30
0.0
 10
473.2502874638815
 20
-111.6464127219921
 30
0.0
 10
473.2511951206991
 20
-111.6457160704654
 30
0.0
 10
473.2511044686811
 20
-111.6455170271735
 30
0.0
 10
473.2498327980043
 20
-111.6455170271769
 30
0.0
 10
473.2486517793453
 20
-111.6457160704722
 30
0.0
 10
473.2457431529193
 20
-111.6464127220005
 30
0.0
 10
473.2442260060955
 20
-111.6468232487931
 30
0.0
 10
473.2418784264518
 20
-111.6475199003184
 30
0.0
 10
473.2412644717732
 20
-111.6477065034055
 30
0.0
 10
473.2406244593541
 20
-111.6479055466982
 30
0.0
  0
SPLINE
  5
168
330
1F
100
AcDbEntity
  8
0
  6
Continuous
 62
     7
370
    15
100
AcDbSpline
210
0.0
220
0.0
230
1.0
 70
     8
 71
     3
 72
    18
 73
    14
 74
     0
 42
0.000000001
 43
0.00000001
 40
0.0
 40
0.0
 40
0.0
 40
0.0
 40
0.0903890492723769
 40
0.0903890492723769
 40
0.1807780985447539
 40
0.1807780985447539
 40
0.4210816189295885
 40
0.4210816189295885
 40
0.7070208393547222
 40
0.7070208393547222
 40
0.8535104196773611
 40
0.8535104196773611
 40
1.0
 40
1.0
 40
1.0
 40
1.0
 10
473.2406244593541
 20
-111.6479055466982
 30
0.0
 10
473.237519367438
 20
-111.6313555832029
 30
0.0
 10
473.2305800662743
 20
-111.6132192150637
 30
0.0
 10
473.2099841227805
 20
-111.5786548003814
 30
0.0
 10
473.1963692934359
 20
-111.5622840706068
 30
0.0
 10
473.1452250241417
 20
-111.5127503986693
 30
0.0
 10
473.1014285619971
 20
-111.4877408246449
 30
0.0
 10
472.9964822768601
 20
-111.4424087396701
 30
0.0
 10
472.9404494100064
 20
-111.4275652789573
 30
0.0
 10
472.8480865997781
 20
-111.4109592358694
 30
0.0
 10
472.8167288404653
 20
-111.4068130611146
 30
0.0
 10
472.754801633681
 20
-111.401333443179
 30
0.0
 10
472.7242321862095
 20
-111.3999999999983
 30
0.0
 10
472.6945199843456
 20
-111.3999999999983
 30
0.0
  0
SPLINE
  5
169
330
1F
100
AcDbEntity
  8
0
  6
Continuous
 62
     7
370
    15
100
AcDbSpline
210
0.0
220
0.0
230
1.0
 70
     8
 71
     3
 72
    18
 73
    14
 74
     0
 42
0.000000001
 43
0.00000001
 40
0.0
 40
0.0
 40
0.0
 40
0.0
 40
0.146489580322639
 40
0.146489580322639
 40
0.2929791606452779
 40
0.2929791606452779
 40
0.5789183810704115
 40
0.5789183810704115
 40
0.8192219014552461
 40
0.8192219014552461
 40
0.9096109507276231
 40
0.9096109507276231
 40
1.0
 40
1.0
 40
1.0
 40
1.0
 10
472.6945199843456
 20
-111.3999999999983
 30
0.0
 10
472.7243484559899
 20
-111.3999999999983
 30
0.0
 10
472.7550289459578
 20
-111.4013334431718
 30
0.0
 10
472.8171849378927
 20
-111.4068130610219
 30
0.0
 10
472.8486604398822
 20
-111.4109592356962
 30
0.0
 10
472.9414060290666
 20
-111.4275652785452
 30
0.0
 10
472.9977034638026
 20
-111.4424087390049
 30
0.0
 10
473.1034494040086
 20
-111.4877408234599
 30
0.0
 10
473.1476903180554
 20
-111.5127503967329
 30
0.0
 10
473.2000999315666
 20
-111.5622840681208
 30
0.0
 10
473.2141667120718
 20
-111.5786547976172
 30
0.0
 10
473.2358589736837
 20
-111.6132192120163
 30
0.0
 10
473.243444752992
 20
-111.6313555802039
 30
0.0
 10
473.2472284129236
 20
-111.6479055443626
 30
0.0
  0
SPLINE
  5
16A
330
1F
100
AcDbEntity
  8
0
  6
Continuous
 62
     7
370
    15
100
AcDbSpline
210
0.0
220
0.0
230
1.0
 70
     8
 71
     3
 72
    20
 73
    16
 74
     0
 42
0.000000001
 43
0.00000001
 40
0.0
 40
0.0
 40
0.0
 40
0.0
 40
0.1464895826441497
 40
0.1464895826441497
 40
0.2929791652882994
 40
0.2929791652882994
 40
0.5789183902447852
 40
0.5789183902447852
 40
0.7591460333895959
 40
0.7591460333895959
 40
0.8192219144378661
 40
0.8192219144378661
 40
0.909610957218933
 40
0.909610957218933
 40
1.0
 40
1.0
 40
1.0
 40
1.0
 10
466.05169674141
 20
-111.3999999999983
 30
0.0
 10
466.021868269624
 20
-111.3999999999983
 30
0.0
 10
465.9911877795172
 20
-111.401333443179
 30
0.0
 10
465.9290317873237
 20
-111.4068130611146
 30
0.0
 10
465.8975562852367
 20
-111.4109592358694
 30
0.0
 10
465.8048106960488
 20
-111.4275652789573
 30
0.0
 10
465.7485132616389
 20
-111.4424087396702
 30
0.0
 10
465.654839280191
 20
-111.4825657130657
 30
0.0
 10
465.6208997985149
 20
-111.5005149312514
 30
0.0
 10
465.5798690142913
 20
-111.5314342094307
 30
0.0
 10
465.5699631397363
 20
-111.5397462779143
 30
0.0
 10
465.5461167962818
 20
-111.5622840700134
 30
0.0
 10
465.5320500161605
 20
-111.5786547997507
 30
0.0
 10
465.5103577557849
 20
-111.6132192147405
 30
0.0
 10
465.5027719772714
 20
-111.63135558321
 30
0.0
 10
465.4989883181165
 20
-111.6479055466982
 30
0.0
  0
SPLINE
  5
16B
330
1F
100
AcDbEntity
  8
0
  6
Continuous
 62
     7
370
    15
100
AcDbSpline
210
0.0
220
0.0
230
1.0
 70
     8
 71
     3
 72
    12
 73
     8
 74
     0
 42
0.000000001
 43
0.00000001
 40
0.4999999986814625
 40
0.4999999986814625
 40
0.4999999986814625
 40
0.4999999986814625
 40
0.5624999986814625
 40
0.5624999986814625
 40
0.7499999986814625
 40
0.7499999986814625
 40
1.0
 40
1.0
 40
1.0
 40
1.0
 10
465.4989883181165
 20
-111.6479055466982
 30
0.0
 10
465.4985379638985
 20
-111.6477065034055
 30
0.0
 10
465.4981296998542
 20
-111.6475199003184
 30
0.0
 10
465.4966609962636
 20
-111.6468232487931
 30
0.0
 10
465.4959292618909
 20
-111.6464127220005
 30
0.0
 10
465.4950216050664
 20
-111.6457160704722
 30
0.0
 10
465.4951122570741
 20
-111.6455170271769
 30
0.0
 10
465.4957480924031
 20
-111.6455170271752
 30
0.0
  0
SPLINE
  5
16C
330
1F
100
AcDbEntity
  8
0
  6
Continuous
 62
     7
370
    15
100
AcDbSpline
210
0.0
220
0.0
230
1.0
 70
     8
 71
     3
 72
    20
 73
    16
 74
     0
 42
0.000000001
 43
0.00000001
 40
0.0
 40
0.0
 40
0.0
 40
0.0
 40
0.090389042781067
 40
0.090389042781067
 40
0.1807780855621339
 40
0.1807780855621339
 40
0.2408539666104041
 40
0.2408539666104041
 40
0.4210816097552148
 40
0.4210816097552148
 40
0.7070208347117006
 40
0.7070208347117006
 40
0.8535104173558503
 40
0.8535104173558503
 40
1.0
 40
1.0
 40
1.0
 40
1.0
 10
465.5055922664015
 20
-111.6479055466982
 30
0.0
 10
465.5086973583163
 20
-111.63135558321
 30
0.0
 10
465.515636659607
 20
-111.6132192147406
 30
0.0
 10
465.5362326034178
 20
-111.5786547997507
 30
0.0
 10
465.5498474329325
 20
-111.5622840700134
 30
0.0
 10
465.5731180458978
 20
-111.5397462779143
 30
0.0
 10
465.5828237390163
 20
-111.5314342094307
 30
0.0
 10
465.6231478221353
 20
-111.5005149312514
 30
0.0
 10
465.6567688334258
 20
-111.4825657130657
 30
0.0
 10
465.7497344488955
 20
-111.4424087396702
 30
0.0
 10
465.8057673157493
 20
-111.4275652789573
 30
0.0
 10
465.8981301259776
 20
-111.4109592358694
 30
0.0
 10
465.9294878852903
 20
-111.4068130611146
 30
0.0
 10
465.9914150920746
 20
-111.4013334431791
 30
0.0
 10
466.0219845395463
 20
-111.3999999999983
 30
0.0
 10
466.0516967414102
 20
-111.3999999999983
 30
0.0
  0
LWPOLYLINE
  5
16D
330
1F
100
AcDbEntity
  8
0
  6
Continuous
 62
     7
370
    15
100
AcDbPolyline
 90
        8
 70
   128
 43
0.0
 10
468.3360266681
 20
-111.6039217394
 10
468.3471440627
 20
-111.5551644751
 10
468.3625506395
 20
-111.5109752252
 10
468.3817604852
 20
-111.4727476888
 10
468.4041677345
 20
-111.4416875366
 10
468.4290656778
 20
-111.4187743847
 10
468.4556690508
 20
-111.4047308985
 10
468.4831388012
 20
-111.4
  0
SPLINE
  5
16F
330
1F
100
AcDbEntity
  8
0
  6
Continuous
 62
     7
370
    15
100
AcDbSpline
210
0.0
220
0.0
230
1.0
 70
    24
 71
     3
 72
     9
 73
     5
 74
     0
 42
0.000000001
 43
0.00000001
 40
0.0
 40
0.0
 40
0.0
 40
0.0
 40
0.0107193511780038
 40
0.9999999999999999
 40
0.9999999999999999
 40
0.9999999999999999
 40
0.9999999999999999
 10
8.503206307889922
 20
-111.3999999999982
 30
0.0
 10
8.503420236715991
 20
-111.3999999999982
 30
0.0
 10
8.523377491825828
 20
-111.3999999999987
 30
0.0
 10
8.483064412137725
 20
-111.3999999999985
 30
0.0
 10
8.443183462507886
 20
-111.3999999999982
 30
0.0
  0
SPLINE
  5
170
330
1F
100
AcDbEntity
  8
0
  6
Continuous
 62
     7
370
    15
100
AcDbSpline
210
0.0
220
0.0
230
1.0
 70
     8
 71
     3
 72
    18
 73
    14
 74
     0
 42
0.000000001
 43
0.00000001
 40
0.0000002444806814
 40
0.0000002444806814
 40
0.0000002444806814
 40
0.0000002444806814
 40
0.0625
 40
0.0625
 40
0.25
 40
0.25
 40
0.5
 40
0.5
 40
0.75
 40
0.75
 40
0.9375
 40
0.9375
 40
1.0
 40
1.0
 40
1.0
 40
1.0
 10
14.50101167676773
 20
-111.6479055466981
 30
0.0
 10
14.50146203098965
 20
-111.6477065034037
 30
0.0
 10
14.50187029503705
 20
-111.6475199003153
 30
0.0
 10
14.50333899863693
 20
-111.6468232487855
 30
0.0
 10
14.50407073301019
 20
-111.6464127219921
 30
0.0
 10
14.50497838982773
 20
-111.6457160704653
 30
0.0
 10
14.50488773780978
 20
-111.6455170271734
 30
0.0
 10
14.50361606713291
 20
-111.6455170271769
 30
0.0
 10
14.50243504847396
 20
-111.6457160704722
 30
0.0
 10
14.49952642204796
 20
-111.6464127220004
 30
0.0
 10
14.4980092752241
 20
-111.6468232487931
 30
0.0
 10
14.49566169558045
 20
-111.6475199003184
 30
0.0
 10
14.49504774090188
 20
-111.6477065034054
 30
0.0
 10
14.49440772848279
 20
-111.6479055466981
 30
0.0
  0
SPLINE
  5
171
330
1F
100
AcDbEntity
  8
0
  6
Continuous
 62
     7
370
    15
100
AcDbSpline
210
0.0
220
0.0
230
1.0
 70
     8
 71
     3
 72
    18
 73
    14
 74
     0
 42
0.000000001
 43
0.00000001
 40
0.0
 40
0.0
 40
0.0
 40
0.0
 40
0.0903890492723769
 40
0.0903890492723769
 40
0.1807780985447539
 40
0.1807780985447539
 40
0.4210816189295885
 40
0.4210816189295885
 40
0.7070208393547222
 40
0.7070208393547222
 40
0.8535104196773611
 40
0.8535104196773611
 40
1.0
 40
1.0
 40
1.0
 40
1.0
 10
14.49440772848279
 20
-111.6479055466981
 30
0.0
 10
14.49130263656662
 20
-111.6313555832028
 30
0.0
 10
14.48436333540298
 20
-111.6132192150636
 30
0.0
 10
14.46376739190916
 20
-111.5786548003813
 30
0.0
 10
14.45015256256449
 20
-111.5622840706067
 30
0.0
 10
14.39900829327037
 20
-111.5127503986692
 30
0.0
 10
14.3552118311257
 20
-111.4877408246448
 30
0.0
 10
14.25026554598871
 20
-111.4424087396701
 30
0.0
 10
14.194232679135
 20
-111.4275652789572
 30
0.0
 10
14.10186986890671
 20
-111.4109592358693
 30
0.0
 10
14.07051210959398
 20
-111.4068130611145
 30
0.0
 10
14.00858490280971
 20
-111.401333443179
 30
0.0
 10
13.97801545533814
 20
-111.3999999999982
 30
0.0
 10
13.94830325347426
 20
-111.3999999999982
 30
0.0
  0
SPLINE
  5
172
330
1F
100
AcDbEntity
  8
0
  6
Continuous
 62
     7
370
    15
100
AcDbSpline
210
0.0
220
0.0
230
1.0
 70
     8
 71
     3
 72
    18
 73
    14
 74
     0
 42
0.000000001
 43
0.00000001
 40
0.0
 40
0.0
 40
0.0
 40
0.0
 40
0.146489580322639
 40
0.146489580322639
 40
0.2929791606452779
 40
0.2929791606452779
 40
0.5789183810704115
 40
0.5789183810704115
 40
0.8192219014552461
 40
0.8192219014552461
 40
0.9096109507276231
 40
0.9096109507276231
 40
1.0
 40
1.0
 40
1.0
 40
1.0
 10
13.94830325347426
 20
-111.3999999999982
 30
0.0
 10
13.97813172511864
 20
-111.3999999999982
 30
0.0
 10
14.00881221508643
 20
-111.4013334431717
 30
0.0
 10
14.07096820702144
 20
-111.4068130610218
 30
0.0
 10
14.10244370901093
 20
-111.4109592356961
 30
0.0
 10
14.19518929819522
 20
-111.4275652785451
 30
0.0
 10
14.25148673293136
 20
-111.4424087390049
 30
0.0
 10
14.35723267313726
 20
-111.4877408234598
 30
0.0
 10
14.40147358718413
 20
-111.5127503967329
 30
0.0
 10
14.45388320069538
 20
-111.5622840681207
 30
0.0
 10
14.46794998120049
 20
-111.5786547976171
 30
0.0
 10
14.48964224281243
 20
-111.6132192120162
 30
0.0
 10
14.49722802212078
 20
-111.6313555802039
 30
0.0
 10
14.50101168205226
 20
-111.6479055443625
 30
0.0
  0
SPLINE
  5
173
330
1F
100
AcDbEntity
  8
0
  6
Continuous
 62
     7
370
    15
100
AcDbSpline
210
0.0
220
0.0
230
1.0
 70
     8
 71
     3
 72
    20
 73
    16
 74
     0
 42
0.000000001
 43
0.00000001
 40
0.0
 40
0.0
 40
0.0
 40
0.0
 40
0.1464895826441497
 40
0.1464895826441497
 40
0.2929791652882994
 40
0.2929791652882994
 40
0.5789183902447852
 40
0.5789183902447852
 40
0.7591460333895959
 40
0.7591460333895959
 40
0.8192219144378661
 40
0.8192219144378661
 40
0.909610957218933
 40
0.909610957218933
 40
1.0
 40
1.0
 40
1.0
 40
1.0
 10
7.305480010538684
 20
-111.3999999999982
 30
0.0
 10
7.275651538752648
 20
-111.3999999999982
 30
0.0
 10
7.244971048645938
 20
-111.401333443179
 30
0.0
 10
7.182815056452297
 20
-111.4068130611145
 30
0.0
 10
7.151339554365394
 20
-111.4109592358693
 30
0.0
 10
7.058593965177523
 20
-111.4275652789572
 30
0.0
 10
7.002296530767616
 20
-111.4424087396701
 30
0.0
 10
6.908622549319649
 20
-111.4825657130656
 30
0.0
 10
6.874683067643494
 20
-111.5005149312513
 30
0.0
 10
6.833652283419922
 20
-111.5314342094307
 30
0.0
 10
6.823746408864961
 20
-111.5397462779143
 30
0.0
 10
6.799900065410425
 20
-111.5622840700133
 30
0.0
 10
6.785833285289117
 20
-111.5786547997506
 30
0.0
 10
6.764141024913572
 20
-111.6132192147405
 30
0.0
 10
6.756555246400092
 20
-111.6313555832099
 30
0.0
 10
6.752771587245215
 20
-111.6479055466981
 30
0.0
  0
SPLINE
  5
174
330
1F
100
AcDbEntity
  8
0
  6
Continuous
 62
     7
370
    15
100
AcDbSpline
210
0.0
220
0.0
230
1.0
 70
     8
 71
     3
 72
    12
 73
     8
 74
     0
 42
0.000000001
 43
0.00000001
 40
0.4999999986849828
 40
0.4999999986849828
 40
0.4999999986849828
 40
0.4999999986849828
 40
0.5624999986849828
 40
0.5624999986849828
 40
0.7499999986849828
 40
0.7499999986849828
 40
1.0
 40
1.0
 40
1.0
 40
1.0
 10
6.752771587245215
 20
-111.6479055466981
 30
0.0
 10
6.752321233027186
 20
-111.6477065034054
 30
0.0
 10
6.751912968982865
 20
-111.6475199003184
 30
0.0
 10
6.750444265392313
 20
-111.6468232487931
 30
0.0
 10
6.749712531019581
 20
-111.6464127220004
 30
0.0
 10
6.748804874195047
 20
-111.6457160704722
 30
0.0
 10
6.748895526202753
 20
-111.6455170271769
 30
0.0
 10
6.749531361531752
 20
-111.6455170271751
 30
0.0
  0
SPLINE
  5
175
330
1F
100
AcDbEntity
  8
0
  6
Continuous
 62
     7
370
    15
100
AcDbSpline
210
0.0
220
0.0
230
1.0
 70
     8
 71
     3
 72
    20
 73
    16
 74
     0
 42
0.000000001
 43
0.00000001
 40
0.0
 40
0.0
 40
0.0
 40
0.0
 40
0.090389042781067
 40
0.090389042781067
 40
0.1807780855621339
 40
0.1807780855621339
 40
0.2408539666104041
 40
0.2408539666104041
 40
0.4210816097552148
 40
0.4210816097552148
 40
0.7070208347117006
 40
0.7070208347117006
 40
0.8535104173558503
 40
0.8535104173558503
 40
1.0
 40
1.0
 40
1.0
 40
1.0
 10
6.75937553553016
 20
-111.6479055466981
 30
0.0
 10
6.762480627445028
 20
-111.6313555832099
 30
0.0
 10
6.769419928735642
 20
-111.6132192147405
 30
0.0
 10
6.790015872546462
 20
-111.5786547997506
 30
0.0
 10
6.803630702061164
 20
-111.5622840700133
 30
0.0
 10
6.826901315026474
 20
-111.5397462779142
 30
0.0
 10
6.836607008144979
 20
-111.5314342094306
 30
0.0
 10
6.876931091263999
 20
-111.5005149312513
 30
0.0
 10
6.91055210255448
 20
-111.4825657130656
 30
0.0
 10
7.00351771802421
 20
-111.4424087396701
 30
0.0
 10
7.059550584877922
 20
-111.4275652789572
 30
0.0
 10
7.151913395106235
 20
-111.4109592358693
 30
0.0
 10
7.183271154418941
 20
-111.4068130611145
 30
0.0
 10
7.245198361203242
 20
-111.401333443179
 30
0.0
 10
7.275767808674782
 20
-111.3999999999982
 30
0.0
 10
7.305480010538684
 20
-111.3999999999982
 30
0.0
  0
LWPOLYLINE
  5
176
330
1F
100
AcDbEntity
  8
0
  6
Continuous
 62
     7
370
    15
100
AcDbPolyline
 90
        8
 70
   128
 43
0.0
 10
9.5898099372
 20
-111.6039217394
 10
9.6009273319
 20
-111.5551644751
 10
9.6163339086
 20
-111.5109752252
 10
9.6355437544
 20
-111.4727476888
 10
9.6579510036
 20
-111.4416875366
 10
9.6828489469
 20
-111.4187743847
 10
9.7094523199
 20
-111.4047308985
 10
9.7369220703
 20
-111.4
  0
SPLINE
  5
178
330
1F
100
AcDbEntity
  8
0
  6
Continuous
 62
     7
370
    15
100
AcDbSpline
210
0.0
220
0.0
230
1.0
 70
    24
 71
     3
 72
     9
 73
     5
 74
     0
 42
0.000000001
 43
0.00000001
 40
0.0
 40
0.0
 40
0.0
 40
0.0
 40
0.0107193511780043
 40
1.0
 40
1.0
 40
1.0
 40
1.0
 10
-15.42993901033501
 20
-111.4000000000001
 30
0.0
 10
-15.42972508150894
 20
-111.4000000000001
 30
0.0
 10
-15.40976782639919
 20
-111.4000000000008
 30
0.0
 10
-15.45008090608724
 20
-111.4000000000005
 30
0.0
 10
-15.48996185571705
 20
-111.4000000000001
 30
0.0
  0
SPLINE
  5
179
330
1F
100
AcDbEntity
  8
0
  6
Continuous
 62
     7
370
    15
100
AcDbSpline
210
0.0
220
0.0
230
1.0
 70
     8
 71
     3
 72
    18
 73
    14
 74
     0
 42
0.000000001
 43
0.00000001
 40
0.0000002444614541
 40
0.0000002444614541
 40
0.0000002444614541
 40
0.0000002444614541
 40
0.0625
 40
0.0625
 40
0.25
 40
0.25
 40
0.5
 40
0.5
 40
0.75
 40
0.75
 40
0.9375
 40
0.9375
 40
1.0
 40
1.0
 40
1.0
 40
1.0
 10
-9.432133641457202
 20
-111.6479055467
 30
0.0
 10
-9.431683287235288
 20
-111.6477065034056
 30
0.0
 10
-9.431275023187885
 20
-111.6475199003172
 30
0.0
 10
-9.429806319588007
 20
-111.6468232487874
 30
0.0
 10
-9.429074585214748
 20
-111.646412721994
 30
0.0
 10
-9.428166928397207
 20
-111.6457160704672
 30
0.0
 10
-9.428257580415156
 20
-111.6455170271753
 30
0.0
 10
-9.429529251092028
 20
-111.6455170271788
 30
0.0
 10
-9.43071026975098
 20
-111.6457160704741
 30
0.0
 10
-9.43361889617697
 20
-111.6464127220024
 30
0.0
 10
-9.435136043000835
 20
-111.646823248795
 30
0.0
 10
-9.437483622644487
 20
-111.6475199003203
 30
0.0
 10
-9.438097577323056
 20
-111.6477065034073
 30
0.0
 10
-9.438737589742146
 20
-111.6479055467
 30
0.0
  0
SPLINE
  5
17A
330
1F
100
AcDbEntity
  8
0
  6
Continuous
 62
     7
370
    15
100
AcDbSpline
210
0.0
220
0.0
230
1.0
 70
     8
 71
     3
 72
    18
 73
    14
 74
     0
 42
0.000000001
 43
0.00000001
 40
0.0
 40
0.0
 40
0.0
 40
0.0
 40
0.0903890492723769
 40
0.0903890492723769
 40
0.1807780985447539
 40
0.1807780985447539
 40
0.4210816189295885
 40
0.4210816189295885
 40
0.7070208393547222
 40
0.7070208393547222
 40
0.8535104196773611
 40
0.8535104196773611
 40
1.0
 40
1.0
 40
1.0
 40
1.0
 10
-9.438737589742146
 20
-111.6479055467
 30
0.0
 10
-9.441842681658319
 20
-111.6313555832048
 30
0.0
 10
-9.448781982821952
 20
-111.6132192150655
 30
0.0
 10
-9.469377926315776
 20
-111.5786548003832
 30
0.0
 10
-9.482992755660447
 20
-111.5622840706086
 30
0.0
 10
-9.534137024954564
 20
-111.5127503986711
 30
0.0
 10
-9.577933487099234
 20
-111.4877408246467
 30
0.0
 10
-9.682879772236225
 20
-111.442408739672
 30
0.0
 10
-9.738912639089936
 20
-111.4275652789591
 30
0.0
 10
-9.831275449318222
 20
-111.4109592358712
 30
0.0
 10
-9.862633208630955
 20
-111.4068130611164
 30
0.0
 10
-9.924560415415229
 20
-111.4013334431809
 30
0.0
 10
-9.955129862886796
 20
-111.4000000000001
 30
0.0
 10
-9.984842064750671
 20
-111.4000000000001
 30
0.0
  0
SPLINE
  5
17B
330
1F
100
AcDbEntity
  8
0
  6
Continuous
 62
     7
370
    15
100
AcDbSpline
210
0.0
220
0.0
230
1.0
 70
     8
 71
     3
 72
    18
 73
    14
 74
     0
 42
0.000000001
 43
0.00000001
 40
0.0
 40
0.0
 40
0.0
 40
0.0
 40
0.146489580322639
 40
0.146489580322639
 40
0.2929791606452779
 40
0.2929791606452779
 40
0.5789183810704115
 40
0.5789183810704115
 40
0.8192219014552461
 40
0.8192219014552461
 40
0.9096109507276231
 40
0.9096109507276231
 40
1.0
 40
1.0
 40
1.0
 40
1.0
 10
-9.984842064750671
 20
-111.4000000000001
 30
0.0
 10
-9.9550135931063
 20
-111.4000000000001
 30
0.0
 10
-9.924333103138505
 20
-111.4013334431736
 30
0.0
 10
-9.86217711120349
 20
-111.4068130610237
 30
0.0
 10
-9.83070160921401
 20
-111.410959235698
 30
0.0
 10
-9.73795602002972
 20
-111.427565278547
 30
0.0
 10
-9.681658585293572
 20
-111.4424087390068
 30
0.0
 10
-9.57591264508767
 20
-111.4877408234617
 30
0.0
 10
-9.531671731040802
 20
-111.5127503967348
 30
0.0
 10
-9.479262117529558
 20
-111.5622840681227
 30
0.0
 10
-9.465195337024445
 20
-111.5786547976191
 30
0.0
 10
-9.443503075412474
 20
-111.6132192120181
 30
0.0
 10
-9.435917296104158
 20
-111.6313555802058
 30
0.0
 10
-9.43213363617268
 20
-111.6479055443644
 30
0.0
  0
SPLINE
  5
17C
330
1F
100
AcDbEntity
  8
0
  6
Continuous
 62
     7
370
    15
100
AcDbSpline
210
0.0
220
0.0
230
1.0
 70
     8
 71
     3
 72
    20
 73
    16
 74
     0
 42
0.000000001
 43
0.00000001
 40
0.0
 40
0.0
 40
0.0
 40
0.0
 40
0.1464895826441497
 40
0.1464895826441497
 40
0.2929791652882994
 40
0.2929791652882994
 40
0.5789183902447852
 40
0.5789183902447852
 40
0.7591460333895959
 40
0.7591460333895959
 40
0.8192219144378661
 40
0.8192219144378661
 40
0.909610957218933
 40
0.909610957218933
 40
1.0
 40
1.0
 40
1.0
 40
1.0
 10
-16.62766530768625
 20
-111.4000000000001
 30
0.0
 10
-16.65749377947229
 20
-111.4000000000001
 30
0.0
 10
-16.68817426957903
 20
-111.4013334431809
 30
0.0
 10
-16.75033026177264
 20
-111.4068130611164
 30
0.0
 10
-16.78180576385954
 20
-111.4109592358712
 30
0.0
 10
-16.87455135304741
 20
-111.4275652789591
 30
0.0
 10
-16.93084878745732
 20
-111.442408739672
 30
0.0
 10
-17.02452276890531
 20
-111.4825657130675
 30
0.0
 10
-17.05846225058144
 20
-111.5005149312532
 30
0.0
 10
-17.09949303480501
 20
-111.5314342094326
 30
0.0
 10
-17.10939890935997
 20
-111.5397462779162
 30
0.0
 10
-17.13324525281451
 20
-111.5622840700152
 30
0.0
 10
-17.14731203293582
 20
-111.5786547997525
 30
0.0
 10
-17.16900429331136
 20
-111.6132192147424
 30
0.0
 10
-17.17659007182484
 20
-111.6313555832118
 30
0.0
 10
-17.18037373097972
 20
-111.6479055467
 30
0.0
  0
SPLINE
  5
17D
330
1F
100
AcDbEntity
  8
0
  6
Continuous
 62
     7
370
    15
100
AcDbSpline
210
0.0
220
0.0
230
1.0
 70
     8
 71
     3
 72
    12
 73
     8
 74
     0
 42
0.000000001
 43
0.00000001
 40
0.4999999986836035
 40
0.4999999986836035
 40
0.4999999986836035
 40
0.4999999986836035
 40
0.5624999986836035
 40
0.5624999986836035
 40
0.7499999986836035
 40
0.7499999986836035
 40
1.0
 40
1.0
 40
1.0
 40
1.0
 10
-17.18037373097972
 20
-111.6479055467
 30
0.0
 10
-17.18082408519775
 20
-111.6477065034073
 30
0.0
 10
-17.18123234924207
 20
-111.6475199003203
 30
0.0
 10
-17.18270105283262
 20
-111.646823248795
 30
0.0
 10
-17.18343278720535
 20
-111.6464127220024
 30
0.0
 10
-17.18434044402989
 20
-111.6457160704741
 30
0.0
 10
-17.18424979202218
 20
-111.6455170271788
 30
0.0
 10
-17.18361395669315
 20
-111.645517027177
 30
0.0
  0
SPLINE
  5
17E
330
1F
100
AcDbEntity
  8
0
  6
Continuous
 62
     7
370
    15
100
AcDbSpline
210
0.0
220
0.0
230
1.0
 70
     8
 71
     3
 72
    20
 73
    16
 74
     0
 42
0.000000001
 43
0.00000001
 40
0.0
 40
0.0
 40
0.0
 40
0.0
 40
0.090389042781067
 40
0.090389042781067
 40
0.1807780855621339
 40
0.1807780855621339
 40
0.2408539666104041
 40
0.2408539666104041
 40
0.4210816097552148
 40
0.4210816097552148
 40
0.7070208347117006
 40
0.7070208347117006
 40
0.8535104173558503
 40
0.8535104173558503
 40
1.0
 40
1.0
 40
1.0
 40
1.0
 10
-17.17376978269478
 20
-111.6479055467
 30
0.0
 10
-17.17066469077994
 20
-111.6313555832118
 30
0.0
 10
-17.16372538948929
 20
-111.6132192147424
 30
0.0
 10
-17.14312944567847
 20
-111.5786547997525
 30
0.0
 10
-17.1295146161638
 20
-111.5622840700152
 30
0.0
 10
-17.10624400319846
 20
-111.5397462779162
 30
0.0
 10
-17.09653831007996
 20
-111.5314342094325
 30
0.0
 10
-17.05621422696094
 20
-111.5005149312532
 30
0.0
 10
-17.02259321567045
 20
-111.4825657130675
 30
0.0
 10
-16.92962760020072
 20
-111.442408739672
 30
0.0
 10
-16.87359473334701
 20
-111.4275652789592
 30
0.0
 10
-16.7812319231187
 20
-111.4109592358712
 30
0.0
 10
-16.74987416380597
 20
-111.4068130611164
 30
0.0
 10
-16.68794695702169
 20
-111.4013334431809
 30
0.0
 10
-16.65737750955015
 20
-111.4000000000001
 30
0.0
 10
-16.62766530768625
 20
-111.4000000000001
 30
0.0
  0
LWPOLYLINE
  5
17F
330
1F
100
AcDbEntity
  8
0
  6
Continuous
 62
     7
370
    15
100
AcDbPolyline
 90
        8
 70
   128
 43
0.0
 10
-14.343335381
 20
-111.6039217394
 10
-14.3322179863
 20
-111.5551644751
 10
-14.3168114096
 20
-111.5109752252
 10
-14.2976015638
 20
-111.4727476888
 10
-14.2751943146
 20
-111.4416875366
 10
-14.2502963713
 20
-111.4187743847
 10
-14.2236929983
 20
-111.4047308985
 10
-14.1962232479
 20
-111.4
  0
LWPOLYLINE
  5
194
330
1F
100
AcDbEntity
  8
0
  6
Continuous
 62
     7
370
    15
100
AcDbPolyline
 90
       20
 70
   128
 43
0.0
 10
8.0621433143
 20
-13.1932087483
 10
6.2822428496
 20
-11.7801978634
 10
4.7225133304
 20
-10.1040368244
 10
3.4177965366
 20
-8.2021682992
 10
2.3972376854
 20
-6.1170768878
 10
1.6836343752
 20
-3.895340087
 10
1.2929273247
 20
-1.5865878254
 10
1.2338442839
 20
0.7576061864
 10
1.5077050701
 20
3.0848765278
 10
2.1083920861
 20
5.3432358253
 10
3.0224869763
 20
7.4822360638
 10
4.2295703716
 20
9.4540955127
 10
5.7026780235
 20
11.2147660902
 10
7.4089031413
 20
12.7249173252
 10
9.3101314752
 20
13.9508149343
 10
11.3638927261
 20
14.8650743909
 10
13.5243092613
 20
15.4472726493
 10
15.7431209454
 20
15.6844043626
 10
17.9707631918
 20
15.5711724001
 10
19.4033266945
 20
15.3097486011
  0
LWPOLYLINE
  5
196
330
1F
100
AcDbEntity
  8
0
  6
Continuous
 62
     7
370
    15
100
AcDbPolyline
 90
       40
 70
   128
 43
0.0
 10
23.0060433621
 20
11.6040352637
 10
24.6843692021
 20
10.2556498533
 10
26.1352512236
 20
8.6416484987
 10
27.3211123442
 20
6.8038329873
 10
28.2112393839
 20
4.7898017753
 10
28.78257852
 20
2.6517172134
 10
29.0203323688
 20
0.4449545684
 10
28.9183432306
 20
-1.7733321661
 10
28.4792525705
 20
-3.945690529
 10
27.714432606
 20
-6.0158575798
 10
26.6436917723
 20
-7.9302170793
 10
25.2947616948
 20
-9.639188122
 10
23.7025789537
 20
-11.0985092556
 10
21.9083802458
 20
-12.2703848292
 10
19.9586343751
 20
-13.1244638811
 10
17.9038387356
 20
-13.6386262125
 10
15.7972114549
 20
-13.799555289
 10
13.6933130732
 20
-13.6030831321
 10
11.6466334532
 20
-13.0542982675
 10
9.7101805222
 20
-12.1674139348
 10
7.9341073939
 20
-10.9653999725
 10
6.3644134293
 20
-9.4793879108
 10
5.0417528776
 20
-7.7478646815
 10
4.0003819524
 20
-5.8156758267
 10
3.2672716136
 20
-3.7328640229
 10
2.8614090339
 20
-1.5533730016
 10
2.7933058409
 20
0.6663495644
 10
3.0647258716
 20
2.8688140267
 10
3.6686394897
 20
4.9969777127
 10
4.5894056497
 20
6.9957223006
 10
5.8031769918
 20
8.8132813557
 10
7.2785174757
 20
10.402581053
 10
8.9772165579
 20
11.7224593653
 10
10.8552788244
 20
12.7387321375
 10
12.864063449
 20
13.4250784387
 10
14.9515439652
 20
13.7637222602
 10
17.0636557241
 20
13.7458929049
 10
19.1456961404
 20
13.3720521438
 10
21.1437414612
 20
12.6518822561
 10
23.0060433621
 20
11.6040352637
  0
LWPOLYLINE
  5
197
330
1F
100
AcDbEntity
  8
0
  6
Continuous
 62
     7
370
    15
100
AcDbPolyline
 90
       39
 70
   128
 43
0.0
 10
22.9443252674
 20
11.3517736275
 10
21.0725568283
 20
12.399586435
 10
19.0622935559
 20
13.1091708478
 10
16.9683701919
 20
13.4611712529
 10
14.8479035073
 20
13.4459859969
 10
12.7587343056
 20
13.064029294
 10
10.7578496765
 20
12.3257199273
 10
8.8998285368
 20
11.2511970517
 10
7.2353528596
 20
9.8697708502
 10
5.8098252026
 20
8.2191230285
 10
4.6621302441
 20
6.3442789562
 10
3.8235741107
 20
4.2963794923
 10
3.3170304279
 20
2.1312859956
 10
3.1563163868
 20
-0.0919434271
 10
3.3458158475
 20
-2.3126648729
 10
3.8803597587
 20
-4.4703028496
 10
4.745367156
 20
-6.5060026178
 10
5.9172428925
 20
-8.3642355945
 10
7.3640212529
 20
-9.9943140281
 10
9.0462378951
 20
-11.3517736283
 10
10.9180063342
 20
-12.3995864357
 10
12.9282696066
 20
-13.1091708485
 10
15.0221929706
 20
-13.4611712537
 10
17.1426596552
 20
-13.4459859977
 10
19.2318288569
 20
-13.0640292947
 10
21.232713486
 20
-12.325719928
 10
23.0907346257
 20
-11.2511970524
 10
24.7552103029
 20
-9.8697708509
 10
26.1807379599
 20
-8.2191230292
 10
27.3284329184
 20
-6.344278957
 10
28.1669890518
 20
-4.296379493
 10
28.6735327346
 20
-2.1312859964
 10
28.8342467757
 20
0.0919434264
 10
28.644747315
 20
2.3126648722
 10
28.1102034038
 20
4.4703028489
 10
27.2451960065
 20
6.5060026171
 10
26.07332027
 20
8.3642355938
 10
24.6265419096
 20
9.9943140274
 10
22.9443252674
 20
11.3517736275
  0
LWPOLYLINE
  5
198
330
1F
100
AcDbEntity
  8
0
  6
Continuous
 62
     7
370
    15
100
AcDbPolyline
 90
       24
 70
   128
 43
0.0
 10
23.0099673536
 20
-18.0000000004
 10
24.5711272149
 20
-17.9249958362
 10
26.928513174
 20
-17.5220982774
 10
29.209629096
 20
-16.7781530067
 10
31.3700756542
 20
-15.7076400726
 10
33.3678022138
 20
-14.3313957917
 10
35.1639252997
 20
-12.6762071934
 10
36.7234854192
 20
-10.7742906411
 10
38.0161275083
 20
-8.662664777
 10
39.0166917594
 20
-6.3824299967
 10
39.7057033272
 20
-3.9779684764
 10
40.0697513854
 20
-1.4960803247
 10
40.1017501527
 20
1.0149273289
 10
39.8010768094
 20
3.5061805764
 10
39.1735836201
 20
5.9291900073
 10
38.2314840261
 20
8.2367944989
 10
36.9931149242
 20
10.3840791549
 10
35.4825797605
 20
12.3292495218
 10
33.7292793836
 20
14.0344450711
 10
31.7673397912
 20
15.4664761111
 10
29.6349479056
 20
16.5974697863
 10
27.3736083093
 20
17.4054125915
 10
25.0273354054
 20
17.874578839
 10
23.0099673536
 20
17.9999999996
  0
LWPOLYLINE
  5
19A
330
1F
100
AcDbEntity
  8
0
  6
Continuous
 62
     7
370
    15
100
AcDbPolyline
 90
       20
 70
   128
 43
0.0
 10
607.6140198237
 20
-13.193208748
 10
605.8341193591
 20
-11.780197863
 10
604.2743898398
 20
-10.104036824
 10
602.969673046
 20
-8.2021682988
 10
601.9491141949
 20
-6.1170768874
 10
601.2355108847
 20
-3.8953400866
 10
600.8448038342
 20
-1.5865878251
 10
600.7857207933
 20
0.7576061867
 10
601.0595815796
 20
3.0848765282
 10
601.6602685955
 20
5.3432358257
 10
602.5743634858
 20
7.4822360642
 10
603.7814468811
 20
9.4540955131
 10
605.2545545329
 20
11.2147660906
 10
606.9607796507
 20
12.7249173255
 10
608.8620079847
 20
13.9508149347
 10
610.9157692356
 20
14.8650743912
 10
613.0761857708
 20
15.4472726497
 10
615.2949974549
 20
15.684404363
 10
617.5226397013
 20
15.5711724005
 10
618.9552032039
 20
15.3097486014
  0
LWPOLYLINE
  5
19C
330
1F
100
AcDbEntity
  8
0
  6
Continuous
 62
     7
370
    15
100
AcDbPolyline
 90
       40
 70
   128
 43
0.0
 10
622.5579198716
 20
11.6040352641
 10
624.2362457116
 20
10.2556498537
 10
625.687127733
 20
8.6416484991
 10
626.8729888537
 20
6.8038329876
 10
627.7631158934
 20
4.7898017757
 10
628.3344550294
 20
2.6517172137
 10
628.5722088782
 20
0.4449545688
 10
628.47021974
 20
-1.7733321657
 10
628.03112908
 20
-3.9456905286
 10
627.2663091154
 20
-6.0158575794
 10
626.1955682818
 20
-7.9302170789
 10
624.8466382042
 20
-9.6391881216
 10
623.2544554632
 20
-11.0985092552
 10
621.4602567552
 20
-12.2703848288
 10
619.5105108846
 20
-13.1244638807
 10
617.455715245
 20
-13.6386262121
 10
615.3490879644
 20
-13.7995552886
 10
613.2451895826
 20
-13.6030831317
 10
611.1985099627
 20
-13.0542982671
 10
609.2620570317
 20
-12.1674139345
 10
607.4859839033
 20
-10.9653999722
 10
605.9162899387
 20
-9.4793879104
 10
604.5936293871
 20
-7.7478646811
 10
603.5522584619
 20
-5.8156758264
 10
602.8191481231
 20
-3.7328640225
 10
602.4132855434
 20
-1.5533730013
 10
602.3451823504
 20
0.6663495648
 10
602.6166023811
 20
2.8688140271
 10
603.2205159991
 20
4.996977713
 10
604.1412821592
 20
6.995722301
 10
605.3550535012
 20
8.813281356
 10
606.8303939851
 20
10.4025810534
 10
608.5290930673
 20
11.7224593656
 10
610.4071553338
 20
12.7387321379
 10
612.4159399585
 20
13.4250784391
 10
614.5034204747
 20
13.7637222606
 10
616.6155322335
 20
13.7458929053
 10
618.6975726499
 20
13.3720521441
 10
620.6956179707
 20
12.6518822565
 10
622.5579198716
 20
11.6040352641
  0
LWPOLYLINE
  5
19D
330
1F
100
AcDbEntity
  8
0
  6
Continuous
 62
     7
370
    15
100
AcDbPolyline
 90
       39
 70
   128
 43
0.0
 10
622.4962017769
 20
11.3517736279
 10
620.6244333377
 20
12.3995864354
 10
618.6141700653
 20
13.1091708482
 10
616.5202467014
 20
13.4611712533
 10
614.3997800168
 20
13.4459859973
 10
612.310610815
 20
13.0640292943
 10
610.3097261859
 20
12.3257199276
 10
608.4517050462
 20
11.2511970521
 10
606.7872293691
 20
9.8697708506
 10
605.3617017121
 20
8.2191230289
 10
604.2140067536
 20
6.3442789566
 10
603.3754506202
 20
4.2963794927
 10
602.8689069373
 20
2.131285996
 10
602.7081928962
 20
-0.0919434268
 10
602.8976923569
 20
-2.3126648725
 10
603.4322362682
 20
-4.4703028493
 10
604.2972436655
 20
-6.5060026175
 10
605.469119402
 20
-8.3642355941
 10
606.9158977624
 20
-9.9943140277
 10
608.5981144046
 20
-11.3517736279
 10
610.4698828437
 20
-12.3995864354
 10
612.4801461161
 20
-13.1091708482
 10
614.57406948
 20
-13.4611712533
 10
616.6945361646
 20
-13.4459859973
 10
618.7837053664
 20
-13.0640292943
 10
620.7845899955
 20
-12.3257199276
 10
622.6426111352
 20
-11.2511970521
 10
624.3070868123
 20
-9.8697708506
 10
625.7326144694
 20
-8.2191230289
 10
626.8803094279
 20
-6.3442789566
 10
627.7188655612
 20
-4.2963794927
 10
628.2254092441
 20
-2.131285996
 10
628.3861232852
 20
0.0919434268
 10
628.1966238245
 20
2.3126648725
 10
627.6620799133
 20
4.4703028493
 10
626.797072516
 20
6.5060026175
 10
625.6251967795
 20
8.3642355941
 10
624.178418419
 20
9.9943140277
 10
622.4962017769
 20
11.3517736279
  0
LWPOLYLINE
  5
19E
330
1F
100
AcDbEntity
  8
0
  6
Continuous
 62
     7
370
    15
100
AcDbPolyline
 90
       24
 70
   128
 43
0.0
 10
622.561843863
 20
-18.0
 10
624.1230037243
 20
-17.9249958358
 10
626.4803896834
 20
-17.522098277
 10
628.7615056055
 20
-16.7781530063
 10
630.9219521637
 20
-15.7076400722
 10
632.9196787233
 20
-14.3313957913
 10
634.7158018092
 20
-12.676207193
 10
636.2753619286
 20
-10.7742906407
 10
637.5680040178
 20
-8.6626647767
 10
638.5685682688
 20
-6.3824299964
 10
639.2575798366
 20
-3.9779684761
 10
639.6216278949
 20
-1.4960803243
 10
639.6536266621
 20
1.0149273293
 10
639.3529533188
 20
3.5061805768
 10
638.7254601296
 20
5.9291900076
 10
637.7833605355
 20
8.2367944993
 10
636.5449914337
 20
10.3840791553
 10
635.0344562699
 20
12.3292495222
 10
633.2811558931
 20
14.0344450715
 10
631.3192163006
 20
15.4664761114
 10
629.186824415
 20
16.5974697867
 10
626.9254848188
 20
17.4054125919
 10
624.5792119149
 20
17.8745788394
 10
622.561843863
 20
18.0
  0
LWPOLYLINE
  5
1A2
330
1F
100
AcDbEntity
  8
0
  6
Continuous
 62
     7
370
    15
100
AcDbPolyline
 90
       25
 70
   128
 43
0.0
 10
-1665.1716706039
 20
-15.2848948529
 10
-1667.1623748414
 20
-15.6228785205
 10
-1669.3922703931
 20
-15.6643138925
 10
-1671.6031332193
 20
-15.3558343767
 10
-1673.7455762976
 20
-14.7043308956
 10
-1675.77174099
 20
-13.7243569605
 10
-1677.6363661254
 20
-12.4378035697
 10
-1679.2977990595
 20
-10.8734102
 10
-1680.718926126
 20
-9.0661228143
 10
-1681.8680016945
 20
-7.0563132261
 10
-1682.7193573157
 20
-4.8888772607
 10
-1683.2539751117
 20
-2.6122318559
 10
-1683.4599126045
 20
-0.2772335081
 10
-1683.3325694908
 20
2.0639577782
 10
-1682.8747904052
 20
4.3590436584
 10
-1682.0968013762
 20
6.5567557063
 10
-1681.015981393
 20
8.6080006664
 10
-1679.656474188
 20
10.466957116
 10
-1678.0486489058
 20
12.0920990397
 10
-1676.2284217061
 20
13.4471234525
 10
-1674.236453457
 20
14.501761348
 10
-1672.1172414373
 20
15.2324538584
 10
-1669.9181253418
 20
15.6228785206
 10
-1667.6882297901
 20
15.6643138926
 10
-1667.6882297901
 20
15.6643138926
  0
LWPOLYLINE
  5
1A3
330
1F
100
AcDbEntity
  8
0
  6
Continuous
 62
     7
370
    15
100
AcDbPolyline
 90
       40
 70
   128
 43
0.0
 10
-1669.5254952452
 20
-13.7774861498
 10
-1671.617686786
 20
-13.4726742168
 10
-1673.6362828282
 20
-12.8189270984
 10
-1675.5290027947
 20
-11.8331765017
 10
-1677.2468262325
 20
-10.5409528492
 10
-1678.7452624168
 20
-8.9757240549
 10
-1679.9855026377
 20
-7.1780287222
 10
-1680.9354253249
 20
-5.1944262161
 10
-1681.5704279797
 20
-3.0762907995
 10
-1681.8740643669
 20
-0.8784810671
 10
-1681.8384704636
 20
1.3420808634
 10
-1681.4645681333
 20
3.5278836046
 10
-1680.7620412498
 20
5.6223160136
 10
-1679.7490848904
 20
7.571133391
 10
-1678.4519340927
 20
9.3238623906
 10
-1676.9041843811
 20
10.8351082518
 10
-1675.14592166
 20
12.0657305008
 10
-1673.2226840104
 20
12.9838566676
 10
-1671.1842822772
 20
13.5657077668
 10
-1669.0835099946
 20
13.7962141606
 10
-1666.9747760611
 20
13.6694058545
 10
-1664.912695578
 20
13.1885671169
 10
-1662.9506753466
 20
12.3661514187
 10
-1661.1395306604
 20
11.2234588943
 10
-1659.5261692153
 20
9.79008468
 10
-1658.1523762253
 20
8.103152415
 10
-1657.0537322072
 20
6.2063527588
 10
-1656.2586914641
 20
4.1488118262
 10
-1655.7878451335
 20
1.9838188466
 10
-1655.6533878881
 20
-0.2325539991
 10
-1655.8588020999
 20
-2.4429038183
 10
-1656.3987676488
 20
-4.5899837119
 10
-1657.2592997105
 20
-6.6181854384
 10
-1658.4181109569
 20
-8.4749796383
 10
-1659.8451887852
 20
-10.1122763174
 10
-1661.5035726293
 20
-11.4876703515
 10
-1663.3503112188
 20
-12.5655397577
 10
-1665.3375749943
 20
-13.3179682846
 10
-1667.4138948678
 20
-13.7254684285
 10
-1669.5254952452
 20
-13.7774861498
  0
LWPOLYLINE
  5
1A4
330
1F
100
AcDbEntity
  8
0
  6
Continuous
 62
     7
370
    15
100
AcDbPolyline
 90
       39
 70
   128
 43
0.0
 10
-1669.4164990354
 20
-13.4779755813
 10
-1667.2966749537
 20
-13.4210275121
 10
-1665.2146770896
 20
-12.9979887983
 10
-1663.2272969173
 20
-12.2203988334
 10
-1661.3887449872
 20
-11.1094682444
 10
-1659.7491722034
 20
-9.695500322
 10
-1658.3533018371
 20
-8.0170644251
 10
-1657.2392095934
 20
-6.1199439096
 10
-1656.4372850043
 20
-4.0558872778
 10
-1655.9694024823
 20
-1.8811966139
 10
-1655.8483246427
 20
0.3448081897
 10
-1656.0773541736
 20
2.5614075248
 10
-1656.6502437462
 20
4.7081383396
 10
-1657.5513664265
 20
6.7264434138
 10
-1658.7561419367
 20
8.5612686461
 10
-1660.2317071417
 20
10.1625647874
 10
-1661.9378124691
 20
11.486652653
 10
-1663.827919813
 20
12.4974145778
 10
-1665.8504719724
 20
13.1672796112
 10
-1667.9502989965
 20
13.4779755814
 10
-1670.0701230782
 20
13.4210275121
 10
-1672.1521209424
 20
12.9979887984
 10
-1674.1395011147
 20
12.2203988334
 10
-1675.9780530447
 20
11.1094682445
 10
-1677.6176258286
 20
9.6955003221
 10
-1679.0134961948
 20
8.0170644252
 10
-1680.1275884385
 20
6.1199439096
 10
-1680.9295130276
 20
4.0558872778
 10
-1681.3973955496
 20
1.8811966139
 10
-1681.5184733892
 20
-0.3448081897
 10
-1681.2894438584
 20
-2.5614075247
 10
-1680.7165542858
 20
-4.7081383396
 10
-1679.8154316055
 20
-6.7264434137
 10
-1678.6106560952
 20
-8.5612686461
 10
-1677.1350908902
 20
-10.1625647873
 10
-1675.4289855628
 20
-11.486652653
 10
-1673.5388782189
 20
-12.4974145778
 10
-1671.5163260596
 20
-13.1672796112
 10
-1669.4164990354
 20
-13.4779755813
  0
LWPOLYLINE
  5
1A7
330
1F
100
AcDbEntity
  8
0
  6
Continuous
 62
     7
370
    15
100
AcDbPolyline
 90
       25
 70
   128
 43
0.0
 10
-1523.1752487575
 20
-15.2848948528
 10
-1525.165952995
 20
-15.6228785205
 10
-1527.3958485467
 20
-15.6643138925
 10
-1529.6067113729
 20
-15.3558343766
 10
-1531.7491544512
 20
-14.7043308956
 10
-1533.7753191436
 20
-13.7243569604
 10
-1535.639944279
 20
-12.4378035697
 10
-1537.3013772131
 20
-10.8734102
 10
-1538.7225042796
 20
-9.0661228142
 10
-1539.8715798481
 20
-7.056313226
 10
-1540.7229354693
 20
-4.8888772606
 10
-1541.2575532653
 20
-2.6122318559
 10
-1541.4634907581
 20
-0.277233508
 10
-1541.3361476444
 20
2.0639577783
 10
-1540.8783685588
 20
4.3590436585
 10
-1540.1003795298
 20
6.5567557064
 10
-1539.0195595466
 20
8.6080006665
 10
-1537.6600523416
 20
10.4669571161
 10
-1536.0522270594
 20
12.0920990398
 10
-1534.2319998597
 20
13.4471234525
 10
-1532.2400316106
 20
14.5017613481
 10
-1530.1208195909
 20
15.2324538585
 10
-1527.9217034954
 20
15.6228785206
 10
-1525.6918079437
 20
15.6643138927
 10
-1525.6918079437
 20
15.6643138927
  0
LWPOLYLINE
  5
1A8
330
1F
100
AcDbEntity
  8
0
  6
Continuous
 62
     7
370
    15
100
AcDbPolyline
 90
       40
 70
   128
 43
0.0
 10
-1527.5290733989
 20
-13.7774861497
 10
-1529.6212649396
 20
-13.4726742167
 10
-1531.6398609819
 20
-12.8189270983
 10
-1533.5325809483
 20
-11.8331765016
 10
-1535.2504043861
 20
-10.5409528491
 10
-1536.7488405704
 20
-8.9757240548
 10
-1537.9890807913
 20
-7.1780287222
 10
-1538.9390034785
 20
-5.1944262161
 10
-1539.5740061333
 20
-3.0762907995
 10
-1539.8776425205
 20
-0.8784810671
 10
-1539.8420486173
 20
1.3420808635
 10
-1539.4681462869
 20
3.5278836047
 10
-1538.7656194034
 20
5.6223160136
 10
-1537.752663044
 20
7.5711333911
 10
-1536.4555122463
 20
9.3238623907
 10
-1534.9077625347
 20
10.8351082519
 10
-1533.1494998136
 20
12.0657305009
 10
-1531.2262621641
 20
12.9838566677
 10
-1529.1878604309
 20
13.5657077669
 10
-1527.0870881482
 20
13.7962141607
 10
-1524.9783542147
 20
13.6694058546
 10
-1522.9162737316
 20
13.188567117
 10
-1520.9542535002
 20
12.3661514188
 10
-1519.143108814
 20
11.2234588944
 10
-1517.5297473689
 20
9.7900846801
 10
-1516.1559543789
 20
8.1031524151
 10
-1515.0573103608
 20
6.2063527589
 10
-1514.2622696177
 20
4.1488118263
 10
-1513.7914232871
 20
1.9838188467
 10
-1513.6569660417
 20
-0.232553999
 10
-1513.8623802535
 20
-2.4429038183
 10
-1514.4023458024
 20
-4.5899837118
 10
-1515.2628778641
 20
-6.6181854383
 10
-1516.4216891105
 20
-8.4749796382
 10
-1517.8487669388
 20
-10.1122763173
 10
-1519.5071507829
 20
-11.4876703514
 10
-1521.3538893724
 20
-12.5655397577
 10
-1523.3411531479
 20
-13.3179682845
 10
-1525.4174730214
 20
-13.7254684285
 10
-1527.5290733989
 20
-13.7774861497
  0
LWPOLYLINE
  5
1A9
330
1F
100
AcDbEntity
  8
0
  6
Continuous
 62
     7
370
    15
100
AcDbPolyline
 90
       39
 70
   128
 43
0.0
 10
-1527.420077189
 20
-13.4779755813
 10
-1525.3002531073
 20
-13.421027512
 10
-1523.2182552432
 20
-12.9979887983
 10
-1521.2308750709
 20
-12.2203988333
 10
-1519.3923231409
 20
-11.1094682444
 10
-1517.752750357
 20
-9.695500322
 10
-1516.3568799908
 20
-8.017064425
 10
-1515.242787747
 20
-6.1199439095
 10
-1514.440863158
 20
-4.0558872777
 10
-1513.9729806359
 20
-1.8811966138
 10
-1513.8519027964
 20
0.3448081898
 10
-1514.0809323272
 20
2.5614075248
 10
-1514.6538218998
 20
4.7081383397
 10
-1515.5549445801
 20
6.7264434138
 10
-1516.7597200903
 20
8.5612686462
 10
-1518.2352852953
 20
10.1625647874
 10
-1519.9413906227
 20
11.4866526531
 10
-1521.8314979667
 20
12.4974145779
 10
-1523.854050126
 20
13.1672796113
 10
-1525.9538771501
 20
13.4779755814
 10
-1528.0737012318
 20
13.4210275122
 10
-1530.155699096
 20
12.9979887984
 10
-1532.1430792683
 20
12.2203988335
 10
-1533.9816311983
 20
11.1094682446
 10
-1535.6212039822
 20
9.6955003221
 10
-1537.0170743484
 20
8.0170644252
 10
-1538.1311665921
 20
6.1199439097
 10
-1538.9330911812
 20
4.0558872779
 10
-1539.4009737033
 20
1.881196614
 10
-1539.5220515428
 20
-0.3448081896
 10
-1539.293022012
 20
-2.5614075247
 10
-1538.7201324394
 20
-4.7081383395
 10
-1537.8190097591
 20
-6.7264434137
 10
-1536.6142342488
 20
-8.561268646
 10
-1535.1386690438
 20
-10.1625647872
 10
-1533.4325637164
 20
-11.4866526529
 10
-1531.5424563725
 20
-12.4974145777
 10
-1529.5199042132
 20
-13.1672796111
 10
-1527.420077189
 20
-13.4779755813
  0
LWPOLYLINE
  5
1AC
330
1F
100
AcDbEntity
  8
0
  6
Continuous
 62
     7
370
    15
100
AcDbPolyline
 90
       25
 70
   128
 43
0.0
 10
1862.5859492532
 20
-15.2848948528
 10
1860.5952450157
 20
-15.6228785205
 10
1858.365349464
 20
-15.6643138925
 10
1856.1544866379
 20
-15.3558343766
 10
1854.0120435596
 20
-14.7043308956
 10
1851.9858788671
 20
-13.7243569604
 10
1850.1212537317
 20
-12.4378035697
 10
1848.4598207976
 20
-10.8734102
 10
1847.0386937311
 20
-9.0661228142
 10
1845.8896181626
 20
-7.056313226
 10
1845.0382625415
 20
-4.8888772606
 10
1844.5036447454
 20
-2.6122318559
 10
1844.2977072526
 20
-0.277233508
 10
1844.4250503664
 20
2.0639577783
 10
1844.8828294519
 20
4.3590436585
 10
1845.6608184809
 20
6.5567557064
 10
1846.7416384642
 20
8.6080006665
 10
1848.1011456691
 20
10.4669571161
 10
1849.7089709514
 20
12.0920990398
 10
1851.529198151
 20
13.4471234525
 10
1853.5211664002
 20
14.5017613481
 10
1855.6403784198
 20
15.2324538585
 10
1857.8394945153
 20
15.6228785206
 10
1860.0693900671
 20
15.6643138927
 10
1860.0693900671
 20
15.6643138927
  0
LWPOLYLINE
  5
1AD
330
1F
100
AcDbEntity
  8
0
  6
Continuous
 62
     7
370
    15
100
AcDbPolyline
 90
       40
 70
   128
 43
0.0
 10
1858.2321246119
 20
-13.7774861497
 10
1856.1399330711
 20
-13.4726742167
 10
1854.1213370289
 20
-12.8189270983
 10
1852.2286170624
 20
-11.8331765016
 10
1850.5107936247
 20
-10.5409528491
 10
1849.0123574403
 20
-8.9757240548
 10
1847.7721172194
 20
-7.1780287222
 10
1846.8221945323
 20
-5.1944262161
 10
1846.1871918775
 20
-3.0762907995
 10
1845.8835554902
 20
-0.8784810671
 10
1845.9191493935
 20
1.3420808635
 10
1846.2930517239
 20
3.5278836047
 10
1846.9955786074
 20
5.6223160137
 10
1848.0085349668
 20
7.5711333911
 10
1849.3056857644
 20
9.3238623907
 10
1850.8534354761
 20
10.8351082519
 10
1852.6116981971
 20
12.0657305009
 10
1854.5349358467
 20
12.9838566677
 10
1856.5733375799
 20
13.5657077669
 10
1858.6741098625
 20
13.7962141607
 10
1860.782843796
 20
13.6694058546
 10
1862.8449242792
 20
13.188567117
 10
1864.8069445105
 20
12.3661514188
 10
1866.6180891968
 20
11.2234588944
 10
1868.2314506419
 20
9.7900846801
 10
1869.6052436319
 20
8.1031524151
 10
1870.7038876499
 20
6.2063527589
 10
1871.498928393
 20
4.1488118263
 10
1871.9697747236
 20
1.9838188467
 10
1872.104231969
 20
-0.232553999
 10
1871.8988177572
 20
-2.4429038183
 10
1871.3588522084
 20
-4.5899837118
 10
1870.4983201466
 20
-6.6181854383
 10
1869.3395089003
 20
-8.4749796382
 10
1867.912431072
 20
-10.1122763173
 10
1866.2540472278
 20
-11.4876703514
 10
1864.4073086383
 20
-12.5655397577
 10
1862.4200448628
 20
-13.3179682845
 10
1860.3437249893
 20
-13.7254684285
 10
1858.2321246119
 20
-13.7774861497
  0
LWPOLYLINE
  5
1AE
330
1F
100
AcDbEntity
  8
0
  6
Continuous
 62
     7
370
    15
100
AcDbPolyline
 90
       39
 70
   128
 43
0.0
 10
1858.3411208217
 20
-13.4779755813
 10
1860.4609449034
 20
-13.421027512
 10
1862.5429427676
 20
-12.9979887983
 10
1864.5303229399
 20
-12.2203988333
 10
1866.3688748699
 20
-11.1094682444
 10
1868.0084476538
 20
-9.695500322
 10
1869.40431802
 20
-8.017064425
 10
1870.5184102637
 20
-6.1199439095
 10
1871.3203348528
 20
-4.0558872777
 10
1871.7882173748
 20
-1.8811966138
 10
1871.9092952144
 20
0.3448081898
 10
1871.6802656836
 20
2.5614075248
 10
1871.107376111
 20
4.7081383397
 10
1870.2062534307
 20
6.7264434138
 10
1869.0014779204
 20
8.5612686462
 10
1867.5259127154
 20
10.1625647874
 10
1865.819807388
 20
11.4866526531
 10
1863.9297000441
 20
12.4974145779
 10
1861.9071478848
 20
13.1672796113
 10
1859.8073208606
 20
13.4779755814
 10
1857.6874967789
 20
13.4210275122
 10
1855.6054989148
 20
12.9979887984
 10
1853.6181187425
 20
12.2203988335
 10
1851.7795668124
 20
11.1094682446
 10
1850.1399940286
 20
9.6955003221
 10
1848.7441236623
 20
8.0170644252
 10
1847.6300314186
 20
6.1199439097
 10
1846.8281068295
 20
4.0558872779
 10
1846.3602243075
 20
1.881196614
 10
1846.2391464679
 20
-0.3448081896
 10
1846.4681759988
 20
-2.5614075247
 10
1847.0410655714
 20
-4.7081383395
 10
1847.9421882517
 20
-6.7264434137
 10
1849.1469637619
 20
-8.561268646
 10
1850.6225289669
 20
-10.1625647872
 10
1852.3286342943
 20
-11.4866526529
 10
1854.2187416382
 20
-12.4974145777
 10
1856.2412937976
 20
-13.1672796111
 10
1858.3411208217
 20
-13.4779755813
  0
LWPOLYLINE
  5
1B1
330
1F
100
AcDbEntity
  8
0
  6
Continuous
 62
     7
370
    15
100
AcDbPolyline
 90
       25
 70
   128
 43
0.0
 10
2005.2444266975
 20
-15.2848948528
 10
2003.25372246
 20
-15.6228785205
 10
2001.0238269083
 20
-15.6643138925
 10
1998.8129640821
 20
-15.3558343766
 10
1996.6705210038
 20
-14.7043308956
 10
1994.6443563114
 20
-13.7243569604
 10
1992.779731176
 20
-12.4378035697
 10
1991.1182982419
 20
-10.8734102
 10
1989.6971711754
 20
-9.0661228142
 10
1988.5480956069
 20
-7.056313226
 10
1987.6967399857
 20
-4.8888772606
 10
1987.1621221897
 20
-2.6122318559
 10
1986.9561846969
 20
-0.277233508
 10
1987.0835278106
 20
2.0639577783
 10
1987.5413068962
 20
4.3590436585
 10
1988.3192959252
 20
6.5567557064
 10
1989.4001159084
 20
8.6080006665
 10
1990.7596231134
 20
10.4669571161
 10
1992.3674483957
 20
12.0920990398
 10
1994.1876755953
 20
13.4471234525
 10
1996.1796438444
 20
14.5017613481
 10
1998.2988558641
 20
15.2324538585
 10
2000.4979719596
 20
15.6228785206
 10
2002.7278675113
 20
15.6643138927
 10
2002.7278675113
 20
15.6643138927
  0
LWPOLYLINE
  5
1B2
330
1F
100
AcDbEntity
  8
0
  6
Continuous
 62
     7
370
    15
100
AcDbPolyline
 90
       40
 70
   128
 43
0.0
 10
2000.8906020562
 20
-13.7774861497
 10
1998.7984105154
 20
-13.4726742167
 10
1996.7798144732
 20
-12.8189270983
 10
1994.8870945067
 20
-11.8331765016
 10
1993.1692710689
 20
-10.5409528491
 10
1991.6708348846
 20
-8.9757240548
 10
1990.4305946637
 20
-7.1780287222
 10
1989.4806719765
 20
-5.1944262161
 10
1988.8456693217
 20
-3.0762907995
 10
1988.5420329345
 20
-0.8784810671
 10
1988.5776268378
 20
1.3420808635
 10
1988.9515291681
 20
3.5278836047
 10
1989.6540560516
 20
5.6223160137
 10
1990.667012411
 20
7.5711333911
 10
1991.9641632087
 20
9.3238623907
 10
1993.5119129203
 20
10.8351082519
 10
1995.2701756414
 20
12.0657305009
 10
1997.193413291
 20
12.9838566677
 10
1999.2318150242
 20
13.5657077669
 10
2001.3325873068
 20
13.7962141607
 10
2003.4413212403
 20
13.6694058546
 10
2005.5034017234
 20
13.188567117
 10
2007.4654219548
 20
12.3661514188
 10
2009.276566641
 20
11.2234588944
 10
2010.8899280861
 20
9.7900846801
 10
2012.2637210761
 20
8.1031524151
 10
2013.3623650942
 20
6.2063527589
 10
2014.1574058373
 20
4.1488118263
 10
2014.6282521679
 20
1.9838188467
 10
2014.7627094133
 20
-0.232553999
 10
2014.5572952015
 20
-2.4429038183
 10
2014.0173296526
 20
-4.5899837118
 10
2013.1567975909
 20
-6.6181854383
 10
2011.9979863445
 20
-8.4749796382
 10
2010.5709085162
 20
-10.1122763173
 10
2008.9125246721
 20
-11.4876703514
 10
2007.0657860826
 20
-12.5655397577
 10
2005.0785223071
 20
-13.3179682845
 10
2003.0022024336
 20
-13.7254684285
 10
2000.8906020562
 20
-13.7774861497
  0
LWPOLYLINE
  5
1B3
330
1F
100
AcDbEntity
  8
0
  6
Continuous
 62
     7
370
    15
100
AcDbPolyline
 90
       39
 70
   128
 43
0.0
 10
2000.999598266
 20
-13.4779755813
 10
2003.1194223477
 20
-13.421027512
 10
2005.2014202118
 20
-12.9979887983
 10
2007.1888003841
 20
-12.2203988333
 10
2009.0273523142
 20
-11.1094682444
 10
2010.666925098
 20
-9.695500322
 10
2012.0627954643
 20
-8.017064425
 10
2013.176887708
 20
-6.1199439095
 10
2013.9788122971
 20
-4.0558872777
 10
2014.4466948191
 20
-1.8811966138
 10
2014.5677726587
 20
0.3448081898
 10
2014.3387431278
 20
2.5614075248
 10
2013.7658535552
 20
4.7081383397
 10
2012.8647308749
 20
6.7264434138
 10
2011.6599553647
 20
8.5612686462
 10
2010.1843901597
 20
10.1625647874
 10
2008.4782848323
 20
11.4866526531
 10
2006.5881774884
 20
12.4974145779
 10
2004.565625329
 20
13.1672796113
 10
2002.4657983049
 20
13.4779755814
 10
2000.3459742232
 20
13.4210275122
 10
1998.263976359
 20
12.9979887984
 10
1996.2765961868
 20
12.2203988335
 10
1994.4380442567
 20
11.1094682446
 10
1992.7984714728
 20
9.6955003221
 10
1991.4026011066
 20
8.0170644252
 10
1990.2885088629
 20
6.1199439097
 10
1989.4865842738
 20
4.0558872779
 10
1989.0187017518
 20
1.881196614
 10
1988.8976239122
 20
-0.3448081896
 10
1989.126653443
 20
-2.5614075247
 10
1989.6995430156
 20
-4.7081383395
 10
1990.6006656959
 20
-6.7264434137
 10
1991.8054412062
 20
-8.561268646
 10
1993.2810064112
 20
-10.1625647872
 10
1994.9871117386
 20
-11.4866526529
 10
1996.8772190825
 20
-12.4974145777
 10
1998.8997712418
 20
-13.1672796111
 10
2000.999598266
 20
-13.4779755813
  0
LWPOLYLINE
  5
1B6
330
1F
100
AcDbEntity
  8
0
  6
Continuous
 62
     7
370
    15
100
AcDbPolyline
 90
       20
 70
   128
 43
0.0
 10
307.6449459473
 20
-13.1932087483
 10
305.8650454826
 20
-11.7801978634
 10
304.3053159633
 20
-10.1040368244
 10
303.0005991695
 20
-8.2021682992
 10
301.9800403184
 20
-6.1170768878
 10
301.2664370082
 20
-3.895340087
 10
300.8757299577
 20
-1.5865878254
 10
300.8166469169
 20
0.7576061864
 10
301.0905077031
 20
3.0848765278
 10
301.691194719
 20
5.3432358253
 10
302.6052896093
 20
7.4822360638
 10
303.8123730046
 20
9.4540955127
 10
305.2854806565
 20
11.2147660902
 10
306.9917057742
 20
12.7249173252
 10
308.8929341082
 20
13.9508149343
 10
310.9466953591
 20
14.8650743909
 10
313.1071118943
 20
15.4472726493
 10
315.3259235784
 20
15.6844043626
 10
317.5535658248
 20
15.5711724001
 10
318.9861293274
 20
15.3097486011
  0
LWPOLYLINE
  5
1B8
330
1F
100
AcDbEntity
  8
0
  6
Continuous
 62
     7
370
    15
100
AcDbPolyline
 90
       40
 70
   128
 43
0.0
 10
322.5888459951
 20
11.6040352637
 10
324.2671718351
 20
10.2556498533
 10
325.7180538566
 20
8.6416484987
 10
326.9039149772
 20
6.8038329873
 10
327.7940420169
 20
4.7898017753
 10
328.3653811529
 20
2.6517172134
 10
328.6031350017
 20
0.4449545684
 10
328.5011458636
 20
-1.7733321661
 10
328.0620552035
 20
-3.945690529
 10
327.297235239
 20
-6.0158575798
 10
326.2264944053
 20
-7.9302170793
 10
324.8775643277
 20
-9.639188122
 10
323.2853815867
 20
-11.0985092556
 10
321.4911828788
 20
-12.2703848292
 10
319.5414370081
 20
-13.1244638811
 10
317.4866413686
 20
-13.6386262125
 10
315.3800140879
 20
-13.799555289
 10
313.2761157061
 20
-13.6030831321
 10
311.2294360862
 20
-13.0542982675
 10
309.2929831552
 20
-12.1674139348
 10
307.5169100268
 20
-10.9653999725
 10
305.9472160623
 20
-9.4793879108
 10
304.6245555106
 20
-7.7478646815
 10
303.5831845854
 20
-5.8156758267
 10
302.8500742466
 20
-3.7328640229
 10
302.4442116669
 20
-1.5533730016
 10
302.3761084739
 20
0.6663495644
 10
302.6475285046
 20
2.8688140267
 10
303.2514421227
 20
4.9969777127
 10
304.1722082827
 20
6.9957223006
 10
305.3859796247
 20
8.8132813557
 10
306.8613201086
 20
10.402581053
 10
308.5600191908
 20
11.7224593653
 10
310.4380814574
 20
12.7387321375
 10
312.446866082
 20
13.4250784387
 10
314.5343465982
 20
13.7637222602
 10
316.646458357
 20
13.7458929049
 10
318.7284987734
 20
13.3720521438
 10
320.7265440942
 20
12.6518822561
 10
322.5888459951
 20
11.6040352637
  0
LWPOLYLINE
  5
1B9
330
1F
100
AcDbEntity
  8
0
  6
Continuous
 62
     7
370
    15
100
AcDbPolyline
 90
       39
 70
   128
 43
0.0
 10
322.5271279004
 20
11.3517736275
 10
320.6553594613
 20
12.399586435
 10
318.6450961889
 20
13.1091708478
 10
316.5511728249
 20
13.4611712529
 10
314.4307061403
 20
13.4459859969
 10
312.3415369386
 20
13.064029294
 10
310.3406523095
 20
12.3257199273
 10
308.4826311697
 20
11.2511970517
 10
306.8181554926
 20
9.8697708502
 10
305.3926278356
 20
8.2191230285
 10
304.2449328771
 20
6.3442789562
 10
303.4063767437
 20
4.2963794923
 10
302.8998330609
 20
2.1312859956
 10
302.7391190198
 20
-0.0919434271
 10
302.9286184805
 20
-2.3126648729
 10
303.4631623917
 20
-4.4703028496
 10
304.328169789
 20
-6.5060026178
 10
305.5000455255
 20
-8.3642355945
 10
306.9468238859
 20
-9.9943140281
 10
308.6290405281
 20
-11.3517736283
 10
310.5008089672
 20
-12.3995864357
 10
312.5110722396
 20
-13.1091708485
 10
314.6049956036
 20
-13.4611712537
 10
316.7254622882
 20
-13.4459859977
 10
318.8146314899
 20
-13.0640292947
 10
320.815516119
 20
-12.325719928
 10
322.6735372587
 20
-11.2511970524
 10
324.3380129358
 20
-9.8697708509
 10
325.7635405929
 20
-8.2191230292
 10
326.9112355514
 20
-6.344278957
 10
327.7497916848
 20
-4.296379493
 10
328.2563353676
 20
-2.1312859964
 10
328.4170494087
 20
0.0919434264
 10
328.227549948
 20
2.3126648722
 10
327.6930060368
 20
4.4703028489
 10
326.8279986395
 20
6.5060026171
 10
325.656122903
 20
8.3642355938
 10
324.2093445426
 20
9.9943140274
 10
322.5271279004
 20
11.3517736275
  0
LWPOLYLINE
  5
1BA
330
1F
100
AcDbEntity
  8
0
  6
Continuous
 62
     7
370
    15
100
AcDbPolyline
 90
       24
 70
   128
 43
0.0
 10
322.5927699865
 20
-18.0000000004
 10
324.1539298478
 20
-17.9249958362
 10
326.511315807
 20
-17.5220982774
 10
328.792431729
 20
-16.7781530067
 10
330.9528782872
 20
-15.7076400726
 10
332.9506048468
 20
-14.3313957917
 10
334.7467279327
 20
-12.6762071934
 10
336.3062880521
 20
-10.7742906411
 10
337.5989301413
 20
-8.662664777
 10
338.5994943923
 20
-6.3824299967
 10
339.2885059602
 20
-3.9779684764
 10
339.6525540184
 20
-1.4960803247
 10
339.6845527857
 20
1.0149273289
 10
339.3838794424
 20
3.5061805764
 10
338.7563862531
 20
5.9291900073
 10
337.814286659
 20
8.2367944989
 10
336.5759175572
 20
10.3840791549
 10
335.0653823935
 20
12.3292495218
 10
333.3120820166
 20
14.0344450711
 10
331.3501424241
 20
15.4664761111
 10
329.2177505385
 20
16.5974697863
 10
326.9564109423
 20
17.4054125915
 10
324.6101380384
 20
17.874578839
 10
322.5927699865
 20
17.9999999996
  0
LWPOLYLINE
  5
1BB
330
1F
100
AcDbEntity
  8
0
  6
Continuous
 62
     7
370
    15
100
AcDbPolyline
 90
       20
 70
   128
 43
0.0
 10
-291.5206593187
 20
-13.1932087483
 10
-293.3005597833
 20
-11.7801978634
 10
-294.8602893026
 20
-10.1040368244
 10
-296.1650060964
 20
-8.2021682992
 10
-297.1855649476
 20
-6.1170768878
 10
-297.8991682578
 20
-3.895340087
 10
-298.2898753082
 20
-1.5865878254
 10
-298.3489583491
 20
0.7576061864
 10
-298.0750975629
 20
3.0848765278
 10
-297.4744105469
 20
5.3432358253
 10
-296.5603156566
 20
7.4822360638
 10
-295.3532322614
 20
9.4540955127
 10
-293.8801246095
 20
11.2147660902
 10
-292.1738994917
 20
12.7249173252
 10
-290.2726711577
 20
13.9508149343
 10
-288.2189099069
 20
14.8650743909
 10
-286.0584933717
 20
15.4472726493
 10
-283.8396816876
 20
15.6844043626
 10
-281.6120394411
 20
15.5711724001
 10
-280.1794759385
 20
15.3097486011
  0
LWPOLYLINE
  5
1BD
330
1F
100
AcDbEntity
  8
0
  6
Continuous
 62
     7
370
    15
100
AcDbPolyline
 90
       40
 70
   128
 43
0.0
 10
-276.5767592709
 20
11.6040352637
 10
-274.8984334308
 20
10.2556498533
 10
-273.4475514094
 20
8.6416484987
 10
-272.2616902888
 20
6.8038329873
 10
-271.371563249
 20
4.7898017753
 10
-270.800224113
 20
2.6517172134
 10
-270.5624702642
 20
0.4449545684
 10
-270.6644594024
 20
-1.7733321661
 10
-271.1035500625
 20
-3.945690529
 10
-271.868370027
 20
-6.0158575798
 10
-272.9391108606
 20
-7.9302170793
 10
-274.2880409382
 20
-9.639188122
 10
-275.8802236793
 20
-11.0985092556
 10
-277.6744223872
 20
-12.2703848292
 10
-279.6241682579
 20
-13.1244638811
 10
-281.6789638974
 20
-13.6386262125
 10
-283.785591178
 20
-13.799555289
 10
-285.8894895598
 20
-13.6030831321
 10
-287.9361691798
 20
-13.0542982675
 10
-289.8726221108
 20
-12.1674139348
 10
-291.6486952391
 20
-10.9653999725
 10
-293.2183892037
 20
-9.4793879108
 10
-294.5410497553
 20
-7.7478646815
 10
-295.5824206805
 20
-5.8156758267
 10
-296.3155310193
 20
-3.7328640229
 10
-296.7213935991
 20
-1.5533730016
 10
-296.789496792
 20
0.6663495644
 10
-296.5180767614
 20
2.8688140267
 10
-295.9141631433
 20
4.9969777127
 10
-294.9933969833
 20
6.9957223006
 10
-293.7796256412
 20
8.8132813557
 10
-292.3042851573
 20
10.402581053
 10
-290.6055860751
 20
11.7224593653
 10
-288.7275238086
 20
12.7387321375
 10
-286.7187391839
 20
13.4250784387
 10
-284.6312586677
 20
13.7637222602
 10
-282.5191469089
 20
13.7458929049
 10
-280.4371064925
 20
13.3720521438
 10
-278.4390611718
 20
12.6518822561
 10
-276.5767592709
 20
11.6040352637
  0
LWPOLYLINE
  5
1BE
330
1F
100
AcDbEntity
  8
0
  6
Continuous
 62
     7
370
    15
100
AcDbPolyline
 90
       39
 70
   128
 43
0.0
 10
-276.6384773656
 20
11.3517736275
 10
-278.5102458047
 20
12.399586435
 10
-280.5205090771
 20
13.1091708478
 10
-282.614432441
 20
13.4611712529
 10
-284.7348991256
 20
13.4459859969
 10
-286.8240683274
 20
13.064029294
 10
-288.8249529565
 20
12.3257199273
 10
-290.6829740962
 20
11.2511970517
 10
-292.3474497733
 20
9.8697708502
 10
-293.7729774304
 20
8.2191230285
 10
-294.9206723889
 20
6.3442789562
 10
-295.7592285222
 20
4.2963794923
 10
-296.2657722051
 20
2.1312859956
 10
-296.4264862462
 20
-0.0919434271
 10
-296.2369867855
 20
-2.3126648729
 10
-295.7024428743
 20
-4.4703028496
 10
-294.837435477
 20
-6.5060026178
 10
-293.6655597405
 20
-8.3642355945
 10
-292.21878138
 20
-9.9943140281
 10
-290.5365647379
 20
-11.3517736283
 10
-288.6647962987
 20
-12.3995864357
 10
-286.6545330263
 20
-13.1091708485
 10
-284.5606096624
 20
-13.4611712537
 10
-282.4401429778
 20
-13.4459859977
 10
-280.350973776
 20
-13.0640292947
 10
-278.3500891469
 20
-12.325719928
 10
-276.4920680072
 20
-11.2511970524
 10
-274.8275923301
 20
-9.8697708509
 10
-273.4020646731
 20
-8.2191230292
 10
-272.2543697146
 20
-6.344278957
 10
-271.4158135812
 20
-4.296379493
 10
-270.9092698983
 20
-2.1312859964
 10
-270.7485558572
 20
0.0919434264
 10
-270.9380553179
 20
2.3126648722
 10
-271.4725992292
 20
4.4703028489
 10
-272.3376066265
 20
6.5060026171
 10
-273.509482363
 20
8.3642355938
 10
-274.9562607234
 20
9.9943140274
 10
-276.6384773656
 20
11.3517736275
  0
LWPOLYLINE
  5
1BF
330
1F
100
AcDbEntity
  8
0
  6
Continuous
 62
     7
370
    15
100
AcDbPolyline
 90
       24
 70
   128
 43
0.0
 10
-276.5728352794
 20
-18.0000000004
 10
-275.0116754181
 20
-17.9249958362
 10
-272.654289459
 20
-17.5220982774
 10
-270.373173537
 20
-16.7781530067
 10
-268.2127269788
 20
-15.7076400726
 10
-266.2150004192
 20
-14.3313957917
 10
-264.4188773332
 20
-12.6762071934
 10
-262.8593172138
 20
-10.7742906411
 10
-261.5666751246
 20
-8.662664777
 10
-260.5661108736
 20
-6.3824299967
 10
-259.8770993058
 20
-3.9779684764
 10
-259.5130512476
 20
-1.4960803247
 10
-259.4810524803
 20
1.0149273289
 10
-259.7817258236
 20
3.5061805764
 10
-260.4092190129
 20
5.9291900073
 10
-261.3513186069
 20
8.2367944989
 10
-262.5896877088
 20
10.3840791549
 10
-264.1002228725
 20
12.3292495218
 10
-265.8535232493
 20
14.0344450711
 10
-267.8154628418
 20
15.4664761111
 10
-269.9478547274
 20
16.5974697863
 10
-272.2091943237
 20
17.4054125915
 10
-274.5554672275
 20
17.874578839
 10
-276.5728352794
 20
17.9999999996
  0
LWPOLYLINE
  5
1C2
330
1F
100
AcDbEntity
  8
0
  6
Continuous
 62
     7
370
    15
100
AcDbPolyline
 90
       17
 70
   128
 43
0.0
 10
14.3365763745
 20
-0.0000000004
 10
14.4089712411
 20
0.382683432
 10
14.6151343788
 20
0.7071067808
 10
14.9236793188
 20
0.9238795321
 10
15.2876328908
 20
0.9999999996
 10
15.6515864628
 20
0.9238795321
 10
15.9601314028
 20
0.7071067808
 10
16.1662945405
 20
0.382683432
 10
16.2386894071
 20
-0.0000000004
 10
16.1662945405
 20
-0.3826834328
 10
15.9601314028
 20
-0.7071067816
 10
15.6515864628
 20
-0.9238795329
 10
15.2876328908
 20
-1.0000000004
 10
14.9236793188
 20
-0.9238795329
 10
14.6151343788
 20
-0.7071067816
 10
14.4089712411
 20
-0.3826834328
 10
14.3365763745
 20
-0.0000000004
  0
SPLINE
  5
1CA
330
1F
100
AcDbEntity
  8
0
  6
Continuous
 62
     7
370
    15
100
AcDbSpline
210
0.0
220
0.0
230
1.0
 70
    24
 71
     3
 72
    19
 73
    15
 74
     0
 42
0.000000001
 43
0.00000001
 40
0.0
 40
0.0
 40
0.0
 40
0.0
 40
0.1306036991863834
 40
0.2009099593017621
 40
0.2727082191293705
 40
0.3445064789570014
 40
0.4148127390723652
 40
0.5454164382587371
 40
0.6760201374451023
 40
0.7463263975604976
 40
0.8181246573880941
 40
0.8899229172157337
 40
0.9602291773310951
 40
1.0
 40
1.0
 40
1.0
 40
1.0
 10
498.3290679775835
 20
114.4000000000136
 30
0.0
 10
498.0926812233274
 20
114.4000000000135
 30
0.0
 10
497.7290433365529
 20
114.4000000000135
 30
0.0
 10
496.7892817713356
 20
114.4000000000136
 30
0.0
 10
495.9257099858343
 20
114.4000000000135
 30
0.0
 10
494.9462089919169
 20
114.4000000000136
 30
0.0
 10
493.6142210111016
 20
114.4000000000136
 30
0.0
 10
491.9280336843896
 20
114.4000000000135
 30
0.0
 10
490.4061311514101
 20
114.4000000000136
 30
0.0
 10
489.4005547324817
 20
114.4000000000135
 30
0.0
 10
488.7666986182083
 20
114.4000000000136
 30
0.0
 10
488.3486748233902
 20
114.4000000000136
 30
0.0
 10
488.0932857238267
 20
114.4000000000136
 30
0.0
 10
488.1600439092367
 20
114.4000000000136
 30
0.0
 10
488.1841636250438
 20
114.4000000000136
 30
0.0
  0
SPLINE
  5
1CB
330
1F
100
AcDbEntity
  8
0
  6
Continuous
 62
     7
370
    15
100
AcDbSpline
210
0.0
220
0.0
230
1.0
 70
    24
 71
     3
 72
     9
 73
     5
 74
     0
 42
0.000000001
 43
0.00000001
 40
0.0
 40
0.0
 40
0.0
 40
0.0
 40
0.9900473192526545
 40
1.0
 40
1.0
 40
1.0
 40
1.0
 10
491.1225455113818
 20
111.4000000000136
 30
0.0
 10
491.1624416984045
 20
111.400000000014
 30
0.0
 10
491.2027389511186
 20
111.4000000000145
 30
0.0
 10
491.18281254102
 20
111.4000000000136
 30
0.0
 10
491.1826142198221
 20
111.4000000000136
 30
0.0
  0
SPLINE
  5
1CC
330
1F
100
AcDbEntity
  8
0
  6
Continuous
 62
     7
370
    15
100
AcDbSpline
210
0.0
220
0.0
230
1.0
 70
     8
 71
     3
 72
    12
 73
     8
 74
     0
 42
0.000000001
 43
0.00000001
 40
0.4999999986669506
 40
0.4999999986669506
 40
0.4999999986669506
 40
0.4999999986669506
 40
0.5624999986669506
 40
0.5624999986669506
 40
0.7499999986669506
 40
0.7499999986669506
 40
1.0
 40
1.0
 40
1.0
 40
1.0
 10
497.1737697773567
 20
111.6479055467135
 30
0.0
 10
497.1744097897758
 20
111.6477065034208
 30
0.0
 10
497.1750237444544
 20
111.6475199003337
 30
0.0
 10
497.177371324098
 20
111.6468232488084
 30
0.0
 10
497.1788884709218
 20
111.6464127220158
 30
0.0
 10
497.1817970973479
 20
111.6457160704875
 30
0.0
 10
497.1829781160068
 20
111.6455170271922
 30
0.0
 10
497.1836139513453
 20
111.6455170271905
 30
0.0
  0
SPLINE
  5
1CD
330
1F
100
AcDbEntity
  8
0
  6
Continuous
 62
     7
370
    15
100
AcDbSpline
210
0.0
220
0.0
230
1.0
 70
     8
 71
     3
 72
    20
 73
    16
 74
     0
 42
0.000000001
 43
0.00000001
 40
0.0
 40
0.0
 40
0.0
 40
0.0
 40
0.1464895826441497
 40
0.1464895826441497
 40
0.2929791652882994
 40
0.2929791652882994
 40
0.5789183902447852
 40
0.5789183902447852
 40
0.7591460333895959
 40
0.7591460333895959
 40
0.8192219144378661
 40
0.8192219144378661
 40
0.909610957218933
 40
0.909610957218933
 40
1.0
 40
1.0
 40
1.0
 40
1.0
 10
496.6276653023482
 20
111.4000000000136
 30
0.0
 10
496.6573775042121
 20
111.4000000000136
 30
0.0
 10
496.6879469516836
 20
111.4013334431943
 30
0.0
 10
496.7498741584679
 20
111.4068130611299
 30
0.0
 10
496.7812319177807
 20
111.4109592358847
 30
0.0
 10
496.873594728009
 20
111.4275652789726
 30
0.0
 10
496.9296275948627
 20
111.4424087396854
 30
0.0
 10
497.0225932103323
 20
111.482565713081
 30
0.0
 10
497.0562142216228
 20
111.5005149312667
 30
0.0
 10
497.0965383047419
 20
111.531434209446
 30
0.0
 10
497.1062439978604
 20
111.5397462779296
 30
0.0
 10
497.1295146108257
 20
111.5622840700287
 30
0.0
 10
497.1431294403404
 20
111.578654799766
 30
0.0
 10
497.1637253841512
 20
111.6132192147558
 30
0.0
 10
497.1706646854418
 20
111.6313555832253
 30
0.0
 10
497.1737697773567
 20
111.6479055467135
 30
0.0
  0
SPLINE
  5
1CE
330
1F
100
AcDbEntity
  8
0
  6
Continuous
 62
     7
370
    15
100
AcDbSpline
210
0.0
220
0.0
230
1.0
 70
     8
 71
     3
 72
    20
 73
    16
 74
     0
 42
0.000000001
 43
0.00000001
 40
0.0
 40
0.0
 40
0.0
 40
0.0
 40
0.090389042781067
 40
0.090389042781067
 40
0.1807780855621339
 40
0.1807780855621339
 40
0.2408539666104041
 40
0.2408539666104041
 40
0.4210816097552148
 40
0.4210816097552148
 40
0.7070208347117006
 40
0.7070208347117006
 40
0.8535104173558503
 40
0.8535104173558503
 40
1.0
 40
1.0
 40
1.0
 40
1.0
 10
497.1803737256419
 20
111.6479055467135
 30
0.0
 10
497.1765900664869
 20
111.6313555832253
 30
0.0
 10
497.1690042879735
 20
111.6132192147559
 30
0.0
 10
497.1473120275979
 20
111.578654799766
 30
0.0
 10
497.1332452474766
 20
111.5622840700287
 30
0.0
 10
497.109398904022
 20
111.5397462779296
 30
0.0
 10
497.0994930294671
 20
111.531434209446
 30
0.0
 10
497.0584622452434
 20
111.5005149312667
 30
0.0
 10
497.0245227635673
 20
111.482565713081
 30
0.0
 10
496.9308487821193
 20
111.4424087396854
 30
0.0
 10
496.8745513477093
 20
111.4275652789726
 30
0.0
 10
496.7818057585214
 20
111.4109592358847
 30
0.0
 10
496.7503302564346
 20
111.4068130611299
 30
0.0
 10
496.688174264241
 20
111.4013334431944
 30
0.0
 10
496.6574937741342
 20
111.4000000000136
 30
0.0
 10
496.6276653023482
 20
111.4000000000136
 30
0.0
  0
SPLINE
  5
1CF
330
1F
100
AcDbEntity
  8
0
  6
Continuous
 62
     7
370
    15
100
AcDbSpline
210
0.0
220
0.0
230
1.0
 70
     8
 71
     3
 72
    18
 73
    14
 74
     0
 42
0.000000001
 43
0.00000001
 40
0.0
 40
0.0
 40
0.0
 40
0.0
 40
0.0903890492723769
 40
0.0903890492723769
 40
0.1807780985447539
 40
0.1807780985447539
 40
0.4210816189295885
 40
0.4210816189295885
 40
0.7070208393547222
 40
0.7070208393547222
 40
0.8535104196773611
 40
0.8535104196773611
 40
1.0
 40
1.0
 40
1.0
 40
1.0
 10
489.4321336361191
 20
111.6479055467135
 30
0.0
 10
489.4359172952756
 20
111.6313555832182
 30
0.0
 10
489.4435030736503
 20
111.6132192150789
 30
0.0
 10
489.4651953337016
 20
111.5786548003967
 30
0.0
 10
489.4792621136564
 20
111.5622840706221
 30
0.0
 10
489.5316717262926
 20
111.5127503986845
 30
0.0
 10
489.5759126399487
 20
111.4877408246602
 30
0.0
 10
489.6816585796415
 20
111.4424087396854
 30
0.0
 10
489.7379560140515
 20
111.4275652789726
 30
0.0
 10
489.8307016032393
 20
111.4109592358846
 30
0.0
 10
489.8621771053262
 20
111.4068130611299
 30
0.0
 10
489.9243330975198
 20
111.4013334431943
 30
0.0
 10
489.9550135876266
 20
111.4000000000136
 30
0.0
 10
489.9848420594126
 20
111.4000000000136
 30
0.0
  0
SPLINE
  5
1D0
330
1F
100
AcDbEntity
  8
0
  6
Continuous
 62
     7
370
    15
100
AcDbSpline
210
0.0
220
0.0
230
1.0
 70
     8
 71
     3
 72
    18
 73
    14
 74
     0
 42
0.000000001
 43
0.00000001
 40
0.0000002444676454
 40
0.0000002444676454
 40
0.0000002444676454
 40
0.0000002444676454
 40
0.0625
 40
0.0625
 40
0.25
 40
0.25
 40
0.5
 40
0.5
 40
0.75
 40
0.75
 40
0.9375
 40
0.9375
 40
1.0
 40
1.0
 40
1.0
 40
1.0
 10
489.4387375844041
 20
111.6479055467135
 30
0.0
 10
489.4380975719794
 20
111.6477065034191
 30
0.0
 10
489.4374836172963
 20
111.6475199003306
 30
0.0
 10
489.4351360376376
 20
111.6468232488009
 30
0.0
 10
489.4336188908098
 20
111.6464127220074
 30
0.0
 10
489.430710264385
 20
111.6457160704807
 30
0.0
 10
489.4295292457347
 20
111.6455170271888
 30
0.0
 10
489.4282575750767
 20
111.6455170271922
 30
0.0
 10
489.4281669230689
 20
111.6457160704875
 30
0.0
 10
489.4290745798935
 20
111.6464127220158
 30
0.0
 10
489.4298063142662
 20
111.6468232488084
 30
0.0
 10
489.4312750178568
 20
111.6475199003337
 30
0.0
 10
489.4316832819011
 20
111.6477065034208
 30
0.0
 10
489.4321336361191
 20
111.6479055467135
 30
0.0
  0
SPLINE
  5
1D1
330
1F
100
AcDbEntity
  8
0
  6
Continuous
 62
     7
370
    15
100
AcDbSpline
210
0.0
220
0.0
230
1.0
 70
     8
 71
     3
 72
    18
 73
    14
 74
     0
 42
0.000000001
 43
0.00000001
 40
0.0
 40
0.0
 40
0.0
 40
0.0
 40
0.146489580322639
 40
0.146489580322639
 40
0.2929791606452779
 40
0.2929791606452779
 40
0.5789183810704115
 40
0.5789183810704115
 40
0.8192219014552461
 40
0.8192219014552461
 40
0.9096109507276231
 40
0.9096109507276231
 40
1.0
 40
1.0
 40
1.0
 40
1.0
 10
489.9848420594126
 20
111.4000000000136
 30
0.0
 10
489.9551298576836
 20
111.4000000000136
 30
0.0
 10
489.9245604103601
 20
111.4013334431871
 30
0.0
 10
489.8626332037054
 20
111.4068130610372
 30
0.0
 10
489.8312754443973
 20
111.4109592357115
 30
0.0
 10
489.7389126339605
 20
111.4275652785605
 30
0.0
 10
489.6828797665554
 20
111.4424087390202
 30
0.0
 10
489.5779334806174
 20
111.4877408234751
 30
0.0
 10
489.5341370177438
 20
111.5127503967482
 30
0.0
 10
489.4829927473954
 20
111.5622840681361
 30
0.0
 10
489.4693779173607
 20
111.5786547976325
 30
0.0
 10
489.4487819719625
 20
111.6132192120316
 30
0.0
 10
489.4418426696785
 20
111.6313555802192
 30
0.0
 10
489.438737576894
 20
111.6479055443779
 30
0.0
  0
LWPOLYLINE
  5
1D2
330
1F
100
AcDbEntity
  8
0
  6
Continuous
 62
     7
370
    15
100
AcDbPolyline
 90
        8
 70
   128
 43
0.0
 10
492.2691719832
 20
111.6039217556
 10
492.2802893771
 20
111.5551644879
 10
492.2956959535
 20
111.5109752347
 10
492.3149057994
 20
111.4727476952
 10
492.3373130493
 20
111.4416875403
 10
492.3622109934
 20
111.4187743865
 10
492.3888143676
 20
111.404730899
 10
492.4162841192
 20
111.4
  0
SPLINE
  5
1D3
330
1F
100
AcDbEntity
  8
0
  6
Continuous
 62
     7
370
    15
100
AcDbSpline
210
0.0
220
0.0
230
1.0
 70
    24
 71
     3
 72
    19
 73
    15
 74
     0
 42
0.000000001
 43
0.00000001
 40
0.0
 40
0.0
 40
0.0
 40
0.0
 40
0.1306036991863835
 40
0.2009099593017622
 40
0.2727082191293705
 40
0.3445064789570014
 40
0.4148127390723652
 40
0.5454164382587372
 40
0.6760201374451024
 40
0.7463263975604977
 40
0.8181246573880943
 40
0.8899229172157339
 40
0.9602291773310953
 40
1.0
 40
1.0
 40
1.0
 40
1.0
 10
474.3959226595809
 20
114.4000000000003
 30
0.0
 10
474.1595359053249
 20
114.4000000000002
 30
0.0
 10
473.7958980185504
 20
114.4000000000002
 30
0.0
 10
472.856136453333
 20
114.4000000000003
 30
0.0
 10
471.9925646678318
 20
114.4000000000002
 30
0.0
 10
471.0130636739142
 20
114.4000000000003
 30
0.0
 10
469.6810756930991
 20
114.4000000000002
 30
0.0
 10
467.9948883663871
 20
114.4000000000003
 30
0.0
 10
466.4729858334076
 20
114.4000000000003
 30
0.0
 10
465.4674094144792
 20
114.4000000000002
 30
0.0
 10
464.8335533002057
 20
114.4000000000003
 30
0.0
 10
464.4155295053876
 20
114.4000000000002
 30
0.0
 10
464.1601404058242
 20
114.4000000000003
 30
0.0
 10
464.226898591234
 20
114.4000000000002
 30
0.0
 10
464.2510183070412
 20
114.4000000000002
 30
0.0
  0
SPLINE
  5
1D4
330
1F
100
AcDbEntity
  8
0
  6
Continuous
 62
     7
370
    15
100
AcDbSpline
210
0.0
220
0.0
230
1.0
 70
    24
 71
     3
 72
     9
 73
     5
 74
     0
 42
0.000000001
 43
0.00000001
 40
0.0
 40
0.0
 40
0.0
 40
0.0
 40
0.9900473192526545
 40
1.0
 40
1.0
 40
1.0
 40
1.0
 10
467.1894001933792
 20
111.4000000000003
 30
0.0
 10
467.2292963804014
 20
111.400000000001
 30
0.0
 10
467.2695936331149
 20
111.4000000000018
 30
0.0
 10
467.2496672230175
 20
111.4000000000002
 30
0.0
 10
467.2494689018195
 20
111.4000000000003
 30
0.0
  0
SPLINE
  5
1D5
330
1F
100
AcDbEntity
  8
0
  6
Continuous
 62
     7
370
    15
100
AcDbSpline
210
0.0
220
0.0
230
1.0
 70
     8
 71
     3
 72
    12
 73
     8
 74
     0
 42
0.000000001
 43
0.00000001
 40
0.499999998642811
 40
0.499999998642811
 40
0.499999998642811
 40
0.499999998642811
 40
0.562499998642811
 40
0.562499998642811
 40
0.749999998642811
 40
0.749999998642811
 40
1.0
 40
1.0
 40
1.0
 40
1.0
 10
473.2406244593541
 20
111.6479055467002
 30
0.0
 10
473.2412644717732
 20
111.6477065034075
 30
0.0
 10
473.2418784264518
 20
111.6475199003204
 30
0.0
 10
473.2442260060955
 20
111.6468232487951
 30
0.0
 10
473.2457431529193
 20
111.6464127220025
 30
0.0
 10
473.2486517793453
 20
111.6457160704742
 30
0.0
 10
473.2498327980043
 20
111.6455170271789
 30
0.0
 10
473.2504686333427
 20
111.6455170271772
 30
0.0
  0
SPLINE
  5
1D6
330
1F
100
AcDbEntity
  8
0
  6
Continuous
 62
     7
370
    15
100
AcDbSpline
210
0.0
220
0.0
230
1.0
 70
     8
 71
     3
 72
    20
 73
    16
 74
     0
 42
0.000000001
 43
0.00000001
 40
0.0
 40
0.0
 40
0.0
 40
0.0
 40
0.1464895826441497
 40
0.1464895826441497
 40
0.2929791652882994
 40
0.2929791652882994
 40
0.5789183902447852
 40
0.5789183902447852
 40
0.7591460333895959
 40
0.7591460333895959
 40
0.8192219144378661
 40
0.8192219144378661
 40
0.909610957218933
 40
0.909610957218933
 40
1.0
 40
1.0
 40
1.0
 40
1.0
 10
472.6945199843456
 20
111.4000000000003
 30
0.0
 10
472.7242321862095
 20
111.4000000000003
 30
0.0
 10
472.754801633681
 20
111.401333443181
 30
0.0
 10
472.8167288404654
 20
111.4068130611166
 30
0.0
 10
472.8480865997781
 20
111.4109592358714
 30
0.0
 10
472.9404494100064
 20
111.4275652789593
 30
0.0
 10
472.9964822768601
 20
111.4424087396721
 30
0.0
 10
473.0894478923298
 20
111.4825657130677
 30
0.0
 10
473.1230689036203
 20
111.5005149312533
 30
0.0
 10
473.1633929867393
 20
111.5314342094327
 30
0.0
 10
473.1730986798578
 20
111.5397462779163
 30
0.0
 10
473.1963692928231
 20
111.5622840700154
 30
0.0
 10
473.2099841223379
 20
111.5786547997527
 30
0.0
 10
473.2305800661486
 20
111.6132192147425
 30
0.0
 10
473.2375193674392
 20
111.631355583212
 30
0.0
 10
473.2406244593541
 20
111.6479055467002
 30
0.0
  0
SPLINE
  5
1D7
330
1F
100
AcDbEntity
  8
0
  6
Continuous
 62
     7
370
    15
100
AcDbSpline
210
0.0
220
0.0
230
1.0
 70
     8
 71
     3
 72
    20
 73
    16
 74
     0
 42
0.000000001
 43
0.00000001
 40
0.0
 40
0.0
 40
0.0
 40
0.0
 40
0.090389042781067
 40
0.090389042781067
 40
0.1807780855621339
 40
0.1807780855621339
 40
0.2408539666104041
 40
0.2408539666104041
 40
0.4210816097552148
 40
0.4210816097552148
 40
0.7070208347117006
 40
0.7070208347117006
 40
0.8535104173558503
 40
0.8535104173558503
 40
1.0
 40
1.0
 40
1.0
 40
1.0
 10
473.2472284076391
 20
111.6479055467002
 30
0.0
 10
473.2434447484843
 20
111.631355583212
 30
0.0
 10
473.2358589699707
 20
111.6132192147426
 30
0.0
 10
473.2141667095952
 20
111.5786547997527
 30
0.0
 10
473.2000999294739
 20
111.5622840700154
 30
0.0
 10
473.1762535860194
 20
111.5397462779163
 30
0.0
 10
473.1663477114644
 20
111.5314342094327
 30
0.0
 10
473.1253169272409
 20
111.5005149312533
 30
0.0
 10
473.0913774455647
 20
111.4825657130677
 30
0.0
 10
472.9977034641169
 20
111.4424087396721
 30
0.0
 10
472.9414060297069
 20
111.4275652789593
 30
0.0
 10
472.848660440519
 20
111.4109592358714
 30
0.0
 10
472.8171849384321
 20
111.4068130611166
 30
0.0
 10
472.7550289462384
 20
111.4013334431811
 30
0.0
 10
472.7243484561316
 20
111.4000000000003
 30
0.0
 10
472.6945199843456
 20
111.4000000000003
 30
0.0
  0
SPLINE
  5
1D8
330
1F
100
AcDbEntity
  8
0
  6
Continuous
 62
     7
370
    15
100
AcDbSpline
210
0.0
220
0.0
230
1.0
 70
     8
 71
     3
 72
    18
 73
    14
 74
     0
 42
0.000000001
 43
0.00000001
 40
0.0
 40
0.0
 40
0.0
 40
0.0
 40
0.0903890492723769
 40
0.0903890492723769
 40
0.1807780985447539
 40
0.1807780985447539
 40
0.4210816189295885
 40
0.4210816189295885
 40
0.7070208393547222
 40
0.7070208393547222
 40
0.8535104196773611
 40
0.8535104196773611
 40
1.0
 40
1.0
 40
1.0
 40
1.0
 10
465.4989883181165
 20
111.6479055467002
 30
0.0
 10
465.502771977273
 20
111.6313555832049
 30
0.0
 10
465.5103577556478
 20
111.6132192150656
 30
0.0
 10
465.532050015699
 20
111.5786548003834
 30
0.0
 10
465.5461167956539
 20
111.5622840706088
 30
0.0
 10
465.5985264082901
 20
111.5127503986712
 30
0.0
 10
465.6427673219462
 20
111.4877408246469
 30
0.0
 10
465.7485132616389
 20
111.4424087396721
 30
0.0
 10
465.8048106960489
 20
111.4275652789593
 30
0.0
 10
465.8975562852368
 20
111.4109592358713
 30
0.0
 10
465.9290317873237
 20
111.4068130611166
 30
0.0
 10
465.9911877795172
 20
111.401333443181
 30
0.0
 10
466.021868269624
 20
111.4000000000003
 30
0.0
 10
466.05169674141
 20
111.4000000000003
 30
0.0
  0
SPLINE
  5
1D9
330
1F
100
AcDbEntity
  8
0
  6
Continuous
 62
     7
370
    15
100
AcDbSpline
210
0.0
220
0.0
230
1.0
 70
     8
 71
     3
 72
    18
 73
    14
 74
     0
 42
0.000000001
 43
0.00000001
 40
0.0000002444563597
 40
0.0000002444563597
 40
0.0000002444563597
 40
0.0000002444563597
 40
0.0625
 40
0.0625
 40
0.25
 40
0.25
 40
0.5
 40
0.5
 40
0.75
 40
0.75
 40
0.9375
 40
0.9375
 40
1.0
 40
1.0
 40
1.0
 40
1.0
 10
465.5055922664015
 20
111.6479055467002
 30
0.0
 10
465.5049522539769
 20
111.6477065034057
 30
0.0
 10
465.5043382992937
 20
111.6475199003173
 30
0.0
 10
465.501990719635
 20
111.6468232487876
 30
0.0
 10
465.5004735728072
 20
111.6464127219941
 30
0.0
 10
465.4975649463825
 20
111.6457160704673
 30
0.0
 10
465.4963839277322
 20
111.6455170271755
 30
0.0
 10
465.4951122570741
 20
111.6455170271789
 30
0.0
 10
465.4950216050664
 20
111.6457160704742
 30
0.0
 10
465.4959292618909
 20
111.6464127220025
 30
0.0
 10
465.4966609962636
 20
111.6468232487951
 30
0.0
 10
465.4981296998542
 20
111.6475199003204
 30
0.0
 10
465.4985379638985
 20
111.6477065034075
 30
0.0
 10
465.4989883181165
 20
111.6479055467002
 30
0.0
  0
SPLINE
  5
1DA
330
1F
100
AcDbEntity
  8
0
  6
Continuous
 62
     7
370
    15
100
AcDbSpline
210
0.0
220
0.0
230
1.0
 70
     8
 71
     3
 72
    18
 73
    14
 74
     0
 42
0.000000001
 43
0.00000001
 40
0.0
 40
0.0
 40
0.0
 40
0.0
 40
0.146489580322639
 40
0.146489580322639
 40
0.2929791606452779
 40
0.2929791606452779
 40
0.5789183810704115
 40
0.5789183810704115
 40
0.8192219014552461
 40
0.8192219014552461
 40
0.9096109507276231
 40
0.9096109507276231
 40
1.0
 40
1.0
 40
1.0
 40
1.0
 10
466.0516967414098
 20
111.4000000000003
 30
0.0
 10
466.021984539681
 20
111.4000000000003
 30
0.0
 10
465.9914150923576
 20
111.4013334431738
 30
0.0
 10
465.9294878857028
 20
111.4068130610239
 30
0.0
 10
465.8981301263947
 20
111.4109592356982
 30
0.0
 10
465.8057673159577
 20
111.4275652785472
 30
0.0
 10
465.749734448553
 20
111.4424087390069
 30
0.0
 10
465.6447881626148
 20
111.4877408234618
 30
0.0
 10
465.6009916997411
 20
111.5127503967349
 30
0.0
 10
465.5498474293929
 20
111.5622840681228
 30
0.0
 10
465.5362325993581
 20
111.5786547976192
 30
0.0
 10
465.5156366539601
 20
111.6132192120183
 30
0.0
 10
465.5086973516758
 20
111.6313555802059
 30
0.0
 10
465.5055922588916
 20
111.6479055443646
 30
0.0
  0
LWPOLYLINE
  5
1DB
330
1F
100
AcDbEntity
  8
0
  6
Continuous
 62
     7
370
    15
100
AcDbPolyline
 90
        8
 70
   128
 43
0.0
 10
468.3360266652
 20
111.6039217556
 10
468.3471440591
 20
111.5551644879
 10
468.3625506355
 20
111.5109752347
 10
468.3817604814
 20
111.4727476952
 10
468.4041677313
 20
111.4416875403
 10
468.4290656754
 20
111.4187743864
 10
468.4556690496
 20
111.404730899
 10
468.4831388012
 20
111.4
  0
SPLINE
  5
1DC
330
1F
100
AcDbEntity
  8
0
  6
Continuous
 62
     7
370
    15
100
AcDbSpline
210
0.0
220
0.0
230
1.0
 70
    24
 71
     3
 72
    19
 73
    15
 74
     0
 42
0.000000001
 43
0.00000001
 40
0.0
 40
0.0
 40
0.0
 40
0.0
 40
0.1306036991863875
 40
0.2009099593017662
 40
0.2727082191293784
 40
0.3445064789570106
 40
0.4148127390723784
 40
0.5454164382587541
 40
0.6760201374451243
 40
0.7463263975605193
 40
0.81812465738812
 40
0.8899229172157606
 40
0.9602291773311239
 40
1.0
 40
1.0
 40
1.0
 40
1.0
 10
15.64970592870962
 20
114.4000000000002
 30
0.0
 10
15.41331917445357
 20
114.4000000000001
 30
0.0
 10
15.04968128767914
 20
114.4000000000002
 30
0.0
 10
14.10991972246162
 20
114.4000000000002
 30
0.0
 10
13.24634793696053
 20
114.4000000000002
 30
0.0
 10
12.26684694304292
 20
114.4000000000002
 30
0.0
 10
10.93485896222782
 20
114.4000000000002
 30
0.0
 10
9.248671635515793
 20
114.4000000000002
 30
0.0
 10
7.726769102536113
 20
114.4000000000002
 30
0.0
 10
6.721192683607935
 20
114.4000000000002
 30
0.0
 10
6.087336569334245
 20
114.4000000000002
 30
0.0
 10
5.669312774516405
 20
114.4000000000002
 30
0.0
 10
5.413923674952914
 20
114.4000000000001
 30
0.0
 10
5.480681860362768
 20
114.4000000000002
 30
0.0
 10
5.504801576169893
 20
114.4000000000002
 30
0.0
  0
SPLINE
  5
1DD
330
1F
100
AcDbEntity
  8
0
  6
Continuous
 62
     7
370
    15
100
AcDbSpline
210
0.0
220
0.0
230
1.0
 70
    24
 71
     3
 72
     9
 73
     5
 74
     0
 42
0.000000001
 43
0.00000001
 40
0.0
 40
0.0
 40
0.0
 40
0.0
 40
0.990047319252656
 40
1.0
 40
1.0
 40
1.0
 40
1.0
 10
8.443183462507859
 20
111.4000000000002
 30
0.0
 10
8.483079649527546
 20
111.3999999999996
 30
0.0
 10
8.52337690223845
 20
111.3999999999989
 30
0.0
 10
8.503450492146209
 20
111.4000000000002
 30
0.0
 10
8.503252170948134
 20
111.4000000000002
 30
0.0
  0
SPLINE
  5
1DE
330
1F
100
AcDbEntity
  8
0
  6
Continuous
 62
     7
370
    15
100
AcDbSpline
210
0.0
220
0.0
230
1.0
 70
     8
 71
     3
 72
    12
 73
     8
 74
     0
 42
0.000000001
 43
0.00000001
 40
0.4999999986759256
 40
0.4999999986759256
 40
0.4999999986759256
 40
0.4999999986759256
 40
0.5624999986759256
 40
0.5624999986759256
 40
0.7499999986759256
 40
0.7499999986759256
 40
1.0
 40
1.0
 40
1.0
 40
1.0
 10
14.49440772848279
 20
111.6479055467001
 30
0.0
 10
14.49504774090188
 20
111.6477065034074
 30
0.0
 10
14.49566169558045
 20
111.6475199003203
 30
0.0
 10
14.4980092752241
 20
111.646823248795
 30
0.0
 10
14.49952642204796
 20
111.6464127220024
 30
0.0
 10
14.50243504847396
 20
111.6457160704742
 30
0.0
 10
14.50361606713291
 20
111.6455170271788
 30
0.0
 10
14.50425190247134
 20
111.6455170271771
 30
0.0
  0
SPLINE
  5
1DF
330
1F
100
AcDbEntity
  8
0
  6
Continuous
 62
     7
370
    15
100
AcDbSpline
210
0.0
220
0.0
230
1.0
 70
     8
 71
     3
 72
    20
 73
    16
 74
     0
 42
0.000000001
 43
0.00000001
 40
0.0
 40
0.0
 40
0.0
 40
0.0
 40
0.1464895826441497
 40
0.1464895826441497
 40
0.2929791652882994
 40
0.2929791652882994
 40
0.5789183902447852
 40
0.5789183902447852
 40
0.7591460333895959
 40
0.7591460333895959
 40
0.8192219144378661
 40
0.8192219144378661
 40
0.909610957218933
 40
0.909610957218933
 40
1.0
 40
1.0
 40
1.0
 40
1.0
 10
13.94830325347426
 20
111.4000000000002
 30
0.0
 10
13.97801545533814
 20
111.4000000000002
 30
0.0
 10
14.00858490280971
 20
111.4013334431809
 30
0.0
 10
14.07051210959401
 20
111.4068130611165
 30
0.0
 10
14.10186986890674
 20
111.4109592358713
 30
0.0
 10
14.19423267913506
 20
111.4275652789592
 30
0.0
 10
14.25026554598874
 20
111.442408739672
 30
0.0
 10
14.34323116145841
 20
111.4825657130676
 30
0.0
 10
14.37685217274892
 20
111.5005149312533
 30
0.0
 10
14.41717625586794
 20
111.5314342094326
 30
0.0
 10
14.42688194898645
 20
111.5397462779162
 30
0.0
 10
14.45015256195178
 20
111.5622840700153
 30
0.0
 10
14.46376739146646
 20
111.5786547997526
 30
0.0
 10
14.48436333527728
 20
111.6132192147424
 30
0.0
 10
14.49130263656789
 20
111.6313555832119
 30
0.0
 10
14.49440772848279
 20
111.6479055467001
 30
0.0
  0
SPLINE
  5
1E0
330
1F
100
AcDbEntity
  8
0
  6
Continuous
 62
     7
370
    15
100
AcDbSpline
210
0.0
220
0.0
230
1.0
 70
     8
 71
     3
 72
    20
 73
    16
 74
     0
 42
0.000000001
 43
0.00000001
 40
0.0
 40
0.0
 40
0.0
 40
0.0
 40
0.090389042781067
 40
0.090389042781067
 40
0.1807780855621339
 40
0.1807780855621339
 40
0.2408539666104041
 40
0.2408539666104041
 40
0.4210816097552148
 40
0.4210816097552148
 40
0.7070208347117006
 40
0.7070208347117006
 40
0.8535104173558503
 40
0.8535104173558503
 40
1.0
 40
1.0
 40
1.0
 40
1.0
 10
14.50101167676773
 20
111.6479055467001
 30
0.0
 10
14.49722801761288
 20
111.6313555832119
 30
0.0
 10
14.48964223909938
 20
111.6132192147425
 30
0.0
 10
14.46794997872386
 20
111.5786547997526
 30
0.0
 10
14.45388319860252
 20
111.5622840700153
 30
0.0
 10
14.43003685514799
 20
111.5397462779162
 30
0.0
 10
14.42013098059305
 20
111.5314342094326
 30
0.0
 10
14.37910019636948
 20
111.5005149312533
 30
0.0
 10
14.34516071469336
 20
111.4825657130676
 30
0.0
 10
14.25148673324533
 20
111.442408739672
 30
0.0
 10
14.1951892988354
 20
111.4275652789592
 30
0.0
 10
14.10244370964753
 20
111.4109592358713
 30
0.0
 10
14.07096820756065
 20
111.4068130611165
 30
0.0
 10
14.00881221536701
 20
111.401333443181
 30
0.0
 10
13.9781317252603
 20
111.4000000000002
 30
0.0
 10
13.94830325347429
 20
111.4000000000002
 30
0.0
  0
SPLINE
  5
1E1
330
1F
100
AcDbEntity
  8
0
  6
Continuous
 62
     7
370
    15
100
AcDbSpline
210
0.0
220
0.0
230
1.0
 70
     8
 71
     3
 72
    18
 73
    14
 74
     0
 42
0.000000001
 43
0.00000001
 40
0.0
 40
0.0
 40
0.0
 40
0.0
 40
0.0903890492723769
 40
0.0903890492723769
 40
0.1807780985447539
 40
0.1807780985447539
 40
0.4210816189295885
 40
0.4210816189295885
 40
0.7070208393547222
 40
0.7070208393547222
 40
0.8535104196773611
 40
0.8535104196773611
 40
1.0
 40
1.0
 40
1.0
 40
1.0
 10
6.752771587245215
 20
111.6479055467001
 30
0.0
 10
6.756555246401702
 20
111.6313555832048
 30
0.0
 10
6.764141024776432
 20
111.6132192150655
 30
0.0
 10
6.785833284827625
 20
111.5786548003833
 30
0.0
 10
6.799900064782538
 20
111.5622840706087
 30
0.0
 10
6.852309677418733
 20
111.5127503986712
 30
0.0
 10
6.896550591074885
 20
111.4877408246468
 30
0.0
 10
7.002296530767643
 20
111.442408739672
 30
0.0
 10
7.05859396517755
 20
111.4275652789592
 30
0.0
 10
7.151339554365394
 20
111.4109592358713
 30
0.0
 10
7.182815056452297
 20
111.4068130611165
 30
0.0
 10
7.24497104864591
 20
111.4013334431809
 30
0.0
 10
7.27565153875262
 20
111.4000000000002
 30
0.0
 10
7.305480010538656
 20
111.4000000000002
 30
0.0
  0
SPLINE
  5
1E2
330
1F
100
AcDbEntity
  8
0
  6
Continuous
 62
     7
370
    15
100
AcDbSpline
210
0.0
220
0.0
230
1.0
 70
     8
 71
     3
 72
    18
 73
    14
 74
     0
 42
0.000000001
 43
0.00000001
 40
0.0000002444543969
 40
0.0000002444543969
 40
0.0000002444543969
 40
0.0000002444543969
 40
0.0625
 40
0.0625
 40
0.25
 40
0.25
 40
0.5
 40
0.5
 40
0.75
 40
0.75
 40
0.9375
 40
0.9375
 40
1.0
 40
1.0
 40
1.0
 40
1.0
 10
6.75937553553016
 20
111.6479055467001
 30
0.0
 10
6.758735523105547
 20
111.6477065034057
 30
0.0
 10
6.758121568422371
 20
111.6475199003172
 30
0.0
 10
6.755773988763619
 20
111.6468232487875
 30
0.0
 10
6.754256841935868
 20
111.6464127219941
 30
0.0
 10
6.751348215511127
 20
111.6457160704673
 30
0.0
 10
6.750167196860779
 20
111.6455170271754
 30
0.0
 10
6.748895526202753
 20
111.6455170271788
 30
0.0
 10
6.748804874195047
 20
111.6457160704742
 30
0.0
 10
6.749712531019581
 20
111.6464127220024
 30
0.0
 10
6.750444265392313
 20
111.646823248795
 30
0.0
 10
6.751912968982865
 20
111.6475199003203
 30
0.0
 10
6.752321233027186
 20
111.6477065034074
 30
0.0
 10
6.752771587245215
 20
111.6479055467001
 30
0.0
  0
SPLINE
  5
1E3
330
1F
100
AcDbEntity
  8
0
  6
Continuous
 62
     7
370
    15
100
AcDbSpline
210
0.0
220
0.0
230
1.0
 70
     8
 71
     3
 72
    18
 73
    14
 74
     0
 42
0.000000001
 43
0.00000001
 40
0.0
 40
0.0
 40
0.0
 40
0.0
 40
0.146489580322639
 40
0.146489580322639
 40
0.2929791606452779
 40
0.2929791606452779
 40
0.5789183810704115
 40
0.5789183810704115
 40
0.8192219014552461
 40
0.8192219014552461
 40
0.9096109507276231
 40
0.9096109507276231
 40
1.0
 40
1.0
 40
1.0
 40
1.0
 10
7.305480010538656
 20
111.4000000000002
 30
0.0
 10
7.275767808809785
 20
111.4000000000002
 30
0.0
 10
7.245198361486183
 20
111.4013334431737
 30
0.0
 10
7.183271154831528
 20
111.4068130610238
 30
0.0
 10
7.151913395523485
 20
111.4109592356981
 30
0.0
 10
7.05955058508656
 20
111.4275652785471
 30
0.0
 10
7.003517717681651
 20
111.4424087390069
 30
0.0
 10
6.89857143174355
 20
111.4877408234618
 30
0.0
 10
6.854774968869909
 20
111.5127503967348
 30
0.0
 10
6.803630698521607
 20
111.5622840681227
 30
0.0
 10
6.790015868486793
 20
111.5786547976191
 30
0.0
 10
6.769419923088743
 20
111.6132192120182
 30
0.0
 10
6.76248062080459
 20
111.6313555802058
 30
0.0
 10
6.759375528020195
 20
111.6479055443645
 30
0.0
  0
LWPOLYLINE
  5
1E4
330
1F
100
AcDbEntity
  8
0
  6
Continuous
 62
     7
370
    15
100
AcDbPolyline
 90
        8
 70
   128
 43
0.0
 10
9.5898099344
 20
111.6039217556
 10
9.6009273282
 20
111.5551644879
 10
9.6163339046
 20
111.5109752347
 10
9.6355437506
 20
111.4727476952
 10
9.6579510004
 20
111.4416875403
 10
9.6828489446
 20
111.4187743864
 10
9.7094523187
 20
111.404730899
 10
9.7369220703
 20
111.4
  0
SPLINE
  5
1E5
330
1F
100
AcDbEntity
  8
0
  6
Continuous
 62
     7
370
    15
100
AcDbSpline
210
0.0
220
0.0
230
1.0
 70
    24
 71
     3
 72
    19
 73
    15
 74
     0
 42
0.000000001
 43
0.00000001
 40
0.0
 40
0.0
 40
0.0
 40
0.0
 40
0.1306036991863836
 40
0.2009099593017603
 40
0.2727082191293704
 40
0.3445064789570004
 40
0.4148127390723662
 40
0.545416438258738
 40
0.6760201374451044
 40
0.7463263975604973
 40
0.8181246573880957
 40
0.8899229172157344
 40
0.9602291773310955
 40
1.0
 40
1.0
 40
1.0
 40
1.0
 10
-8.283439389515312
 20
114.3999999999998
 30
0.0
 10
-8.519826143771365
 20
114.3999999999998
 30
0.0
 10
-8.883464030545769
 20
114.3999999999998
 30
0.0
 10
-9.823225595763319
 20
114.3999999999998
 30
0.0
 10
-10.68679738126441
 20
114.3999999999998
 30
0.0
 10
-11.66629837518202
 20
114.3999999999998
 30
0.0
 10
-12.99828635599715
 20
114.3999999999998
 30
0.0
 10
-14.68447368270914
 20
114.3999999999998
 30
0.0
 10
-16.20637621568882
 20
114.3999999999998
 30
0.0
 10
-17.211952634617
 20
114.3999999999998
 30
0.0
 10
-17.84580874889069
 20
114.3999999999998
 30
0.0
 10
-18.26383254370856
 20
114.3999999999998
 30
0.0
 10
-18.51922164327202
 20
114.3999999999997
 30
0.0
 10
-18.45246345786217
 20
114.3999999999998
 30
0.0
 10
-18.42834374205504
 20
114.3999999999998
 30
0.0
  0
SPLINE
  5
1E6
330
1F
100
AcDbEntity
  8
0
  6
Continuous
 62
     7
370
    15
100
AcDbSpline
210
0.0
220
0.0
230
1.0
 70
    24
 71
     3
 72
     9
 73
     5
 74
     0
 42
0.000000001
 43
0.00000001
 40
0.0
 40
0.0
 40
0.0
 40
0.0
 40
0.990047319252656
 40
1.0
 40
1.0
 40
1.0
 40
1.0
 10
-15.48996185571708
 20
111.3999999999998
 30
0.0
 10
-15.45006566869744
 20
111.4
 30
0.0
 10
-15.40976841598657
 20
111.4000000000003
 30
0.0
 10
-15.42969482607873
 20
111.3999999999998
 30
0.0
 10
-15.4298931472768
 20
111.3999999999998
 30
0.0
  0
SPLINE
  5
1E7
330
1F
100
AcDbEntity
  8
0
  6
Continuous
 62
     7
370
    15
100
AcDbSpline
210
0.0
220
0.0
230
1.0
 70
     8
 71
     3
 72
    12
 73
     8
 74
     0
 42
0.000000001
 43
0.00000001
 40
0.4999999986754892
 40
0.4999999986754892
 40
0.4999999986754892
 40
0.4999999986754892
 40
0.5624999986754892
 40
0.5624999986754892
 40
0.7499999986754892
 40
0.7499999986754892
 40
1.0
 40
1.0
 40
1.0
 40
1.0
 10
-9.438737589742146
 20
111.6479055466997
 30
0.0
 10
-9.438097577323056
 20
111.647706503407
 30
0.0
 10
-9.437483622644487
 20
111.6475199003199
 30
0.0
 10
-9.435136043000835
 20
111.6468232487946
 30
0.0
 10
-9.43361889617697
 20
111.646412722002
 30
0.0
 10
-9.43071026975098
 20
111.6457160704737
 30
0.0
 10
-9.429529251092028
 20
111.6455170271784
 30
0.0
 10
-9.428893415753592
 20
111.6455170271767
 30
0.0
  0
SPLINE
  5
1E8
330
1F
100
AcDbEntity
  8
0
  6
Continuous
 62
     7
370
    15
100
AcDbSpline
210
0.0
220
0.0
230
1.0
 70
     8
 71
     3
 72
    20
 73
    16
 74
     0
 42
0.000000001
 43
0.00000001
 40
0.0
 40
0.0
 40
0.0
 40
0.0
 40
0.1464895826441497
 40
0.1464895826441497
 40
0.2929791652882994
 40
0.2929791652882994
 40
0.5789183902447852
 40
0.5789183902447852
 40
0.7591460333895959
 40
0.7591460333895959
 40
0.8192219144378661
 40
0.8192219144378661
 40
0.909610957218933
 40
0.909610957218933
 40
1.0
 40
1.0
 40
1.0
 40
1.0
 10
-9.984842064750671
 20
111.3999999999998
 30
0.0
 10
-9.955129862886796
 20
111.3999999999998
 30
0.0
 10
-9.924560415415229
 20
111.4013334431805
 30
0.0
 10
-9.862633208630928
 20
111.4068130611161
 30
0.0
 10
-9.831275449318195
 20
111.4109592358709
 30
0.0
 10
-9.73891263908988
 20
111.4275652789588
 30
0.0
 10
-9.682879772236197
 20
111.4424087396716
 30
0.0
 10
-9.589914156766522
 20
111.4825657130672
 30
0.0
 10
-9.556293145476014
 20
111.5005149312529
 30
0.0
 10
-9.515969062356994
 20
111.5314342094322
 30
0.0
 10
-9.506263369238487
 20
111.5397462779158
 30
0.0
 10
-9.48299275627315
 20
111.5622840700149
 30
0.0
 10
-9.469377926758476
 20
111.5786547997522
 30
0.0
 10
-9.448781982947658
 20
111.613219214742
 30
0.0
 10
-9.441842681657043
 20
111.6313555832115
 30
0.0
 10
-9.438737589742146
 20
111.6479055466997
 30
0.0
  0
SPLINE
  5
1E9
330
1F
100
AcDbEntity
  8
0
  6
Continuous
 62
     7
370
    15
100
AcDbSpline
210
0.0
220
0.0
230
1.0
 70
     8
 71
     3
 72
    20
 73
    16
 74
     0
 42
0.000000001
 43
0.00000001
 40
0.0
 40
0.0
 40
0.0
 40
0.0
 40
0.090389042781067
 40
0.090389042781067
 40
0.1807780855621339
 40
0.1807780855621339
 40
0.2408539666104041
 40
0.2408539666104041
 40
0.4210816097552148
 40
0.4210816097552148
 40
0.7070208347117006
 40
0.7070208347117006
 40
0.8535104173558503
 40
0.8535104173558503
 40
1.0
 40
1.0
 40
1.0
 40
1.0
 10
-9.432133641457202
 20
111.6479055466997
 30
0.0
 10
-9.43591730061205
 20
111.6313555832115
 30
0.0
 10
-9.44350307912556
 20
111.6132192147421
 30
0.0
 10
-9.465195339501076
 20
111.5786547997522
 30
0.0
 10
-9.479262119622412
 20
111.5622840700149
 30
0.0
 10
-9.503108463076948
 20
111.5397462779158
 30
0.0
 10
-9.513014337631882
 20
111.5314342094322
 30
0.0
 10
-9.554045121855454
 20
111.5005149312529
 30
0.0
 10
-9.587984603531579
 20
111.4825657130672
 30
0.0
 10
-9.681658584979601
 20
111.4424087396716
 30
0.0
 10
-9.737956019389538
 20
111.4275652789588
 30
0.0
 10
-9.830701608577408
 20
111.4109592358709
 30
0.0
 10
-9.86217711066431
 20
111.4068130611161
 30
0.0
 10
-9.924333102857924
 20
111.4013334431806
 30
0.0
 10
-9.955013592964635
 20
111.3999999999998
 30
0.0
 10
-9.984842064750671
 20
111.3999999999998
 30
0.0
  0
SPLINE
  5
1EA
330
1F
100
AcDbEntity
  8
0
  6
Continuous
 62
     7
370
    15
100
AcDbSpline
210
0.0
220
0.0
230
1.0
 70
     8
 71
     3
 72
    18
 73
    14
 74
     0
 42
0.000000001
 43
0.00000001
 40
0.0
 40
0.0
 40
0.0
 40
0.0
 40
0.0903890492723769
 40
0.0903890492723769
 40
0.1807780985447539
 40
0.1807780985447539
 40
0.4210816189295885
 40
0.4210816189295885
 40
0.7070208393547222
 40
0.7070208393547222
 40
0.8535104196773611
 40
0.8535104196773611
 40
1.0
 40
1.0
 40
1.0
 40
1.0
 10
-17.18037373097972
 20
111.6479055466997
 30
0.0
 10
-17.17659007182326
 20
111.6313555832044
 30
0.0
 10
-17.1690042934485
 20
111.6132192150651
 30
0.0
 10
-17.14731203339731
 20
111.5786548003829
 30
0.0
 10
-17.1332452534424
 20
111.5622840706083
 30
0.0
 10
-17.0808356408062
 20
111.5127503986708
 30
0.0
 10
-17.03659472715005
 20
111.4877408246464
 30
0.0
 10
-16.93084878745729
 20
111.4424087396716
 30
0.0
 10
-16.87455135304738
 20
111.4275652789588
 30
0.0
 10
-16.78180576385954
 20
111.4109592358708
 30
0.0
 10
-16.75033026177264
 20
111.4068130611161
 30
0.0
 10
-16.68817426957903
 20
111.4013334431805
 30
0.0
 10
-16.65749377947231
 20
111.3999999999998
 30
0.0
 10
-16.62766530768628
 20
111.3999999999998
 30
0.0
  0
SPLINE
  5
1EB
330
1F
100
AcDbEntity
  8
0
  6
Continuous
 62
     7
370
    15
100
AcDbSpline
210
0.0
220
0.0
230
1.0
 70
     8
 71
     3
 72
    18
 73
    14
 74
     0
 42
0.000000001
 43
0.00000001
 40
0.0000002444711184
 40
0.0000002444711184
 40
0.0000002444711184
 40
0.0000002444711184
 40
0.0625
 40
0.0625
 40
0.25
 40
0.25
 40
0.5
 40
0.5
 40
0.75
 40
0.75
 40
0.9375
 40
0.9375
 40
1.0
 40
1.0
 40
1.0
 40
1.0
 10
-17.17376978269478
 20
111.6479055466997
 30
0.0
 10
-17.17440979511942
 20
111.6477065034053
 30
0.0
 10
-17.17502374980257
 20
111.6475199003168
 30
0.0
 10
-17.17737132946129
 20
111.6468232487871
 30
0.0
 10
-17.17888847628907
 20
111.6464127219936
 30
0.0
 10
-17.18179710271381
 20
111.6457160704669
 30
0.0
 10
-17.18297812136416
 20
111.645517027175
 30
0.0
 10
-17.18424979202218
 20
111.6455170271784
 30
0.0
 10
-17.18434044402989
 20
111.6457160704737
 30
0.0
 10
-17.18343278720535
 20
111.646412722002
 30
0.0
 10
-17.18270105283262
 20
111.6468232487946
 30
0.0
 10
-17.18123234924207
 20
111.6475199003199
 30
0.0
 10
-17.18082408519775
 20
111.647706503407
 30
0.0
 10
-17.18037373097972
 20
111.6479055466997
 30
0.0
  0
SPLINE
  5
1EC
330
1F
100
AcDbEntity
  8
0
  6
Continuous
 62
     7
370
    15
100
AcDbSpline
210
0.0
220
0.0
230
1.0
 70
     8
 71
     3
 72
    18
 73
    14
 74
     0
 42
0.000000001
 43
0.00000001
 40
0.0
 40
0.0
 40
0.0
 40
0.0
 40
0.146489580322639
 40
0.146489580322639
 40
0.2929791606452779
 40
0.2929791606452779
 40
0.5789183810704115
 40
0.5789183810704115
 40
0.8192219014552461
 40
0.8192219014552461
 40
0.9096109507276231
 40
0.9096109507276231
 40
1.0
 40
1.0
 40
1.0
 40
1.0
 10
-16.62766530768628
 20
111.3999999999998
 30
0.0
 10
-16.65737750941515
 20
111.3999999999998
 30
0.0
 10
-16.68794695673875
 20
111.4013334431733
 30
0.0
 10
-16.74987416339341
 20
111.4068130610234
 30
0.0
 10
-16.78123192270145
 20
111.4109592356977
 30
0.0
 10
-16.87359473313838
 20
111.4275652785467
 30
0.0
 10
-16.92962760054328
 20
111.4424087390065
 30
0.0
 10
-17.03457388648139
 20
111.4877408234614
 30
0.0
 10
-17.078370349355
 20
111.5127503967344
 30
0.0
 10
-17.12951461970333
 20
111.5622840681223
 30
0.0
 10
-17.14312944973814
 20
111.5786547976187
 30
0.0
 10
-17.16372539513619
 20
111.6132192120178
 30
0.0
 10
-17.17066469742032
 20
111.6313555802054
 30
0.0
 10
-17.17376979020474
 20
111.6479055443641
 30
0.0
  0
LWPOLYLINE
  5
1ED
330
1F
100
AcDbEntity
  8
0
  6
Continuous
 62
     7
370
    15
100
AcDbPolyline
 90
        8
 70
   128
 43
0.0
 10
-14.3433353839
 20
111.6039217556
 10
-14.33221799
 20
111.5551644879
 10
-14.3168114136
 20
111.5109752346
 10
-14.2976015677
 20
111.4727476952
 10
-14.2751943178
 20
111.4416875403
 10
-14.2502963737
 20
111.4187743864
 10
-14.2236929995
 20
111.404730899
 10
-14.1962232479
 20
111.4
  0
SPLINE
  5
1EF
330
1F
100
AcDbEntity
  8
0
  6
Continuous
 62
     7
370
    15
100
AcDbSpline
210
0.0
220
0.0
230
1.0
 70
    24
 71
     3
 72
     9
 73
     5
 74
     0
 42
0.000000001
 43
0.00000001
 40
0.0
 40
0.0
 40
0.0
 40
0.0
 40
0.0107193511770459
 40
1.0
 40
1.0
 40
1.0
 40
1.0
 10
491.1825683567639
 20
-111.4000000000139
 30
0.0
 10
491.18278228559
 20
-111.4000000000139
 30
0.0
 10
491.2027395406988
 20
-111.4000000000133
 30
0.0
 10
491.1624264610111
 20
-111.4000000000136
 30
0.0
 10
491.1225455113819
 20
-111.4000000000139
 30
0.0
  0
SPLINE
  5
1F0
330
1F
100
AcDbEntity
  8
0
  6
Continuous
 62
     7
370
    15
100
AcDbSpline
210
0.0
220
0.0
230
1.0
 70
     8
 71
     3
 72
    18
 73
    14
 74
     0
 42
0.000000001
 43
0.00000001
 40
0.0000002444633753
 40
0.0000002444633753
 40
0.0000002444633753
 40
0.0000002444633753
 40
0.0625
 40
0.0625
 40
0.25
 40
0.25
 40
0.5
 40
0.5
 40
0.75
 40
0.75
 40
0.9375
 40
0.9375
 40
1.0
 40
1.0
 40
1.0
 40
1.0
 10
497.1803737256417
 20
-111.6479055467138
 30
0.0
 10
497.1808240798636
 20
-111.6477065034194
 30
0.0
 10
497.1812323439109
 20
-111.647519900331
 30
0.0
 10
497.1827010475108
 20
-111.6468232488012
 30
0.0
 10
497.1834327818841
 20
-111.6464127220078
 30
0.0
 10
497.1843404387016
 20
-111.645716070481
 30
0.0
 10
497.1842497866837
 20
-111.6455170271891
 30
0.0
 10
497.1829781160068
 20
-111.6455170271926
 30
0.0
 10
497.1817970973479
 20
-111.6457160704879
 30
0.0
 10
497.1788884709218
 20
-111.6464127220162
 30
0.0
 10
497.177371324098
 20
-111.6468232488088
 30
0.0
 10
497.1750237444544
 20
-111.6475199003341
 30
0.0
 10
497.1744097897758
 20
-111.6477065034211
 30
0.0
 10
497.1737697773567
 20
-111.6479055467138
 30
0.0
  0
SPLINE
  5
1F1
330
1F
100
AcDbEntity
  8
0
  6
Continuous
 62
     7
370
    15
100
AcDbSpline
210
0.0
220
0.0
230
1.0
 70
     8
 71
     3
 72
    18
 73
    14
 74
     0
 42
0.000000001
 43
0.00000001
 40
0.0
 40
0.0
 40
0.0
 40
0.0
 40
0.0903890492723769
 40
0.0903890492723769
 40
0.1807780985447539
 40
0.1807780985447539
 40
0.4210816189295885
 40
0.4210816189295885
 40
0.7070208393547222
 40
0.7070208393547222
 40
0.8535104196773611
 40
0.8535104196773611
 40
1.0
 40
1.0
 40
1.0
 40
1.0
 10
497.1737697773567
 20
-111.6479055467138
 30
0.0
 10
497.1706646854405
 20
-111.6313555832186
 30
0.0
 10
497.1637253842769
 20
-111.6132192150793
 30
0.0
 10
497.143129440783
 20
-111.578654800397
 30
0.0
 10
497.1295146114384
 20
-111.5622840706224
 30
0.0
 10
497.0783703421443
 20
-111.5127503986849
 30
0.0
 10
497.0345738799996
 20
-111.4877408246605
 30
0.0
 10
496.9296275948627
 20
-111.4424087396858
 30
0.0
 10
496.8735947280089
 20
-111.4275652789729
 30
0.0
 10
496.7812319177806
 20
-111.410959235885
 30
0.0
 10
496.7498741584679
 20
-111.4068130611302
 30
0.0
 10
496.6879469516836
 20
-111.4013334431947
 30
0.0
 10
496.6573775042121
 20
-111.4000000000139
 30
0.0
 10
496.6276653023482
 20
-111.4000000000139
 30
0.0
  0
SPLINE
  5
1F2
330
1F
100
AcDbEntity
  8
0
  6
Continuous
 62
     7
370
    15
100
AcDbSpline
210
0.0
220
0.0
230
1.0
 70
     8
 71
     3
 72
    18
 73
    14
 74
     0
 42
0.000000001
 43
0.00000001
 40
0.0
 40
0.0
 40
0.0
 40
0.0
 40
0.146489580322639
 40
0.146489580322639
 40
0.2929791606452779
 40
0.2929791606452779
 40
0.5789183810704115
 40
0.5789183810704115
 40
0.8192219014552461
 40
0.8192219014552461
 40
0.9096109507276231
 40
0.9096109507276231
 40
1.0
 40
1.0
 40
1.0
 40
1.0
 10
496.627665302348
 20
-111.4000000000139
 30
0.0
 10
496.6574937739925
 20
-111.4000000000139
 30
0.0
 10
496.6881742639601
 20
-111.4013334431874
 30
0.0
 10
496.7503302558953
 20
-111.4068130610375
 30
0.0
 10
496.7818057578848
 20
-111.4109592357118
 30
0.0
 10
496.874551347069
 20
-111.4275652785608
 30
0.0
 10
496.9308487818053
 20
-111.4424087390206
 30
0.0
 10
497.0365947220111
 20
-111.4877408234755
 30
0.0
 10
497.080835636058
 20
-111.5127503967486
 30
0.0
 10
497.1332452495693
 20
-111.5622840681364
 30
0.0
 10
497.1473120300743
 20
-111.5786547976329
 30
0.0
 10
497.1690042916863
 20
-111.6132192120319
 30
0.0
 10
497.1765900709946
 20
-111.6313555802196
 30
0.0
 10
497.1803737309261
 20
-111.6479055443782
 30
0.0
  0
SPLINE
  5
1F3
330
1F
100
AcDbEntity
  8
0
  6
Continuous
 62
     7
370
    15
100
AcDbSpline
210
0.0
220
0.0
230
1.0
 70
     8
 71
     3
 72
    20
 73
    16
 74
     0
 42
0.000000001
 43
0.00000001
 40
0.0
 40
0.0
 40
0.0
 40
0.0
 40
0.1464895826441497
 40
0.1464895826441497
 40
0.2929791652882994
 40
0.2929791652882994
 40
0.5789183902447852
 40
0.5789183902447852
 40
0.7591460333895959
 40
0.7591460333895959
 40
0.8192219144378661
 40
0.8192219144378661
 40
0.909610957218933
 40
0.909610957218933
 40
1.0
 40
1.0
 40
1.0
 40
1.0
 10
489.9848420594126
 20
-111.4000000000139
 30
0.0
 10
489.9550135876266
 20
-111.4000000000139
 30
0.0
 10
489.9243330975198
 20
-111.4013334431947
 30
0.0
 10
489.8621771053262
 20
-111.4068130611302
 30
0.0
 10
489.8307016032393
 20
-111.410959235885
 30
0.0
 10
489.7379560140514
 20
-111.4275652789729
 30
0.0
 10
489.6816585796415
 20
-111.4424087396858
 30
0.0
 10
489.5879845981935
 20
-111.4825657130813
 30
0.0
 10
489.5540451165174
 20
-111.500514931267
 30
0.0
 10
489.5130143322938
 20
-111.5314342094464
 30
0.0
 10
489.5031084577388
 20
-111.53974627793
 30
0.0
 10
489.4792621142843
 20
-111.562284070029
 30
0.0
 10
489.4651953341631
 20
-111.5786547997663
 30
0.0
 10
489.4435030737875
 20
-111.6132192147562
 30
0.0
 10
489.435917295274
 20
-111.6313555832256
 30
0.0
 10
489.4321336361191
 20
-111.6479055467138
 30
0.0
  0
SPLINE
  5
1F4
330
1F
100
AcDbEntity
  8
0
  6
Continuous
 62
     7
370
    15
100
AcDbSpline
210
0.0
220
0.0
230
1.0
 70
     8
 71
     3
 72
    12
 73
     8
 74
     0
 42
0.000000001
 43
0.00000001
 40
0.4999999987001607
 40
0.4999999987001607
 40
0.4999999987001607
 40
0.4999999987001607
 40
0.5624999987001607
 40
0.5624999987001607
 40
0.7499999987001607
 40
0.7499999987001607
 40
1.0
 40
1.0
 40
1.0
 40
1.0
 10
489.4321336361191
 20
-111.6479055467138
 30
0.0
 10
489.4316832819011
 20
-111.6477065034211
 30
0.0
 10
489.4312750178568
 20
-111.6475199003341
 30
0.0
 10
489.4298063142662
 20
-111.6468232488088
 30
0.0
 10
489.4290745798935
 20
-111.6464127220162
 30
0.0
 10
489.4281669230689
 20
-111.6457160704879
 30
0.0
 10
489.4282575750767
 20
-111.6455170271926
 30
0.0
 10
489.4288934104056
 20
-111.6455170271908
 30
0.0
  0
SPLINE
  5
1F5
330
1F
100
AcDbEntity
  8
0
  6
Continuous
 62
     7
370
    15
100
AcDbSpline
210
0.0
220
0.0
230
1.0
 70
     8
 71
     3
 72
    20
 73
    16
 74
     0
 42
0.000000001
 43
0.00000001
 40
0.0
 40
0.0
 40
0.0
 40
0.0
 40
0.090389042781067
 40
0.090389042781067
 40
0.1807780855621339
 40
0.1807780855621339
 40
0.2408539666104041
 40
0.2408539666104041
 40
0.4210816097552148
 40
0.4210816097552148
 40
0.7070208347117006
 40
0.7070208347117006
 40
0.8535104173558503
 40
0.8535104173558503
 40
1.0
 40
1.0
 40
1.0
 40
1.0
 10
489.4387375844041
 20
-111.6479055467138
 30
0.0
 10
489.4418426763189
 20
-111.6313555832256
 30
0.0
 10
489.4487819776095
 20
-111.6132192147562
 30
0.0
 10
489.4693779214203
 20
-111.5786547997663
 30
0.0
 10
489.4829927509351
 20
-111.562284070029
 30
0.0
 10
489.5062633639006
 20
-111.53974627793
 30
0.0
 10
489.515969057019
 20
-111.5314342094463
 30
0.0
 10
489.5562931401381
 20
-111.500514931267
 30
0.0
 10
489.5899141514286
 20
-111.4825657130813
 30
0.0
 10
489.6828797668983
 20
-111.4424087396858
 30
0.0
 10
489.738912633752
 20
-111.4275652789729
 30
0.0
 10
489.8312754439801
 20
-111.410959235885
 30
0.0
 10
489.8626332032929
 20
-111.4068130611302
 30
0.0
 10
489.9245604100772
 20
-111.4013334431947
 30
0.0
 10
489.9551298575487
 20
-111.4000000000139
 30
0.0
 10
489.9848420594126
 20
-111.4000000000139
 30
0.0
  0
LWPOLYLINE
  5
1F6
330
1F
100
AcDbEntity
  8
0
  6
Continuous
 62
     7
370
    15
100
AcDbPolyline
 90
        8
 70
   128
 43
0.0
 10
492.2691719861
 20
-111.6039217395
 10
492.2802893808
 20
-111.5551644751
 10
492.2956959575
 20
-111.5109752252
 10
492.3149058033
 20
-111.4727476888
 10
492.3373130525
 20
-111.4416875366
 10
492.3622109958
 20
-111.4187743848
 10
492.3888143688
 20
-111.4047308985
 10
492.4162841192
 20
-111.4
  0
SPLINE
  5
1F7
330
1F
100
AcDbEntity
  8
0
  6
Continuous
 62
     7
370
    15
100
AcDbSpline
210
0.0
220
0.0
230
1.0
 70
     8
 71
     3
 72
     9
 73
     5
 74
     0
 42
0.000000001
 43
0.00000001
 40
0.0
 40
0.0
 40
0.0
 40
0.0
 40
0.874817776091978
 40
1.0
 40
1.0
 40
1.0
 40
1.0
 10
2134.013901435114
 20
30.41381265149309
 30
0.0
 10
2134.027113224605
 20
31.7943933561735
 30
0.0
 10
2134.042215557745
 20
33.3725285317615
 30
0.0
 10
2133.758488906531
 20
34.91420344204398
 30
0.0
 10
2133.72297137335
 20
35.10719373585635
 30
0.0
  0
SPLINE
  5
1F8
330
1F
100
AcDbEntity
  8
0
  6
Continuous
 62
     7
370
    15
100
AcDbSpline
210
0.0
220
0.0
230
1.0
 70
     8
 71
     3
 72
     9
 73
     5
 74
     0
 42
0.000000001
 43
0.00000001
 40
0.0
 40
0.0
 40
0.0
 40
0.0
 40
0.0617012326796881
 40
1.0
 40
1.0
 40
1.0
 40
1.0
 10
2133.738256621703
 20
-35.1196781397448
 30
0.0
 10
2133.75692977381
 20
-35.02462192120251
 30
0.0
 10
2134.059568008038
 20
-33.48403327468782
 30
0.0
 10
2134.036007877013
 20
-31.90005629706056
 30
0.0
 10
2134.013901435114
 20
-30.41381265148915
 30
0.0
  0
CIRCLE
  5
1FE
330
1F
100
AcDbEntity
  8
0
  6
Continuous
 62
     7
370
    15
100
AcDbCircle
 10
1986.4535230777
 20
121.1651174693
 30
0.0
 40
2.999901097557729
  0
LWPOLYLINE
  5
1FF
330
1F
100
AcDbEntity
  8
0
  6
Continuous
 62
     7
370
    15
100
AcDbPolyline
 90
        3
 70
   128
 43
0.0
 10
1939.267401616
 20
103.4637350885
 10
1938.5009065559
 20
103.317781637
 10
1937.9045925927
 20
103.4139130428
  0
CIRCLE
  5
20A
330
1F
100
AcDbEntity
  8
0
  6
Continuous
 62
     7
370
    15
100
AcDbCircle
 10
-1541.2846192176
 20
118.42301476
 30
0.0
 40
2.999901097558233
  0
LWPOLYLINE
  5
20B
330
1F
100
AcDbEntity
  8
0
  6
Continuous
 62
     7
370
    15
100
AcDbPolyline
 90
        3
 70
   128
 43
0.0
 10
-1588.4707406793
 20
100.7216323792
 10
-1589.2372357395
 20
100.5756789277
 10
-1589.8335497026
 20
100.6718103335
  0
LWPOLYLINE
  5
212
330
1F
100
AcDbEntity
  8
0
  6
PHANTOM
 62
     8
370
     0
100
AcDbPolyline
 90
       29
 70
   128
 43
0.0
 10
-252.4625722321
 20
245.3367141467
 10
-254.0054806199
 20
247.4542696102
 10
-255.2544326193
 20
249.7755732588
 10
-256.1937219343
 20
252.2714333523
 10
-256.8115364566
 20
254.9104630017
 10
-257.1001068102
 20
257.6594748782
 10
-257.0558040555
 20
260.4838985622
 10
-256.6791853254
 20
263.3482152873
 10
-255.9749868188
 20
266.2164046087
 10
-254.9520642406
 20
269.0523973816
 10
-253.6232814357
 20
271.8205293512
 10
-252.005348619
 20
274.485989652
 10
-250.1186122341
 20
277.0152585742
 10
-247.9867990861
 20
279.3765290936
 10
-245.636717962
 20
281.5401068633
 10
-243.0979224956
 20
283.4787836376
 10
-240.4023395129
 20
285.1681794311
 10
-237.5838675339
 20
286.5870491116
 10
-234.677950479
 20
287.7175495695
 10
-231.7211319414
 20
288.5454641057
 10
-228.7505956296
 20
289.0603812146
 10
-225.8036977614
 20
289.2558255146
 10
-222.9174972873
 20
289.1293391805
 10
-220.1282898528
 20
288.682512851
 10
-217.4711513598
 20
287.9209656268
 10
-214.9794968665
 20
286.8542744058
 10
-212.6846603739
 20
285.4958534492
 10
-210.6155007824
 20
283.8627856887
 10
-208.7980389743
 20
281.9756078989
  0
LWPOLYLINE
  5
215
330
1F
100
AcDbEntity
  8
0
  6
PHANTOM
 62
     8
370
     0
100
AcDbPolyline
 90
       29
 70
   128
 43
0.0
 10
-208.7980389743
 20
-281.9756078989
 10
-210.6155007824
 20
-283.8627856888
 10
-212.6846603739
 20
-285.4958534493
 10
-214.9794968665
 20
-286.8542744059
 10
-217.4711513598
 20
-287.9209656268
 10
-220.1282898528
 20
-288.6825128511
 10
-222.9174972873
 20
-289.1293391805
 10
-225.8036977614
 20
-289.2558255147
 10
-228.7505956296
 20
-289.0603812147
 10
-231.7211319414
 20
-288.5454641058
 10
-234.677950479
 20
-287.7175495696
 10
-237.5838675339
 20
-286.5870491116
 10
-240.4023395129
 20
-285.1681794312
 10
-243.0979224956
 20
-283.4787836376
 10
-245.636717962
 20
-281.5401068634
 10
-247.9867990861
 20
-279.3765290937
 10
-250.1186122341
 20
-277.0152585743
 10
-252.005348619
 20
-274.4859896521
 10
-253.6232814357
 20
-271.8205293513
 10
-254.9520642406
 20
-269.0523973816
 10
-255.9749868188
 20
-266.2164046088
 10
-256.6791853254
 20
-263.3482152874
 10
-257.0558040555
 20
-260.4838985623
 10
-257.1001068102
 20
-257.6594748782
 10
-256.8115364566
 20
-254.9104630018
 10
-256.1937219343
 20
-252.2714333523
 10
-255.2544326193
 20
-249.7755732589
 10
-254.0054806199
 20
-247.4542696103
 10
-252.4625722321
 20
-245.3367141468
  0
LWPOLYLINE
  5
218
330
1F
100
AcDbEntity
  8
0
  6
PHANTOM
 62
     8
370
     0
100
AcDbPolyline
 90
       30
 70
   128
 43
0.0
 10
732.4625722321
 20
-245.3367141468
 10
734.0054806199
 20
-247.4542696103
 10
735.2544326193
 20
-249.7755732589
 10
736.1937219342
 20
-252.2714333523
 10
736.8115364566
 20
-254.9104630018
 10
737.1001068102
 20
-257.6594748782
 10
737.0558040555
 20
-260.4838985623
 10
736.6791853254
 20
-263.3482152874
 10
735.9749868188
 20
-266.2164046088
 10
734.9520642406
 20
-269.0523973816
 10
733.6232814357
 20
-271.8205293512
 10
732.0053486189
 20
-274.4859896521
 10
730.1186122341
 20
-277.0152585743
 10
727.9867990861
 20
-279.3765290936
 10
725.636717962
 20
-281.5401068633
 10
723.0979224956
 20
-283.4787836376
 10
720.4023395129
 20
-285.1681794311
 10
717.5838675339
 20
-286.5870491116
 10
714.677950479
 20
-287.7175495695
 10
711.7211319414
 20
-288.5454641058
 10
708.7505956296
 20
-289.0603812146
 10
705.8036977614
 20
-289.2558255147
 10
702.9174972873
 20
-289.1293391805
 10
700.1282898528
 20
-288.6825128511
 10
697.4711513598
 20
-287.9209656268
 10
694.9794968665
 20
-286.8542744059
 10
692.6846603739
 20
-285.4958534493
 10
690.6155007824
 20
-283.8627856888
 10
688.7980389743
 20
-281.9756078989
 10
688.7980389743
 20
-281.9756078989
  0
LWPOLYLINE
  5
21B
330
1F
100
AcDbEntity
  8
0
  6
PHANTOM
 62
     8
370
     0
100
AcDbPolyline
 90
       29
 70
   128
 43
0.0
 10
688.7980389743
 20
281.9756078989
 10
690.6155007824
 20
283.8627856888
 10
692.6846603739
 20
285.4958534493
 10
694.9794968665
 20
286.8542744059
 10
697.4711513598
 20
287.9209656268
 10
700.1282898528
 20
288.6825128511
 10
702.9174972873
 20
289.1293391805
 10
705.8036977614
 20
289.2558255147
 10
708.7505956296
 20
289.0603812146
 10
711.7211319414
 20
288.5454641058
 10
714.677950479
 20
287.7175495695
 10
717.5838675339
 20
286.5870491116
 10
720.4023395129
 20
285.1681794311
 10
723.0979224956
 20
283.4787836376
 10
725.636717962
 20
281.5401068633
 10
727.9867990861
 20
279.3765290936
 10
730.1186122341
 20
277.0152585743
 10
732.0053486189
 20
274.4859896521
 10
733.6232814357
 20
271.8205293512
 10
734.9520642406
 20
269.0523973816
 10
735.9749868188
 20
266.2164046088
 10
736.6791853254
 20
263.3482152874
 10
737.0558040555
 20
260.4838985623
 10
737.1001068102
 20
257.6594748782
 10
736.8115364566
 20
254.9104630018
 10
736.1937219342
 20
252.2714333523
 10
735.2544326193
 20
249.7755732589
 10
734.0054806199
 20
247.4542696103
 10
732.4625722321
 20
245.3367141468
  0
LWPOLYLINE
  5
21E
330
1F
100
AcDbEntity
  8
0
  6
PHANTOM
 62
     8
370
     0
100
AcDbPolyline
 90
       29
 70
   128
 43
0.0
 10
867.6116348242
 20
-495.0773531577
 10
869.4290966323
 20
-496.9645309475
 10
871.4982562238
 20
-498.5975987081
 10
873.7930927164
 20
-499.9560196647
 10
876.2847472097
 20
-501.0227108856
 10
878.9418857027
 20
-501.7842581099
 10
881.7310931372
 20
-502.2310844393
 10
884.6172936113
 20
-502.3575707735
 10
887.5641914795
 20
-502.1621264734
 10
890.5347277913
 20
-501.6472093646
 10
893.4915463289
 20
-500.8192948283
 10
896.3974633837
 20
-499.6887943704
 10
899.2159353627
 20
-498.2699246899
 10
901.9115183455
 20
-496.5805288964
 10
904.4503138119
 20
-494.6418521221
 10
906.800394936
 20
-492.4782743524
 10
908.932208084
 20
-490.1170038331
 10
910.8189444688
 20
-487.5877349109
 10
912.4368772856
 20
-484.92227461
 10
913.7656600905
 20
-482.1541426404
 10
914.7885826687
 20
-479.3181498676
 10
915.4927811752
 20
-476.4499605462
 10
915.8693999054
 20
-473.5856438211
 10
915.9137026601
 20
-470.761220137
 10
915.6251323064
 20
-468.0122082605
 10
915.0073177841
 20
-465.3731786111
 10
914.0680284692
 20
-462.8773185177
 10
912.8190764698
 20
-460.5560148691
 10
911.276168082
 20
-458.4384594055
  0
LWPOLYLINE
  5
21F
330
1F
100
AcDbEntity
  8
0
  6
PHANTOM
 62
     8
370
     0
100
AcDbPolyline
 90
       30
 70
   128
 43
0.0
 10
911.276168082
 20
458.4384594055
 10
912.8190764698
 20
460.5560148691
 10
914.0680284692
 20
462.8773185177
 10
915.0073177841
 20
465.3731786111
 10
915.6251323064
 20
468.0122082605
 10
915.9137026601
 20
470.761220137
 10
915.8693999054
 20
473.5856438211
 10
915.4927811752
 20
476.4499605462
 10
914.7885826687
 20
479.3181498676
 10
913.7656600905
 20
482.1541426404
 10
912.4368772856
 20
484.92227461
 10
910.8189444688
 20
487.5877349109
 10
908.932208084
 20
490.1170038331
 10
906.800394936
 20
492.4782743524
 10
904.4503138119
 20
494.6418521221
 10
901.9115183455
 20
496.5805288964
 10
899.2159353627
 20
498.2699246899
 10
896.3974633837
 20
499.6887943704
 10
893.4915463289
 20
500.8192948283
 10
890.5347277913
 20
501.6472093646
 10
887.5641914795
 20
502.1621264734
 10
884.6172936113
 20
502.3575707735
 10
881.7310931372
 20
502.2310844393
 10
878.9418857027
 20
501.7842581099
 10
876.2847472097
 20
501.0227108856
 10
873.7930927164
 20
499.9560196647
 10
871.4982562238
 20
498.5975987081
 10
869.4290966323
 20
496.9645309475
 10
867.6116348242
 20
495.0773531577
 10
867.6116348242
 20
495.0773531577
  0
LWPOLYLINE
  5
220
330
1F
100
AcDbEntity
  8
0
  6
PHANTOM
 62
     8
370
     0
100
AcDbPolyline
 90
       29
 70
   128
 43
0.0
 10
-387.6116348242
 20
495.0773531576
 10
-389.4290966323
 20
496.9645309475
 10
-391.4982562238
 20
498.597598708
 10
-393.7930927164
 20
499.9560196646
 10
-396.2847472097
 20
501.0227108856
 10
-398.9418857027
 20
501.7842581098
 10
-401.7310931372
 20
502.2310844392
 10
-404.6172936113
 20
502.3575707734
 10
-407.5641914795
 20
502.1621264734
 10
-410.5347277913
 20
501.6472093645
 10
-413.4915463289
 20
500.8192948283
 10
-416.3974633837
 20
499.6887943703
 10
-419.2159353627
 20
498.2699246899
 10
-421.9115183455
 20
496.5805288963
 10
-424.4503138119
 20
494.6418521221
 10
-426.800394936
 20
492.4782743524
 10
-428.932208084
 20
490.117003833
 10
-430.8189444688
 20
487.5877349108
 10
-432.4368772856
 20
484.92227461
 10
-433.7656600905
 20
482.1541426403
 10
-434.7885826687
 20
479.3181498675
 10
-435.4927811752
 20
476.4499605461
 10
-435.8693999054
 20
473.585643821
 10
-435.9137026601
 20
470.761220137
 10
-435.6251323065
 20
468.0122082605
 10
-435.0073177841
 20
465.3731786111
 10
-434.0680284692
 20
462.8773185176
 10
-432.8190764698
 20
460.556014869
 10
-431.276168082
 20
458.4384594055
  0
LWPOLYLINE
  5
221
330
1F
100
AcDbEntity
  8
0
  6
PHANTOM
 62
     8
370
     0
100
AcDbPolyline
 90
       29
 70
   128
 43
0.0
 10
-431.276168082
 20
-458.4384594056
 10
-432.8190764698
 20
-460.5560148691
 10
-434.0680284692
 20
-462.8773185177
 10
-435.0073177841
 20
-465.3731786111
 10
-435.6251323065
 20
-468.0122082606
 10
-435.9137026601
 20
-470.761220137
 10
-435.8693999054
 20
-473.5856438211
 10
-435.4927811752
 20
-476.4499605462
 10
-434.7885826687
 20
-479.3181498676
 10
-433.7656600905
 20
-482.1541426404
 10
-432.4368772856
 20
-484.9222746101
 10
-430.8189444688
 20
-487.5877349109
 10
-428.932208084
 20
-490.1170038331
 10
-426.800394936
 20
-492.4782743525
 10
-424.4503138119
 20
-494.6418521222
 10
-421.9115183455
 20
-496.5805288964
 10
-419.2159353627
 20
-498.2699246899
 10
-416.3974633837
 20
-499.6887943704
 10
-413.4915463289
 20
-500.8192948284
 10
-410.5347277913
 20
-501.6472093646
 10
-407.5641914795
 20
-502.1621264734
 10
-404.6172936113
 20
-502.3575707735
 10
-401.7310931372
 20
-502.2310844393
 10
-398.9418857027
 20
-501.7842581099
 10
-396.2847472097
 20
-501.0227108856
 10
-393.7930927164
 20
-499.9560196647
 10
-391.4982562238
 20
-498.5975987081
 10
-389.4290966323
 20
-496.9645309476
 10
-387.6116348242
 20
-495.0773531577
  0
LWPOLYLINE
  5
226
330
1F
100
AcDbEntity
  8
0
  6
PHANTOM
 62
     8
370
     0
100
AcDbPolyline
 90
       38
 70
   128
 43
0.0
 10
615.3476236118
 20
12.7551020394
 10
613.2975045887
 20
12.5716315082
 10
611.3063637573
 20
12.0264980275
 10
609.431482614
 20
11.1353840952
 10
607.7267980757
 20
9.9239254367
 10
606.2413508129
 20
8.4269735117
 10
605.0178744387
 20
6.6875929018
 10
604.091566141
 20
4.7558224201
 10
603.4890741228
 20
2.6872355864
 10
603.2277309826
 20
0.5413418774
 10
603.3150550867
 20
-1.6201252517
 10
603.7485342797
 20
-3.7349843271
 10
604.5156981543
 20
-5.7423947037
 10
605.5944768027
 20
-7.5846068398
 10
606.9538357273
 20
-9.2086236464
 10
608.5546686468
 20
-10.5677251168
 10
610.3509225127
 20
-11.6228123761
 10
612.2909223718
 20
-12.3435324851
 10
614.3188579602
 20
-12.7091516382
 10
616.3763892634
 20
-12.7091516382
 10
618.4043248518
 20
-12.3435324851
 10
620.3443247109
 20
-11.6228123761
 10
622.1405785769
 20
-10.5677251168
 10
623.7414114963
 20
-9.2086236464
 10
625.1007704209
 20
-7.5846068398
 10
626.1795490693
 20
-5.7423947037
 10
626.9467129439
 20
-3.7349843271
 10
627.3801921369
 20
-1.6201252517
 10
627.467516241
 20
0.5413418774
 10
627.2061731008
 20
2.6872355864
 10
626.6036810826
 20
4.7558224201
 10
625.6773727849
 20
6.6875929018
 10
624.4538964107
 20
8.4269735117
 10
622.9684491479
 20
9.9239254367
 10
621.2637646096
 20
11.1353840952
 10
619.3888834663
 20
12.0264980275
 10
617.3977426349
 20
12.5716315082
 10
615.3476236118
 20
12.7551020394
  0
LWPOLYLINE
  5
229
330
1F
100
AcDbEntity
  8
0
  6
PHANTOM
 62
     8
370
     0
100
AcDbPolyline
 90
       38
 70
   128
 43
0.0
 10
-1657.3305625555
 20
-3.8917726532
 10
-1656.8712108782
 20
-1.7829600844
 10
-1656.7574145909
 20
0.3771449998
 10
-1656.9924474055
 20
2.526400309
 10
-1657.569547856
 20
4.6029756811
 10
-1658.4721138131
 20
6.5471318235
 10
-1659.6741800975
 20
8.3029389037
 10
-1661.1411654508
 20
9.8198855487
 10
-1662.8308673754
 20
11.0543319655
 10
-1664.6946762232
 20
11.9707653783
 10
-1666.6789736072
 20
12.5428216662
 10
-1668.7266749044
 20
12.7540438115
 10
-1670.7788714768
 20
12.5983553375
 10
-1672.7765253653
 20
12.0802351182
 10
-1674.6621677048
 20
11.214588529
 10
-1676.3815519983
 20
10.0263186462
 10
-1677.8852146902
 20
8.5496098308
 10
-1679.1298981424
 20
6.8269443068
 10
-1680.0797950784
 20
4.9078800249
 10
-1680.7075786927
 20
2.8476249704
 10
-1680.9951887937
 20
0.7054489302
 10
-1680.9343513625
 20
-1.4570215913
 10
-1680.5268165812
 20
-3.5775762545
 10
-1679.7843084835
 20
-5.5952105624
 10
-1678.7281876754
 20
-7.4518808497
 10
-1677.3888368298
 20
-9.0941740925
 10
-1675.8047866319
 20
-10.4748445044
 10
-1674.0216073218
 20
-11.5541727115
 10
-1672.0905977217
 20
-12.3011084062
 10
-1670.0673094619
 20
-12.6941636087
 10
-1668.009948862
 20
-12.7220308363
 10
-1665.9777024405
 20
-12.3839083997
 10
-1664.0290342269
 20
-11.6895234658
 10
-1662.2200038578
 20
-10.6588522249
 10
-1660.6026538432
 20
-9.3215452119
 10
-1659.2235123983
 20
-7.7160743149
 10
-1658.1222549114
 20
-5.8886260085
 10
-1657.3305625555
 20
-3.8917726532
  0
LWPOLYLINE
  5
22A
330
1F
100
AcDbEntity
  8
0
  6
PHANTOM
 62
     8
370
     0
100
AcDbPolyline
 90
       38
 70
   128
 43
0.0
 10
-1515.3341407092
 20
-3.891772653
 10
-1514.8747890319
 20
-1.7829600843
 10
-1514.7609927445
 20
0.3771449999
 10
-1514.9960255592
 20
2.5264003091
 10
-1515.5731260097
 20
4.6029756813
 10
-1516.4756919668
 20
6.5471318237
 10
-1517.6777582512
 20
8.3029389039
 10
-1519.1447436045
 20
9.8198855489
 10
-1520.834445529
 20
11.0543319657
 10
-1522.6982543769
 20
11.9707653785
 10
-1524.6825517609
 20
12.5428216664
 10
-1526.7302530581
 20
12.7540438117
 10
-1528.7824496305
 20
12.5983553377
 10
-1530.780103519
 20
12.0802351184
 10
-1532.6657458585
 20
11.2145885292
 10
-1534.385130152
 20
10.0263186464
 10
-1535.8887928438
 20
8.549609831
 10
-1537.1334762961
 20
6.826944307
 10
-1538.0833732321
 20
4.9078800251
 10
-1538.7111568464
 20
2.8476249706
 10
-1538.9987669474
 20
0.7054489304
 10
-1538.9379295162
 20
-1.4570215911
 10
-1538.5303947349
 20
-3.5775762543
 10
-1537.7878866372
 20
-5.5952105623
 10
-1536.7317658291
 20
-7.4518808495
 10
-1535.3924149835
 20
-9.0941740924
 10
-1533.8083647856
 20
-10.4748445043
 10
-1532.0251854755
 20
-11.5541727113
 10
-1530.0941758754
 20
-12.301108406
 10
-1528.0708876156
 20
-12.6941636085
 10
-1526.0135270157
 20
-12.7220308361
 10
-1523.9812805942
 20
-12.3839083996
 10
-1522.0326123806
 20
-11.6895234656
 10
-1520.2235820115
 20
-10.6588522247
 10
-1518.6062319969
 20
-9.3215452117
 10
-1517.2270905519
 20
-7.7160743147
 10
-1516.1258330651
 20
-5.8886260083
 10
-1515.3341407092
 20
-3.891772653
  0
LWPOLYLINE
  5
22B
330
1F
100
AcDbEntity
  8
0
  6
PHANTOM
 62
     8
370
     0
100
AcDbPolyline
 90
       38
 70
   128
 43
0.0
 10
1870.4270573015
 20
-3.891772653
 10
1870.8864089789
 20
-1.7829600843
 10
1871.0002052662
 20
0.3771449999
 10
1870.7651724515
 20
2.5264003092
 10
1870.1880720011
 20
4.6029756813
 10
1869.285506044
 20
6.5471318237
 10
1868.0834397596
 20
8.3029389039
 10
1866.6164544062
 20
9.8198855489
 10
1864.9267524817
 20
11.0543319657
 10
1863.0629436339
 20
11.9707653785
 10
1861.0786462499
 20
12.5428216664
 10
1859.0309449527
 20
12.7540438117
 10
1856.9787483803
 20
12.5983553377
 10
1854.9810944917
 20
12.0802351184
 10
1853.0954521522
 20
11.2145885292
 10
1851.3760678587
 20
10.0263186464
 10
1849.8724051669
 20
8.549609831
 10
1848.6277217146
 20
6.826944307
 10
1847.6778247786
 20
4.9078800251
 10
1847.0500411644
 20
2.8476249706
 10
1846.7624310634
 20
0.7054489304
 10
1846.8232684946
 20
-1.4570215911
 10
1847.2308032758
 20
-3.5775762543
 10
1847.9733113736
 20
-5.5952105623
 10
1849.0294321816
 20
-7.4518808495
 10
1850.3687830273
 20
-9.0941740924
 10
1851.9528332252
 20
-10.4748445043
 10
1853.7360125352
 20
-11.5541727113
 10
1855.6670221354
 20
-12.301108406
 10
1857.6903103951
 20
-12.6941636085
 10
1859.747670995
 20
-12.7220308361
 10
1861.7799174165
 20
-12.3839083996
 10
1863.7285856301
 20
-11.6895234656
 10
1865.5376159992
 20
-10.6588522247
 10
1867.1549660139
 20
-9.3215452117
 10
1868.5341074588
 20
-7.7160743147
 10
1869.6353649456
 20
-5.8886260083
 10
1870.4270573015
 20
-3.891772653
  0
LWPOLYLINE
  5
22C
330
1F
100
AcDbEntity
  8
0
  6
PHANTOM
 62
     8
370
     0
100
AcDbPolyline
 90
       38
 70
   128
 43
0.0
 10
2013.0855347458
 20
-3.891772653
 10
2013.5448864231
 20
-1.7829600843
 10
2013.6586827105
 20
0.3771449999
 10
2013.4236498958
 20
2.5264003092
 10
2012.8465494453
 20
4.6029756813
 10
2011.9439834882
 20
6.5471318237
 10
2010.7419172038
 20
8.3029389039
 10
2009.2749318505
 20
9.8198855489
 10
2007.585229926
 20
11.0543319657
 10
2005.7214210781
 20
11.9707653785
 10
2003.7371236942
 20
12.5428216664
 10
2001.6894223969
 20
12.7540438117
 10
1999.6372258246
 20
12.5983553377
 10
1997.639571936
 20
12.0802351184
 10
1995.7539295965
 20
11.2145885292
 10
1994.034545303
 20
10.0263186464
 10
1992.5308826112
 20
8.549609831
 10
1991.2861991589
 20
6.826944307
 10
1990.3363022229
 20
4.9078800251
 10
1989.7085186086
 20
2.8476249706
 10
1989.4209085076
 20
0.7054489304
 10
1989.4817459388
 20
-1.4570215911
 10
1989.8892807201
 20
-3.5775762543
 10
1990.6317888178
 20
-5.5952105623
 10
1991.6879096259
 20
-7.4518808495
 10
1993.0272604715
 20
-9.0941740924
 10
1994.6113106694
 20
-10.4748445043
 10
1996.3944899795
 20
-11.5541727113
 10
1998.3254995796
 20
-12.301108406
 10
2000.3487878394
 20
-12.6941636085
 10
2002.4061484393
 20
-12.7220308361
 10
2004.4383948608
 20
-12.3839083996
 10
2006.3870630744
 20
-11.6895234656
 10
2008.1960934435
 20
-10.6588522247
 10
2009.8134434581
 20
-9.3215452117
 10
2011.1925849031
 20
-7.7160743147
 10
2012.2938423899
 20
-5.8886260083
 10
2013.0855347458
 20
-3.891772653
  0
LWPOLYLINE
  5
22D
330
1F
100
AcDbEntity
  8
0
  6
PHANTOM
 62
     8
370
     0
100
AcDbPolyline
 90
       38
 70
   128
 43
0.0
 10
315.3785497353
 20
12.755102039
 10
313.3284307123
 20
12.5716315078
 10
311.3372898808
 20
12.0264980271
 10
309.4624087375
 20
11.1353840948
 10
307.7577241992
 20
9.9239254363
 10
306.2722769364
 20
8.4269735113
 10
305.0488005623
 20
6.6875929014
 10
304.1224922645
 20
4.7558224198
 10
303.5200002463
 20
2.687235586
 10
303.2586571061
 20
0.541341877
 10
303.3459812103
 20
-1.6201252521
 10
303.7794604032
 20
-3.7349843275
 10
304.5466242778
 20
-5.7423947041
 10
305.6254029262
 20
-7.5846068402
 10
306.9847618508
 20
-9.2086236468
 10
308.5855947703
 20
-10.5677251172
 10
310.3818486362
 20
-11.6228123765
 10
312.3218484953
 20
-12.3435324854
 10
314.3497840837
 20
-12.7091516386
 10
316.4073153869
 20
-12.7091516386
 10
318.4352509754
 20
-12.3435324854
 10
320.3752508344
 20
-11.6228123765
 10
322.1715047004
 20
-10.5677251172
 10
323.7723376199
 20
-9.2086236468
 10
325.1316965444
 20
-7.5846068402
 10
326.2104751928
 20
-5.7423947041
 10
326.9776390675
 20
-3.7349843275
 10
327.4111182604
 20
-1.6201252521
 10
327.4984423645
 20
0.541341877
 10
327.2370992243
 20
2.687235586
 10
326.6346072062
 20
4.7558224198
 10
325.7082989084
 20
6.6875929014
 10
324.4848225342
 20
8.4269735113
 10
322.9993752714
 20
9.9239254363
 10
321.2946907331
 20
11.1353840948
 10
319.4198095898
 20
12.0264980271
 10
317.4286687584
 20
12.5716315078
 10
315.3785497353
 20
12.755102039
  0
LWPOLYLINE
  5
22E
330
1F
100
AcDbEntity
  8
0
  6
PHANTOM
 62
     8
370
     0
100
AcDbPolyline
 90
       38
 70
   128
 43
0.0
 10
-283.7870555306
 20
12.755102039
 10
-285.8371745537
 20
12.5716315078
 10
-287.8283153851
 20
12.0264980271
 10
-289.7031965284
 20
11.1353840948
 10
-291.4078810667
 20
9.9239254363
 10
-292.8933283295
 20
8.4269735113
 10
-294.1168047037
 20
6.6875929014
 10
-295.0431130015
 20
4.7558224198
 10
-295.6456050196
 20
2.687235586
 10
-295.9069481598
 20
0.541341877
 10
-295.8196240557
 20
-1.6201252521
 10
-295.3861448628
 20
-3.7349843275
 10
-294.6189809881
 20
-5.7423947041
 10
-293.5402023397
 20
-7.5846068402
 10
-292.1808434152
 20
-9.2086236468
 10
-290.5800104957
 20
-10.5677251172
 10
-288.7837566297
 20
-11.6228123765
 10
-286.8437567706
 20
-12.3435324854
 10
-284.8158211822
 20
-12.7091516386
 10
-282.758289879
 20
-12.7091516386
 10
-280.7303542906
 20
-12.3435324854
 10
-278.7903544315
 20
-11.6228123765
 10
-276.9941005656
 20
-10.5677251172
 10
-275.3932676461
 20
-9.2086236468
 10
-274.0339087215
 20
-7.5846068402
 10
-272.9551300731
 20
-5.7423947041
 10
-272.1879661985
 20
-3.7349843275
 10
-271.7544870055
 20
-1.6201252521
 10
-271.6671629014
 20
0.541341877
 10
-271.9285060416
 20
2.687235586
 10
-272.5309980598
 20
4.7558224198
 10
-273.4573063576
 20
6.6875929014
 10
-274.6807827317
 20
8.4269735113
 10
-276.1662299945
 20
9.9239254363
 10
-277.8709145328
 20
11.1353840948
 10
-279.7457956761
 20
12.0264980271
 10
-281.7369365076
 20
12.5716315078
 10
-283.7870555306
 20
12.755102039
  0
LWPOLYLINE
  5
247
330
1F
100
AcDbEntity
  8
0
  6
PHANTOM
 62
     8
370
     0
100
AcDbPolyline
 90
       24
 70
   128
 43
0.0
 10
22.0866505381
 20
-17.9999995721
 10
24.2380808102
 20
-17.8567888676
 10
26.5806579819
 20
-17.3676312809
 10
28.8356917294
 20
-16.5404325067
 10
30.9592903856
 20
-15.3912930282
 10
32.9101205183
 20
-13.9425795383
 10
34.6502114381
 20
-12.2224895972
 10
36.1456942544
 20
-10.2645027989
 10
37.3674610955
 20
-8.1067291293
 10
38.2917316593
 20
-5.7911671985
 10
38.9005160708
 20
-3.3628867856
 10
39.1819650339
 20
-0.8691516066
 10
39.1306004647
 20
1.6415006198
 10
38.747422116
 20
4.1202029037
 10
38.0398881185
 20
6.5187101249
 10
37.0217698168
 20
8.7903380683
 10
35.7128837254
 20
10.8908720801
 10
34.1387058233
 20
12.779427655
 10
32.3298756928
 20
14.419246207
 10
30.3216001548
 20
15.7784105332
 10
28.1529680083
 20
16.8304660461
 10
25.8661892112
 20
17.5549356817
 10
23.5057733118
 20
17.9377184628
 10
22.0865993948
 20
17.9999995831
  0
LWPOLYLINE
  5
248
330
1F
100
AcDbEntity
  8
0
  6
PHANTOM
 62
     8
370
     0
100
AcDbPolyline
 90
       19
 70
   128
 43
0.0
 10
19.4033266945
 20
15.3097486011
 10
20.1574741539
 20
15.1101061768
 10
22.2544063221
 20
14.3115051502
 10
24.214717697
 20
13.1932087476
 10
25.9946181616
 20
11.7801978627
 10
27.5543476809
 20
10.1040368237
 10
28.8590644747
 20
8.2021682984
 10
29.8796233259
 20
6.1170768871
 10
30.593226636
 20
3.8953400862
 10
30.9839336865
 20
1.5865878247
 10
31.0430167274
 20
-0.7576061871
 10
30.7691559411
 20
-3.0848765286
 10
30.1684689252
 20
-5.343235826
 10
29.2543740349
 20
-7.4822360646
 10
28.0472906396
 20
-9.4540955134
 10
26.5741829878
 20
-11.214766091
 10
24.86795787
 20
-12.7249173259
 10
22.966729536
 20
-13.9508149351
 10
21.1825252845
 20
-14.7663244572
  0
LWPOLYLINE
  5
249
330
1F
100
AcDbEntity
  8
0
  6
PHANTOM
 62
     8
370
     0
100
AcDbPolyline
 90
       41
 70
   128
 43
0.0
 10
4.1320687038
 20
7.9660653987
 10
5.4621586027
 20
9.8040610694
 10
7.0493262396
 20
11.4006482188
 10
8.8544902798
 20
12.7165135724
 10
10.8332015936
 20
13.7192561582
 10
12.9367377414
 20
14.3841851257
 10
15.113302682
 20
14.6949277171
 10
17.3093021632
 20
14.6438324184
 10
19.4706633894
 20
14.2321573654
 10
21.5441664741
 20
13.4700393643
 10
23.47875489
 20
12.3762442895
 10
25.2267926495
 20
10.9777050059
 10
26.7452372617
 20
9.3088581922
 10
27.9966995809
 20
7.4107963954
 10
28.9503644512
 20
5.3302561963
 10
29.5827494787
 20
3.1184673996
 10
29.8782832451
 20
0.8298915859
 10
29.8296887283
 20
-1.479118913
 10
29.4381624866
 20
-3.7517085953
 10
28.7133451955
 20
-5.9319187608
 10
27.6730842621
 20
-7.9660653994
 10
26.3429943632
 20
-9.8040610701
 10
24.7558267263
 20
-11.4006482195
 10
22.9506626861
 20
-12.7165135731
 10
20.9719513723
 20
-13.7192561589
 10
18.8684152245
 20
-14.3841851264
 10
16.6918502838
 20
-14.6949277178
 10
14.4958508027
 20
-14.6438324191
 10
12.3344895765
 20
-14.2321573662
 10
10.2609864918
 20
-13.470039365
 10
8.3263980759
 20
-12.3762442903
 10
6.5783603164
 20
-10.9777050067
 10
5.0599157042
 20
-9.3088581929
 10
3.808453385
 20
-7.4107963961
 10
2.8547885147
 20
-5.3302561971
 10
2.2224034872
 20
-3.1184674003
 10
1.9268697208
 20
-0.8298915866
 10
1.9754642376
 20
1.4791189122
 10
2.3669904793
 20
3.7517085945
 10
3.0918077704
 20
5.93191876
 10
4.1320687038
 20
7.9660653987
  0
LWPOLYLINE
  5
24F
330
1F
100
AcDbEntity
  8
0
  6
PHANTOM
 62
     8
370
     0
100
AcDbPolyline
 90
       24
 70
   128
 43
0.0
 10
621.6385270475
 20
-17.9999995718
 10
623.7899573196
 20
-17.8567888672
 10
626.1325344914
 20
-17.3676312805
 10
628.3875682388
 20
-16.5404325063
 10
630.511166895
 20
-15.3912930279
 10
632.4619970278
 20
-13.942579538
 10
634.2020879475
 20
-12.2224895968
 10
635.6975707639
 20
-10.2645027985
 10
636.9193376049
 20
-8.1067291289
 10
637.8436081688
 20
-5.7911671982
 10
638.4523925803
 20
-3.3628867852
 10
638.7338415434
 20
-0.8691516062
 10
638.6824769741
 20
1.6415006201
 10
638.2992986254
 20
4.1202029041
 10
637.591764628
 20
6.5187101252
 10
636.5736463262
 20
8.7903380687
 10
635.2647602348
 20
10.8908720805
 10
633.6905823327
 20
12.7794276554
 10
631.8817522022
 20
14.4192462074
 10
629.8734766642
 20
15.7784105336
 10
627.7048445177
 20
16.8304660465
 10
625.4180657207
 20
17.5549356821
 10
623.0576498212
 20
17.9377184632
 10
621.6384759042
 20
17.9999995834
  0
LWPOLYLINE
  5
250
330
1F
100
AcDbEntity
  8
0
  6
PHANTOM
 62
     8
370
     0
100
AcDbPolyline
 90
       19
 70
   128
 43
0.0
 10
618.9552032039
 20
15.3097486014
 10
619.7093506634
 20
15.1101061772
 10
621.8062828316
 20
14.3115051506
 10
623.7665942064
 20
13.193208748
 10
625.5464946711
 20
11.780197863
 10
627.1062241903
 20
10.104036824
 10
628.4109409842
 20
8.2021682988
 10
629.4314998353
 20
6.1170768874
 10
630.1451031455
 20
3.8953400866
 10
630.535810196
 20
1.5865878251
 10
630.5948932368
 20
-0.7576061867
 10
630.3210324506
 20
-3.0848765282
 10
629.7203454347
 20
-5.3432358257
 10
628.8062505444
 20
-7.4822360642
 10
627.5991671491
 20
-9.4540955131
 10
626.1260594972
 20
-11.2147660906
 10
624.4198343795
 20
-12.7249173255
 10
622.5186060455
 20
-13.9508149347
 10
620.734401794
 20
-14.7663244569
  0
LWPOLYLINE
  5
251
330
1F
100
AcDbEntity
  8
0
  6
PHANTOM
 62
     8
370
     0
100
AcDbPolyline
 90
       41
 70
   128
 43
0.0
 10
603.6839452132
 20
7.9660653991
 10
605.0140351122
 20
9.8040610698
 10
606.6012027491
 20
11.4006482191
 10
608.4063667893
 20
12.7165135728
 10
610.385078103
 20
13.7192561585
 10
612.4886142508
 20
14.3841851261
 10
614.6651791915
 20
14.6949277174
 10
616.8611786726
 20
14.6438324187
 10
619.0225398988
 20
14.2321573658
 10
621.0960429836
 20
13.4700393647
 10
623.0306313994
 20
12.3762442899
 10
624.778669159
 20
10.9777050063
 10
626.2971137712
 20
9.3088581926
 10
627.5485760903
 20
7.4107963958
 10
628.5022409607
 20
5.3302561967
 10
629.1346259881
 20
3.1184674
 10
629.4301597546
 20
0.8298915862
 10
629.3815652378
 20
-1.4791189126
 10
628.9900389961
 20
-3.7517085949
 10
628.2652217049
 20
-5.9319187604
 10
627.2249607716
 20
-7.9660653991
 10
625.8948708726
 20
-9.8040610698
 10
624.3077032357
 20
-11.4006482191
 10
622.5025391955
 20
-12.7165135728
 10
620.5238278818
 20
-13.7192561585
 10
618.420291734
 20
-14.3841851261
 10
616.2437267933
 20
-14.6949277174
 10
614.0477273122
 20
-14.6438324187
 10
611.886366086
 20
-14.2321573658
 10
609.8128630012
 20
-13.4700393647
 10
607.8782745854
 20
-12.3762442899
 10
606.1302368258
 20
-10.9777050063
 10
604.6117922136
 20
-9.3088581926
 10
603.3603298945
 20
-7.4107963958
 10
602.4066650241
 20
-5.3302561967
 10
601.7742799967
 20
-3.1184674
 10
601.4787462302
 20
-0.8298915862
 10
601.527340747
 20
1.4791189126
 10
601.9188669887
 20
3.7517085949
 10
602.6436842799
 20
5.9319187604
 10
603.6839452132
 20
7.9660653991
  0
LWPOLYLINE
  5
25D
330
1F
100
AcDbEntity
  8
0
  6
PHANTOM
 62
     8
370
     0
100
AcDbPolyline
 90
       24
 70
   128
 43
0.0
 10
-1662.5972293091
 20
-17.9999999341
 10
-1662.3786357815
 20
-17.9985521093
 10
-1659.9984337834
 20
-17.7916178903
 10
-1657.6687858681
 20
-17.2383900668
 10
-1655.4350359821
 20
-16.3496365889
 10
-1653.3406615262
 20
-15.1426560323
 10
-1651.4264271168
 20
-13.6409409005
 10
-1649.7295911494
 20
-11.8737203705
 10
-1648.2831806058
 20
-9.8753913796
 10
-1647.1153482221
 20
-7.6848491285
 10
-1646.2488245272
 20
-5.3447300306
 10
-1645.7004754192
 20
-2.9005818422
 10
-1645.4809738898
 20
-0.3999771276
 10
-1645.5945922864
 20
2.1084126869
 10
-1646.0391191564
 20
4.5757646467
 10
-1646.8059022897
 20
6.9540545525
 10
-1647.8800171249
 20
9.1969916965
 10
-1649.2405572386
 20
11.2609198586
 10
-1650.8610412649
 20
13.1056670248
 10
-1652.7099283257
 20
14.6953272897
 10
-1654.7512319373
 20
15.9989597247
 10
-1656.9452204469
 20
16.9911906072
 10
-1659.2491903638
 20
17.6527072917
 10
-1661.6182975342
 20
17.9706341085
  0
LWPOLYLINE
  5
25E
330
1F
100
AcDbEntity
  8
0
  6
PHANTOM
 62
     8
370
     0
100
AcDbPolyline
 90
       21
 70
   128
 43
0.0
 10
-1667.6882297901
 20
15.6643138926
 10
-1665.4773669639
 20
15.3558343767
 10
-1663.3349238856
 20
14.7043308957
 10
-1661.3087591932
 20
13.7243569606
 10
-1659.4441340578
 20
12.4378035698
 10
-1657.7827011237
 20
10.8734102001
 10
-1656.3615740572
 20
9.0661228143
 10
-1655.2124984887
 20
7.0563132262
 10
-1654.3611428675
 20
4.8888772608
 10
-1653.8265250715
 20
2.612231856
 10
-1653.6205875787
 20
0.2772335081
 10
-1653.7479306924
 20
-2.0639577782
 10
-1654.205709778
 20
-4.3590436583
 10
-1654.983698807
 20
-6.5567557063
 10
-1656.0645187902
 20
-8.6080006664
 10
-1657.4240259952
 20
-10.466957116
 10
-1659.0318512774
 20
-12.0920990397
 10
-1660.8520784771
 20
-13.4471234524
 10
-1662.8440467262
 20
-14.501761348
 10
-1664.9632587459
 20
-15.2324538584
 10
-1665.1716706039
 20
-15.2848948529
  0
LWPOLYLINE
  5
25F
330
1F
100
AcDbEntity
  8
0
  6
PHANTOM
 62
     8
370
     0
100
AcDbPolyline
 90
       41
 70
   128
 43
0.0
 10
-1654.8009649309
 20
-0.8403922845
 10
-1655.0980539826
 20
-3.1287454591
 10
-1655.7319420233
 20
-5.3400585367
 10
-1656.6870206258
 20
-7.4198816505
 10
-1657.9397725852
 20
-9.3170026529
 10
-1659.4593509905
 20
-10.9847081287
 10
-1661.2083387783
 20
-12.3819336341
 10
-1663.1436700646
 20
-13.4742748402
 10
-1665.2176905702
 20
-14.2348346812
 10
-1667.379331027
 20
-14.6448856496
 10
-1669.5753646727
 20
-14.6943309298
 10
-1671.751717871
 20
-14.3819530147
 10
-1673.854801583
 20
-13.7154436855
 10
-1675.8328309082
 20
-12.7112146138
 10
-1677.6371001997
 20
-11.3939932521
 10
-1679.2231823597
 20
-9.7962139622
 10
-1680.5520227814
 20
-7.9572193727
 10
-1681.5909010034
 20
-5.9222916337
 10
-1682.3142363962
 20
-3.7415374198
 10
-1682.7042180418
 20
-1.4686541371
 10
-1682.7512432976
 20
0.8403922846
 10
-1682.454154246
 20
3.1287454591
 10
-1681.8202662052
 20
5.3400585367
 10
-1680.8651876027
 20
7.4198816506
 10
-1679.6124356434
 20
9.317002653
 10
-1678.092857238
 20
10.9847081287
 10
-1676.3438694503
 20
12.3819336342
 10
-1674.4085381639
 20
13.4742748403
 10
-1672.3345176583
 20
14.2348346812
 10
-1670.1728772016
 20
14.6448856497
 10
-1667.9768435558
 20
14.6943309298
 10
-1665.8004903576
 20
14.3819530147
 10
-1663.6974066455
 20
13.7154436855
 10
-1661.7193773204
 20
12.7112146138
 10
-1659.9151080288
 20
11.3939932522
 10
-1658.3290258689
 20
9.7962139622
 10
-1657.0001854472
 20
7.9572193727
 10
-1655.9613072251
 20
5.9222916338
 10
-1655.2379718323
 20
3.7415374198
 10
-1654.8479901868
 20
1.4686541372
 10
-1654.8009649309
 20
-0.8403922845
  0
LWPOLYLINE
  5
261
330
1F
100
AcDbEntity
  8
0
  6
PHANTOM
 62
     8
370
     0
100
AcDbPolyline
 90
       24
 70
   128
 43
0.0
 10
-1520.6008074627
 20
-17.999999934
 10
-1520.3822139351
 20
-17.9985521093
 10
-1518.0020119371
 20
-17.7916178903
 10
-1515.6723640217
 20
-17.2383900667
 10
-1513.4386141357
 20
-16.3496365888
 10
-1511.3442396798
 20
-15.1426560322
 10
-1509.4300052704
 20
-13.6409409005
 10
-1507.733169303
 20
-11.8737203704
 10
-1506.2867587594
 20
-9.8753913795
 10
-1505.1189263757
 20
-7.6848491285
 10
-1504.2524026808
 20
-5.3447300306
 10
-1503.7040535729
 20
-2.9005818421
 10
-1503.4845520434
 20
-0.3999771275
 10
-1503.5981704401
 20
2.108412687
 10
-1504.04269731
 20
4.5757646467
 10
-1504.8094804433
 20
6.9540545525
 10
-1505.8835952786
 20
9.1969916966
 10
-1507.2441353922
 20
11.2609198587
 10
-1508.8646194186
 20
13.1056670248
 10
-1510.7135064793
 20
14.6953272898
 10
-1512.7548100909
 20
15.9989597248
 10
-1514.9487986005
 20
16.9911906073
 10
-1517.2527685174
 20
17.6527072918
 10
-1519.6218756878
 20
17.9706341086
  0
LWPOLYLINE
  5
262
330
1F
100
AcDbEntity
  8
0
  6
PHANTOM
 62
     8
370
     0
100
AcDbPolyline
 90
       21
 70
   128
 43
0.0
 10
-1525.6918079437
 20
15.6643138927
 10
-1523.4809451176
 20
15.3558343768
 10
-1521.3385020392
 20
14.7043308957
 10
-1519.3123373468
 20
13.7243569606
 10
-1517.4477122114
 20
12.4378035698
 10
-1515.7862792773
 20
10.8734102002
 10
-1514.3651522108
 20
9.0661228144
 10
-1513.2160766423
 20
7.0563132262
 10
-1512.3647210211
 20
4.8888772608
 10
-1511.8301032251
 20
2.612231856
 10
-1511.6241657323
 20
0.2772335082
 10
-1511.751508846
 20
-2.0639577781
 10
-1512.2092879316
 20
-4.3590436583
 10
-1512.9872769606
 20
-6.5567557062
 10
-1514.0680969438
 20
-8.6080006663
 10
-1515.4276041488
 20
-10.4669571159
 10
-1517.0354294311
 20
-12.0920990396
 10
-1518.8556566307
 20
-13.4471234524
 10
-1520.8476248798
 20
-14.5017613479
 10
-1522.9668368995
 20
-15.2324538583
 10
-1523.1752487575
 20
-15.2848948528
  0
LWPOLYLINE
  5
263
330
1F
100
AcDbEntity
  8
0
  6
PHANTOM
 62
     8
370
     0
100
AcDbPolyline
 90
       41
 70
   128
 43
0.0
 10
-1512.8045430845
 20
-0.8403922845
 10
-1513.1016321362
 20
-3.128745459
 10
-1513.7355201769
 20
-5.3400585366
 10
-1514.6905987794
 20
-7.4198816505
 10
-1515.9433507388
 20
-9.3170026529
 10
-1517.4629291441
 20
-10.9847081286
 10
-1519.2119169319
 20
-12.3819336341
 10
-1521.1472482182
 20
-13.4742748402
 10
-1523.2212687238
 20
-14.2348346811
 10
-1525.3829091806
 20
-14.6448856496
 10
-1527.5789428263
 20
-14.6943309297
 10
-1529.7552960246
 20
-14.3819530146
 10
-1531.8583797366
 20
-13.7154436854
 10
-1533.8364090618
 20
-12.7112146137
 10
-1535.6406783533
 20
-11.3939932521
 10
-1537.2267605133
 20
-9.7962139621
 10
-1538.555600935
 20
-7.9572193726
 10
-1539.5944791571
 20
-5.9222916337
 10
-1540.3178145499
 20
-3.7415374197
 10
-1540.7077961954
 20
-1.4686541371
 10
-1540.7548214512
 20
0.8403922846
 10
-1540.4577323996
 20
3.1287454592
 10
-1539.8238443589
 20
5.3400585368
 10
-1538.8687657563
 20
7.4198816506
 10
-1537.616013797
 20
9.3170026531
 10
-1536.0964353916
 20
10.9847081288
 10
-1534.3474476039
 20
12.3819336342
 10
-1532.4121163176
 20
13.4742748403
 10
-1530.338095812
 20
14.2348346813
 10
-1528.1764553552
 20
14.6448856497
 10
-1525.9804217094
 20
14.6943309299
 10
-1523.8040685112
 20
14.3819530148
 10
-1521.7009847991
 20
13.7154436856
 10
-1519.722955474
 20
12.7112146139
 10
-1517.9186861824
 20
11.3939932523
 10
-1516.3326040225
 20
9.7962139623
 10
-1515.0037636008
 20
7.9572193728
 10
-1513.9648853787
 20
5.9222916338
 10
-1513.2415499859
 20
3.7415374199
 10
-1512.8515683404
 20
1.4686541372
 10
-1512.8045430845
 20
-0.8403922845
  0
LWPOLYLINE
  5
265
330
1F
100
AcDbEntity
  8
0
  6
PHANTOM
 62
     8
370
     0
100
AcDbPolyline
 90
       24
 70
   128
 43
0.0
 10
1865.160390548
 20
-17.999999934
 10
1865.3789840756
 20
-17.9985521093
 10
1867.7591860737
 20
-17.7916178903
 10
1870.0888339891
 20
-17.2383900667
 10
1872.322583875
 20
-16.3496365888
 10
1874.416958331
 20
-15.1426560322
 10
1876.3311927403
 20
-13.6409409005
 10
1878.0280287078
 20
-11.8737203704
 10
1879.4744392513
 20
-9.8753913795
 10
1880.642271635
 20
-7.6848491285
 10
1881.5087953299
 20
-5.3447300306
 10
1882.0571444379
 20
-2.9005818421
 10
1882.2766459673
 20
-0.3999771275
 10
1882.1630275707
 20
2.108412687
 10
1881.7185007007
 20
4.5757646467
 10
1880.9517175674
 20
6.9540545525
 10
1879.8776027322
 20
9.1969916966
 10
1878.5170626185
 20
11.2609198587
 10
1876.8965785922
 20
13.1056670248
 10
1875.0476915314
 20
14.6953272898
 10
1873.0063879198
 20
15.9989597248
 10
1870.8123994102
 20
16.9911906073
 10
1868.5084294934
 20
17.6527072918
 10
1866.1393223229
 20
17.9706341086
  0
LWPOLYLINE
  5
266
330
1F
100
AcDbEntity
  8
0
  6
PHANTOM
 62
     8
370
     0
100
AcDbPolyline
 90
       21
 70
   128
 43
0.0
 10
1860.0693900671
 20
15.6643138927
 10
1862.2802528932
 20
15.3558343768
 10
1864.4226959715
 20
14.7043308957
 10
1866.4488606639
 20
13.7243569606
 10
1868.3134857993
 20
12.4378035698
 10
1869.9749187334
 20
10.8734102002
 10
1871.3960457999
 20
9.0661228144
 10
1872.5451213684
 20
7.0563132262
 10
1873.3964769896
 20
4.8888772608
 10
1873.9310947856
 20
2.612231856
 10
1874.1370322784
 20
0.2772335082
 10
1874.0096891647
 20
-2.0639577781
 10
1873.5519100792
 20
-4.3590436583
 10
1872.7739210501
 20
-6.5567557062
 10
1871.6931010669
 20
-8.6080006663
 10
1870.3335938619
 20
-10.4669571159
 10
1868.7257685797
 20
-12.0920990396
 10
1866.9055413801
 20
-13.4471234524
 10
1864.9135731309
 20
-14.5017613479
 10
1862.7943611112
 20
-15.2324538583
 10
1862.5859492532
 20
-15.2848948528
  0
LWPOLYLINE
  5
267
330
1F
100
AcDbEntity
  8
0
  6
PHANTOM
 62
     8
370
     0
100
AcDbPolyline
 90
       41
 70
   128
 43
0.0
 10
1872.9566549262
 20
-0.8403922845
 10
1872.6595658746
 20
-3.128745459
 10
1872.0256778338
 20
-5.3400585366
 10
1871.0705992313
 20
-7.4198816505
 10
1869.8178472719
 20
-9.3170026529
 10
1868.2982688666
 20
-10.9847081286
 10
1866.5492810788
 20
-12.3819336341
 10
1864.6139497925
 20
-13.4742748402
 10
1862.5399292869
 20
-14.2348346811
 10
1860.3782888302
 20
-14.6448856496
 10
1858.1822551844
 20
-14.6943309297
 10
1856.0059019862
 20
-14.3819530146
 10
1853.9028182741
 20
-13.7154436854
 10
1851.924788949
 20
-12.7112146137
 10
1850.1205196574
 20
-11.3939932521
 10
1848.5344374975
 20
-9.7962139621
 10
1847.2055970758
 20
-7.9572193726
 10
1846.1667188537
 20
-5.9222916336
 10
1845.4433834609
 20
-3.7415374197
 10
1845.0534018154
 20
-1.4686541371
 10
1845.0063765595
 20
0.8403922846
 10
1845.3034656111
 20
3.1287454592
 10
1845.9373536519
 20
5.3400585368
 10
1846.8924322544
 20
7.4198816506
 10
1848.1451842138
 20
9.3170026531
 10
1849.6647626191
 20
10.9847081288
 10
1851.4137504069
 20
12.3819336342
 10
1853.3490816932
 20
13.4742748403
 10
1855.4231021988
 20
14.2348346813
 10
1857.5847426555
 20
14.6448856497
 10
1859.7807763013
 20
14.6943309299
 10
1861.9571294996
 20
14.3819530148
 10
1864.0602132116
 20
13.7154436856
 10
1866.0382425367
 20
12.7112146139
 10
1867.8425118283
 20
11.3939932523
 10
1869.4285939883
 20
9.7962139623
 10
1870.7574344099
 20
7.9572193728
 10
1871.796312632
 20
5.9222916338
 10
1872.5196480248
 20
3.7415374199
 10
1872.9096296703
 20
1.4686541372
 10
1872.9566549262
 20
-0.8403922845
  0
LWPOLYLINE
  5
269
330
1F
100
AcDbEntity
  8
0
  6
PHANTOM
 62
     8
370
     0
100
AcDbPolyline
 90
       24
 70
   128
 43
0.0
 10
2007.8188679923
 20
-17.999999934
 10
2008.0374615199
 20
-17.9985521093
 10
2010.417663518
 20
-17.7916178903
 10
2012.7473114333
 20
-17.2383900667
 10
2014.9810613193
 20
-16.3496365888
 10
2017.0754357752
 20
-15.1426560322
 10
2018.9896701846
 20
-13.6409409005
 10
2020.686506152
 20
-11.8737203704
 10
2022.1329166956
 20
-9.8753913795
 10
2023.3007490793
 20
-7.6848491285
 10
2024.1672727742
 20
-5.3447300306
 10
2024.7156218822
 20
-2.9005818421
 10
2024.9351234116
 20
-0.3999771275
 10
2024.821505015
 20
2.108412687
 10
2024.376978145
 20
4.5757646467
 10
2023.6101950117
 20
6.9540545525
 10
2022.5360801765
 20
9.1969916966
 10
2021.1755400628
 20
11.2609198587
 10
2019.5550560365
 20
13.1056670248
 10
2017.7061689757
 20
14.6953272898
 10
2015.6648653641
 20
15.9989597248
 10
2013.4708768545
 20
16.9911906073
 10
2011.1669069376
 20
17.6527072918
 10
2008.7977997672
 20
17.9706341086
  0
LWPOLYLINE
  5
26A
330
1F
100
AcDbEntity
  8
0
  6
PHANTOM
 62
     8
370
     0
100
AcDbPolyline
 90
       21
 70
   128
 43
0.0
 10
2002.7278675113
 20
15.6643138927
 10
2004.9387303375
 20
15.3558343768
 10
2007.0811734158
 20
14.7043308957
 10
2009.1073381082
 20
13.7243569606
 10
2010.9719632436
 20
12.4378035698
 10
2012.6333961777
 20
10.8734102002
 10
2014.0545232442
 20
9.0661228144
 10
2015.2035988127
 20
7.0563132262
 10
2016.0549544339
 20
4.8888772608
 10
2016.5895722299
 20
2.612231856
 10
2016.7955097227
 20
0.2772335082
 10
2016.668166609
 20
-2.0639577781
 10
2016.2103875234
 20
-4.3590436583
 10
2015.4323984944
 20
-6.5567557062
 10
2014.3515785112
 20
-8.6080006663
 10
2012.9920713062
 20
-10.4669571159
 10
2011.384246024
 20
-12.0920990396
 10
2009.5640188243
 20
-13.4471234524
 10
2007.5720505752
 20
-14.5017613479
 10
2005.4528385555
 20
-15.2324538583
 10
2005.2444266975
 20
-15.2848948528
  0
LWPOLYLINE
  5
26B
330
1F
100
AcDbEntity
  8
0
  6
PHANTOM
 62
     8
370
     0
100
AcDbPolyline
 90
       41
 70
   128
 43
0.0
 10
2015.6151323705
 20
-0.8403922845
 10
2015.3180433188
 20
-3.128745459
 10
2014.6841552781
 20
-5.3400585366
 10
2013.7290766756
 20
-7.4198816505
 10
2012.4763247162
 20
-9.3170026529
 10
2010.9567463109
 20
-10.9847081286
 10
2009.2077585231
 20
-12.3819336341
 10
2007.2724272368
 20
-13.4742748402
 10
2005.1984067312
 20
-14.2348346811
 10
2003.0367662744
 20
-14.6448856496
 10
2000.8407326287
 20
-14.6943309297
 10
1998.6643794304
 20
-14.3819530146
 10
1996.5612957184
 20
-13.7154436854
 10
1994.5832663932
 20
-12.7112146137
 10
1992.7789971017
 20
-11.3939932521
 10
1991.1929149417
 20
-9.7962139621
 10
1989.86407452
 20
-7.9572193726
 10
1988.825196298
 20
-5.9222916336
 10
1988.1018609052
 20
-3.7415374197
 10
1987.7118792596
 20
-1.4686541371
 10
1987.6648540038
 20
0.8403922846
 10
1987.9619430554
 20
3.1287454592
 10
1988.5958310962
 20
5.3400585368
 10
1989.5509096987
 20
7.4198816506
 10
1990.803661658
 20
9.3170026531
 10
1992.3232400634
 20
10.9847081288
 10
1994.0722278511
 20
12.3819336342
 10
1996.0075591375
 20
13.4742748403
 10
1998.0815796431
 20
14.2348346813
 10
2000.2432200998
 20
14.6448856497
 10
2002.4392537456
 20
14.6943309299
 10
2004.6156069438
 20
14.3819530148
 10
2006.7186906559
 20
13.7154436856
 10
2008.696719981
 20
12.7112146139
 10
2010.5009892726
 20
11.3939932523
 10
2012.0870714325
 20
9.7962139623
 10
2013.4159118542
 20
7.9572193728
 10
2014.4547900763
 20
5.9222916338
 10
2015.1781254691
 20
3.7415374199
 10
2015.5681071146
 20
1.4686541372
 10
2015.6151323705
 20
-0.8403922845
  0
LWPOLYLINE
  5
26C
330
1F
100
AcDbEntity
  8
0
  6
PHANTOM
 62
     8
370
     0
100
AcDbPolyline
 90
       24
 70
   128
 43
0.0
 10
321.669453171
 20
-17.9999995721
 10
323.8208834431
 20
-17.8567888676
 10
326.1634606149
 20
-17.3676312809
 10
328.4184943623
 20
-16.5404325067
 10
330.5420930186
 20
-15.3912930282
 10
332.4929231513
 20
-13.9425795383
 10
334.2330140711
 20
-12.2224895972
 10
335.7284968874
 20
-10.2645027989
 10
336.9502637284
 20
-8.1067291293
 10
337.8745342923
 20
-5.7911671985
 10
338.4833187038
 20
-3.3628867856
 10
338.7647676669
 20
-0.8691516066
 10
338.7134030976
 20
1.6415006198
 10
338.3302247489
 20
4.1202029037
 10
337.6226907515
 20
6.5187101249
 10
336.6045724497
 20
8.7903380683
 10
335.2956863584
 20
10.8908720801
 10
333.7215084563
 20
12.779427655
 10
331.9126783257
 20
14.419246207
 10
329.9044027877
 20
15.7784105332
 10
327.7357706413
 20
16.8304660461
 10
325.4489918442
 20
17.5549356817
 10
323.0885759447
 20
17.9377184628
 10
321.6694020278
 20
17.9999995831
  0
LWPOLYLINE
  5
26D
330
1F
100
AcDbEntity
  8
0
  6
PHANTOM
 62
     8
370
     0
100
AcDbPolyline
 90
       19
 70
   128
 43
0.0
 10
318.9861293274
 20
15.3097486011
 10
319.7402767869
 20
15.1101061768
 10
321.8372089551
 20
14.3115051502
 10
323.79752033
 20
13.1932087476
 10
325.5774207946
 20
11.7801978627
 10
327.1371503139
 20
10.1040368237
 10
328.4418671077
 20
8.2021682984
 10
329.4624259588
 20
6.1170768871
 10
330.176029269
 20
3.8953400862
 10
330.5667363195
 20
1.5865878247
 10
330.6258193603
 20
-0.7576061871
 10
330.3519585741
 20
-3.0848765286
 10
329.7512715582
 20
-5.343235826
 10
328.8371766679
 20
-7.4822360646
 10
327.6300932726
 20
-9.4540955134
 10
326.1569856207
 20
-11.214766091
 10
324.450760503
 20
-12.7249173259
 10
322.549532169
 20
-13.9508149351
 10
320.7653279175
 20
-14.7663244572
  0
LWPOLYLINE
  5
26E
330
1F
100
AcDbEntity
  8
0
  6
PHANTOM
 62
     8
370
     0
100
AcDbPolyline
 90
       41
 70
   128
 43
0.0
 10
303.7148713367
 20
7.9660653987
 10
305.0449612357
 20
9.8040610694
 10
306.6321288726
 20
11.4006482188
 10
308.4372929128
 20
12.7165135724
 10
310.4160042265
 20
13.7192561582
 10
312.5195403743
 20
14.3841851257
 10
314.696105315
 20
14.6949277171
 10
316.8921047961
 20
14.6438324184
 10
319.0534660223
 20
14.2321573654
 10
321.1269691071
 20
13.4700393643
 10
323.0615575229
 20
12.3762442895
 10
324.8095952825
 20
10.9777050059
 10
326.3280398947
 20
9.3088581922
 10
327.5795022138
 20
7.4107963954
 10
328.5331670842
 20
5.3302561963
 10
329.1655521117
 20
3.1184673996
 10
329.4610858781
 20
0.8298915859
 10
329.4124913613
 20
-1.479118913
 10
329.0209651196
 20
-3.7517085953
 10
328.2961478285
 20
-5.9319187608
 10
327.2558868951
 20
-7.9660653994
 10
325.9257969961
 20
-9.8040610701
 10
324.3386293592
 20
-11.4006482195
 10
322.5334653191
 20
-12.7165135731
 10
320.5547540053
 20
-13.7192561589
 10
318.4512178575
 20
-14.3841851264
 10
316.2746529168
 20
-14.6949277178
 10
314.0786534357
 20
-14.6438324191
 10
311.9172922095
 20
-14.2321573662
 10
309.8437891247
 20
-13.470039365
 10
307.9092007089
 20
-12.3762442903
 10
306.1611629494
 20
-10.9777050067
 10
304.6427183371
 20
-9.3088581929
 10
303.391256018
 20
-7.4107963961
 10
302.4375911476
 20
-5.3302561971
 10
301.8052061202
 20
-3.1184674003
 10
301.5096723538
 20
-0.8298915866
 10
301.5582668706
 20
1.4791189122
 10
301.9497931123
 20
3.7517085945
 10
302.6746104034
 20
5.93191876
 10
303.7148713367
 20
7.9660653987
  0
LWPOLYLINE
  5
26F
330
1F
100
AcDbEntity
  8
0
  6
PHANTOM
 62
     8
370
     0
100
AcDbPolyline
 90
       24
 70
   128
 43
0.0
 10
-277.4961520949
 20
-17.9999995721
 10
-275.3447218228
 20
-17.8567888676
 10
-273.002144651
 20
-17.3676312809
 10
-270.7471109036
 20
-16.5404325067
 10
-268.6235122474
 20
-15.3912930282
 10
-266.6726821147
 20
-13.9425795383
 10
-264.9325911949
 20
-12.2224895972
 10
-263.4371083785
 20
-10.2645027989
 10
-262.2153415375
 20
-8.1067291293
 10
-261.2910709736
 20
-5.7911671985
 10
-260.6822865621
 20
-3.3628867856
 10
-260.400837599
 20
-0.8691516066
 10
-260.4522021683
 20
1.6415006198
 10
-260.835380517
 20
4.1202029037
 10
-261.5429145145
 20
6.5187101249
 10
-262.5610328162
 20
8.7903380683
 10
-263.8699189076
 20
10.8908720801
 10
-265.4440968097
 20
12.779427655
 10
-267.2529269402
 20
14.419246207
 10
-269.2612024782
 20
15.7784105332
 10
-271.4298346247
 20
16.8304660461
 10
-273.7166134217
 20
17.5549356817
 10
-276.0770293212
 20
17.9377184628
 10
-277.4962032382
 20
17.9999995831
  0
LWPOLYLINE
  5
270
330
1F
100
AcDbEntity
  8
0
  6
PHANTOM
 62
     8
370
     0
100
AcDbPolyline
 90
       19
 70
   128
 43
0.0
 10
-280.1794759385
 20
15.3097486011
 10
-279.4253284791
 20
15.1101061768
 10
-277.3283963108
 20
14.3115051502
 10
-275.368084936
 20
13.1932087476
 10
-273.5881844714
 20
11.7801978627
 10
-272.0284549521
 20
10.1040368237
 10
-270.7237381583
 20
8.2021682984
 10
-269.7031793071
 20
6.1170768871
 10
-268.9895759969
 20
3.8953400862
 10
-268.5988689465
 20
1.5865878247
 10
-268.5397859056
 20
-0.7576061871
 10
-268.8136466919
 20
-3.0848765286
 10
-269.4143337078
 20
-5.343235826
 10
-270.3284285981
 20
-7.4822360646
 10
-271.5355119933
 20
-9.4540955134
 10
-273.0086196452
 20
-11.214766091
 10
-274.714844763
 20
-12.7249173259
 10
-276.616073097
 20
-13.9508149351
 10
-278.4002773485
 20
-14.7663244572
  0
LWPOLYLINE
  5
271
330
1F
100
AcDbEntity
  8
0
  6
PHANTOM
 62
     8
370
     0
100
AcDbPolyline
 90
       41
 70
   128
 43
0.0
 10
-295.4507339292
 20
7.9660653987
 10
-294.1206440303
 20
9.8040610694
 10
-292.5334763933
 20
11.4006482188
 10
-290.7283123532
 20
12.7165135724
 10
-288.7496010394
 20
13.7192561582
 10
-286.6460648916
 20
14.3841851257
 10
-284.4694999509
 20
14.6949277171
 10
-282.2735004698
 20
14.6438324184
 10
-280.1121392436
 20
14.2321573654
 10
-278.0386361588
 20
13.4700393643
 10
-276.104047743
 20
12.3762442895
 10
-274.3560099835
 20
10.9777050059
 10
-272.8375653712
 20
9.3088581922
 10
-271.5861030521
 20
7.4107963954
 10
-270.6324381817
 20
5.3302561963
 10
-270.0000531543
 20
3.1184673996
 10
-269.7045193879
 20
0.8298915859
 10
-269.7531139047
 20
-1.479118913
 10
-270.1446401464
 20
-3.7517085953
 10
-270.8694574375
 20
-5.9319187608
 10
-271.9097183709
 20
-7.9660653994
 10
-273.2398082698
 20
-9.8040610701
 10
-274.8269759067
 20
-11.4006482195
 10
-276.6321399469
 20
-12.7165135731
 10
-278.6108512606
 20
-13.7192561589
 10
-280.7143874084
 20
-14.3841851264
 10
-282.8909523491
 20
-14.6949277178
 10
-285.0869518302
 20
-14.6438324191
 10
-287.2483130564
 20
-14.2321573662
 10
-289.3218161412
 20
-13.470039365
 10
-291.256404557
 20
-12.3762442903
 10
-293.0044423166
 20
-10.9777050067
 10
-294.5228869288
 20
-9.3088581929
 10
-295.774349248
 20
-7.4107963961
 10
-296.7280141183
 20
-5.3302561971
 10
-297.3603991458
 20
-3.1184674003
 10
-297.6559329122
 20
-0.8298915866
 10
-297.6073383954
 20
1.4791189122
 10
-297.2158121537
 20
3.7517085945
 10
-296.4909948626
 20
5.93191876
 10
-295.4507339292
 20
7.9660653987
  0
LWPOLYLINE
  5
272
330
1F
100
AcDbEntity
  8
0
  6
PHANTOM
 62
     8
370
     0
100
AcDbPolyline
 90
       38
 70
   128
 43
0.0
 10
15.7957471024
 20
12.755102039
 10
13.7456280793
 20
12.5716315078
 10
11.7544872479
 20
12.0264980271
 10
9.8796061046
 20
11.1353840948
 10
8.1749215663
 20
9.9239254363
 10
6.6894743034
 20
8.4269735113
 10
5.4659979293
 20
6.6875929014
 10
4.5396896315
 20
4.7558224198
 10
3.9371976133
 20
2.687235586
 10
3.6758544732
 20
0.541341877
 10
3.7631785773
 20
-1.6201252521
 10
4.1966577702
 20
-3.7349843275
 10
4.9638216448
 20
-5.7423947041
 10
6.0426002932
 20
-7.5846068402
 10
7.4019592178
 20
-9.2086236468
 10
9.0027921373
 20
-10.5677251172
 10
10.7990460032
 20
-11.6228123765
 10
12.7390458623
 20
-12.3435324854
 10
14.7669814508
 20
-12.7091516386
 10
16.8245127539
 20
-12.7091516386
 10
18.8524483424
 20
-12.3435324854
 10
20.7924482015
 20
-11.6228123765
 10
22.5887020674
 20
-10.5677251172
 10
24.1895349869
 20
-9.2086236468
 10
25.5488939115
 20
-7.5846068402
 10
26.6276725599
 20
-5.7423947041
 10
27.3948364345
 20
-3.7349843275
 10
27.8283156274
 20
-1.6201252521
 10
27.9156397316
 20
0.541341877
 10
27.6542965914
 20
2.687235586
 10
27.0518045732
 20
4.7558224198
 10
26.1254962754
 20
6.6875929014
 10
24.9020199013
 20
8.4269735113
 10
23.4165726385
 20
9.9239254363
 10
21.7118881002
 20
11.1353840948
 10
19.8370069568
 20
12.0264980271
 10
17.8458661254
 20
12.5716315078
 10
15.7957471024
 20
12.755102039
  0
SPLINE
  5
289
330
1F
100
AcDbEntity
  8
0
  6
PHANTOM
 62
     8
370
     0
100
AcDbSpline
210
0.0
220
0.0
230
1.0
 70
     8
 71
     3
 72
    10
 73
     6
 74
     0
 42
0.000000001
 43
0.00000001
 40
0.0
 40
0.0
 40
0.0
 40
0.0
 40
0.5
 40
0.5
 40
1.0
 40
1.0
 40
1.0
 40
1.0
 10
2106.202371941369
 20
95.000000000002
 30
0.0
 10
2112.342988257481
 20
95.00000000000209
 30
0.0
 10
2118.329307462807
 20
88.76832442652604
 30
0.0
 10
2128.307177498347
 20
65.59690612681025
 30
0.0
 10
2132.048011390873
 20
49.23939858877404
 30
0.0
 10
2134.013901435114
 20
30.41381265149334
 30
0.0
  0
SPLINE
  5
28A
330
1F
100
AcDbEntity
  8
0
  6
PHANTOM
 62
     8
370
     0
100
AcDbSpline
210
0.0
220
0.0
230
1.0
 70
     8
 71
     3
 72
    14
 73
    10
 74
     0
 42
0.000000001
 43
0.00000001
 40
0.0
 40
0.0
 40
0.0
 40
0.0
 40
0.25
 40
0.25
 40
0.5
 40
0.5
 40
0.7499999999999999
 40
0.7499999999999999
 40
1.0
 40
1.0
 40
1.0
 40
1.0
 10
2106.202371941369
 20
-94.999999999998
 30
0.0
 10
2098.416734045262
 20
-94.999999999998
 30
0.0
 10
2090.94938813225
 20
-84.99059595942957
 30
0.0
 10
2079.93883342785
 20
-49.35969246601066
 30
0.0
 10
2076.845757475749
 20
-25.19485347999827
 30
0.0
 10
2076.845757475749
 20
25.19485348000174
 30
0.0
 10
2079.93883342785
 20
49.35969246601418
 30
0.0
 10
2090.94938813225
 20
84.9905959594333
 30
0.0
 10
2098.416734045262
 20
95.00000000000185
 30
0.0
 10
2106.202371941369
 20
95.00000000000202
 30
0.0
  0
SPLINE
  5
28B
330
1F
100
AcDbEntity
  8
0
  6
PHANTOM
 62
     8
370
     0
100
AcDbSpline
210
0.0
220
0.0
230
1.0
 70
     8
 71
     3
 72
    10
 73
     6
 74
     0
 42
0.000000001
 43
0.00000001
 40
0.0
 40
0.0
 40
0.0
 40
0.0
 40
0.5
 40
0.5
 40
1.0
 40
1.0
 40
1.0
 40
1.0
 10
2134.013901435114
 20
-30.41381265148886
 30
0.0
 10
2132.048011390873
 20
-49.2393985887696
 30
0.0
 10
2128.307177498347
 20
-65.59690612680589
 30
0.0
 10
2118.329307462807
 20
-88.76832442652181
 30
0.0
 10
2112.342988257482
 20
-94.99999999999798
 30
0.0
 10
2106.202371941369
 20
-94.99999999999798
 30
0.0
  0
LWPOLYLINE
  5
28C
330
1F
100
AcDbEntity
  8
0
  6
PHANTOM
 62
     8
370
     0
100
AcDbPolyline
 90
       55
 70
   128
 43
0.0
 10
2101.4369244714
 20
-99.9999945898
 10
2100.9450461678
 20
-99.9868017576
 10
2099.0996641386
 20
-99.7110539905
 10
2097.2626713877
 20
-99.0789567309
 10
2095.4406329991
 20
-98.0927689814
 10
2093.6400606123
 20
-96.7560152008
 10
2091.8673891515
 20
-95.0734727084
 10
2090.1289538278
 20
-93.0511546104
 10
2088.4309674983
 20
-90.6962883103
 10
2086.7794984629
 20
-88.0172896797
 10
2085.1804487769
 20
-85.0237329809
 10
2083.6395331581
 20
-81.7263166508
 10
2082.1622585636
 20
-78.1368250663
 10
2080.753904509
 20
-74.2680864289
 10
2079.4195042
 20
-70.1339269194
 10
2078.1638265449
 20
-65.7491212853
 10
2076.9913591113
 20
-61.1293400384
 10
2075.9062920884
 20
-56.2910934516
 10
2074.9125033117
 20
-51.2516725538
 10
2074.0135444049
 20
-46.029087335
 10
2073.2126280866
 20
-40.6420023815
 10
2072.5126166884
 20
-35.1096701727
 10
2071.9160119261
 20
-29.4518622754
 10
2071.4249459585
 20
-23.6887986842
 10
2071.0411737677
 20
-17.8410755587
 10
2070.7660668868
 20
-11.9295916167
 10
2070.6006084988
 20
-5.9754734456
 10
2070.5453899224
 20
0.0
 10
2070.6006084988
 20
5.9754734456
 10
2070.7660668868
 20
11.9295916167
 10
2071.0411737677
 20
17.8410755587
 10
2071.4249459585
 20
23.6887986842
 10
2071.9160119261
 20
29.4518622754
 10
2072.5126166884
 20
35.1096701727
 10
2073.2126280866
 20
40.6420023815
 10
2074.0135444049
 20
46.029087335
 10
2074.9125033117
 20
51.2516725538
 10
2075.9062920884
 20
56.2910934516
 10
2076.9913591113
 20
61.1293400384
 10
2078.1638265449
 20
65.7491212853
 10
2079.4195042
 20
70.1339269194
 10
2080.753904509
 20
74.2680864289
 10
2082.1622585636
 20
78.1368250663
 10
2083.6395331581
 20
81.7263166508
 10
2085.1804487769
 20
85.0237329809
 10
2086.7794984629
 20
88.0172896797
 10
2088.4309674983
 20
90.6962883103
 10
2090.1289538278
 20
93.0511546104
 10
2091.8673891515
 20
95.0734727084
 10
2093.6400606123
 20
96.7560152008
 10
2095.4406329991
 20
98.0927689814
 10
2097.2626713877
 20
99.0789567309
 10
2099.0996641386
 20
99.7110539905
 10
2100.9450461678
 20
99.9868017576
 10
2101.464777023
 20
99.9999836188
  0
LWPOLYLINE
  5
28D
330
1F
100
AcDbEntity
  8
0
  6
PHANTOM
 62
     8
370
     0
100
AcDbPolyline
 90
       55
 70
   128
 43
0.0
 10
-1693.2684106578
 20
100.0
 10
-1693.7704538498
 20
99.9868017576
 10
-1695.6158358791
 20
99.7110539905
 10
-1697.45282863
 20
99.0789567309
 10
-1699.2748670186
 20
98.0927689814
 10
-1701.0754394053
 20
96.7560152008
 10
-1702.8481108661
 20
95.0734727084
 10
-1704.5865461899
 20
93.0511546104
 10
-1706.2845325193
 20
90.6962883103
 10
-1707.9360015547
 20
88.0172896797
 10
-1709.5350512408
 20
85.0237329809
 10
-1711.0759668596
 20
81.7263166508
 10
-1712.553241454
 20
78.1368250663
 10
-1713.9615955086
 20
74.2680864289
 10
-1715.2959958176
 20
70.1339269194
 10
-1716.5516734727
 20
65.7491212853
 10
-1717.7241409063
 20
61.1293400384
 10
-1718.8092079293
 20
56.2910934516
 10
-1719.8029967059
 20
51.2516725538
 10
-1720.7019556127
 20
46.029087335
 10
-1721.5028719311
 20
40.6420023815
 10
-1722.2028833293
 20
35.1096701727
 10
-1722.7994880916
 20
29.4518622754
 10
-1723.2905540592
 20
23.6887986842
 10
-1723.67432625
 20
17.8410755587
 10
-1723.9494331308
 20
11.9295916167
 10
-1724.1148915188
 20
5.9754734456
 10
-1724.1701100953
 20
0.0
 10
-1724.1148915188
 20
-5.9754734456
 10
-1723.9494331308
 20
-11.9295916167
 10
-1723.67432625
 20
-17.8410755587
 10
-1723.2905540592
 20
-23.6887986842
 10
-1722.7994880916
 20
-29.4518622754
 10
-1722.2028833293
 20
-35.1096701727
 10
-1721.5028719311
 20
-40.6420023815
 10
-1720.7019556127
 20
-46.029087335
 10
-1719.8029967059
 20
-51.2516725538
 10
-1718.8092079293
 20
-56.2910934516
 10
-1717.7241409063
 20
-61.1293400384
 10
-1716.5516734727
 20
-65.7491212853
 10
-1715.2959958176
 20
-70.1339269194
 10
-1713.9615955086
 20
-74.2680864289
 10
-1712.553241454
 20
-78.1368250663
 10
-1711.0759668596
 20
-81.7263166508
 10
-1709.5350512408
 20
-85.0237329809
 10
-1707.9360015547
 20
-88.0172896797
 10
-1706.2845325193
 20
-90.6962883103
 10
-1704.5865461899
 20
-93.0511546104
 10
-1702.8481108661
 20
-95.0734727084
 10
-1701.0754394053
 20
-96.7560152008
 10
-1699.2748670186
 20
-98.0927689814
 10
-1697.45282863
 20
-99.0789567309
 10
-1695.6158358791
 20
-99.7110539905
 10
-1693.7704538498
 20
-99.9868017576
 10
-1693.2684106578
 20
-100.0
  0
SPLINE
  5
28E
330
1F
100
AcDbEntity
  8
0
  6
PHANTOM
 62
     8
370
     0
100
AcDbSpline
210
0.0
220
0.0
230
1.0
 70
     8
 71
     3
 72
    23
 73
    19
 74
     0
 42
0.000000001
 43
0.00000001
 40
0.0
 40
0.0
 40
0.0
 40
0.0
 40
0.0077786886990004
 40
0.076217717150831
 40
0.1424279978382919
 40
0.2086382785257488
 40
0.2770773069775831
 40
0.3475495225118834
 40
0.4198105696727806
 40
0.4935693392839126
 40
0.5684927338054695
 40
0.644213167158498
 40
0.7203385045681727
 40
0.796463841977845
 40
0.8721842753308756
 40
0.9221388758156644
 40
0.9717207556210589
 40
1.0
 40
1.0
 40
1.0
 40
1.0
 10
2047.222295460396
 20
100.000000000002
 30
0.0
 10
2046.923400080263
 20
100.2628495353961
 30
0.0
 10
2043.994741482111
 20
102.8383210984205
 30
0.0
 10
2037.93041123515
 20
106.9332395379716
 30
0.0
 10
2029.107873704599
 20
112.2041300098784
 30
0.0
 10
2019.78921212167
 20
116.5813805248828
 30
0.0
 10
2009.919121808907
 20
120.185335442924
 30
0.0
 10
1999.448036848338
 20
122.9153593783868
 30
0.0
 10
1988.492899969455
 20
124.6631691570839
 30
0.0
 10
1977.189643301122
 20
125.3300074766065
 30
0.0
 10
1965.69897855539
 20
124.8458995978622
 30
0.0
 10
1954.197515695186
 20
123.1722389454869
 30
0.0
 10
1942.868927069657
 20
120.3080860450865
 30
0.0
 10
1931.898928939988
 20
116.28700219664
 30
0.0
 10
1922.59882929626
 20
111.7532829437191
 30
0.0
 10
1914.91395968331
 20
107.1256524379381
 30
0.0
 10
1909.502395300483
 20
103.4366112521385
 30
0.0
 10
1906.41623145113
 20
100.9156249478903
 30
0.0
 10
1905.295333408576
 20
100.000000000002
 30
0.0
  0
SPLINE
  5
28F
330
1F
100
AcDbEntity
  8
0
  6
PHANTOM
 62
     8
370
     0
100
AcDbSpline
210
0.0
220
0.0
230
1.0
 70
     8
 71
     3
 72
    11
 73
     7
 74
     0
 42
0.000000001
 43
0.00000001
 40
0.0
 40
0.0
 40
0.0
 40
0.0
 40
0.0440195019600716
 40
0.4706589377416807
 40
0.9040348594665694
 40
1.0
 40
1.0
 40
1.0
 40
1.0
 10
1962.782217562598
 20
-99.99999999999801
 30
0.0
 10
1963.166512733612
 20
-100.0630398507257
 30
0.0
 10
1967.275417853263
 20
-100.7370654043495
 30
0.0
 10
1975.297163182303
 20
-100.904296938461
 30
0.0
 10
1983.777945238665
 20
-100.8451304322638
 30
0.0
 10
1988.40726933567
 20
-100.129701353254
 30
0.0
 10
1989.246527366492
 20
-99.99999999999801
 30
0.0
  0
SPLINE
  5
294
330
1F
100
AcDbEntity
  8
0
  6
PHANTOM
 62
     8
370
     0
100
AcDbSpline
210
0.0
220
0.0
230
1.0
 70
     8
 71
     3
 72
    21
 73
    17
 74
     0
 42
0.000000001
 43
0.00000001
 40
0.0
 40
0.0
 40
0.0
 40
0.0
 40
0.0494498883447703
 40
0.1197582394728904
 40
0.1900665906010117
 40
0.2627416373354116
 40
0.3375757148097393
 40
0.4143093432421039
 40
0.492633395319107
 40
0.572194156503589
 40
0.6526012890588596
 40
0.7334383871163498
 40
0.8142754851738374
 40
0.8946826177291103
 40
0.9477291469823063
 40
1.0
 40
1.0
 40
1.0
 40
1.0
 10
-1484.142961537605
 20
100.000000000002
 30
0.0
 10
-1486.05673828262
 20
101.4213564131086
 30
0.0
 10
-1490.691542149701
 20
104.8636117425921
 30
0.0
 10
-1498.65378941654
 20
109.4318772671553
 30
0.0
 10
-1507.942397885437
 20
113.8476513529273
 30
0.0
 10
-1517.820852106766
 20
117.4408842008568
 30
0.0
 10
-1528.289595884698
 20
120.1739125121934
 30
0.0
 10
-1539.245379713272
 20
121.920880034037
 30
0.0
 10
-1550.548475436043
 20
122.5879745381767
 30
0.0
 10
-1562.039115990932
 20
122.1037072456893
 30
0.0
 10
-1573.540844461545
 20
120.4304275798426
 30
0.0
 10
-1584.868387632737
 20
117.5649028085792
 30
0.0
 10
-1595.84229706176
 20
113.5489187582529
 30
0.0
 10
-1605.129516568599
 20
108.9984132903123
 30
0.0
 10
-1612.831396745094
 20
104.4228406946771
 30
0.0
 10
-1616.958777956148
 20
101.4670235722165
 30
0.0
 10
-1619.007269211618
 20
100.000000000002
 30
0.0
  0
SPLINE
  5
295
330
1F
100
AcDbEntity
  8
0
  6
PHANTOM
 62
     8
370
     0
100
AcDbSpline
210
0.0
220
0.0
230
1.0
 70
     8
 71
     3
 72
    13
 73
     9
 74
     0
 42
0.000000001
 43
0.00000001
 40
0.0
 40
0.0
 40
0.0
 40
0.0
 40
0.0833281117179378
 40
0.2811730120426063
 40
0.4831185552519631
 40
0.6882527472336819
 40
0.8955691670457914
 40
1.0
 40
1.0
 40
1.0
 40
1.0
 10
-1579.274998033434
 20
-99.99999999999801
 30
0.0
 10
-1577.772694375533
 20
-100.4120099004924
 30
0.0
 10
-1572.703489808358
 20
-101.8022497886288
 30
0.0
 10
-1563.73710982294
 20
-103.0773030100359
 30
0.0
 10
-1552.443570736932
 20
-103.8064107637361
 30
0.0
 10
-1540.96137902603
 20
-103.2611009631001
 30
0.0
 10
-1531.349306000287
 20
-102.0207798823561
 30
0.0
 10
-1525.720231534943
 20
-100.5070707314288
 30
0.0
 10
-1523.83457278427
 20
-99.99999999999802
 30
0.0
  0
LINE
  5
29A
330
1F
100
AcDbEntity
  8
0
  6
Continuous
 62
     7
370
    15
100
AcDbLine
 10
-452.0262263745
 20
483.1674159222
 30
0.0
 11
-130.5105889951
 21
100.0
 31
0.0
  0
LINE
  5
29B
330
1F
100
AcDbEntity
  8
0
  6
Continuous
 62
     7
370
    15
100
AcDbLine
 10
-60.0000000024
 20
104.645010383
 30
0.0
 11
-408.3616931167
 21
519.8063096743
 31
0.0
  0
LINE
  5
29C
330
1F
100
AcDbEntity
  8
0
  6
Continuous
 62
     7
370
    15
100
AcDbLine
 10
-408.3616931167
 20
-519.8063096744
 30
0.0
 11
-60.0000000024
 21
-104.6450103831
 31
0.0
  0
LINE
  5
29D
330
1F
100
AcDbEntity
  8
0
  6
Continuous
 62
     7
370
    15
100
AcDbLine
 10
-130.510588995
 20
-100.0
 30
0.0
 11
-452.0262263745
 21
-483.1674159222
 31
0.0
  0
LINE
  5
29E
330
1F
100
AcDbEntity
  8
0
  6
Continuous
 62
     7
370
    15
100
AcDbLine
 10
932.0262263745
 20
-483.1674159222
 30
0.0
 11
610.510588995
 21
-100.0
 31
0.0
  0
LINE
  5
29F
330
1F
100
AcDbEntity
  8
0
  6
Continuous
 62
     7
370
    15
100
AcDbLine
 10
539.9999999976
 20
-104.6450103774
 30
0.0
 11
888.3616931167
 21
-519.8063096743
 31
0.0
  0
LINE
  5
2A0
330
1F
100
AcDbEntity
  8
0
  6
Continuous
 62
     7
370
    15
100
AcDbLine
 10
888.3616931167
 20
519.8063096743
 30
0.0
 11
539.9999999976
 21
104.6450103774
 31
0.0
  0
LINE
  5
2A1
330
1F
100
AcDbEntity
  8
0
  6
Continuous
 62
     7
370
    15
100
AcDbLine
 10
610.5105889951
 20
100.0
 30
0.0
 11
932.0262263745
 21
483.1674159222
 31
0.0
  0
LINE
  5
2A2
330
1F
100
AcDbEntity
  8
0
  6
Continuous
 62
     7
370
    15
100
AcDbLine
 10
210.4999999972
 20
-110.0
 30
0.0
 11
210.4999999972
 21
-112.0
 31
0.0
  0
LINE
  5
2A3
330
1F
100
AcDbEntity
  8
0
  6
Continuous
 62
     7
370
    15
100
AcDbLine
 10
269.4999999972
 20
-112.0
 30
0.0
 11
269.4999999972
 21
-110.0
 31
0.0
  0
LINE
  5
2A4
330
1F
100
AcDbEntity
  8
0
  6
Continuous
 62
     7
370
    15
100
AcDbLine
 10
217.8452994588
 20
-115.0
 30
0.0
 11
218.7113248626
 21
-116.5
 31
0.0
  0
LINE
  5
2A5
330
1F
100
AcDbEntity
  8
0
  6
Continuous
 62
     7
370
    15
100
AcDbLine
 10
261.2886751318
 20
-116.5
 30
0.0
 11
262.1547005356
 21
-115.0
 31
0.0
  0
LINE
  5
2A6
330
1F
100
AcDbEntity
  8
0
  6
Continuous
 62
     7
370
    15
100
AcDbLine
 10
269.4999999972
 20
110.0
 30
0.0
 11
269.4999999972
 21
112.0
 31
0.0
  0
LINE
  5
2A7
330
1F
100
AcDbEntity
  8
0
  6
Continuous
 62
     7
370
    15
100
AcDbLine
 10
210.4999999972
 20
112.0
 30
0.0
 11
210.4999999972
 21
110.0
 31
0.0
  0
LINE
  5
2A8
330
1F
100
AcDbEntity
  8
0
  6
Continuous
 62
     7
370
    15
100
AcDbLine
 10
262.1547005356
 20
115.0
 30
0.0
 11
261.2886751318
 21
116.5
 31
0.0
  0
LINE
  5
2A9
330
1F
100
AcDbEntity
  8
0
  6
Continuous
 62
     7
370
    15
100
AcDbLine
 10
218.7113248626
 20
116.5
 30
0.0
 11
217.8452994588
 21
115.0
 31
0.0
  0
LINE
  5
2AA
330
1F
100
AcDbEntity
  8
0
  6
Continuous
 62
     7
370
    15
100
AcDbLine
 10
-6.0000000001
 20
-110.0
 30
0.0
 11
-6.0000000001
 21
-113.0000000002
 31
0.0
  0
LINE
  5
2AB
330
1F
100
AcDbEntity
  8
0
  6
Continuous
 62
     7
370
    15
100
AcDbLine
 10
497.9999999979
 20
-113.0000000002
 30
0.0
 11
497.9999999979
 21
-110.0000000002
 31
0.0
  0
LINE
  5
2AC
330
1F
100
AcDbEntity
  8
0
  6
Continuous
 62
     7
370
    15
100
AcDbLine
 10
461.9999999979
 20
-110.0000000002
 30
0.0
 11
461.9999999979
 21
-113.0000000002
 31
0.0
  0
LINE
  5
2AD
330
1F
100
AcDbEntity
  8
0
  6
Continuous
 62
     7
370
    15
100
AcDbLine
 10
5.5759375484
 20
11.0427138362
 30
0.0
 11
4.9392832433
 21
10.3582632055
 31
0.0
  0
LINE
  5
2AE
330
1F
100
AcDbEntity
  8
0
  6
Continuous
 62
     7
370
    15
100
AcDbLine
 10
22.0829163704
 20
-18.0000000004
 30
0.0
 11
23.0099673536
 21
-18.0000000004
 31
0.0
  0
LINE
  5
2AF
330
1F
100
AcDbEntity
  8
0
  6
Continuous
 62
     7
370
    15
100
AcDbLine
 10
23.0099673536
 20
17.9999999996
 30
0.0
 11
22.0829163704
 21
17.9999999996
 31
0.0
  0
LINE
  5
2B0
330
1F
100
AcDbEntity
  8
0
  6
Continuous
 62
     7
370
    15
100
AcDbLine
 10
461.9999999979
 20
112.9999999997
 30
0.0
 11
461.9999999979
 21
109.9999999997
 31
0.0
  0
LINE
  5
2B1
330
1F
100
AcDbEntity
  8
0
  6
Continuous
 62
     7
370
    15
100
AcDbLine
 10
497.9999999979
 20
109.9999999997
 30
0.0
 11
497.9999999979
 21
112.9999999997
 31
0.0
  0
LINE
  5
2B2
330
1F
100
AcDbEntity
  8
0
  6
Continuous
 62
     7
370
    15
100
AcDbLine
 10
605.1278140579
 20
11.0427138366
 30
0.0
 11
604.4911597527
 21
10.3582632059
 31
0.0
  0
LINE
  5
2B3
330
1F
100
AcDbEntity
  8
0
  6
Continuous
 62
     7
370
    15
100
AcDbLine
 10
621.6347928799
 20
-18.0
 30
0.0
 11
622.561843863
 21
-18.0
 31
0.0
  0
LINE
  5
2B4
330
1F
100
AcDbEntity
  8
0
  6
Continuous
 62
     7
370
    15
100
AcDbLine
 10
622.561843863
 20
18.0
 30
0.0
 11
621.6347928799
 21
18.0
 31
0.0
  0
LINE
  5
2B5
330
1F
100
AcDbEntity
  8
0
  6
Continuous
 62
     7
370
    15
100
AcDbLine
 10
-18.0000000001
 20
113.0
 30
0.0
 11
-18.0000000001
 21
110.0
 31
0.0
  0
LINE
  5
2B6
330
1F
100
AcDbEntity
  8
0
  6
Continuous
 62
     7
370
    15
100
AcDbLine
 10
17.9999999999
 20
110.0
 30
0.0
 11
17.9999999999
 21
113.0
 31
0.0
  0
LINE
  5
2B7
330
1F
100
AcDbEntity
  8
0
  6
Continuous
 62
     7
370
    15
100
AcDbLine
 10
18.0
 20
-113.0
 30
0.0
 11
18.0
 21
-110.0
 31
0.0
  0
LINE
  5
2B8
330
1F
100
AcDbEntity
  8
0
  6
Continuous
 62
     7
370
    15
100
AcDbLine
 10
-18.0
 20
-110.0
 30
0.0
 11
-18.0
 21
-113.0
 31
0.0
  0
LINE
  5
2B9
330
1F
100
AcDbEntity
  8
0
  6
Continuous
 62
     7
370
    15
100
AcDbLine
 10
-1662.5957642268
 20
-18.0
 30
0.0
 11
-1661.6687132437
 21
-18.0
 31
0.0
  0
LINE
  5
2BA
330
1F
100
AcDbEntity
  8
0
  6
Continuous
 62
     7
370
    15
100
AcDbLine
 10
-1661.6687132437
 20
18.0
 30
0.0
 11
-1662.5957642268
 21
18.0
 31
0.0
  0
LINE
  5
2BB
330
1F
100
AcDbEntity
  8
0
  6
Continuous
 62
     7
370
    15
100
AcDbLine
 10
-1520.5993423804
 20
-17.9999999999
 30
0.0
 11
-1519.6722913973
 21
-17.9999999999
 31
0.0
  0
LINE
  5
2BC
330
1F
100
AcDbEntity
  8
0
  6
Continuous
 62
     7
370
    15
100
AcDbLine
 10
-1519.6722913973
 20
18.0000000001
 30
0.0
 11
-1520.5993423804
 21
18.0000000001
 31
0.0
  0
LINE
  5
2BD
330
1F
100
AcDbEntity
  8
0
  6
Continuous
 62
     7
370
    15
100
AcDbLine
 10
1865.1618556303
 20
-17.9999999999
 30
0.0
 11
1866.0889066135
 21
-17.9999999999
 31
0.0
  0
LINE
  5
2BE
330
1F
100
AcDbEntity
  8
0
  6
Continuous
 62
     7
370
    15
100
AcDbLine
 10
1866.0889066135
 20
18.0000000001
 30
0.0
 11
1865.1618556304
 21
18.0000000001
 31
0.0
  0
LINE
  5
2BF
330
1F
100
AcDbEntity
  8
0
  6
Continuous
 62
     7
370
    15
100
AcDbLine
 10
2007.8203330746
 20
-17.9999999999
 30
0.0
 11
2008.7473840577
 21
-17.9999999999
 31
0.0
  0
LINE
  5
2C0
330
1F
100
AcDbEntity
  8
0
  6
Continuous
 62
     7
370
    15
100
AcDbLine
 10
2008.7473840577
 20
18.0000000001
 30
0.0
 11
2007.8203330746
 21
18.0000000001
 31
0.0
  0
LINE
  5
2C1
330
1F
100
AcDbEntity
  8
0
  6
Continuous
 62
     7
370
    15
100
AcDbLine
 10
305.1587401814
 20
11.0427138362
 30
0.0
 11
304.5220858762
 21
10.3582632055
 31
0.0
  0
LINE
  5
2C2
330
1F
100
AcDbEntity
  8
0
  6
Continuous
 62
     7
370
    15
100
AcDbLine
 10
321.6657190034
 20
-18.0000000004
 30
0.0
 11
322.5927699865
 21
-18.0000000004
 31
0.0
  0
LINE
  5
2C3
330
1F
100
AcDbEntity
  8
0
  6
Continuous
 62
     7
370
    15
100
AcDbLine
 10
322.5927699865
 20
17.9999999996
 30
0.0
 11
321.6657190034
 21
17.9999999996
 31
0.0
  0
LINE
  5
2C4
330
1F
100
AcDbEntity
  8
0
  6
Continuous
 62
     7
370
    15
100
AcDbLine
 10
-294.0068650845
 20
11.0427138362
 30
0.0
 11
-294.6435193897
 21
10.3582632055
 31
0.0
  0
LINE
  5
2C5
330
1F
100
AcDbEntity
  8
0
  6
Continuous
 62
     7
370
    15
100
AcDbLine
 10
-277.4998862625
 20
-18.0000000004
 30
0.0
 11
-276.5728352794
 21
-18.0000000004
 31
0.0
  0
LINE
  5
2C6
330
1F
100
AcDbEntity
  8
0
  6
Continuous
 62
     7
370
    15
100
AcDbLine
 10
-276.5728352794
 20
17.9999999996
 30
0.0
 11
-277.4998862625
 21
17.9999999996
 31
0.0
  0
LINE
  5
2C7
330
1F
100
AcDbEntity
  8
0
  6
Continuous
 62
     7
370
    15
100
AcDbLine
 10
2101.4470893599
 20
100.0
 30
0.0
 11
-1693.2684106578
 21
100.0
 31
0.0
  0
LINE
  5
2C8
330
1F
100
AcDbEntity
  8
0
  6
Continuous
 62
     7
370
    15
100
AcDbLine
 10
-1693.2684106578
 20
-100.0
 30
0.0
 11
2101.4470893599
 21
-100.0
 31
0.0
  0
LINE
  5
2C9
330
1F
100
AcDbEntity
  8
0
  6
Continuous
 62
     7
370
    15
100
AcDbLine
 10
-3227.6250222558
 20
530.4448186343
 30
0.0
 11
-3227.6250222558
 21
-530.4448186343
 31
0.0
  0
LINE
  5
2CA
330
1F
100
AcDbEntity
  8
0
  6
Continuous
 62
     7
370
    15
100
AcDbLine
 10
2134.0139014351
 20
2030.4448186343
 30
0.0
 11
-1727.6250222558
 21
2030.4448186343
 31
0.0
  0
LINE
  5
2CB
330
1F
100
AcDbEntity
  8
0
  6
Continuous
 62
     7
370
    15
100
AcDbLine
 10
3634.0139014351
 20
-530.4448186343
 30
0.0
 11
3634.0139014351
 21
530.4448186343
 31
0.0
  0
LINE
  5
2CC
330
1F
100
AcDbEntity
  8
0
  6
Continuous
 62
     7
370
    15
100
AcDbLine
 10
-1727.6250222558
 20
-2030.4448186343
 30
0.0
 11
2134.0139014351
 21
-2030.4448186343
 31
0.0
  0
LINE
  5
2CD
330
1F
100
AcDbEntity
  8
0
  6
Continuous
 62
     7
370
    15
100
AcDbLine
 10
1.0
 20
134.9899992666
 30
0.0
 11
-1.0000000001
 21
134.9899992666
 31
0.0
  0
LINE
  5
2CE
330
1F
100
AcDbEntity
  8
0
  6
Continuous
 62
     7
370
    15
100
AcDbLine
 10
-1.0
 20
-134.9899992665
 30
0.0
 11
1.0
 21
-134.9899992665
 31
0.0
  0
LINE
  5
2CF
330
1F
100
AcDbEntity
  8
0
  6
Continuous
 62
     7
370
    15
100
AcDbLine
 10
474.3959226596
 20
-114.4
 30
0.0
 11
464.207550801
 21
-114.4
 31
0.0
  0
LINE
  5
2D0
330
1F
100
AcDbEntity
  8
0
  6
Continuous
 62
     7
370
    15
100
AcDbLine
 10
15.6497059287
 20
-114.4
 30
0.0
 11
5.4613340701
 21
-114.4
 31
0.0
  0
LINE
  5
2D1
330
1F
100
AcDbEntity
  8
0
  6
Continuous
 62
     7
370
    15
100
AcDbLine
 10
-8.2834393895
 20
-114.4
 30
0.0
 11
-18.4718112481
 21
-114.4
 31
0.0
  0
LINE
  5
2D2
330
1F
100
AcDbEntity
  8
0
  6
Continuous
 62
     7
370
    15
100
AcDbLine
 10
465.2816569979
 20
-133.0000000002
 30
0.0
 11
494.7183429979
 21
-133.0000000002
 31
0.0
  0
LINE
  5
2D3
330
1F
100
AcDbEntity
  8
0
  6
Continuous
 62
     7
370
    15
100
AcDbLine
 10
240.175257918
 20
-110.0
 30
0.0
 11
240.175257918
 21
-100.0
 31
0.0
  0
LINE
  5
2D4
330
1F
100
AcDbEntity
  8
0
  6
Continuous
 62
     7
370
    15
100
AcDbLine
 10
539.9999999976
 20
-110.0
 30
0.0
 11
-60.0000000024
 21
-110.0
 31
0.0
  0
LINE
  5
2D5
330
1F
100
AcDbEntity
  8
0
  6
Continuous
 62
     7
370
    15
100
AcDbLine
 10
539.9999999976
 20
-110.0
 30
0.0
 11
539.9999999976
 21
-100.0
 31
0.0
  0
LINE
  5
2D6
330
1F
100
AcDbEntity
  8
0
  6
Continuous
 62
     7
370
    15
100
AcDbLine
 10
-60.0000000024
 20
-110.0
 30
0.0
 11
-60.0000000024
 21
-100.0
 31
0.0
  0
LINE
  5
2D7
330
1F
100
AcDbEntity
  8
0
  6
Continuous
 62
     7
370
    15
100
AcDbLine
 10
239.8247420762
 20
110.0
 30
0.0
 11
239.8247420762
 21
100.0
 31
0.0
  0
LINE
  5
2D8
330
1F
100
AcDbEntity
  8
0
  6
Continuous
 62
     7
370
    15
100
AcDbLine
 10
-60.0000000024
 20
110.0
 30
0.0
 11
539.9999999976
 21
110.0
 31
0.0
  0
LINE
  5
2D9
330
1F
100
AcDbEntity
  8
0
  6
Continuous
 62
     7
370
    15
100
AcDbLine
 10
-60.0000000024
 20
110.0
 30
0.0
 11
-60.0000000024
 21
100.0
 31
0.0
  0
LINE
  5
2DA
330
1F
100
AcDbEntity
  8
0
  6
Continuous
 62
     7
370
    15
100
AcDbLine
 10
539.9999999976
 20
110.0
 30
0.0
 11
539.9999999976
 21
100.0
 31
0.0
  0
LINE
  5
2DB
330
1F
100
AcDbEntity
  8
0
  6
Continuous
 62
     7
370
    15
100
AcDbLine
 10
494.7183429979
 20
132.9999999997
 30
0.0
 11
465.2816569979
 21
132.9999999997
 31
0.0
  0
LINE
  5
2DC
330
1F
100
AcDbEntity
  8
0
  6
Continuous
 62
     7
370
    15
100
AcDbLine
 10
14.7183429999
 20
133.0
 30
0.0
 11
-14.7183430001
 21
133.0
 31
0.0
  0
LINE
  5
2DD
330
1F
100
AcDbEntity
  8
0
  6
Continuous
 62
     7
370
    15
100
AcDbLine
 10
-14.718343
 20
-133.0
 30
0.0
 11
14.718343
 21
-133.0
 31
0.0
  0
LINE
  5
2DE
330
1F
100
AcDbEntity
  8
0
  6
Continuous
 62
     7
370
    15
100
AcDbLine
 10
478.9999999979
 20
-134.9899992667
 30
0.0
 11
480.9999999979
 21
-134.9899992667
 31
0.0
  0
LINE
  5
2DF
330
1F
100
AcDbEntity
  8
0
  6
Continuous
 62
     7
370
    15
100
AcDbLine
 10
480.9999999979
 20
134.9899992662
 30
0.0
 11
478.9999999978
 21
134.9899992662
 31
0.0
  0
LINE
  5
2E0
330
1F
100
AcDbEntity
  8
0
  6
Continuous
 62
     7
370
    15
100
AcDbLine
 10
10.2194036145
 20
-112.3628190894
 30
0.0
 11
10.2194036145
 21
-110.0
 31
0.0
  0
LINE
  5
2E1
330
1F
100
AcDbEntity
  8
0
  6
Continuous
 62
     7
370
    15
100
AcDbLine
 10
498.3290679776
 20
-114.4
 30
0.0
 11
488.140696119
 21
-114.4
 31
0.0
  0
LINE
  5
2E2
330
1F
100
AcDbEntity
  8
0
  6
Continuous
 62
     7
370
    15
100
AcDbLine
 10
2134.0139014351
 20
-30.4138126515
 30
0.0
 11
2134.0139014351
 21
30.4138126515
 31
0.0
  0
LINE
  5
2E3
330
1F
100
AcDbEntity
  8
0
  6
PHANTOM
 62
     8
370
     0
100
AcDbLine
 10
-158.4750421956
 20
133.3267375666
 30
0.0
 11
-114.8105089378
 21
169.9656313188
 31
0.0
  0
LINE
  5
2E4
330
1F
100
AcDbEntity
  8
0
  6
PHANTOM
 62
     8
370
     0
100
AcDbLine
 10
-114.8105089378
 20
-169.9656313188
 30
0.0
 11
-158.4750421956
 21
-133.3267375667
 31
0.0
  0
LINE
  5
2E5
330
1F
100
AcDbEntity
  8
0
  6
PHANTOM
 62
     8
370
     0
100
AcDbLine
 10
638.4750421956
 20
-133.3267375667
 30
0.0
 11
594.8105089378
 21
-169.9656313188
 31
0.0
  0
LINE
  5
2E6
330
1F
100
AcDbEntity
  8
0
  6
PHANTOM
 62
     8
370
     0
100
AcDbLine
 10
594.8105089378
 20
169.9656313188
 30
0.0
 11
638.4750421956
 21
133.3267375667
 31
0.0
  0
LINE
  5
2E7
330
1F
100
AcDbEntity
  8
0
  6
PHANTOM
 62
     8
370
     0
100
AcDbLine
 10
210.4999999972
 20
-112.0
 30
0.0
 11
269.4999999972
 21
-112.0
 31
0.0
  0
LINE
  5
2E8
330
1F
100
AcDbEntity
  8
0
  6
PHANTOM
 62
     8
370
     0
100
AcDbLine
 10
218.7113248626
 20
-116.5
 30
0.0
 11
261.2886751318
 21
-116.5
 31
0.0
  0
LINE
  5
2E9
330
1F
100
AcDbEntity
  8
0
  6
PHANTOM
 62
     8
370
     0
100
AcDbLine
 10
269.4999999972
 20
112.0
 30
0.0
 11
210.4999999972
 21
112.0
 31
0.0
  0
LINE
  5
2EA
330
1F
100
AcDbEntity
  8
0
  6
PHANTOM
 62
     8
370
     0
100
AcDbLine
 10
261.2886751318
 20
116.5
 30
0.0
 11
218.7113248626
 21
116.5
 31
0.0
  0
LINE
  5
2EB
330
1F
100
AcDbEntity
  8
0
  6
PHANTOM
 62
     8
370
     0
100
AcDbLine
 10
-12.7551020395
 20
133.3457071376
 30
0.0
 11
12.7551020394
 21
133.3457071376
 31
0.0
  0
LINE
  5
2EC
330
1F
100
AcDbEntity
  8
0
  6
PHANTOM
 62
     8
370
     0
100
AcDbLine
 10
12.7549948274
 20
-133.3457071376
 30
0.0
 11
-12.7551020394
 21
-133.3457071376
 31
0.0
  0
LINE
  5
2ED
330
1F
100
AcDbEntity
  8
0
  6
PHANTOM
 62
     8
370
     0
100
AcDbLine
 10
463.7731084814
 20
-114.2
 30
0.0
 11
474.9731083625
 21
-114.2
 31
0.0
  0
LINE
  5
2EE
330
1F
100
AcDbEntity
  8
0
  6
PHANTOM
 62
     8
370
     0
100
AcDbLine
 10
462.3938491492
 20
-110.5384615385
 30
0.0
 11
476.3523674193
 21
-110.5384615385
 31
0.0
  0
LINE
  5
2EF
330
1F
100
AcDbEntity
  8
0
  6
PHANTOM
 62
     8
370
     0
100
AcDbLine
 10
465.5055922664
 20
-111.6479055467
 30
0.0
 11
466.5299497437
 21
-111.6479055467
 31
0.0
  0
LINE
  5
2F0
330
1F
100
AcDbEntity
  8
0
  6
PHANTOM
 62
     8
370
     0
100
AcDbLine
 10
5.0268917505
 20
-114.2
 30
0.0
 11
16.2268916316
 21
-114.2
 31
0.0
  0
LINE
  5
2F1
330
1F
100
AcDbEntity
  8
0
  6
PHANTOM
 62
     8
370
     0
100
AcDbLine
 10
3.6476324184
 20
-110.5384615385
 30
0.0
 11
17.6061506884
 21
-110.5384615385
 31
0.0
  0
LINE
  5
2F2
330
1F
100
AcDbEntity
  8
0
  6
PHANTOM
 62
     8
370
     0
100
AcDbLine
 10
6.7593755355
 20
-111.6479055467
 30
0.0
 11
7.7837330128
 21
-111.6479055467
 31
0.0
  0
LINE
  5
2F3
330
1F
100
AcDbEntity
  8
0
  6
PHANTOM
 62
     8
370
     0
100
AcDbLine
 10
-18.9062535677
 20
-114.2
 30
0.0
 11
-7.7062536866
 21
-114.2
 31
0.0
  0
LINE
  5
2F4
330
1F
100
AcDbEntity
  8
0
  6
PHANTOM
 62
     8
370
     0
100
AcDbLine
 10
-20.2855128999
 20
-110.5384615385
 30
0.0
 11
-6.3269946298
 21
-110.5384615385
 31
0.0
  0
LINE
  5
2F5
330
1F
100
AcDbEntity
  8
0
  6
PHANTOM
 62
     8
370
     0
100
AcDbLine
 10
-17.1737697827
 20
-111.6479055467
 30
0.0
 11
-16.1494123054
 21
-111.6479055467
 31
0.0
  0
LINE
  5
2F6
330
1F
100
AcDbEntity
  8
0
  6
PHANTOM
 62
     8
370
     0
100
AcDbLine
 10
462.8950124447
 20
-113.0000000002
 30
0.0
 11
461.9999999979
 21
-113.0000000002
 31
0.0
  0
LINE
  5
2F7
330
1F
100
AcDbEntity
  8
0
  6
PHANTOM
 62
     8
370
     0
100
AcDbLine
 10
487.0204818905
 20
-113.0000000002
 30
0.0
 11
475.4242353513
 21
-113.0000000002
 31
0.0
  0
LINE
  5
2F8
330
1F
100
AcDbEntity
  8
0
  6
PHANTOM
 62
     8
370
     0
100
AcDbLine
 10
464.3100889817
 20
-132.2367603501
 30
0.0
 11
495.6899110141
 21
-132.2367603501
 31
0.0
  0
LINE
  5
2F9
330
1F
100
AcDbEntity
  8
0
  6
PHANTOM
 62
     8
370
     0
100
AcDbLine
 10
352.812694235
 20
-110.0
 30
0.0
 11
352.812694235
 21
-100.0
 31
0.0
  0
LINE
  5
2FA
330
1F
100
AcDbEntity
  8
0
  6
PHANTOM
 62
     8
370
     0
100
AcDbLine
 10
127.0636201458
 20
-110.0
 30
0.0
 11
127.0636201458
 21
-100.0
 31
0.0
  0
LINE
  5
2FB
330
1F
100
AcDbEntity
  8
0
  6
PHANTOM
 62
     8
370
     0
100
AcDbLine
 10
486.220414969
 20
-110.0
 30
0.0
 11
486.220414969
 21
-100.0
 31
0.0
  0
LINE
  5
2FC
330
1F
100
AcDbEntity
  8
0
  6
PHANTOM
 62
     8
370
     0
100
AcDbLine
 10
-6.6155828536
 20
-110.0
 30
0.0
 11
-6.6155828536
 21
-100.0
 31
0.0
  0
LINE
  5
2FD
330
1F
100
AcDbEntity
  8
0
  6
PHANTOM
 62
     8
370
     0
100
AcDbLine
 10
352.9363798486
 20
110.0
 30
0.0
 11
352.9363798486
 21
100.0
 31
0.0
  0
LINE
  5
2FE
330
1F
100
AcDbEntity
  8
0
  6
PHANTOM
 62
     8
370
     0
100
AcDbLine
 10
127.1873057594
 20
110.0
 30
0.0
 11
127.1873057594
 21
100.0
 31
0.0
  0
LINE
  5
2FF
330
1F
100
AcDbEntity
  8
0
  6
PHANTOM
 62
     8
370
     0
100
AcDbLine
 10
-6.2204149741
 20
110.0
 30
0.0
 11
-6.2204149741
 21
100.0
 31
0.0
  0
LINE
  5
300
330
1F
100
AcDbEntity
  8
0
  6
PHANTOM
 62
     8
370
     0
100
AcDbLine
 10
486.6155828484
 20
110.0
 30
0.0
 11
486.6155828484
 21
100.0
 31
0.0
  0
LINE
  5
301
330
1F
100
AcDbEntity
  8
0
  6
PHANTOM
 62
     8
370
     0
100
AcDbLine
 10
475.681549557
 20
112.9999999997
 30
0.0
 11
487.0199070081
 21
112.9999999997
 31
0.0
  0
LINE
  5
302
330
1F
100
AcDbEntity
  8
0
  6
PHANTOM
 62
     8
370
     0
100
AcDbLine
 10
461.9999999979
 20
112.9999999997
 30
0.0
 11
462.9047646248
 21
112.9999999997
 31
0.0
  0
LINE
  5
303
330
1F
100
AcDbEntity
  8
0
  6
PHANTOM
 62
     8
370
     0
100
AcDbLine
 10
495.689911014
 20
132.2367603496
 30
0.0
 11
464.3100889817
 21
132.2367603496
 31
0.0
  0
LINE
  5
304
330
1F
100
AcDbEntity
  8
0
  6
PHANTOM
 62
     8
370
     0
100
AcDbLine
 10
-7.0596662683
 20
113.0
 30
0.0
 11
4.3681037966
 21
113.0
 31
0.0
  0
LINE
  5
305
330
1F
100
AcDbEntity
  8
0
  6
PHANTOM
 62
     8
370
     0
100
AcDbLine
 10
16.9943432212
 20
113.0
 30
0.0
 11
17.9999999999
 21
113.0
 31
0.0
  0
LINE
  5
306
330
1F
100
AcDbEntity
  8
0
  6
PHANTOM
 62
     8
370
     0
100
AcDbLine
 10
15.6899110161
 20
132.2367603499
 30
0.0
 11
-15.6899110162
 21
132.2367603499
 31
0.0
  0
LINE
  5
307
330
1F
100
AcDbEntity
  8
0
  6
PHANTOM
 62
     8
370
     0
100
AcDbLine
 10
4.3508149312
 20
-113.0
 30
0.0
 11
-7.0719452302
 21
-113.0
 31
0.0
  0
LINE
  5
308
330
1F
100
AcDbEntity
  8
0
  6
PHANTOM
 62
     8
370
     0
100
AcDbLine
 10
18.0
 20
-113.0
 30
0.0
 11
17.0132523383
 21
-113.0
 31
0.0
  0
LINE
  5
309
330
1F
100
AcDbEntity
  8
0
  6
PHANTOM
 62
     8
370
     0
100
AcDbLine
 10
-15.6899110162
 20
-132.2367603498
 30
0.0
 11
15.6899110162
 21
-132.2367603498
 31
0.0
  0
LINE
  5
30A
330
1F
100
AcDbEntity
  8
0
  6
PHANTOM
 62
     8
370
     0
100
AcDbLine
 10
-1661.6182975342
 20
17.9706341085
 30
0.0
 11
-1662.5927731569
 21
17.9999997253
 31
0.0
  0
LINE
  5
30B
330
1F
100
AcDbEntity
  8
0
  6
PHANTOM
 62
     8
370
     0
100
AcDbLine
 10
-1519.6218756878
 20
17.9706341086
 30
0.0
 11
-1520.5963513105
 21
17.9999997253
 31
0.0
  0
LINE
  5
30C
330
1F
100
AcDbEntity
  8
0
  6
PHANTOM
 62
     8
370
     0
100
AcDbLine
 10
1866.1393223229
 20
17.9706341086
 30
0.0
 11
1865.1648467002
 21
17.9999997253
 31
0.0
  0
LINE
  5
30D
330
1F
100
AcDbEntity
  8
0
  6
PHANTOM
 62
     8
370
     0
100
AcDbLine
 10
2008.7977997672
 20
17.9706341086
 30
0.0
 11
2007.8233241445
 21
17.9999997253
 31
0.0
  0
LINE
  5
30E
330
1F
100
AcDbEntity
  8
0
  6
PHANTOM
 62
     8
370
     0
100
AcDbLine
 10
492.7549948253
 20
-133.3457071378
 30
0.0
 11
467.2448979585
 21
-133.3457071378
 31
0.0
  0
LINE
  5
30F
330
1F
100
AcDbEntity
  8
0
  6
PHANTOM
 62
     8
370
     0
100
AcDbLine
 10
467.2448979584
 20
133.3457071372
 30
0.0
 11
492.7551020373
 21
133.3457071372
 31
0.0
  0
LINE
  5
310
330
1F
100
AcDbEntity
  8
0
  6
PHANTOM
 62
     8
370
     0
100
AcDbLine
 10
498.9062535114
 20
114.2
 30
0.0
 11
487.7062547276
 21
114.2
 31
0.0
  0
LINE
  5
311
330
1F
100
AcDbEntity
  8
0
  6
PHANTOM
 62
     8
370
     0
100
AcDbLine
 10
500.2855127511
 20
110.5384615385
 30
0.0
 11
486.3269946946
 21
110.5384615385
 31
0.0
  0
LINE
  5
312
330
1F
100
AcDbEntity
  8
0
  6
PHANTOM
 62
     8
370
     0
100
AcDbLine
 10
490.4630950617
 20
111.6479055467
 30
0.0
 11
489.4387375844
 21
111.6479055467
 31
0.0
  0
LINE
  5
313
330
1F
100
AcDbEntity
  8
0
  6
PHANTOM
 62
     8
370
     0
100
AcDbLine
 10
474.9731081934
 20
114.2
 30
0.0
 11
463.7731094096
 21
114.2
 31
0.0
  0
LINE
  5
314
330
1F
100
AcDbEntity
  8
0
  6
PHANTOM
 62
     8
370
     0
100
AcDbLine
 10
476.3523674331
 20
110.5384615385
 30
0.0
 11
462.3938493766
 21
110.5384615385
 31
0.0
  0
LINE
  5
315
330
1F
100
AcDbEntity
  8
0
  6
PHANTOM
 62
     8
370
     0
100
AcDbLine
 10
466.5299497437
 20
111.6479055467
 30
0.0
 11
465.5055922664
 21
111.6479055467
 31
0.0
  0
LINE
  5
316
330
1F
100
AcDbEntity
  8
0
  6
PHANTOM
 62
     8
370
     0
100
AcDbLine
 10
16.2268914625
 20
114.2
 30
0.0
 11
5.0268926787
 21
114.2
 31
0.0
  0
LINE
  5
317
330
1F
100
AcDbEntity
  8
0
  6
PHANTOM
 62
     8
370
     0
100
AcDbLine
 10
17.6061507022
 20
110.5384615385
 30
0.0
 11
3.6476326457
 21
110.5384615385
 31
0.0
  0
LINE
  5
318
330
1F
100
AcDbEntity
  8
0
  6
PHANTOM
 62
     8
370
     0
100
AcDbLine
 10
7.7837330128
 20
111.6479055467
 30
0.0
 11
6.7593755355
 21
111.6479055467
 31
0.0
  0
LINE
  5
319
330
1F
100
AcDbEntity
  8
0
  6
PHANTOM
 62
     8
370
     0
100
AcDbLine
 10
-7.7062538557
 20
114.2
 30
0.0
 11
-18.9062526395
 21
114.2
 31
0.0
  0
LINE
  5
31A
330
1F
100
AcDbEntity
  8
0
  6
PHANTOM
 62
     8
370
     0
100
AcDbLine
 10
-6.326994616
 20
110.5384615385
 30
0.0
 11
-20.2855126725
 21
110.5384615385
 31
0.0
  0
LINE
  5
31B
330
1F
100
AcDbEntity
  8
0
  6
PHANTOM
 62
     8
370
     0
100
AcDbLine
 10
-16.1494123054
 20
111.6479055467
 30
0.0
 11
-17.1737697827
 21
111.6479055467
 31
0.0
  0
LINE
  5
31C
330
1F
100
AcDbEntity
  8
0
  6
PHANTOM
 62
     8
370
     0
100
AcDbLine
 10
487.7062537994
 20
-114.2
 30
0.0
 11
498.9062536805
 21
-114.2
 31
0.0
  0
LINE
  5
31D
330
1F
100
AcDbEntity
  8
0
  6
PHANTOM
 62
     8
370
     0
100
AcDbLine
 10
486.3269944672
 20
-110.5384615385
 30
0.0
 11
500.2855127373
 21
-110.5384615385
 31
0.0
  0
LINE
  5
31E
330
1F
100
AcDbEntity
  8
0
  6
PHANTOM
 62
     8
370
     0
100
AcDbLine
 10
489.4387375844
 20
-111.6479055467
 30
0.0
 11
490.4630950617
 21
-111.6479055467
 31
0.0
  0
LINE
  5
31F
330
1F
100
AcDbEntity
  8
0
  6
PHANTOM
 62
     8
370
     0
100
AcDbLine
 10
1939.267401616
 20
103.4637350885
 30
0.0
 11
1939.309472577
 21
103.4501906606
 31
0.0
  0
LINE
  5
320
330
1F
100
AcDbEntity
  8
0
  6
PHANTOM
 62
     8
370
     0
100
AcDbLine
 10
1955.3077786565
 20
108.388857837
 30
0.0
 11
1955.2657076955
 21
108.4024022648
 31
0.0
  0
LINE
  5
321
330
1F
100
AcDbEntity
  8
0
  6
PHANTOM
 62
     8
370
     0
100
AcDbLine
 10
-1588.4707406793
 20
100.7216323792
 30
0.0
 11
-1588.4286697183
 21
100.7080879514
 31
0.0
  0
LINE
  5
322
330
1F
100
AcDbEntity
  8
0
  6
PHANTOM
 62
     8
370
     0
100
AcDbLine
 10
-1572.4303636388
 20
105.6467551277
 30
0.0
 11
-1572.4724345998
 21
105.6602995556
 31
0.0
  0
ARC
  5
323
330
1F
100
AcDbEntity
  8
0
  6
Continuous
 62
     7
370
    15
100
AcDbCircle
 10
213.4999999972
 20
-112.0
 30
0.0
 40
2.999999999999915
100
AcDbArc
 50
180.0
 51
270.0
  0
ARC
  5
324
330
1F
100
AcDbEntity
  8
0
  6
Continuous
 62
     7
370
    15
100
AcDbCircle
 10
266.4999999972
 20
-112.0
 30
0.0
 40
3.000000000000128
100
AcDbArc
 50
270.0
 51
360.0
  0
ARC
  5
325
330
1F
100
AcDbEntity
  8
0
  6
Continuous
 62
     7
370
    15
100
AcDbCircle
 10
221.309401074
 20
-115.0
 30
0.0
 40
3.000000000000057
100
AcDbArc
 50
210.0
 51
270.0
  0
ARC
  5
326
330
1F
100
AcDbEntity
  8
0
  6
Continuous
 62
     7
370
    15
100
AcDbCircle
 10
258.6905989205
 20
-115.0
 30
0.0
 40
2.999999999999702
100
AcDbArc
 50
270.0
 51
330.0
  0
ARC
  5
327
330
1F
100
AcDbEntity
  8
0
  6
Continuous
 62
     7
370
    15
100
AcDbCircle
 10
266.4999999972
 20
112.0
 30
0.0
 40
3.000000000000128
100
AcDbArc
 50
0.0
 51
90.0
  0
ARC
  5
328
330
1F
100
AcDbEntity
  8
0
  6
Continuous
 62
     7
370
    15
100
AcDbCircle
 10
213.4999999972
 20
112.0
 30
0.0
 40
3.000000000000142
100
AcDbArc
 50
90.0
 51
180.0
  0
ARC
  5
329
330
1F
100
AcDbEntity
  8
0
  6
Continuous
 62
     7
370
    15
100
AcDbCircle
 10
258.6905989205
 20
115.0
 30
0.0
 40
2.999999999999972
100
AcDbArc
 50
30.0
 51
90.0
  0
ARC
  5
32A
330
1F
100
AcDbEntity
  8
0
  6
Continuous
 62
     7
370
    15
100
AcDbCircle
 10
221.309401074
 20
115.0
 30
0.0
 40
2.999999999999957
100
AcDbArc
 50
90.0
 51
150.0
  0
ARC
  5
32B
330
1F
100
AcDbEntity
  8
0
  6
Continuous
 62
     7
370
    15
100
AcDbCircle
 10
-12.5000000001
 20
132.378793
 30
0.0
 40
1.000000000000018
100
AcDbArc
 50
104.7796315484
 51
141.5956703193
  0
ARC
  5
32C
330
1F
100
AcDbEntity
  8
0
  6
Continuous
 62
     7
370
    15
100
AcDbCircle
 10
12.4999999999
 20
132.378793
 30
0.0
 40
1.000000000003277
100
AcDbArc
 50
38.4043296807
 51
75.2203684516
  0
ARC
  5
32D
330
1F
100
AcDbEntity
  8
0
  6
Continuous
 62
     7
370
    15
100
AcDbCircle
 10
-0.0000000001
 20
85.0
 30
0.0
 40
50.00000026669876
100
AcDbArc
 50
91.1459919923
 51
104.7796315484
  0
ARC
  5
32E
330
1F
100
AcDbEntity
  8
0
  6
Continuous
 62
     7
370
    15
100
AcDbCircle
 10
-0.0000000001
 20
85.0
 30
0.0
 40
50.00000026670543
100
AcDbArc
 50
75.2203684516
 51
88.8540080077
  0
ARC
  5
32F
330
1F
100
AcDbEntity
  8
0
  6
Continuous
 62
     7
370
    15
100
AcDbCircle
 10
12.5
 20
-132.378793
 30
0.0
 40
1.000000000000207
100
AcDbArc
 50
284.7796315484
 51
321.5956703201
  0
ARC
  5
330
330
1F
100
AcDbEntity
  8
0
  6
Continuous
 62
     7
370
    15
100
AcDbCircle
 10
-12.5
 20
-132.378793
 30
0.0
 40
1.000000000002878
100
AcDbArc
 50
218.4043296799
 51
255.2203684516
  0
ARC
  5
331
330
1F
100
AcDbEntity
  8
0
  6
Continuous
 62
     7
370
    15
100
AcDbCircle
 10
0.0
 20
-85.0
 30
0.0
 40
50.00000026670251
100
AcDbArc
 50
255.2203684516
 51
268.8540080077
  0
ARC
  5
332
330
1F
100
AcDbEntity
  8
0
  6
Continuous
 62
     7
370
    15
100
AcDbCircle
 10
0.0
 20
-85.0
 30
0.0
 40
50.00000026669542
100
AcDbArc
 50
271.1459919923
 51
284.7796315484
  0
ARC
  5
333
330
1F
100
AcDbEntity
  8
0
  6
Continuous
 62
     7
370
    15
100
AcDbCircle
 10
462.8923676645
 20
-110.5
 30
0.0
 40
0.5000000000000713
100
AcDbArc
 50
90.0
 51
184.4117257858
  0
ARC
  5
334
330
1F
100
AcDbEntity
  8
0
  6
Continuous
 62
     7
370
    15
100
AcDbCircle
 10
475.8538490613
 20
-110.5
 30
0.0
 40
0.4999999999999716
100
AcDbArc
 50
355.5882742142
 51
90.0
  0
ARC
  5
335
330
1F
100
AcDbEntity
  8
0
  6
Continuous
 62
     7
370
    15
100
AcDbCircle
 10
474.5731083629
 20
-113.9
 30
0.0
 40
0.4999999999999403
100
AcDbArc
 50
270.0
 51
323.1301023542
  0
ARC
  5
336
330
1F
100
AcDbEntity
  8
0
  6
Continuous
 62
     7
370
    15
100
AcDbCircle
 10
464.1731083629
 20
-113.9
 30
0.0
 40
0.500000000000071
100
AcDbArc
 50
216.8698976459
 51
270.0
  0
ARC
  5
337
330
1F
100
AcDbEntity
  8
0
  6
Continuous
 62
     7
370
    15
100
AcDbCircle
 10
467.2500764436
 20
-111.7
 30
0.0
 40
0.3000000000001061
100
AcDbArc
 50
90.0
 51
170.0
  0
ARC
  5
338
330
1F
100
AcDbEntity
  8
0
  6
Continuous
 62
     7
370
    15
100
AcDbCircle
 10
471.4961402822
 20
-111.7
 30
0.0
 40
0.3000000000157002
100
AcDbArc
 50
10.0000000044
 51
89.9999999987
  0
ARC
  5
339
330
1F
100
AcDbEntity
  8
0
  6
Continuous
 62
     7
370
    15
100
AcDbCircle
 10
4.1461509336
 20
-110.5
 30
0.0
 40
0.5000000000000003
100
AcDbArc
 50
90.0
 51
184.4117257858
  0
ARC
  5
33A
330
1F
100
AcDbEntity
  8
0
  6
Continuous
 62
     7
370
    15
100
AcDbCircle
 10
17.1076323304
 20
-110.5
 30
0.0
 40
0.5
100
AcDbArc
 50
355.5882742142
 51
90.0
  0
ARC
  5
33B
330
1F
100
AcDbEntity
  8
0
  6
Continuous
 62
     7
370
    15
100
AcDbCircle
 10
15.826891632
 20
-113.9
 30
0.0
 40
0.5000000000001563
100
AcDbArc
 50
270.0
 51
323.1301023541
  0
ARC
  5
33C
330
1F
100
AcDbEntity
  8
0
  6
Continuous
 62
     7
370
    15
100
AcDbCircle
 10
5.426891632
 20
-113.9
 30
0.0
 40
0.5000000000000618
100
AcDbArc
 50
216.8698976458
 51
270.0
  0
ARC
  5
33D
330
1F
100
AcDbEntity
  8
0
  6
Continuous
 62
     7
370
    15
100
AcDbCircle
 10
8.5038597127
 20
-111.7
 30
0.0
 40
0.2999999999999979
100
AcDbArc
 50
90.0
 51
170.0
  0
ARC
  5
33E
330
1F
100
AcDbEntity
  8
0
  6
Continuous
 62
     7
370
    15
100
AcDbCircle
 10
12.7499235513
 20
-111.7
 30
0.0
 40
0.3000000000157017
100
AcDbArc
 50
10.0000000044
 51
89.9999999987
  0
ARC
  5
33F
330
1F
100
AcDbEntity
  8
0
  6
Continuous
 62
     7
370
    15
100
AcDbCircle
 10
-19.7869943846
 20
-110.5
 30
0.0
 40
0.4999999999999574
100
AcDbArc
 50
90.0
 51
184.4117257858
  0
ARC
  5
340
330
1F
100
AcDbEntity
  8
0
  6
Continuous
 62
     7
370
    15
100
AcDbCircle
 10
-6.8255129878
 20
-110.5
 30
0.0
 40
0.4999999999999877
100
AcDbArc
 50
355.5882742142
 51
90.0
  0
ARC
  5
341
330
1F
100
AcDbEntity
  8
0
  6
Continuous
 62
     7
370
    15
100
AcDbCircle
 10
-8.1062536862
 20
-113.9
 30
0.0
 40
0.5000000000002558
100
AcDbArc
 50
270.0
 51
323.1301023541
  0
ARC
  5
342
330
1F
100
AcDbEntity
  8
0
  6
Continuous
 62
     7
370
    15
100
AcDbCircle
 10
-18.5062536862
 20
-113.9
 30
0.0
 40
0.5000000000000142
100
AcDbArc
 50
216.8698976458
 51
270.0
  0
ARC
  5
343
330
1F
100
AcDbEntity
  8
0
  6
Continuous
 62
     7
370
    15
100
AcDbCircle
 10
-15.4292856055
 20
-111.7
 30
0.0
 40
0.2999999999999843
100
AcDbArc
 50
90.0
 51
170.0
  0
ARC
  5
344
330
1F
100
AcDbEntity
  8
0
  6
Continuous
 62
     7
370
    15
100
AcDbCircle
 10
-11.1832217669
 20
-111.7
 30
0.0
 40
0.3000000000156717
100
AcDbArc
 50
10.0000000044
 51
89.9999999987
  0
ARC
  5
345
330
1F
100
AcDbEntity
  8
0
  6
Continuous
 62
     7
370
    15
100
AcDbCircle
 10
416.7499999979
 20
-113.0000000002
 30
0.0
 40
81.24999999998687
100
AcDbArc
 50
346.304601
 51
359.0133374132
  0
ARC
  5
346
330
1F
100
AcDbEntity
  8
0
  6
Continuous
 62
     7
370
    15
100
AcDbCircle
 10
543.2499999979
 20
-113.0000000002
 30
0.0
 40
81.24999999999955
100
AcDbArc
 50
180.0
 51
193.695399
  0
ARC
  5
347
330
1F
100
AcDbEntity
  8
0
  6
Continuous
 62
     7
370
    15
100
AcDbCircle
 10
494.7183430341
 20
-132.0000000878
 30
0.0
 40
0.9999999124337163
100
AcDbArc
 50
269.9999979262
 51
346.3045918218
  0
ARC
  5
348
330
1F
100
AcDbEntity
  8
0
  6
Continuous
 62
     7
370
    15
100
AcDbCircle
 10
465.2816570744
 20
-131.9999999443
 30
0.0
 40
1.000000055896865
100
AcDbArc
 50
193.6954146355
 51
269.9999956165
  0
ARC
  5
349
330
1F
100
AcDbEntity
  8
0
  6
Continuous
 62
     7
370
    15
100
AcDbCircle
 10
543.2499999979
 20
112.9999999997
 30
0.0
 40
81.24999999999636
100
AcDbArc
 50
166.304601
 51
180.0
  0
ARC
  5
34A
330
1F
100
AcDbEntity
  8
0
  6
Continuous
 62
     7
370
    15
100
AcDbCircle
 10
416.7499999978
 20
112.9999999997
 30
0.0
 40
81.25000000002545
100
AcDbArc
 50
0.9917505181
 51
13.695399
  0
ARC
  5
34B
330
1F
100
AcDbEntity
  8
0
  6
Continuous
 62
     7
370
    15
100
AcDbCircle
 10
465.2816569617
 20
132.0000000873
 30
0.0
 40
0.9999999124337097
100
AcDbArc
 50
89.9999979262
 51
166.3045918218
  0
ARC
  5
34C
330
1F
100
AcDbEntity
  8
0
  6
Continuous
 62
     7
370
    15
100
AcDbCircle
 10
494.7183429213
 20
131.9999999438
 30
0.0
 40
1.00000005589684
100
AcDbArc
 50
13.6954146355
 51
89.9999956165
  0
ARC
  5
34D
330
1F
100
AcDbEntity
  8
0
  6
Continuous
 62
     7
370
    15
100
AcDbCircle
 10
63.25
 20
113.0
 30
0.0
 40
81.25000000002704
100
AcDbArc
 50
166.304601
 51
179.013337413
  0
ARC
  5
34E
330
1F
100
AcDbEntity
  8
0
  6
Continuous
 62
     7
370
    15
100
AcDbCircle
 10
-63.2500000001
 20
113.0
 30
0.0
 40
81.24999999999841
100
AcDbArc
 50
0.0
 51
13.695399
  0
ARC
  5
34F
330
1F
100
AcDbEntity
  8
0
  6
Continuous
 62
     7
370
    15
100
AcDbCircle
 10
-14.7183430363
 20
132.0000000876
 30
0.0
 40
0.9999999124337319
100
AcDbArc
 50
89.9999979262
 51
166.3045918218
  0
ARC
  5
350
330
1F
100
AcDbEntity
  8
0
  6
Continuous
 62
     7
370
    15
100
AcDbCircle
 10
14.7183429234
 20
131.9999999441
 30
0.0
 40
1.000000055896865
100
AcDbArc
 50
13.6954146355
 51
89.9999956165
  0
ARC
  5
351
330
1F
100
AcDbEntity
  8
0
  6
Continuous
 62
     7
370
    15
100
AcDbCircle
 10
-63.25
 20
-113.0
 30
0.0
 40
81.24999999999822
100
AcDbArc
 50
346.304601
 51
0.0
  0
ARC
  5
352
330
1F
100
AcDbEntity
  8
0
  6
Continuous
 62
     7
370
    15
100
AcDbCircle
 10
63.25
 20
-113.0
 30
0.0
 40
81.24999999995855
100
AcDbArc
 50
180.9917505179
 51
193.695399
  0
ARC
  5
353
330
1F
100
AcDbEntity
  8
0
  6
Continuous
 62
     7
370
    15
100
AcDbCircle
 10
14.7183430362
 20
-132.0000000876
 30
0.0
 40
0.9999999124337814
100
AcDbArc
 50
269.9999979262
 51
346.3045918218
  0
ARC
  5
354
330
1F
100
AcDbEntity
  8
0
  6
Continuous
 62
     7
370
    15
100
AcDbCircle
 10
-14.7183429235
 20
-131.9999999441
 30
0.0
 40
1.000000055896865
100
AcDbArc
 50
193.6954146355
 51
269.9999956165
  0
ARC
  5
355
330
1F
100
AcDbEntity
  8
0
  6
Continuous
 62
     7
370
    15
100
AcDbCircle
 10
492.4999999979
 20
-132.3787930002
 30
0.0
 40
0.999999999999854
100
AcDbArc
 50
284.7796315484
 51
321.5956703143
  0
ARC
  5
356
330
1F
100
AcDbEntity
  8
0
  6
Continuous
 62
     7
370
    15
100
AcDbCircle
 10
467.4999999979
 20
-132.3787930002
 30
0.0
 40
1.000000000003966
100
AcDbArc
 50
218.4043296858
 51
255.2203684516
  0
ARC
  5
357
330
1F
100
AcDbEntity
  8
0
  6
Continuous
 62
     7
370
    15
100
AcDbCircle
 10
479.9999999979
 20
-85.0000000002
 30
0.0
 40
50.00000026670222
100
AcDbArc
 50
255.2203684516
 51
268.8540080077
  0
ARC
  5
358
330
1F
100
AcDbEntity
  8
0
  6
Continuous
 62
     7
370
    15
100
AcDbCircle
 10
479.9999999979
 20
-85.0000000002
 30
0.0
 40
50.00000026669701
100
AcDbArc
 50
271.1459919923
 51
284.7796315484
  0
ARC
  5
359
330
1F
100
AcDbEntity
  8
0
  6
Continuous
 62
     7
370
    15
100
AcDbCircle
 10
467.4999999979
 20
132.3787929996
 30
0.0
 40
0.9999999999994518
100
AcDbArc
 50
104.7796315483
 51
141.5956703103
  0
ARC
  5
35A
330
1F
100
AcDbEntity
  8
0
  6
Continuous
 62
     7
370
    15
100
AcDbCircle
 10
492.4999999979
 20
132.3787929996
 30
0.0
 40
1.000000000003661
100
AcDbArc
 50
38.4043296898
 51
75.2203684516
  0
ARC
  5
35B
330
1F
100
AcDbEntity
  8
0
  6
Continuous
 62
     7
370
    15
100
AcDbCircle
 10
479.9999999979
 20
84.9999999996
 30
0.0
 40
50.0000002666998
100
AcDbArc
 50
91.1459919923
 51
104.7796315484
  0
ARC
  5
35C
330
1F
100
AcDbEntity
  8
0
  6
Continuous
 62
     7
370
    15
100
AcDbCircle
 10
479.9999999979
 20
84.9999999996
 30
0.0
 40
50.00000026670464
100
AcDbArc
 50
75.2203684516
 51
88.8540080077
  0
ARC
  5
35D
330
1F
100
AcDbEntity
  8
0
  6
Continuous
 62
     7
370
    15
100
AcDbCircle
 10
499.7869943793
 20
110.5
 30
0.0
 40
0.5000000000000723
100
AcDbArc
 50
270.0
 51
4.4117257858
  0
ARC
  5
35E
330
1F
100
AcDbEntity
  8
0
  6
Continuous
 62
     7
370
    15
100
AcDbCircle
 10
486.8255129825
 20
110.5
 30
0.0
 40
0.5000000000000713
100
AcDbArc
 50
175.5882742142
 51
270.0
  0
ARC
  5
35F
330
1F
100
AcDbEntity
  8
0
  6
Continuous
 62
     7
370
    15
100
AcDbCircle
 10
488.1062536809
 20
113.9
 30
0.0
 40
0.500000000000324
100
AcDbArc
 50
90.0
 51
143.1301023541
  0
ARC
  5
360
330
1F
100
AcDbEntity
  8
0
  6
Continuous
 62
     7
370
    15
100
AcDbCircle
 10
498.5062536809
 20
113.9
 30
0.0
 40
0.5000000000000426
100
AcDbArc
 50
36.8698976458
 51
90.0
  0
ARC
  5
361
330
1F
100
AcDbEntity
  8
0
  6
Continuous
 62
     7
370
    15
100
AcDbCircle
 10
491.1832217616
 20
111.7
 30
0.0
 40
0.300000000000116
100
AcDbArc
 50
190.0
 51
270.0
  0
ARC
  5
362
330
1F
100
AcDbEntity
  8
0
  6
Continuous
 62
     7
370
    15
100
AcDbCircle
 10
495.4292856002
 20
111.7
 30
0.0
 40
0.2999999999998693
100
AcDbArc
 50
270.0
 51
350.0
  0
ARC
  5
363
330
1F
100
AcDbEntity
  8
0
  6
Continuous
 62
     7
370
    15
100
AcDbCircle
 10
475.8538490613
 20
110.5
 30
0.0
 40
0.4999999999996305
100
AcDbArc
 50
269.9999999999
 51
4.4117257858
  0
ARC
  5
364
330
1F
100
AcDbEntity
  8
0
  6
Continuous
 62
     7
370
    15
100
AcDbCircle
 10
462.8923676645
 20
110.5
 30
0.0
 40
0.5000000000000179
100
AcDbArc
 50
175.5882742142
 51
270.0
  0
ARC
  5
365
330
1F
100
AcDbEntity
  8
0
  6
Continuous
 62
     7
370
    15
100
AcDbCircle
 10
464.1731083629
 20
113.9
 30
0.0
 40
0.49999999999973
100
AcDbArc
 50
90.0
 51
143.1301023542
  0
ARC
  5
366
330
1F
100
AcDbEntity
  8
0
  6
Continuous
 62
     7
370
    15
100
AcDbCircle
 10
474.5731083629
 20
113.9
 30
0.0
 40
0.4999999999999488
100
AcDbArc
 50
36.8698976458
 51
90.0
  0
ARC
  5
367
330
1F
100
AcDbEntity
  8
0
  6
Continuous
 62
     7
370
    15
100
AcDbCircle
 10
467.2500764436
 20
111.7
 30
0.0
 40
0.3000000000002526
100
AcDbArc
 50
190.0
 51
270.0
  0
ARC
  5
368
330
1F
100
AcDbEntity
  8
0
  6
Continuous
 62
     7
370
    15
100
AcDbCircle
 10
471.4961402822
 20
111.7
 30
0.0
 40
0.2999999999999829
100
AcDbArc
 50
270.0
 51
350.0
  0
ARC
  5
369
330
1F
100
AcDbEntity
  8
0
  6
Continuous
 62
     7
370
    15
100
AcDbCircle
 10
17.1076323304
 20
110.5
 30
0.0
 40
0.5
100
AcDbArc
 50
270.0
 51
4.4117257858
  0
ARC
  5
36A
330
1F
100
AcDbEntity
  8
0
  6
Continuous
 62
     7
370
    15
100
AcDbCircle
 10
4.1461509336
 20
110.5
 30
0.0
 40
0.5
100
AcDbArc
 50
175.5882742142
 51
270.0
  0
ARC
  5
36B
330
1F
100
AcDbEntity
  8
0
  6
Continuous
 62
     7
370
    15
100
AcDbCircle
 10
5.426891632
 20
113.9
 30
0.0
 40
0.5000000000000817
100
AcDbArc
 50
90.0
 51
143.1301023542
  0
ARC
  5
36C
330
1F
100
AcDbEntity
  8
0
  6
Continuous
 62
     7
370
    15
100
AcDbCircle
 10
15.826891632
 20
113.9
 30
0.0
 40
0.5000000000000426
100
AcDbArc
 50
36.8698976458
 51
90.0
  0
ARC
  5
36D
330
1F
100
AcDbEntity
  8
0
  6
Continuous
 62
     7
370
    15
100
AcDbCircle
 10
8.5038597127
 20
111.7
 30
0.0
 40
0.3000000000002245
100
AcDbArc
 50
190.0
 51
270.0
  0
ARC
  5
36E
330
1F
100
AcDbEntity
  8
0
  6
Continuous
 62
     7
370
    15
100
AcDbCircle
 10
12.7499235513
 20
111.7
 30
0.0
 40
0.3000000000000256
100
AcDbArc
 50
270.0
 51
350.0
  0
ARC
  5
36F
330
1F
100
AcDbEntity
  8
0
  6
Continuous
 62
     7
370
    15
100
AcDbCircle
 10
-6.8255129878
 20
110.5
 30
0.0
 40
0.5000000000000582
100
AcDbArc
 50
270.0
 51
4.4117257858
  0
ARC
  5
370
330
1F
100
AcDbEntity
  8
0
  6
Continuous
 62
     7
370
    15
100
AcDbCircle
 10
-19.7869943846
 20
110.5
 30
0.0
 40
0.5000000000000426
100
AcDbArc
 50
175.5882742142
 51
270.0
  0
ARC
  5
371
330
1F
100
AcDbEntity
  8
0
  6
Continuous
 62
     7
370
    15
100
AcDbCircle
 10
-18.5062536862
 20
113.9
 30
0.0
 40
0.5000000000001563
100
AcDbArc
 50
90.0
 51
143.1301023541
  0
ARC
  5
372
330
1F
100
AcDbEntity
  8
0
  6
Continuous
 62
     7
370
    15
100
AcDbCircle
 10
-8.1062536862
 20
113.9
 30
0.0
 40
0.5000000000001001
100
AcDbArc
 50
36.8698976458
 51
90.0
  0
ARC
  5
373
330
1F
100
AcDbEntity
  8
0
  6
Continuous
 62
     7
370
    15
100
AcDbCircle
 10
-15.4292856055
 20
111.7
 30
0.0
 40
0.3000000000002245
100
AcDbArc
 50
190.0
 51
270.0
  0
ARC
  5
374
330
1F
100
AcDbEntity
  8
0
  6
Continuous
 62
     7
370
    15
100
AcDbCircle
 10
-11.1832217669
 20
111.7
 30
0.0
 40
0.3000000000000126
100
AcDbArc
 50
270.0
 51
350.0
  0
ARC
  5
375
330
1F
100
AcDbEntity
  8
0
  6
Continuous
 62
     7
370
    15
100
AcDbCircle
 10
486.8255129825
 20
-110.5
 30
0.0
 40
0.499999999999862
100
AcDbArc
 50
90.0
 51
184.4117257858
  0
ARC
  5
376
330
1F
100
AcDbEntity
  8
0
  6
Continuous
 62
     7
370
    15
100
AcDbCircle
 10
499.7869943793
 20
-110.5
 30
0.0
 40
0.5000000000000179
100
AcDbArc
 50
355.5882742142
 51
90.0
  0
ARC
  5
377
330
1F
100
AcDbEntity
  8
0
  6
Continuous
 62
     7
370
    15
100
AcDbCircle
 10
498.5062536809
 20
-113.9
 30
0.0
 40
0.5000000000003751
100
AcDbArc
 50
270.0
 51
323.1301023541
  0
ARC
  5
378
330
1F
100
AcDbEntity
  8
0
  6
Continuous
 62
     7
370
    15
100
AcDbCircle
 10
488.1062536809
 20
-113.9
 30
0.0
 40
0.4999999999997584
100
AcDbArc
 50
216.8698976458
 51
270.0
  0
ARC
  5
379
330
1F
100
AcDbEntity
  8
0
  6
Continuous
 62
     7
370
    15
100
AcDbCircle
 10
491.1832217616
 20
-111.7
 30
0.0
 40
0.2999999999998693
100
AcDbArc
 50
90.0
 51
170.0
  0
ARC
  5
37A
330
1F
100
AcDbEntity
  8
0
  6
Continuous
 62
     7
370
    15
100
AcDbCircle
 10
495.4292856002
 20
-111.7
 30
0.0
 40
0.300000000015828
100
AcDbArc
 50
10.0000000044
 51
89.9999999987
  0
ARC
  5
37B
330
1F
100
AcDbEntity
  8
0
  6
Continuous
 62
     7
370
    15
100
AcDbCircle
 10
-430.1939597456
 20
501.4868627982
 30
0.0
 40
28.49999999999995
100
AcDbArc
 50
40.0
 51
220.0
  0
ARC
  5
37C
330
1F
100
AcDbEntity
  8
0
  6
Continuous
 62
     7
370
    15
100
AcDbCircle
 10
910.1939597456
 20
-501.4868627983
 30
0.0
 40
28.49999999999993
100
AcDbArc
 50
220.0
 51
40.0
  0
ARC
  5
37D
330
1F
100
AcDbEntity
  8
0
  6
Continuous
 62
     7
370
    15
100
AcDbCircle
 10
910.1939597456
 20
501.4868627983
 30
0.0
 40
28.50000000000019
100
AcDbArc
 50
320.0
 51
140.0
  0
ARC
  5
37E
330
1F
100
AcDbEntity
  8
0
  6
Continuous
 62
     7
370
    15
100
AcDbCircle
 10
-430.1939597456
 20
-501.4868627983
 30
0.0
 40
28.49999999999981
100
AcDbArc
 50
140.0
 51
320.0
  0
ARC
  5
37F
330
1F
100
AcDbEntity
  8
0
  6
Continuous
 62
     7
370
    15
100
AcDbCircle
 10
615.9669452198
 20
0.3396560028
 30
0.0
 40
13.16417423130314
100
AcDbArc
 50
91.3822436146
 51
181.4784835719
  0
ARC
  5
380
330
1F
100
AcDbEntity
  8
0
  6
Continuous
 62
     7
370
    15
100
AcDbCircle
 10
615.9670727573
 20
-0.3396054328
 30
0.0
 40
13.16430042164422
100
AcDbArc
 50
178.5217507757
 51
268.6042504234
  0
ARC
  5
381
330
1F
100
AcDbEntity
  8
0
  6
Continuous
 62
     7
370
    15
100
AcDbCircle
 10
615.4940214751
 20
-0.0182708906
 30
0.0
 40
0.9907934769985137
100
AcDbArc
 50
178.943367829
 51
249.4964753534
  0
ARC
  5
382
330
1F
100
AcDbEntity
  8
0
  6
Continuous
 62
     7
370
    15
100
AcDbCircle
 10
615.4940214751
 20
0.0182708906
 30
0.0
 40
0.9907934769985132
100
AcDbArc
 50
110.5035246466
 51
181.056632171
  0
ARC
  5
383
330
1F
100
AcDbEntity
  8
0
  6
Continuous
 62
     7
370
    15
100
AcDbCircle
 10
315.9978713433
 20
0.3396560024
 30
0.0
 40
13.16417423130331
100
AcDbArc
 50
91.3822436146
 51
181.4784835719
  0
ARC
  5
384
330
1F
100
AcDbEntity
  8
0
  6
Continuous
 62
     7
370
    15
100
AcDbCircle
 10
315.9979988808
 20
-0.3396054332
 30
0.0
 40
13.16430042164439
100
AcDbArc
 50
178.5217507757
 51
268.6042504234
  0
ARC
  5
385
330
1F
100
AcDbEntity
  8
0
  6
Continuous
 62
     7
370
    15
100
AcDbCircle
 10
315.5249475986
 20
-0.018270891
 30
0.0
 40
0.9907934769975003
100
AcDbArc
 50
178.943367829
 51
249.4964753541
  0
ARC
  5
386
330
1F
100
AcDbEntity
  8
0
  6
Continuous
 62
     7
370
    15
100
AcDbCircle
 10
315.5249475986
 20
0.0182708903
 30
0.0
 40
0.9907934769975566
100
AcDbArc
 50
110.5035246459
 51
181.056632171
  0
ARC
  5
387
330
1F
100
AcDbEntity
  8
0
  6
Continuous
 62
     7
370
    15
100
AcDbCircle
 10
-283.1677339226
 20
0.3396560024
 30
0.0
 40
13.1641742313031
100
AcDbArc
 50
91.3822436146
 51
181.4784835719
  0
ARC
  5
388
330
1F
100
AcDbEntity
  8
0
  6
Continuous
 62
     7
370
    15
100
AcDbCircle
 10
-283.1676063851
 20
-0.3396054332
 30
0.0
 40
13.16430042164423
100
AcDbArc
 50
178.5217507757
 51
268.6042504234
  0
ARC
  5
389
330
1F
100
AcDbEntity
  8
0
  6
Continuous
 62
     7
370
    15
100
AcDbCircle
 10
-283.6406576673
 20
-0.018270891
 30
0.0
 40
0.9907934769983313
100
AcDbArc
 50
178.943367829
 51
249.4964753529
  0
ARC
  5
38A
330
1F
100
AcDbEntity
  8
0
  6
Continuous
 62
     7
370
    15
100
AcDbCircle
 10
-283.6406576673
 20
0.0182708903
 30
0.0
 40
0.9907934769984602
100
AcDbArc
 50
110.5035246471
 51
181.056632171
  0
ARC
  5
38B
330
1F
100
AcDbEntity
  8
0
  6
Continuous
 62
     7
370
    15
100
AcDbCircle
 10
16.1342754746
 20
-1.3696034578
 30
0.0
 40
14.31631795123037
100
AcDbArc
 50
235.6781282057
 51
290.6477773399
  0
ARC
  5
38C
330
1F
100
AcDbEntity
  8
0
  6
Continuous
 62
     7
370
    15
100
AcDbCircle
 10
615.686151984
 20
-1.3696034574
 30
0.0
 40
14.31631795123038
100
AcDbArc
 50
235.6781282057
 51
290.6477773399
  0
ARC
  5
38D
330
1F
100
AcDbEntity
  8
0
  6
Continuous
 62
     7
370
    15
100
AcDbCircle
 10
-1662.1404352297
 20
0.386642635
 30
0.0
 40
17.61967307581202
100
AcDbArc
 50
355.3956509613
 51
88.4658677504
  0
ARC
  5
38E
330
1F
100
AcDbEntity
  8
0
  6
Continuous
 62
     7
370
    15
100
AcDbCircle
 10
-1662.1207212034
 20
-0.453321733
 30
0.0
 40
17.55249923514393
100
AcDbArc
 50
271.4756309809
 51
358.1245235119
  0
ARC
  5
38F
330
1F
100
AcDbEntity
  8
0
  6
Continuous
 62
     7
370
    15
100
AcDbCircle
 10
-1520.1440133833
 20
0.3866426351
 30
0.0
 40
17.61967307581179
100
AcDbArc
 50
355.3956509613
 51
88.4658677504
  0
ARC
  5
390
330
1F
100
AcDbEntity
  8
0
  6
Continuous
 62
     7
370
    15
100
AcDbCircle
 10
-1520.124299357
 20
-0.453321733
 30
0.0
 40
17.5524992351437
100
AcDbArc
 50
271.4756309809
 51
358.1245235119
  0
ARC
  5
391
330
1F
100
AcDbEntity
  8
0
  6
Continuous
 62
     7
370
    15
100
AcDbCircle
 10
1865.6171846274
 20
0.3866426351
 30
0.0
 40
17.61967307581181
100
AcDbArc
 50
355.3956509613
 51
88.4658677504
  0
ARC
  5
392
330
1F
100
AcDbEntity
  8
0
  6
Continuous
 62
     7
370
    15
100
AcDbCircle
 10
1865.6368986537
 20
-0.453321733
 30
0.0
 40
17.55249923514394
100
AcDbArc
 50
271.4756309809
 51
358.1245235119
  0
ARC
  5
393
330
1F
100
AcDbEntity
  8
0
  6
Continuous
 62
     7
370
    15
100
AcDbCircle
 10
2008.2756620717
 20
0.3866426351
 30
0.0
 40
17.61967307581151
100
AcDbArc
 50
355.3956509613
 51
88.4658677504
  0
ARC
  5
394
330
1F
100
AcDbEntity
  8
0
  6
Continuous
 62
     7
370
    15
100
AcDbCircle
 10
2008.295376098
 20
-0.453321733
 30
0.0
 40
17.55249923514346
100
AcDbArc
 50
271.4756309809
 51
358.1245235119
  0
ARC
  5
395
330
1F
100
AcDbEntity
  8
0
  6
Continuous
 62
     7
370
    15
100
AcDbCircle
 10
315.7170781076
 20
-1.3696034578
 30
0.0
 40
14.31631795123034
100
AcDbArc
 50
235.6781282057
 51
290.6477773398
  0
ARC
  5
396
330
1F
100
AcDbEntity
  8
0
  6
Continuous
 62
     7
370
    15
100
AcDbCircle
 10
-283.4485271584
 20
-1.3696034578
 30
0.0
 40
14.31631795123032
100
AcDbArc
 50
235.6781282057
 51
290.6477773398
  0
ARC
  5
397
330
1F
100
AcDbEntity
  8
0
  6
Continuous
 62
     7
370
    15
100
AcDbCircle
 10
16.4150687104
 20
0.3396560024
 30
0.0
 40
13.16417423130308
100
AcDbArc
 50
91.3822436146
 51
181.4784835719
  0
ARC
  5
398
330
1F
100
AcDbEntity
  8
0
  6
Continuous
 62
     7
370
    15
100
AcDbCircle
 10
16.4151962478
 20
-0.3396054332
 30
0.0
 40
13.16430042164417
100
AcDbArc
 50
178.5217507757
 51
268.6042504234
  0
ARC
  5
399
330
1F
100
AcDbEntity
  8
0
  6
Continuous
 62
     7
370
    15
100
AcDbCircle
 10
15.9421449656
 20
-0.018270891
 30
0.0
 40
0.9907934769979279
100
AcDbArc
 50
178.943367829
 51
249.4964753536
  0
ARC
  5
39A
330
1F
100
AcDbEntity
  8
0
  6
Continuous
 62
     7
370
    15
100
AcDbCircle
 10
15.9421449656
 20
0.0182708903
 30
0.0
 40
0.9907934769978972
100
AcDbArc
 50
110.5035246464
 51
181.056632171
  0
ARC
  5
39B
330
1F
100
AcDbEntity
  8
0
  6
Continuous
 62
     7
370
    15
100
AcDbCircle
 10
1976.2529191086
 20
12.1574524176
 30
0.0
 40
98.48442667517837
100
AcDbArc
 50
102.2791394766
 51
112.0317099281
  0
ARC
  5
39C
330
1F
100
AcDbEntity
  8
0
  6
Continuous
 62
     7
370
    15
100
AcDbCircle
 10
1954.8825913095
 20
110.3430586721
 30
0.0
 40
1.999921294464981
100
AcDbArc
 50
282.2748821726
 51
102.2677282616
  0
ARC
  5
39D
330
1F
100
AcDbEntity
  8
0
  6
Continuous
 62
     7
370
    15
100
AcDbCircle
 10
1976.2533524973
 20
12.1580328295
 30
0.0
 40
102.4837942558918
100
AcDbArc
 50
102.2791394766
 51
112.0317099281
  0
ARC
  5
39E
330
1F
100
AcDbEntity
  8
0
  6
Continuous
 62
     7
370
    15
100
AcDbCircle
 10
1938.5596100413
 20
105.3041573174
 30
0.0
 40
1.999871542574762
100
AcDbArc
 50
112.0241190838
 51
292.0215532677
  0
ARC
  5
39F
330
1F
100
AcDbEntity
  8
0
  6
Continuous
 62
     7
370
    15
100
AcDbCircle
 10
1976.2108481476
 20
12.1709968455
 30
0.0
 40
98.48442667516727
100
AcDbArc
 50
102.2791394766
 51
112.0317099281
  0
ARC
  5
3A0
330
1F
100
AcDbEntity
  8
0
  6
Continuous
 62
     7
370
    15
100
AcDbCircle
 10
1954.8403423304
 20
110.3566850466
 30
0.0
 40
2.000039220806368
100
AcDbArc
 50
282.2793662365
 51
72.1457618997
  0
ARC
  5
3A1
330
1F
100
AcDbEntity
  8
0
  6
Continuous
 62
     7
370
    15
100
AcDbCircle
 10
1986.4108151477
 20
121.1788669314
 30
0.0
 40
3.000000015795244
100
AcDbArc
 50
252.1603090792
 51
72.1485500894
  0
ARC
  5
3A2
330
1F
100
AcDbEntity
  8
0
  6
Continuous
 62
     7
370
    15
100
AcDbCircle
 10
1976.123274091
 20
12.210053611
 30
0.0
 40
120.8583690850565
100
AcDbArc
 50
46.5843512884
 51
133.4156487116
  0
ARC
  5
3A3
330
1F
100
AcDbEntity
  8
0
  6
Continuous
 62
     7
370
    15
100
AcDbCircle
 10
1976.1050390887
 20
12.1547118931
 30
0.0
 40
120.8551668666526
100
AcDbArc
 50
248.1265886961
 51
291.8734113039
  0
ARC
  5
3A4
330
1F
100
AcDbEntity
  8
0
  6
Continuous
 62
     7
370
    15
100
AcDbCircle
 10
-1561.7068621715
 20
-99.621306254
 30
0.0
 40
2.999543993728678
100
AcDbArc
 50
187.2529727821
 51
352.7470272179
  0
ARC
  5
3A5
330
1F
100
AcDbEntity
  8
0
  6
Continuous
 62
     7
370
    15
100
AcDbCircle
 10
-1551.4852231867
 20
9.4153497084
 30
0.0
 40
98.48442667517678
100
AcDbArc
 50
102.2791394766
 51
112.0317099281
  0
ARC
  5
3A6
330
1F
100
AcDbEntity
  8
0
  6
Continuous
 62
     7
370
    15
100
AcDbCircle
 10
-1572.8555509858
 20
107.6009559628
 30
0.0
 40
1.999921294464885
100
AcDbArc
 50
282.2748821726
 51
102.2677282616
  0
ARC
  5
3A7
330
1F
100
AcDbEntity
  8
0
  6
Continuous
 62
     7
370
    15
100
AcDbCircle
 10
-1551.484789798
 20
9.4159301202
 30
0.0
 40
102.4837942558824
100
AcDbArc
 50
102.2791394766
 51
112.0317099281
  0
ARC
  5
3A8
330
1F
100
AcDbEntity
  8
0
  6
Continuous
 62
     7
370
    15
100
AcDbCircle
 10
-1589.178532254
 20
102.5620546081
 30
0.0
 40
1.99987154257467
100
AcDbArc
 50
112.0241190838
 51
292.0215532677
  0
ARC
  5
3A9
330
1F
100
AcDbEntity
  8
0
  6
Continuous
 62
     7
370
    15
100
AcDbCircle
 10
-1551.5272941477
 20
9.4288941362
 30
0.0
 40
98.48442667517627
100
AcDbArc
 50
102.2791394766
 51
112.0317099281
  0
ARC
  5
3AA
330
1F
100
AcDbEntity
  8
0
  6
Continuous
 62
     7
370
    15
100
AcDbCircle
 10
-1572.8977999649
 20
107.6145823373
 30
0.0
 40
2.000039220806317
100
AcDbArc
 50
282.2793662365
 51
72.1457618997
  0
ARC
  5
3AB
330
1F
100
AcDbEntity
  8
0
  6
Continuous
 62
     7
370
    15
100
AcDbCircle
 10
-1541.3273271476
 20
118.4367642222
 30
0.0
 40
3.00000001579531
100
AcDbArc
 50
252.1603090792
 51
72.1485500895
  0
ARC
  5
3AC
330
1F
100
AcDbEntity
  8
0
  6
Continuous
 62
     7
370
    15
100
AcDbCircle
 10
-1551.6146181931
 20
9.4680333645
 30
0.0
 40
120.8582307873851
100
AcDbArc
 50
48.5103774967
 51
131.4896225033
  0
ARC
  5
3AD
330
1F
100
AcDbEntity
  8
0
  6
Continuous
 62
     7
370
    15
100
AcDbCircle
 10
-1551.6328531954
 20
9.4130907878
 30
0.0
 40
120.8556300356563
100
AcDbArc
 50
244.8664963656
 51
295.1335036344
  0
ARC
  5
3AE
330
1F
100
AcDbEntity
  8
0
  6
Continuous
 62
     7
370
    15
100
AcDbCircle
 10
-1561.7492500101
 20
-99.6074640994
 30
0.0
 40
2.999894979810066
100
AcDbArc
 50
252.1608350743
 51
352.4812935742
  0
ARC
  5
3AF
330
1F
100
AcDbEntity
  8
0
  6
PHANTOM
 62
     8
370
     0
100
AcDbCircle
 10
1976.196141107
 20
12.126155844
 30
0.0
 40
117.0654635256481
100
AcDbArc
 50
253.2969711345
 51
286.7030288655
  0
ARC
  5
3B0
330
1F
100
AcDbEntity
  8
0
  6
PHANTOM
 62
     8
370
     0
100
AcDbCircle
 10
1976.2143761093
 20
12.1796041119
 30
0.0
 40
117.0688689296868
100
AcDbArc
 50
48.6042492333
 51
131.3957507667
  0
ARC
  5
3B1
330
1F
100
AcDbEntity
  8
0
  6
PHANTOM
 62
     8
370
     0
100
AcDbCircle
 10
-1551.5417511771
 20
9.3839161285
 30
0.0
 40
117.0653456267852
100
AcDbArc
 50
249.1287568282
 51
290.8712431718
  0
ARC
  5
3B2
330
1F
100
AcDbEntity
  8
0
  6
PHANTOM
 62
     8
370
     0
100
AcDbCircle
 10
-1551.5235161748
 20
9.438416672
 30
0.0
 40
117.0681083157695
100
AcDbArc
 50
50.6764951508
 51
129.3235048492
  0
ENDSEC
  0
SECTION
  2
OBJECTS
  0
DICTIONARY
  5
C
330
0
100
AcDbDictionary
281
     1
  3
ACAD_GROUP
350
D
  3
ACAD_LAYOUT
350
1A
  3
ACAD_MLINESTYLE
350
17
  3
ACAD_PLOTSETTINGS
350
19
  3
ACAD_PLOTSTYLENAME
350
E
  3
ACAD_SCALELIST
350
47
  0
DICTIONARY
  5
D
102
{ACAD_REACTORS
330
C
102
}
330
C
100
AcDbDictionary
281
     1
  0
DICTIONARY
  5
1A
102
{ACAD_REACTORS
330
C
102
}
330
C
100
AcDbDictionary
281
     1
  3
Layout1
350
1E
  3
Layout2
350
26
  3
Model
350
22
  0
DICTIONARY
  5
17
102
{ACAD_REACTORS
330
C
102
}
330
C
100
AcDbDictionary
281
     1
  3
Standard
350
18
  0
DICTIONARY
  5
19
102
{ACAD_REACTORS
330
C
102
}
330
C
100
AcDbDictionary
281
     1
  0
ACDBDICTIONARYWDFLT
  5
E
102
{ACAD_REACTORS
330
C
102
}
330
C
100
AcDbDictionary
281
     1
  3
Normal
350
F
100
AcDbDictionaryWithDefault
340
F
  0
DICTIONARY
  5
47
102
{ACAD_REACTORS
330
C
102
}
330
C
100
AcDbDictionary
281
     1
  3
A0
350
48
  3
A1
350
49
  3
A2
350
4A
  3
A3
350
4B
  3
A4
350
4C
  3
A5
350
4D
  3
A6
350
4E
  3
A7
350
4F
  3
A8
350
50
  3
A9
350
51
  3
B0
350
52
  3
B1
350
53
  3
B2
350
54
  3
B3
350
55
  3
B4
350
56
  3
B5
350
57
  3
B6
350
58
  3
B7
350
59
  3
B8
350
5A
  3
B9
350
5B
  3
C0
350
5C
  3
C1
350
5D
  3
C2
350
5E
  3
C3
350
5F
  3
C4
350
60
  3
C5
350
61
  3
C6
350
62
  3
C7
350
63
  3
C8
350
64
  3
C9
350
65
  3
D0
350
66
  3
D1
350
67
  3
D2
350
68
  0
LAYOUT
  5
1E
102
{ACAD_REACTORS
330
1A
102
}
330
1A
100
AcDbPlotSettings
  1

  2
none_device
  4

  6

 40
0.0
 41
0.0
 42
0.0
 43
0.0
 44
0.0
 45
0.0
 46
0.0
 47
0.0
 48
0.0
 49
0.0
140
0.0
141
0.0
142
1.0
143
1.0
 70
   688
 72
     1
 73
     0
 74
     5
  7

 75
    16
147
1.0
148
0.0
149
0.0
100
AcDbLayout
  1
Layout1
 70
     1
 71
     1
 10
0.0
 20
0.0
 11
420.0
 21
297.0
 12
0.0
 22
0.0
 32
0.0
 14
1.0000000000E+20
 24
1.0000000000E+20
 34
1.0000000000E+20
 15
-1.0000000000E+20
 25
-1.0000000000E+20
 35
-1.0000000000E+20
146
0.0
 13
0.0
 23
0.0
 33
0.0
 16
1.0
 26
0.0
 36
0.0
 17
0.0
 27
1.0
 37
0.0
 76
     0
330
1B
  0
LAYOUT
  5
26
102
{ACAD_REACTORS
330
1A
102
}
330
1A
100
AcDbPlotSettings
  1

  2
none_device
  4

  6

 40
0.0
 41
0.0
 42
0.0
 43
0.0
 44
0.0
 45
0.0
 46
0.0
 47
0.0
 48
0.0
 49
0.0
140
0.0
141
0.0
142
1.0
143
1.0
 70
   688
 72
     1
 73
     0
 74
     5
  7

 75
    16
147
1.0
148
0.0
149
0.0
100
AcDbLayout
  1
Layout2
 70
     1
 71
     2
 10
0.0
 20
0.0
 11
0.0
 21
0.0
 12
0.0
 22
0.0
 32
0.0
 14
0.0
 24
0.0
 34
0.0
 15
0.0
 25
0.0
 35
0.0
146
0.0
 13
0.0
 23
0.0
 33
0.0
 16
1.0
 26
0.0
 36
0.0
 17
0.0
 27
1.0
 37
0.0
 76
     0
330
23
  0
LAYOUT
  5
22
102
{ACAD_REACTORS
330
1A
102
}
330
1A
100
AcDbPlotSettings
  1

  2
none_device
  4
ANSI_A_(11.00_x_8.50_Inches)
  6

 40
6.35
 41
19.05
 42
6.35000508
 43
19.05000254
 44
279.4
 45
215.9
 46
125.1588347098
 47
88.89999873
 48
0.0
 49
0.0
140
0.0
141
0.0
142
0.0015870844
143
1.0
 70
  1696
 72
     0
 73
     0
 74
     0
  7

 75
     0
147
0.0179189148
148
-1300.4909072572
149
0.0
100
AcDbLayout
  1
Model
 70
     1
 71
     0
 10
0.0
 20
0.0
 11
420.0
 21
297.0
 12
0.0
 22
0.0
 32
0.0
 14
-3227.6250222558
 24
-2030.4448186343
 34
0.0
 15
3634.0139014351
 25
2030.4448186343
 35
0.0
146
0.0
 13
0.0
 23
0.0
 33
0.0
 16
1.0
 26
0.0
 36
0.0
 17
0.0
 27
1.0
 37
0.0
 76
     0
330
1F
331
29
  0
MLINESTYLE
  5
18
102
{ACAD_REACTORS
330
17
102
}
330
17
100
AcDbMlineStyle
  2
Standard
 70
     0
  3

 62
   256
 51
90.0
 52
90.0
 71
     2
 49
0.5
 62
   256
  6
BYLAYER
 49
-0.5
 62
   256
  6
BYLAYER
  0
ACDBPLACEHOLDER
  5
F
102
{ACAD_REACTORS
330
E
102
}
330
E
  0
SCALE
  5
48
102
{ACAD_REACTORS
330
47
102
}
330
47
100
AcDbScale
 70
     0
300
1:1
140
1.0
141
1.0
290
     1
  0
SCALE
  5
49
102
{ACAD_REACTORS
330
47
102
}
330
47
100
AcDbScale
 70
     0
300
1:2
140
1.0
141
2.0
290
     0
  0
SCALE
  5
4A
102
{ACAD_REACTORS
330
47
102
}
330
47
100
AcDbScale
 70
     0
300
1:4
140
1.0
141
4.0
290
     0
  0
SCALE
  5
4B
102
{ACAD_REACTORS
330
47
102
}
330
47
100
AcDbScale
 70
     0
300
1:5
140
1.0
141
5.0
290
     0
  0
SCALE
  5
4C
102
{ACAD_REACTORS
330
47
102
}
330
47
100
AcDbScale
 70
     0
300
1:8
140
1.0
141
8.0
290
     0
  0
SCALE
  5
4D
102
{ACAD_REACTORS
330
47
102
}
330
47
100
AcDbScale
 70
     0
300
1:10
140
1.0
141
10.0
290
     0
  0
SCALE
  5
4E
102
{ACAD_REACTORS
330
47
102
}
330
47
100
AcDbScale
 70
     0
300
1:16
140
1.0
141
16.0
290
     0
  0
SCALE
  5
4F
102
{ACAD_REACTORS
330
47
102
}
330
47
100
AcDbScale
 70
     0
300
1:20
140
1.0
141
20.0
290
     0
  0
SCALE
  5
50
102
{ACAD_REACTORS
330
47
102
}
330
47
100
AcDbScale
 70
     0
300
1:30
140
1.0
141
30.0
290
     0
  0
SCALE
  5
51
102
{ACAD_REACTORS
330
47
102
}
330
47
100
AcDbScale
 70
     0
300
1:40
140
1.0
141
40.0
290
     0
  0
SCALE
  5
52
102
{ACAD_REACTORS
330
47
102
}
330
47
100
AcDbScale
 70
     0
300
1:50
140
1.0
141
50.0
290
     0
  0
SCALE
  5
53
102
{ACAD_REACTORS
330
47
102
}
330
47
100
AcDbScale
 70
     0
300
1:100
140
1.0
141
100.0
290
     0
  0
SCALE
  5
54
102
{ACAD_REACTORS
330
47
102
}
330
47
100
AcDbScale
 70
     0
300
2:1
140
2.0
141
1.0
290
     0
  0
SCALE
  5
55
102
{ACAD_REACTORS
330
47
102
}
330
47
100
AcDbScale
 70
     0
300
4:1
140
4.0
141
1.0
290
     0
  0
SCALE
  5
56
102
{ACAD_REACTORS
330
47
102
}
330
47
100
AcDbScale
 70
     0
300
8:1
140
8.0
141
1.0
290
     0
  0
SCALE
  5
57
102
{ACAD_REACTORS
330
47
102
}
330
47
100
AcDbScale
 70
     0
300
10:1
140
10.0
141
1.0
290
     0
  0
SCALE
  5
58
102
{ACAD_REACTORS
330
47
102
}
330
47
100
AcDbScale
 70
     0
300
100:1
140
100.0
141
1.0
290
     0
  0
SCALE
  5
59
102
{ACAD_REACTORS
330
47
102
}
330
47
100
AcDbScale
 70
     0
300
1/128" = 1'-0"
140
0.0078125
141
12.0
290
     0
  0
SCALE
  5
5A
102
{ACAD_REACTORS
330
47
102
}
330
47
100
AcDbScale
 70
     0
300
1/64" = 1'-0"
140
0.015625
141
12.0
290
     0
  0
SCALE
  5
5B
102
{ACAD_REACTORS
330
47
102
}
330
47
100
AcDbScale
 70
     0
300
1/32" = 1'-0"
140
0.03125
141
12.0
290
     0
  0
SCALE
  5
5C
102
{ACAD_REACTORS
330
47
102
}
330
47
100
AcDbScale
 70
     0
300
1/16" = 1'-0"
140
0.0625
141
12.0
290
     0
  0
SCALE
  5
5D
102
{ACAD_REACTORS
330
47
102
}
330
47
100
AcDbScale
 70
     0
300
3/32" = 1'-0"
140
0.09375
141
12.0
290
     0
  0
SCALE
  5
5E
102
{ACAD_REACTORS
330
47
102
}
330
47
100
AcDbScale
 70
     0
300
1/8" = 1'-0"
140
0.125
141
12.0
290
     0
  0
SCALE
  5
5F
102
{ACAD_REACTORS
330
47
102
}
330
47
100
AcDbScale
 70
     0
300
3/16" = 1'-0"
140
0.1875
141
12.0
290
     0
  0
SCALE
  5
60
102
{ACAD_REACTORS
330
47
102
}
330
47
100
AcDbScale
 70
     0
300
1/4" = 1'-0"
140
0.25
141
12.0
290
     0
  0
SCALE
  5
61
102
{ACAD_REACTORS
330
47
102
}
330
47
100
AcDbScale
 70
     0
300
3/8" = 1'-0"
140
0.375
141
12.0
290
     0
  0
SCALE
  5
62
102
{ACAD_REACTORS
330
47
102
}
330
47
100
AcDbScale
 70
     0
300
1/2" = 1'-0"
140
0.5
141
12.0
290
     0
  0
SCALE
  5
63
102
{ACAD_REACTORS
330
47
102
}
330
47
100
AcDbScale
 70
     0
300
3/4" = 1'-0"
140
0.75
141
12.0
290
     0
  0
SCALE
  5
64
102
{ACAD_REACTORS
330
47
102
}
330
47
100
AcDbScale
 70
     0
300
1" = 1'-0"
140
1.0
141
12.0
290
     0
  0
SCALE
  5
65
102
{ACAD_REACTORS
330
47
102
}
330
47
100
AcDbScale
 70
     0
300
1-1/2" = 1'-0"
140
1.5
141
12.0
290
     0
  0
SCALE
  5
66
102
{ACAD_REACTORS
330
47
102
}
330
47
100
AcDbScale
 70
     0
300
3" = 1'-0"
140
3.0
141
12.0
290
     0
  0
SCALE
  5
67
102
{ACAD_REACTORS
330
47
102
}
330
47
100
AcDbScale
 70
     0
300
6" = 1'-0"
140
6.0
141
12.0
290
     0
  0
SCALE
  5
68
102
{ACAD_REACTORS
330
47
102
}
330
47
100
AcDbScale
 70
     0
300
1'-0" = 1'-0"
140
12.0
141
12.0
290
     0
  0
ENDSEC
  0
EOF
