  0
SECTION
  2
HEADER
  9
$ACADVER
  1
AC1015
  9
$ACADMAINTVER
 70
     6
  9
$DWGCODEPAGE
  3
ANSI_1251
  9
$INSBASE
 10
0.0
 20
0.0
 30
0.0
  9
$EXTMIN
 10
-2865.0
 20
-2999.9999999982
 30
0.0
  9
$EXTMAX
 10
4624.2393880694
 20
3000.0
 30
0.0
  9
$LIMMIN
 10
0.0
 20
0.0
  9
$LIMMAX
 10
420.0
 20
297.0
  9
$ORTHOMODE
 70
     0
  9
$REGENMODE
 70
     1
  9
$FILLMODE
 70
     1
  9
$QTEXTMODE
 70
     0
  9
$MIRRTEXT
 70
     1
  9
$LTSCALE
 40
1.0
  9
$ATTMODE
 70
     1
  9
$TEXTSIZE
 40
3.0
  9
$TRACEWID
 40
1.0
  9
$TEXTSTYLE
  7
Standard
  9
$CLAYER
  8
0
  9
$CELTYPE
  6
ByLayer
  9
$CECOLOR
 62
   256
  9
$CELTSCALE
 40
1.0
  9
$DISPSILH
 70
     0
  9
$DIMSCALE
 40
1.0
  9
$DIMASZ
 40
3.0
  9
$DIMEXO
 40
0.0
  9
$DIMDLI
 40
3.75
  9
$DIMRND
 40
0.0
  9
$DIMDLE
 40
0.0
  9
$DIMEXE
 40
2.0
  9
$DIMTP
 40
0.0
  9
$DIMTM
 40
0.0
  9
$DIMTXT
 40
3.0
  9
$DIMCEN
 40
2.5
  9
$DIMTSZ
 40
0.0
  9
$DIMTOL
 70
     0
  9
$DIMLIM
 70
     0
  9
$DIMTIH
 70
     1
  9
$DIMTOH
 70
     1
  9
$DIMSE1
 70
     0
  9
$DIMSE2
 70
     0
  9
$DIMTAD
 70
     1
  9
$DIMZIN
 70
     0
  9
$DIMBLK
  1

  9
$DIMASO
 70
     1
  9
$DIMSHO
 70
     1
  9
$DIMPOST
  1

  9
$DIMAPOST
  1

  9
$DIMALT
 70
     0
  9
$DIMALTD
 70
     3
  9
$DIMALTF
 40
0.0393700787
  9
$DIMLFAC
 40
1.0
  9
$DIMTOFL
 70
     1
  9
$DIMTVP
 40
0.0
  9
$DIMTIX
 70
     0
  9
$DIMSOXD
 70
     0
  9
$DIMSAH
 70
     0
  9
$DIMBLK1
  1

  9
$DIMBLK2
  1

  9
$DIMSTYLE
  2
ISO-25
  9
$DIMCLRD
 70
     0
  9
$DIMCLRE
 70
     0
  9
$DIMCLRT
 70
     0
  9
$DIMTFAC
 40
1.0
  9
$DIMGAP
 40
2.0
  9
$DIMJUST
 70
     0
  9
$DIMSD1
 70
     0
  9
$DIMSD2
 70
     0
  9
$DIMTOLJ
 70
     0
  9
$DIMTZIN
 70
     0
  9
$DIMALTZ
 70
     0
  9
$DIMALTTZ
 70
     0
  9
$DIMUPT
 70
     0
  9
$DIMDEC
 70
     2
  9
$DIMTDEC
 70
     2
  9
$DIMALTU
 70
     2
  9
$DIMALTTD
 70
     3
  9
$DIMTXSTY
  7
Standard
  9
$DIMAUNIT
 70
     0
  9
$DIMADEC
 70
     2
  9
$DIMALTRND
 40
0.0
  9
$DIMAZIN
 70
     0
  9
$DIMDSEP
 70
    44
  9
$DIMATFIT
 70
     3
  9
$DIMFRAC
 70
     0
  9
$DIMLDRBLK
  1

  9
$DIMLUNIT
 70
     2
  9
$DIMLWD
 70
    -2
  9
$DIMLWE
 70
    -2
  9
$DIMTMOVE
 70
     0
  9
$LUNITS
 70
     2
  9
$LUPREC
 70
     2
  9
$SKETCHINC
 40
1.0
  9
$FILLETRAD
 40
10.0
  9
$AUNITS
 70
     1
  9
$AUPREC
 70
     2
  9
$MENU
  1
.
  9
$ELEVATION
 40
0.0
  9
$PELEVATION
 40
0.0
  9
$THICKNESS
 40
0.0
  9
$LIMCHECK
 70
     0
  9
$CHAMFERA
 40
0.0
  9
$CHAMFERB
 40
0.0
  9
$CHAMFERC
 40
0.0
  9
$CHAMFERD
 40
0.0
  9
$SKPOLY
 70
     0
  9
$TDCREATE
 40
2459562.678165451
  9
$TDUCREATE
 40
2459562.553165451
  9
$TDUPDATE
 40
2459562.678234028
  9
$TDUUPDATE
 40
2459562.553234028
  9
$TDINDWG
 40
0.0000000116
  9
$TDUSRTIMER
 40
0.0000000116
  9
$USRTIMER
 70
     1
  9
$ANGBASE
 50
0.0
  9
$ANGDIR
 70
     0
  9
$PDMODE
 70
     0
  9
$PDSIZE
 40
-1.0
  9
$PLINEWID
 40
0.0
  9
$SPLFRAME
 70
     0
  9
$SPLINETYPE
 70
     6
  9
$SPLINESEGS
 70
     8
  9
$HANDSEED
  5
B82
  9
$SURFTAB1
 70
     6
  9
$SURFTAB2
 70
     6
  9
$SURFTYPE
 70
     6
  9
$SURFU
 70
     6
  9
$SURFV
 70
     6
  9
$UCSBASE
  2

  9
$UCSNAME
  2

  9
$UCSORG
 10
0.0
 20
0.0
 30
0.0
  9
$UCSXDIR
 10
1.0
 20
0.0
 30
0.0
  9
$UCSYDIR
 10
0.0
 20
1.0
 30
0.0
  9
$UCSORTHOREF
  2

  9
$UCSORTHOVIEW
 70
     0
  9
$UCSORGTOP
 10
0.0
 20
0.0
 30
0.0
  9
$UCSORGBOTTOM
 10
0.0
 20
0.0
 30
0.0
  9
$UCSORGLEFT
 10
0.0
 20
0.0
 30
0.0
  9
$UCSORGRIGHT
 10
0.0
 20
0.0
 30
0.0
  9
$UCSORGFRONT
 10
0.0
 20
0.0
 30
0.0
  9
$UCSORGBACK
 10
0.0
 20
0.0
 30
0.0
  9
$PUCSBASE
  2

  9
$PUCSNAME
  2

  9
$PUCSORG
 10
0.0
 20
0.0
 30
0.0
  9
$PUCSXDIR
 10
1.0
 20
0.0
 30
0.0
  9
$PUCSYDIR
 10
0.0
 20
1.0
 30
0.0
  9
$PUCSORTHOREF
  2

  9
$PUCSORTHOVIEW
 70
     0
  9
$PUCSORGTOP
 10
0.0
 20
0.0
 30
0.0
  9
$PUCSORGBOTTOM
 10
0.0
 20
0.0
 30
0.0
  9
$PUCSORGLEFT
 10
0.0
 20
0.0
 30
0.0
  9
$PUCSORGRIGHT
 10
0.0
 20
0.0
 30
0.0
  9
$PUCSORGFRONT
 10
0.0
 20
0.0
 30
0.0
  9
$PUCSORGBACK
 10
0.0
 20
0.0
 30
0.0
  9
$USERI1
 70
     0
  9
$USERI2
 70
     0
  9
$USERI3
 70
     0
  9
$USERI4
 70
     0
  9
$USERI5
 70
     0
  9
$USERR1
 40
0.0
  9
$USERR2
 40
0.0
  9
$USERR3
 40
0.0
  9
$USERR4
 40
0.0
  9
$USERR5
 40
0.0
  9
$WORLDVIEW
 70
     1
  9
$SHADEDGE
 70
     3
  9
$SHADEDIF
 70
    70
  9
$TILEMODE
 70
     1
  9
$MAXACTVP
 70
    64
  9
$PINSBASE
 10
0.0
 20
0.0
 30
0.0
  9
$PLIMCHECK
 70
     0
  9
$PEXTMIN
 10
1.0000000000E+20
 20
1.0000000000E+20
 30
1.0000000000E+20
  9
$PEXTMAX
 10
-1.0000000000E+20
 20
-1.0000000000E+20
 30
-1.0000000000E+20
  9
$PLIMMIN
 10
0.0
 20
0.0
  9
$PLIMMAX
 10
420.0
 20
297.0
  9
$UNITMODE
 70
     0
  9
$VISRETAIN
 70
     1
  9
$PLINEGEN
 70
     0
  9
$PSLTSCALE
 70
     1
  9
$TREEDEPTH
 70
  3020
  9
$CMLSTYLE
  2
Standard
  9
$CMLJUST
 70
     0
  9
$CMLSCALE
 40
20.0
  9
$PROXYGRAPHICS
 70
     1
  9
$MEASUREMENT
 70
     1
  9
$CELWEIGHT
370
    -1
  9
$ENDCAPS
280
     0
  9
$JOINSTYLE
280
     0
  9
$LWDISPLAY
290
     1
  9
$INSUNITS
 70
     4
  9
$HYPERLINKBASE
  1

  9
$STYLESHEET
  1

  9
$XEDIT
290
     1
  9
$CEPSNTYPE
380
     0
  9
$PSTYLEMODE
290
     1
  9
$FINGERPRINTGUID
  2
{D0607523-9FC9-400E-9A55-3400392C3BEC}
  9
$VERSIONGUID
  2
{FAEB1C32-E019-11D5-929B-00C0DF256EC4}
  9
$EXTNAMES
290
     1
  9
$PSVPSCALE
 40
0.0
  9
$OLESTARTUP
290
     0
  0
ENDSEC
  0
SECTION
  2
CLASSES
  0
CLASS
  1
ACDBDICTIONARYWDFLT
  2
AcDbDictionaryWithDefault
  3
ObjectDBX Classes
 90
        0
280
     0
281
     0
  0
CLASS
  1
VISUALSTYLE
  2
AcDbVisualStyle
  3
ObjectDBX Classes
 90
     4095
280
     0
281
     0
  0
CLASS
  1
MATERIAL
  2
AcDbMaterial
  3
ObjectDBX Classes
 90
     1153
280
     0
281
     0
  0
CLASS
  1
SCALE
  2
AcDbScale
  3
ObjectDBX Classes
 90
     1153
280
     0
281
     0
  0
CLASS
  1
SUN
  2
AcDbSun
  3
SCENEOE
 90
     1153
280
     0
281
     0
  0
CLASS
  1
ACDBPLACEHOLDER
  2
AcDbPlaceHolder
  3
ObjectDBX Classes
 90
        0
280
     0
281
     0
  0
CLASS
  1
LAYOUT
  2
AcDbLayout
  3
ObjectDBX Classes
 90
        0
280
     0
281
     0
  0
ENDSEC
  0
SECTION
  2
TABLES
  0
TABLE
  2
VPORT
  5
8
330
0
100
AcDbSymbolTable
 70
     1
  0
VPORT
  5
29
330
8
100
AcDbSymbolTableRecord
100
AcDbViewportTableRecord
  2
*Active
 70
     0
 10
0.0
 20
0.0
 11
1.0
 21
1.0
 12
879.6196940347
 22
0.0000000009
 13
0.0
 23
0.0
 14
10.0
 24
10.0
 15
10.0
 25
10.0
 16
0.0
 26
0.0
 36
1.0
 17
0.0
 27
0.0
 37
0.0
 40
6119.9999999981
 41
1.2482065647
 42
50.0
 43
0.0
 44
0.0
 50
0.0
 51
0.0
 71
     0
 72
   100
 73
     1
 74
     3
 75
     0
 76
     0
 77
     0
 78
     0
281
     0
 65
     1
110
0.0
120
0.0
130
0.0
111
1.0
121
0.0
131
0.0
112
0.0
122
1.0
132
0.0
 79
     0
146
0.0
  0
ENDTAB
  0
TABLE
  2
LTYPE
  5
5
330
0
100
AcDbSymbolTable
 70
     6
  0
LTYPE
  5
14
330
5
100
AcDbSymbolTableRecord
100
AcDbLinetypeTableRecord
  2
ByBlock
 70
     0
  3

 72
    65
 73
     0
 40
0.0
  0
LTYPE
  5
15
330
5
100
AcDbSymbolTableRecord
100
AcDbLinetypeTableRecord
  2
ByLayer
 70
     0
  3

 72
    65
 73
     0
 40
0.0
  0
LTYPE
  5
16
330
5
100
AcDbSymbolTableRecord
100
AcDbLinetypeTableRecord
  2
Continuous
 70
     0
  3
Solid line
 72
    65
 73
     0
 40
0.0
  0
LTYPE
  5
6A
330
5
100
AcDbSymbolTableRecord
100
AcDbLinetypeTableRecord
  2
HIDDEN
 70
     0
  3
Hidden __ __ __ __ __ __ __ __ __ __ __ __ __ __
 72
    65
 73
     2
 40
1.905
 49
1.27
 74
     0
 49
-0.635
 74
     0
  0
LTYPE
  5
6B
330
5
100
AcDbSymbolTableRecord
100
AcDbLinetypeTableRecord
  2
PHANTOM
 70
     0
  3
Phantom ______  __  __  ______  __  __  ______
 72
    65
 73
     6
 40
12.7
 49
6.35
 74
     0
 49
-1.27
 74
     0
 49
1.27
 74
     0
 49
-1.27
 74
     0
 49
1.27
 74
     0
 49
-1.27
 74
     0
  0
LTYPE
  5
6C
330
5
100
AcDbSymbolTableRecord
100
AcDbLinetypeTableRecord
  2
CENTER
 70
     0
  3
Center ____ _ ____ _ ____ _ ____ _ ____ _ ____
 72
    65
 73
     4
 40
10.16
 49
6.35
 74
     0
 49
-1.27
 74
     0
 49
1.27
 74
     0
 49
-1.27
 74
     0
  0
LTYPE
  5
6D
330
5
100
AcDbSymbolTableRecord
100
AcDbLinetypeTableRecord
  2
CENTERX2
 70
     0
  3
Center (2x) ________  __  ________  __  _____
 72
    65
 73
     4
 40
20.32
 49
12.7
 74
     0
 49
-2.54
 74
     0
 49
2.54
 74
     0
 49
-2.54
 74
     0
  0
LTYPE
  5
6E
330
5
100
AcDbSymbolTableRecord
100
AcDbLinetypeTableRecord
  2
DOT2
 70
     0
  3
Dot (.5x) ........................................
 72
    65
 73
     2
 40
0.635
 49
0.0
 74
     0
 49
-0.635
 74
     0
  0
ENDTAB
  0
TABLE
  2
LAYER
  5
2
330
0
100
AcDbSymbolTable
 70
     1
  0
LAYER
  5
10
330
2
100
AcDbSymbolTableRecord
100
AcDbLayerTableRecord
  2
0
 70
     0
 62
     7
  6
Continuous
370
    -3
390
F
  0
ENDTAB
  0
TABLE
  2
STYLE
  5
3
330
0
100
AcDbSymbolTable
 70
     1
  0
STYLE
  5
11
330
3
100
AcDbSymbolTableRecord
100
AcDbTextStyleTableRecord
  2
Standard
 70
     0
 40
0.0
 41
1.0
 50
0.0
 71
     0
 42
3.0
  3
txt
  4

  0
ENDTAB
  0
TABLE
  2
VIEW
  5
6
330
0
100
AcDbSymbolTable
 70
     0
  0
ENDTAB
  0
TABLE
  2
UCS
  5
7
330
0
100
AcDbSymbolTable
 70
     0
  0
ENDTAB
  0
TABLE
  2
APPID
  5
9
330
0
100
AcDbSymbolTable
 70
     1
  0
APPID
  5
12
330
9
100
AcDbSymbolTableRecord
100
AcDbRegAppTableRecord
  2
ACAD
 70
     0
  0
ENDTAB
  0
TABLE
  2
DIMSTYLE
  5
A
330
0
100
AcDbSymbolTable
 70
     1
100
AcDbDimStyleTable
  0
DIMSTYLE
105
27
330
A
100
AcDbSymbolTableRecord
100
AcDbDimStyleTableRecord
  2
ISO-25
 70
     0
 41
2.5
 42
0.625
 43
3.75
 44
1.25
 73
     0
 74
     0
 77
     1
 78
     8
140
2.5
141
2.5
143
0.0393700787
147
0.625
171
     3
172
     1
178
     0
271
     2
272
     2
274
     3
278
    44
283
     0
284
     8
340
11
  0
ENDTAB
  0
TABLE
  2
BLOCK_RECORD
  5
1
330
0
100
AcDbSymbolTable
 70
     1
  0
BLOCK_RECORD
  5
1F
330
1
100
AcDbSymbolTableRecord
100
AcDbBlockTableRecord
  2
*Model_Space
340
22
  0
BLOCK_RECORD
  5
1B
330
1
100
AcDbSymbolTableRecord
100
AcDbBlockTableRecord
  2
*Paper_Space
340
1E
  0
BLOCK_RECORD
  5
23
330
1
100
AcDbSymbolTableRecord
100
AcDbBlockTableRecord
  2
*Paper_Space0
340
26
  0
ENDTAB
  0
ENDSEC
  0
SECTION
  2
BLOCKS
  0
BLOCK
  5
20
330
1F
100
AcDbEntity
  8
0
100
AcDbBlockBegin
  2
*Model_Space
 70
     0
 10
0.0
 20
0.0
 30
0.0
  3
*Model_Space
  1
*Model_Space
  0
ENDBLK
  5
21
330
1F
100
AcDbEntity
  8
0
100
AcDbBlockEnd
  0
BLOCK
  5
1C
330
1B
100
AcDbEntity
 67
     1
  8
0
100
AcDbBlockBegin
  2
*Paper_Space
 70
     0
 10
0.0
 20
0.0
 30
0.0
  3
*Paper_Space
  1
*Paper_Space
  0
ENDBLK
  5
1D
330
1B
100
AcDbEntity
 67
     1
  8
0
100
AcDbBlockEnd
  0
BLOCK
  5
24
330
23
100
AcDbEntity
  8
0
100
AcDbBlockBegin
  2
*Paper_Space0
 70
     0
 10
0.0
 20
0.0
 30
0.0
  3
*Paper_Space0
  1
*Paper_Space0
  0
ENDBLK
  5
25
330
23
100
AcDbEntity
  8
0
100
AcDbBlockEnd
  0
ENDSEC
  0
SECTION
  2
ENTITIES
  0
SPLINE
  5
A8
330
1F
100
AcDbEntity
  8
0
  6
Continuous
 62
     7
370
    15
100
AcDbSpline
210
0.0
220
0.0
230
1.0
 70
     8
 71
     3
 72
   101
 73
    97
 74
     0
 42
0.000000001
 43
0.00000001
 40
0.0
 40
0.0
 40
0.0
 40
0.0
 40
0.0055993371680433
 40
0.0163238122727931
 40
0.0270483579576901
 40
0.0377728949518578
 40
0.0484974199178808
 40
0.0592219295375273
 40
0.0699464205150235
 40
0.0806708895815777
 40
0.091395333499951
 40
0.102119749068901
 40
0.1128441331275316
 40
0.1235684825595847
 40
0.1342927942975636
 40
0.1450170653267996
 40
0.1557412926893308
 40
0.1664654734876785
 40
0.1771896048885575
 40
0.1879136841262291
 40
0.198637708505947
 40
0.2093616754070104
 40
0.2200855822858853
 40
0.2308094266789337
 40
0.2415332062050914
 40
0.2522569185683514
 40
0.262980561560032
 40
0.2737041330608779
 40
0.2844276310429791
 40
0.2951510535715072
 40
0.3058743988062722
 40
0.3165976650030358
 40
0.3273208505147009
 40
0.3380439537922938
 40
0.3487669733857956
 40
0.3594899079447192
 40
0.3702127562185862
 40
0.3809355170571412
 40
0.3916581894106001
 40
0.4023807723294175
 40
0.4131032649641472
 40
0.4238256665651113
 40
0.4345479764818037
 40
0.4452701941622451
 40
0.4559923191522087
 40
0.4667143510942557
 40
0.4774362897266746
 40
0.4881581348823479
 40
0.4988798864874489
 40
0.5096015445600018
 40
0.5203231092084856
 40
0.5310445806302018
 40
0.5417659591096232
 40
0.5524872450167029
 40
0.5632084388050191
 40
0.5739295410099554
 40
0.5846505522467632
 40
0.5953714732085869
 40
0.6060923046645272
 40
0.6168130474575109
 40
0.6275337025022975
 40
0.6382542707833437
 40
0.6489747533527185
 40
0.6596951513279945
 40
0.6704154658900964
 40
0.6811356982812095
 40
0.691855849802642
 40
0.7025759218127587
 40
0.7132959157248162
 40
0.724015833004944
 40
0.7347356751700829
 40
0.7454554437859179
 40
0.7561751404649475
 40
0.7668947668644551
 40
0.7776143246846122
 40
0.7883338156665339
 40
0.7990532415904851
 40
0.8097726042740205
 40
0.8204919055701939
 40
0.8312111473659068
 40
0.841930331580098
 40
0.8526494601622245
 40
0.8633685350905927
 40
0.8740875583708045
 40
0.8848065320343111
 40
0.895525458136879
 40
0.9062443387572624
 40
0.9169631759957494
 40
0.9276819719728976
 40
0.9384007288282251
 40
0.9491194487189953
 40
0.9598381338189773
 40
0.97055678631733
 40
0.9812754084174528
 40
0.991994002335916
 40
0.9999999999999999
 40
0.9999999999999999
 40
0.9999999999999999
 40
0.9999999999999999
 10
-959.2447206899242
 20
950.9661962606051
 30
0.0
 10
-956.7116732487242
 20
953.4420821609797
 30
0.0
 10
-949.3270508073008
 20
960.660060902684
 30
0.0
 10
-936.9233465513869
 20
972.4481039541466
 30
0.0
 10
-921.964089304965
 20
986.2510505145428
 30
0.0
 10
-906.7887357023121
 20
999.8178205175658
 30
0.0
 10
-891.4046125623529
 20
1013.149106113745
 30
0.0
 10
-875.814224095899
 20
1026.240824703956
 30
0.0
 10
-860.021417435658
 20
1039.09025128842
 30
0.0
 10
-844.029739005106
 20
1051.694367463749
 30
0.0
 10
-827.8428738695418
 20
1064.050304670531
 30
0.0
 10
-811.4645269411702
 20
1076.155226272645
 30
0.0
 10
-794.8984537252824
 20
1088.006359983668
 30
0.0
 10
-778.1484509841783
 20
1099.600989990724
 30
0.0
 10
-761.2183581283442
 20
1110.936459859834
 30
0.0
 10
-744.1120557209065
 20
1122.010172534686
 30
0.0
 10
-726.8334647434787
 20
1132.819591096375
 30
0.0
 10
-709.3865456461494
 20
1143.362239301194
 30
0.0
 10
-691.7752974438722
 20
1153.635702159692
 30
0.0
 10
-674.0037567891677
 20
1163.637626486327
 30
0.0
 10
-656.0759970403802
 20
1173.365721438437
 30
0.0
 10
-637.9961273204269
 20
1182.817759039467
 30
0.0
 10
-619.7682915679117
 20
1191.991574687582
 30
0.0
 10
-601.3966675802735
 20
1200.885067649278
 30
0.0
 10
-582.8854660494613
 20
1209.496201537939
 30
0.0
 10
-564.2389295902457
 20
1217.823004777258
 30
0.0
 10
-545.4613317614813
 20
1225.863571049423
 30
0.0
 10
-526.5569760805557
 20
1233.616059727988
 30
0.0
 10
-507.5301950312414
 20
1241.078696295346
 30
0.0
 10
-488.3853490652155
 20
1248.249772744743
 30
0.0
 10
-469.1268255975167
 20
1255.127647966749
 30
0.0
 10
-449.7590379961491
 20
1261.710748120117
 30
0.0
 10
-430.2864245661104
 20
1267.99756698699
 30
0.0
 10
-410.7134475280174
 20
1273.986666312394
 30
0.0
 10
-391.0445919916641
 20
1279.676676127948
 30
0.0
 10
-371.2843649246929
 20
1285.066295059756
 30
0.0
 10
-351.4372941166939
 20
1290.154290620431
 30
0.0
 10
-331.507927138804
 20
1294.939499485224
 30
0.0
 10
-311.5008302992837
 20
1299.420827752192
 30
0.0
 10
-291.4205875951068
 20
1303.597251186408
 30
0.0
 10
-271.2717996599418
 20
1307.467815448121
 30
0.0
 10
-251.0590827086459
 20
1311.031636304933
 30
0.0
 10
-230.7870674786019
 20
1314.287899827865
 30
0.0
 10
-210.4603981681075
 20
1317.235862571358
 30
0.0
 10
-190.0837313720209
 20
1319.874851737162
 30
0.0
 10
-169.6617350149314
 20
1322.204265322111
 30
0.0
 10
-149.1990872820737
 20
1324.223572249753
 30
0.0
 10
-128.7004755482128
 20
1325.932312485837
 30
0.0
 10
-108.1705953047758
 20
1327.330097137647
 30
0.0
 10
-87.61414908539933
 20
1328.416608537159
 30
0.0
 10
-67.03584539018304
 20
1329.191600308061
 30
0.0
 10
-46.44039760881247
 20
1329.654897416573
 30
0.0
 10
-25.83252294286254
 20
1329.806396206119
 30
0.0
 10
-5.216941327461533
 20
1329.646064415839
 30
0.0
 10
15.40162564745584
 20
1329.173941182931
 30
0.0
 10
36.01845581602681
 20
1328.390137028859
 30
0.0
 10
56.62882751530218
 20
1327.294833829412
 30
0.0
 10
77.2280206638094
 20
1325.888284768644
 30
0.0
 10
97.81131783954555
 20
1324.170814276706
 30
0.0
 10
118.3740053572758
 20
1322.142817951586
 30
0.0
 10
138.9113743447679
 20
1319.804762464771
 30
0.0
 10
159.4187218178868
 20
1317.157185450881
 30
0.0
 10
179.8913517542038
 20
1314.200695381257
 30
0.0
 10
200.3245761649363
 20
1310.935971421578
 30
0.0
 10
220.7137161649915
 20
1307.3637632735
 30
0.0
 10
241.0541030408531
 20
1303.484891000372
 30
0.0
 10
261.3410793161477
 20
1299.300244837061
 30
0.0
 10
281.569999814548
 20
1294.810784983919
 30
0.0
 10
301.7362327198979
 20
1290.017541384944
 30
0.0
 10
321.8351606332439
 20
1284.921613490174
 30
0.0
 10
341.862181626603
 20
1279.52417000236
 30
0.0
 10
361.8127102932085
 20
1273.826448607971
 30
0.0
 10
381.6821787939792
 20
1267.829755692591
 30
0.0
 10
401.4660379000461
 20
1261.535466040747
 30
0.0
 10
421.1597580309955
 20
1254.945022520274
 30
0.0
 10
440.7588302887464
 20
1248.059935751204
 30
0.0
 10
460.2587674867022
 20
1240.881783759331
 30
0.0
 10
479.6551051740106
 20
1233.412211614452
 30
0.0
 10
498.9434026547336
 20
1225.652931053428
 30
0.0
 10
518.1192440014563
 20
1217.605720087941
 30
0.0
 10
537.1782390639562
 20
1209.272422597912
 30
0.0
 10
556.1160244698084
 20
1200.65494790705
 30
0.0
 10
574.928264627047
 20
1191.755270354501
 30
0.0
 10
593.6106526905174
 20
1182.575428810556
 30
0.0
 10
612.1589116336621
 20
1173.117526331268
 30
0.0
 10
630.5687948958598
 20
1163.383729225171
 30
0.0
 10
648.8360885818614
 20
1153.376268245007
 30
0.0
 10
666.9566078353836
 20
1143.097431780446
 30
0.0
 10
684.9262149209604
 20
1132.549588835216
 30
0.0
 10
702.7407562545059
 20
1121.735100780572
 30
0.0
 10
720.3963018836537
 20
1110.656648131798
 30
0.0
 10
737.8882561784911
 20
1099.316008379367
 30
0.0
 10
755.2146811637526
 20
1087.718614468885
 30
0.0
 10
772.3638980911293
 20
1075.856539639064
 30
0.0
 10
787.9269560310828
 20
1064.791413463546
 30
0.0
 10
797.6902946021119
 20
1057.567747275119
 30
0.0
 10
801.864765668609
 20
1054.479153626723
 30
0.0
  0
SPLINE
  5
A9
330
1F
100
AcDbEntity
  8
0
  6
Continuous
 62
     7
370
    15
100
AcDbSpline
210
0.0
220
0.0
230
1.0
 70
     8
 71
     3
 72
     9
 73
     5
 74
     0
 42
0.000000001
 43
0.00000001
 40
0.0
 40
0.0
 40
0.0
 40
0.0
 40
0.8601778071756765
 40
1.0
 40
1.0
 40
1.0
 40
1.0
 10
816.4807097363081
 20
1096.238108532663
 30
0.0
 10
811.6216182799778
 20
1099.781340002946
 30
0.0
 10
805.9726798677154
 20
1103.900524944391
 30
0.0
 10
800.236349242689
 20
1107.894403799711
 30
0.0
 10
799.4342829159324
 20
1108.452836699136
 30
0.0
  0
SPLINE
  5
AB
330
1F
100
AcDbEntity
  8
0
  6
Continuous
 62
     7
370
    15
100
AcDbSpline
210
0.0
220
0.0
230
1.0
 70
     8
 71
     3
 72
    25
 73
    21
 74
     0
 42
0.000000001
 43
0.00000001
 40
0.0
 40
0.0
 40
0.0
 40
0.0
 40
0.0412815910067461
 40
0.0990027219208568
 40
0.1567236404394998
 40
0.2144443360019303
 40
0.2721647981491571
 40
0.3298850165317774
 40
0.3876049809166215
 40
0.4453246811943096
 40
0.5030441073872346
 40
0.5607632496568739
 40
0.6184820983126632
 40
0.6762006438195088
 40
0.7339188768069524
 40
0.7916367880773537
 40
0.8493543686153776
 40
0.9070716095965523
 40
0.9647885023968915
 40
1.0
 40
1.0
 40
1.0
 40
1.0
 10
652.9803258650084
 20
1199.261901373181
 30
0.0
 10
648.5433582500185
 20
1201.657782272325
 30
0.0
 10
637.9024924246947
 20
1207.403654091428
 30
0.0
 10
620.8935719650232
 20
1216.180369571837
 30
0.0
 10
601.9832674312058
 20
1225.636700889504
 30
0.0
 10
582.935824993924
 20
1234.803725881479
 30
0.0
 10
563.7619475205956
 20
1243.69177873611
 30
0.0
 10
544.4641667199961
 20
1252.295568345267
 30
0.0
 10
525.0472388677166
 20
1260.61407040992
 30
0.0
 10
505.5153579367948
 20
1268.645197283832
 30
0.0
 10
485.8729016660252
 20
1276.387229162002
 30
0.0
 10
466.1242283625577
 20
1283.838421925663
 30
0.0
 10
446.2737378153271
 20
1290.997146969753
 30
0.0
 10
426.325824992263
 20
1297.861726347596
 30
0.0
 10
406.2849984596544
 20
1304.430954575665
 30
0.0
 10
386.1554471023274
 20
1310.702178410762
 30
0.0
 10
365.9426488728349
 20
1316.678457919038
 30
0.0
 10
345.6473631568537
 20
1322.341844587601
 30
0.0
 10
327.9342227457482
 20
1327.049786641323
 30
0.0
 10
316.9593172479239
 20
1329.744507833521
 30
0.0
 10
312.8008156645732
 20
1330.765564675119
 30
0.0
  0
SPLINE
  5
AC
330
1F
100
AcDbEntity
  8
0
  6
Continuous
 62
     7
370
    15
100
AcDbSpline
210
0.0
220
0.0
230
1.0
 70
     8
 71
     3
 72
    29
 73
    25
 74
     0
 42
0.000000001
 43
0.00000001
 40
0.0
 40
0.0
 40
0.0
 40
0.0
 40
0.0455055900165883
 40
0.0913689698006163
 40
0.1372320247312306
 40
0.1830947497394609
 40
0.2289571399950164
 40
0.2748191909145463
 40
0.3206808981697514
 40
0.3665422576955883
 40
0.4124032656984359
 40
0.4582639186639529
 40
0.504124213365155
 40
0.5499841468701004
 40
0.5958437165497489
 40
0.6417029200852303
 40
0.687561755475112
 40
0.7334202210427349
 40
0.7792783154428373
 40
0.8251360376681448
 40
0.8709933870556981
 40
0.9168503632926918
 40
0.9627069664223303
 40
1.0
 40
1.0
 40
1.0
 40
1.0
 10
222.3051047831368
 20
1350.007484388584
 30
0.0
 10
215.4548611732109
 20
1351.200888842526
 30
0.0
 10
201.7005136019778
 20
1353.597080947111
 30
0.0
 10
180.9862691580319
 20
1356.806701261775
 30
0.0
 10
160.1830555664324
 20
1359.738493854958
 30
0.0
 10
139.3451243183216
 20
1362.354914714332
 30
0.0
 10
118.4782960366914
 20
1364.663025191461
 30
0.0
 10
97.5868930119812
 20
1366.660266415387
 30
0.0
 10
76.6756461065059
 20
1368.34674478447
 30
0.0
 10
55.74918249263994
 20
1369.721940238026
 30
0.0
 10
34.81216159444556
 20
1370.785588377212
 30
0.0
 10
13.8692373518362
 20
1371.537444157458
 30
0.0
 10
-7.074933006166684
 20
1371.977345394557
 30
0.0
 10
-28.01569255133785
 20
1372.10519533904
 30
0.0
 10
-48.94838530325229
 20
1371.920969072933
 30
0.0
 10
-69.86835628424171
 20
1371.424705453965
 30
0.0
 10
-90.77095688339409
 20
1370.616532953423
 30
0.0
 10
-111.6515295732774
 20
1369.496574279342
 30
0.0
 10
-132.5054699009531
 20
1368.065301865693
 30
0.0
 10
-153.3280000259591
 20
1366.322211037387
 30
0.0
 10
-174.1150187759861
 20
1364.270771441329
 30
0.0
 10
-194.8599341209762
 20
1361.89994790902
 30
0.0
 10
-214.2766473054469
 20
1359.417916448524
 30
0.0
 10
-226.7524119436663
 20
1357.579519655172
 30
0.0
 10
-232.3478556278999
 20
1356.754989373881
 30
0.0
  0
SPLINE
  5
AD
330
1F
100
AcDbEntity
  8
0
  6
Continuous
 62
     7
370
    15
100
AcDbSpline
210
0.0
220
0.0
230
1.0
 70
     8
 71
     3
 72
    12
 73
     8
 74
     0
 42
0.000000001
 43
0.00000001
 40
0.0
 40
0.0
 40
0.0
 40
0.0
 40
0.2011521415344138
 40
0.431910621634249
 40
0.6626672930092302
 40
0.893422172917885
 40
1.0
 40
1.0
 40
1.0
 40
1.0
 10
-320.8255681129664
 20
1340.610762558599
 30
0.0
 10
-326.7379354498301
 20
1339.315559115797
 30
0.0
 10
-339.4328748738682
 20
1336.534519252853
 30
0.0
 10
-358.8188895709894
 20
1331.900362999578
 30
0.0
 10
-378.9913943124821
 20
1326.768800288031
 30
0.0
 10
-395.489111122858
 20
1322.354880448738
 30
0.0
 10
-405.2277602315795
 20
1319.54414759171
 30
0.0
 10
-408.3046159269008
 20
1318.656116890262
 30
0.0
  0
SPLINE
  5
AE
330
1F
100
AcDbEntity
  8
0
  6
Continuous
 62
     7
370
    15
100
AcDbSpline
210
0.0
220
0.0
230
1.0
 70
     8
 71
     3
 72
    29
 73
    25
 74
     0
 42
0.000000001
 43
0.00000001
 40
0.0
 40
0.0
 40
0.0
 40
0.0
 40
0.04022786318779
 40
0.0872615431978425
 40
0.1342948937777021
 40
0.1813279215989861
 40
0.2283606337152441
 40
0.2753930375567426
 40
0.3224251409247416
 40
0.3694569519851831
 40
0.4164884792614987
 40
0.4635197316267567
 40
0.5105507182951771
 40
0.5575814488128358
 40
0.6046119330478221
 40
0.6516421811799114
 40
0.6986722036891148
 40
0.7457020113439651
 40
0.792731615189162
 40
0.8397610265324371
 40
0.886790256931262
 40
0.9338193181782648
 40
0.9808482222870494
 40
1.0
 40
1.0
 40
1.0
 40
1.0
 10
-481.3064484167255
 20
1295.600810271281
 30
0.0
 10
-486.8981020946497
 20
1293.64533239178
 30
0.0
 10
-499.0274147227105
 20
1289.403545631744
 30
0.0
 10
-517.5590322170165
 20
1282.518567928895
 30
0.0
 10
-536.9239026152366
 20
1275.022148592554
 30
0.0
 10
-556.1646543212045
 20
1267.227360254725
 30
0.0
 10
-575.2807295082465
 20
1259.145993726439
 30
0.0
 10
-594.2668845355456
 20
1250.777152641703
 30
0.0
 10
-613.1191677297336
 20
1242.1234209707
 30
0.0
 10
-631.8333188408865
 20
1233.186530460233
 30
0.0
 10
-650.4051990902531
 20
1223.968520998034
 30
0.0
 10
-668.8306770639856
 20
1214.47142907955
 30
0.0
 10
-687.1056606068395
 20
1204.697370909098
 30
0.0
 10
-705.2260888212023
 20
1194.648518766592
 30
0.0
 10
-723.1879376010565
 20
1184.327109600261
 30
0.0
 10
-740.9872108745623
 20
1173.735431369071
 30
0.0
 10
-758.6199754297254
 20
1162.875866081029
 30
0.0
 10
-776.0822356518648
 20
1151.750728221123
 30
0.0
 10
-793.3704049776322
 20
1140.362864842391
 30
0.0
 10
-810.4795505341195
 20
1128.713413554913
 30
0.0
 10
-827.409948222724
 20
1116.810167123864
 30
0.0
 10
-844.14262295117
 20
1104.636353868488
 30
0.0
 10
-857.4530519602476
 20
1094.711148742468
 30
0.0
 10
-865.1152407420752
 20
1088.756167363377
 30
0.0
 10
-867.3325726326638
 20
1087.0328777792
 30
0.0
  0
SPLINE
  5
AF
330
1F
100
AcDbEntity
  8
0
  6
Continuous
 62
     7
370
    15
100
AcDbSpline
210
0.0
220
0.0
230
1.0
 70
     8
 71
     3
 72
    12
 73
     8
 74
     0
 42
0.000000001
 43
0.00000001
 40
0.0
 40
0.0
 40
0.0
 40
0.0
 40
0.0985417861987461
 40
0.3796803145286168
 40
0.6608184352565394
 40
0.9271605350849093
 40
1.0
 40
1.0
 40
1.0
 40
1.0
 10
-935.0116816671845
 20
1031.210098015826
 30
0.0
 10
-936.83134412113
 20
1029.620273857014
 30
0.0
 10
-943.8424816243258
 20
1023.494700534792
 30
0.0
 10
-955.8292411734146
 20
1012.591035397986
 30
0.0
 10
-970.6997205053069
 20
998.7478014832817
 30
0.0
 10
-981.6704023375098
 20
988.21329708288
 30
0.0
 10
-987.6103916476011
 20
982.3935362301474
 30
0.0
 10
-988.886008272802
 20
981.1437387455248
 30
0.0
  0
SPLINE
  5
B0
330
1F
100
AcDbEntity
  8
0
  6
Continuous
 62
     7
370
    15
100
AcDbSpline
210
0.0
220
0.0
230
1.0
 70
     8
 71
     3
 72
   101
 73
    97
 74
     0
 42
0.000000001
 43
0.00000001
 40
0.0
 40
0.0
 40
0.0
 40
0.0
 40
0.0055993371680434
 40
0.0163238122727933
 40
0.0270483579576906
 40
0.037772894951864
 40
0.0484974199178822
 40
0.0592219295375264
 40
0.0699464205150247
 40
0.0806708895815791
 40
0.0913953334999501
 40
0.1021197490688976
 40
0.1128441331275447
 40
0.1235684825595873
 40
0.1342927942975727
 40
0.1450170653268001
 40
0.1557412926893332
 40
0.1664654734876831
 40
0.1771896048885559
 40
0.1879136841262294
 40
0.1986377085059333
 40
0.2093616754070169
 40
0.2200855822858788
 40
0.2308094266789293
 40
0.241533206205106
 40
0.2522569185683599
 40
0.2629805615600344
 40
0.2737041330608754
 40
0.2844276310429805
 40
0.2951510535715126
 40
0.3058743988062803
 40
0.3165976650030371
 40
0.3273208505147061
 40
0.3380439537923011
 40
0.3487669733858131
 40
0.3594899079447236
 40
0.3702127562185694
 40
0.3809355170571428
 40
0.3916581894105964
 40
0.4023807723293924
 40
0.413103264964133
 40
0.423825666565108
 40
0.4345479764817949
 40
0.4452701941622388
 40
0.4559923191522046
 40
0.4667143510942466
 40
0.4774362897266671
 40
0.4881581348823424
 40
0.4988798864874455
 40
0.5096015445599935
 40
0.5203231092084797
 40
0.5310445806301899
 40
0.5417659591096132
 40
0.5524872450166943
 40
0.5632084388050128
 40
0.5739295410099516
 40
0.5846505522467464
 40
0.5953714732085659
 40
0.6060923046645172
 40
0.616813047457496
 40
0.6275337025022847
 40
0.6382542707833255
 40
0.648974753352703
 40
0.6596951513279823
 40
0.6704154658900794
 40
0.6811356982811883
 40
0.6918558498026393
 40
0.7025759218127516
 40
0.7132959157247968
 40
0.7240158330049284
 40
0.734735675170055
 40
0.7454554437859009
 40
0.7561751404649331
 40
0.7668947668644591
 40
0.7776143246846005
 40
0.7883338156665235
 40
0.7990532415904685
 40
0.8097726042739992
 40
0.8204919055701835
 40
0.8312111473658896
 40
0.8419303315800833
 40
0.8526494601622113
 40
0.8633685350905804
 40
0.8740875583708018
 40
0.8848065320343029
 40
0.8955254581368823
 40
0.9062443387572621
 40
0.9169631759957455
 40
0.9276819719728921
 40
0.938400728828226
 40
0.9491194487189782
 40
0.9598381338189618
 40
0.9705567863173248
 40
0.9812754084174476
 40
0.9919940023359047
 40
1.0
 40
1.0
 40
1.0
 40
1.0
 10
969.2447206901699
 20
-950.9661962587928
 30
0.0
 10
966.7116732489699
 20
-953.4420821591676
 30
0.0
 10
959.327050807547
 20
-960.6600609008718
 30
0.0
 10
946.9233465516323
 20
-972.448103952334
 30
0.0
 10
931.9640893052075
 20
-986.2510505127328
 30
0.0
 10
916.7887357025544
 20
-999.8178205157554
 30
0.0
 10
901.4046125625961
 20
-1013.149106111934
 30
0.0
 10
885.8142240961447
 20
-1026.240824702143
 30
0.0
 10
870.0214174359033
 20
-1039.090251286606
 30
0.0
 10
854.0297390053519
 20
-1051.694367461936
 30
0.0
 10
837.8428738697908
 20
-1064.050304668716
 30
0.0
 10
821.4645269414126
 20
-1076.155226270833
 30
0.0
 10
804.8984537255235
 20
-1088.006359981858
 30
0.0
 10
788.1484509844131
 20
-1099.600989988917
 30
0.0
 10
771.2183581285856
 20
-1110.936459858023
 30
0.0
 10
754.1120557211484
 20
-1122.010172532875
 30
0.0
 10
736.8334647437227
 20
-1132.819591094561
 30
0.0
 10
719.386545646395
 20
-1143.362239299379
 30
0.0
 10
701.7752974441192
 20
-1153.635702157876
 30
0.0
 10
684.0037567894257
 20
-1163.637626484507
 30
0.0
 10
666.0759970406333
 20
-1173.365721436617
 30
0.0
 10
647.9961273206845
 20
-1182.817759037646
 30
0.0
 10
629.7682915681643
 20
-1191.991574685763
 30
0.0
 10
611.3966675805214
 20
-1200.885067647461
 30
0.0
 10
592.8854660497011
 20
-1209.496201536126
 30
0.0
 10
574.2389295904815
 20
-1217.823004775446
 30
0.0
 10
555.4613317617277
 20
-1225.863571047608
 30
0.0
 10
536.5569760808058
 20
-1233.61605972617
 30
0.0
 10
517.5301950314904
 20
-1241.078696293529
 30
0.0
 10
498.3853490654587
 20
-1248.249772742928
 30
0.0
 10
479.1268255977599
 20
-1255.127647964933
 30
0.0
 10
459.7590379963929
 20
-1261.710748118301
 30
0.0
 10
440.2864245663548
 20
-1267.997566985174
 30
0.0
 10
420.7134475282522
 20
-1273.986666310581
 30
0.0
 10
401.0445919918995
 20
-1279.676676126134
 30
0.0
 10
381.2843649249435
 20
-1285.066295057939
 30
0.0
 10
361.4372941169548
 20
-1290.15429061861
 30
0.0
 10
341.50792713907
 20
-1294.939499483401
 30
0.0
 10
321.5008302995557
 20
-1299.420827750371
 30
0.0
 10
301.4205875953886
 20
-1303.597251184582
 30
0.0
 10
281.2717996602241
 20
-1307.467815446297
 30
0.0
 10
261.0590827089183
 20
-1311.031636303111
 30
0.0
 10
240.7870674788697
 20
-1314.287899826045
 30
0.0
 10
220.4603981683759
 20
-1317.235862569537
 30
0.0
 10
200.0837313722899
 20
-1319.874851735342
 30
0.0
 10
179.6617350152017
 20
-1322.204265320291
 30
0.0
 10
159.1990872823453
 20
-1324.223572247933
 30
0.0
 10
138.7004755484809
 20
-1325.932312484017
 30
0.0
 10
118.1705953050448
 20
-1327.330097135827
 30
0.0
 10
97.61414908566913
 20
-1328.41660853534
 30
0.0
 10
77.03584539045782
 20
-1329.191600306242
 30
0.0
 10
56.44039760908925
 20
-1329.654897414754
 30
0.0
 10
35.83252294314087
 20
-1329.8063962043
 30
0.0
 10
15.21694132773688
 20
-1329.64606441402
 30
0.0
 10
-5.40162564718405
 20
-1329.173941181113
 30
0.0
 10
-26.01845581574946
 20
-1328.390137027041
 30
0.0
 10
-46.62882751501518
 20
-1327.294833827596
 30
0.0
 10
-67.22802066351807
 20
-1325.888284766827
 30
0.0
 10
-87.81131783925522
 20
-1324.170814274892
 30
0.0
 10
-108.3740053569903
 20
-1322.14281794977
 30
0.0
 10
-128.9113743444765
 20
-1319.804762462957
 30
0.0
 10
-149.4187218175949
 20
-1317.157185449068
 30
0.0
 10
-169.8913517539116
 20
-1314.200695379444
 30
0.0
 10
-190.324576164645
 20
-1310.935971419766
 30
0.0
 10
-210.7137161646961
 20
-1307.363763271689
 30
0.0
 10
-231.0541030405633
 20
-1303.484890998561
 30
0.0
 10
-251.3410793158641
 20
-1299.300244835249
 30
0.0
 10
-271.5699998142655
 20
-1294.810784982108
 30
0.0
 10
-291.7362327196067
 20
-1290.017541383135
 30
0.0
 10
-311.8351606329397
 20
-1284.92161348837
 30
0.0
 10
-331.8621816262999
 20
-1279.524170000555
 30
0.0
 10
-351.8127102929065
 20
-1273.826448606168
 30
0.0
 10
-371.6821787936966
 20
-1267.829755690781
 30
0.0
 10
-391.4660378997668
 20
-1261.535466038938
 30
0.0
 10
-411.1597580307187
 20
-1254.945022518463
 30
0.0
 10
-430.7588302884569
 20
-1248.059935749398
 30
0.0
 10
-450.2587674864071
 20
-1240.88178375753
 30
0.0
 10
-469.6551051737152
 20
-1233.41221161265
 30
0.0
 10
-488.9434026544377
 20
-1225.652931051628
 30
0.0
 10
-508.1192440011644
 20
-1217.60572008614
 30
0.0
 10
-527.1782390636623
 20
-1209.272422596111
 30
0.0
 10
-546.116024469518
 20
-1200.65494790525
 30
0.0
 10
-564.9282646267628
 20
-1191.755270352698
 30
0.0
 10
-583.6106526902365
 20
-1182.575428808751
 30
0.0
 10
-602.1589116333898
 20
-1173.11752632946
 30
0.0
 10
-620.5687948955884
 20
-1163.383729223363
 30
0.0
 10
-638.8360885815927
 20
-1153.376268243197
 30
0.0
 10
-656.9566078351095
 20
-1143.097431778639
 30
0.0
 10
-674.9262149206867
 20
-1132.54958883341
 30
0.0
 10
-692.7407562542252
 20
-1121.735100778772
 30
0.0
 10
-710.396301883367
 20
-1110.656648130001
 30
0.0
 10
-727.8882561782012
 20
-1099.316008377573
 30
0.0
 10
-745.214681163469
 20
-1087.718614467087
 30
0.0
 10
-762.363898090848
 20
-1075.856539637265
 30
0.0
 10
-777.9269560308041
 20
-1064.791413461746
 30
0.0
 10
-787.6902946018363
 20
-1057.567747273317
 30
0.0
 10
-791.8647656683393
 20
-1054.479153624917
 30
0.0
  0
SPLINE
  5
B2
330
1F
100
AcDbEntity
  8
0
  6
Continuous
 62
     7
370
    15
100
AcDbSpline
210
0.0
220
0.0
230
1.0
 70
     8
 71
     3
 72
     9
 73
     5
 74
     0
 42
0.000000001
 43
0.00000001
 40
0.0
 40
0.0
 40
0.0
 40
0.0
 40
0.5496521807218601
 40
1.0
 40
1.0
 40
1.0
 40
1.0
 10
-794.7436405521837
 20
-1104.68461837519
 30
0.0
 10
-793.7780839572301
 20
-1105.385359575268
 30
0.0
 10
-792.0214155970946
 20
-1106.660240717663
 30
0.0
 10
-790.2376140516716
 20
-1107.896217326748
 30
0.0
 10
-789.4342829156653
 20
-1108.452836697328
 30
0.0
  0
SPLINE
  5
B4
330
1F
100
AcDbEntity
  8
0
  6
Continuous
 62
     7
370
    15
100
AcDbSpline
210
0.0
220
0.0
230
1.0
 70
     8
 71
     3
 72
    51
 73
    47
 74
     0
 42
0.000000001
 43
0.00000001
 40
0.0
 40
0.0
 40
0.0
 40
0.0
 40
0.0164323625016454
 40
0.0394085735452101
 40
0.0623847000435998
 40
0.0853607377930175
 40
0.1083366826303139
 40
0.1313125304357405
 40
0.1542882771359683
 40
0.1772639187069017
 40
0.2002394511768508
 40
0.2232148706296731
 40
0.2461901732078118
 40
0.2691653551159144
 40
0.2921404126239453
 40
0.3151153420707892
 40
0.3380901398677571
 40
0.3610648025022847
 40
0.384039326541548
 40
0.407013708636236
 40
0.4299879455244278
 40
0.4529620340354048
 40
0.4759359710936932
 40
0.49890975372292
 40
0.5218833790499874
 40
0.5448568443090117
 40
0.567830146845381
 40
0.5908032841200771
 40
0.6137762537134878
 40
0.6367490533298285
 40
0.6597216808009749
 40
0.682694134090686
 40
0.7056664112987127
 40
0.7286385106646812
 40
0.751610430572196
 40
0.774582169552562
 40
0.7975537262888689
 40
0.8205250996195659
 40
0.8434962885421651
 40
0.8664672922167778
 40
0.8894381099695303
 40
0.912408741295884
 40
0.935379185863771
 40
0.958349443516506
 40
0.9813195142756647
 40
1.0
 40
1.0
 40
1.0
 40
1.0
 10
-642.980325864749
 20
-1199.261901371366
 30
0.0
 10
-638.5433582497551
 20
-1201.657782270508
 30
0.0
 10
-627.9024924244243
 20
-1207.403654089604
 30
0.0
 10
-610.8935719647668
 20
-1216.18036957011
 30
0.0
 10
-591.98326743087
 20
-1225.636700887394
 30
0.0
 10
-572.9358249939007
 20
-1234.803725880787
 30
0.0
 10
-553.7619475193787
 20
-1243.691778730135
 30
0.0
 10
-534.4641667231971
 20
-1252.295568359024
 30
0.0
 10
-515.0472388543648
 20
-1260.614070350064
 30
0.0
 10
-495.515357985205
 20
-1268.645197498703
 30
0.0
 10
-475.872901483966
 20
-1276.387228351572
 30
0.0
 10
-456.1242290406167
 20
-1283.838424941674
 30
0.0
 10
-436.2737352834518
 20
-1290.997135705385
 30
0.0
 10
-416.3258344399337
 20
-1297.8617683779
 30
0.0
 10
-396.2849631994549
 20
-1304.430797709151
 30
0.0
 10
-376.1555786927413
 20
-1310.702763831064
 30
0.0
 10
-355.942157773653
 20
-1316.676273111095
 30
0.0
 10
-335.6491959463303
 20
-1322.349998320763
 30
0.0
 10
-315.281206381941
 20
-1327.722678968835
 30
0.0
 10
-294.8427189062743
 20
-1332.793121571396
 30
0.0
 10
-274.3382789903015
 20
-1337.560199919747
 30
0.0
 10
-253.772446735353
 20
-1342.022855329724
 30
0.0
 10
-233.1497958555264
 20
-1346.180096876732
 30
0.0
 10
-212.4749126568193
 20
-1350.031001615292
 30
0.0
 10
-191.7523950135271
 20
-1353.57471478332
 30
0.0
 10
-170.9868513419992
 20
-1356.810449991036
 30
0.0
 10
-150.1828995720122
 20
-1359.737489394468
 30
0.0
 10
-129.3451661160829
 20
-1362.355183853476
 30
0.0
 10
-108.4782848367805
 20
-1364.66295307434
 30
0.0
 10
-87.58689601259762
 20
-1366.660285736592
 30
0.0
 10
-66.67564530214176
 20
-1368.346739605124
 30
0.0
 10
-45.74918270780592
 20
-1369.721941623509
 30
0.0
 10
-24.8121615364395
 20
-1370.785588003673
 30
0.0
 10
-3.869237367023826
 20
-1371.537444255241
 30
0.0
 10
17.07493301059926
 20
-1371.97734536605
 30
0.0
 10
38.01569255052284
 20
-1372.105195344372
 30
0.0
 10
58.94838530383706
 20
-1371.920969069197
 30
0.0
 10
79.86835628444089
 20
-1371.424705452659
 30
0.0
 10
100.7709568836909
 20
-1370.616532951465
 30
0.0
 10
121.6515295735491
 20
-1369.496574277559
 30
0.0
 10
142.5054699012296
 20
-1368.065301863863
 30
0.0
 10
163.3280000262307
 20
-1366.322211035569
 30
0.0
 10
184.115018776265
 20
-1364.270771439507
 30
0.0
 10
204.8599341212578
 20
-1361.899947907198
 30
0.0
 10
224.2766473058994
 20
-1359.417916446677
 30
0.0
 10
236.7524119442824
 20
-1357.579519653302
 30
0.0
 10
242.3478556286864
 20
-1356.754989371985
 30
0.0
  0
SPLINE
  5
B5
330
1F
100
AcDbEntity
  8
0
  6
Continuous
 62
     7
370
    15
100
AcDbSpline
210
0.0
220
0.0
230
1.0
 70
     8
 71
     3
 72
    12
 73
     8
 74
     0
 42
0.000000001
 43
0.00000001
 40
0.0
 40
0.0
 40
0.0
 40
0.0
 40
0.2011521415393927
 40
0.4319106216376678
 40
0.6626672930114074
 40
0.8934221729186681
 40
1.0
 40
1.0
 40
1.0
 40
1.0
 10
330.8255681126968
 20
-1340.610762556897
 30
0.0
 10
336.7379354497414
 20
-1339.315559114055
 30
0.0
 10
349.4328748739537
 20
-1336.534519251074
 30
0.0
 10
368.8188895712512
 20
-1331.900362997757
 30
0.0
 10
388.9913943127386
 20
-1326.768800286211
 30
0.0
 10
405.4891111231108
 20
-1322.354880446919
 30
0.0
 10
415.227760231826
 20
-1319.544147589893
 30
0.0
 10
418.3046159271426
 20
-1318.656116888446
 30
0.0
  0
SPLINE
  5
B6
330
1F
100
AcDbEntity
  8
0
  6
Continuous
 62
     7
370
    15
100
AcDbSpline
210
0.0
220
0.0
230
1.0
 70
     8
 71
     3
 72
    28
 73
    24
 74
     0
 42
0.000000001
 43
0.00000001
 40
0.0
 40
0.0
 40
0.0
 40
0.0
 40
0.0418358187248651
 40
0.0907494908649083
 40
0.1396628204070073
 40
0.1885758142895245
 40
0.2374884798479043
 40
0.2864008248093369
 40
0.3353128572870636
 40
0.3842245857733517
 40
0.4331360191323918
 40
0.4820471665918081
 40
0.5309580377340817
 40
0.579868642486954
 40
0.6287789911130185
 40
0.6776890941988633
 40
0.7265989626433611
 40
0.7755086076455681
 40
0.8244180406915698
 40
0.8733272735411972
 40
0.9222363182136725
 40
0.971145186973211
 40
1.0
 40
1.0
 40
1.0
 40
1.0
 10
491.3064484169864
 20
-1295.60081026946
 30
0.0
 10
496.8981020949175
 20
-1293.645332389956
 30
0.0
 10
509.0274147229873
 20
-1289.403545629916
 30
0.0
 10
527.5590322173015
 20
-1282.518567927065
 30
0.0
 10
546.9239026155179
 20
-1275.022148590716
 30
0.0
 10
566.1646543215118
 20
-1267.227360252916
 30
0.0
 10
585.280729508459
 20
-1259.145993724513
 30
0.0
 10
604.2668845360942
 20
-1250.777152640223
 30
0.0
 10
623.1191677290016
 20
-1242.123420967562
 30
0.0
 10
641.8333188449269
 20
-1233.186530463285
 30
0.0
 10
660.4051990765458
 20
-1223.968520977949
 30
0.0
 10
678.8306771165769
 20
-1214.471429145775
 30
0.0
 10
697.1056604120242
 20
-1204.697370653199
 30
0.0
 10
715.2260895496784
 20
-1194.648519712883
 30
0.0
 10
733.1879348837626
 20
-1184.327106059962
 30
0.0
 10
750.9872210169706
 20
-1173.735444572816
 30
0.0
 10
768.6199375794375
 20
-1162.875816795581
 30
0.0
 10
786.082376911547
 20
-1151.750912146919
 30
0.0
 10
803.3698777941344
 20
-1140.362178417595
 30
0.0
 10
820.4815179993343
 20
-1128.715975302892
 30
0.0
 10
837.4026055855742
 20
-1116.800606595528
 30
0.0
 10
851.8783351092976
 20
-1106.32970932146
 30
0.0
 10
860.6347027086107
 20
-1099.72914041279
 30
0.0
 10
863.8838203438361
 20
-1097.279948484693
 30
0.0
  0
LWPOLYLINE
  5
B8
330
1F
100
AcDbEntity
  8
0
  6
Continuous
 62
     7
370
    15
100
AcDbPolyline
 90
       44
 70
   128
 43
0.0
 10
106.8871632037
 20
1110.5416100216
 10
135.5988017477
 20
1098.705457124
 10
164.2508500412
 20
1086.1584463626
 10
192.8233617374
 20
1072.9093124364
 10
221.2964458598
 20
1058.9672788334
 10
249.6502806492
 20
1044.3420514089
 10
277.8651273627
 20
1029.0438116287
 10
305.9213440148
 20
1013.0832094817
 10
333.799399052
 20
996.4713560654
 10
361.479884949
 20
979.2198158509
 10
388.9435317201
 20
961.3405986322
 10
416.1712203335
 20
942.8461511658
 10
443.1439960219
 20
923.7493485052
 10
469.8430814773
 20
904.0634850384
 10
496.2498899235
 20
883.8022652325
 10
522.3460380551
 20
862.9797940935
 10
548.1133588354
 20
841.6105673469
 10
573.5339141432
 20
819.7094613463
 10
598.590007261
 20
797.2917227172
 10
623.2641951944
 20
774.3729577429
 10
647.5393008154
 20
750.9691215003
 10
671.3984248201
 20
727.0965067522
 10
694.8249574934
 20
702.7717326052
 10
717.8025902723
 20
678.0117329404
 10
740.3153270987
 20
652.8337446243
 10
762.3474955554
 20
627.2552955097
 10
783.883757777
 20
601.2941922331
 10
804.9091211265
 20
574.9685078187
 10
825.4089486337
 20
548.2965690967
 10
845.3689691839
 20
521.2969439452
 10
864.7752874533
 20
493.9884283633
 10
883.6143935825
 20
466.3900333869
 10
901.8731725808
 20
438.5209718536
 10
919.538913457
 20
410.4006450277
 10
936.5993180682
 20
382.0486290937
 10
953.0425096807
 20
353.4846615283
 10
968.8570412387
 20
324.72862736
 10
984.0319033327
 20
295.800545326
 10
998.5565318645
 20
266.7205539358
 10
1012.4208154006
 20
237.5088974519
 10
1025.6151022122
 20
208.1859117966
 10
1038.1302069936
 20
178.7720103947
 10
1049.9574172574
 20
149.2876699627
 10
1061.0884993988
 20
119.7534162539
  0
CIRCLE
  5
BC
330
1F
100
AcDbEntity
  8
0
  6
Continuous
 62
   144
370
     0
100
AcDbCircle
 10
755.0000000001
 20
1389.1591818071
 30
0.0
 40
5.500000000000227
  0
CIRCLE
  5
BD
330
1F
100
AcDbEntity
  8
0
  6
Continuous
 62
   144
370
     0
100
AcDbCircle
 10
1265.0000000001
 20
802.8781577528
 30
0.0
 40
5.5
  0
CIRCLE
  5
BE
330
1F
100
AcDbEntity
  8
0
  6
Continuous
 62
   144
370
     0
100
AcDbCircle
 10
1088.0641497666
 20
251.533309789
 30
0.0
 40
5.500000000000313
  0
CIRCLE
  5
BF
330
1F
100
AcDbEntity
  8
0
  6
Continuous
 62
   144
370
     0
100
AcDbCircle
 10
517.7795303374
 20
961.009492904
 30
0.0
 40
5.499999999999886
  0
CIRCLE
  5
C8
330
1F
100
AcDbEntity
  8
0
  6
Continuous
 62
   144
370
     0
100
AcDbCircle
 10
144.9241120513
 20
1175.2249500659
 30
0.0
 40
5.499999999999773
  0
CIRCLE
  5
C9
330
1F
100
AcDbEntity
  8
0
  6
Continuous
 62
   144
370
     0
100
AcDbCircle
 10
155.0
 20
1391.469110451
 30
0.0
 40
5.5
  0
CIRCLE
  5
CA
330
1F
100
AcDbEntity
  8
0
  6
Continuous
 62
   144
370
     0
100
AcDbCircle
 10
831.025971366
 20
661.216500687
 30
0.0
 40
5.5
  0
CIRCLE
  5
CB
330
1F
100
AcDbEntity
  8
0
  6
Continuous
 62
   144
370
     0
100
AcDbCircle
 10
1265.0000000001
 20
1302.8781577528
 30
0.0
 40
5.5
  0
CIRCLE
  5
24D
330
1F
100
AcDbEntity
  8
0
  6
Continuous
 62
   144
370
     0
100
AcDbCircle
 10
-744.9999999999
 20
-1389.1591818052
 30
0.0
 40
5.5
  0
CIRCLE
  5
24E
330
1F
100
AcDbEntity
  8
0
  6
Continuous
 62
   144
370
     0
100
AcDbCircle
 10
-1254.9999999998
 20
-802.878157751
 30
0.0
 40
5.499999999999886
  0
CIRCLE
  5
24F
330
1F
100
AcDbEntity
  8
0
  6
Continuous
 62
     7
370
    15
100
AcDbCircle
 10
-1078.0641497663
 20
-251.5333097872
 30
0.0
 40
5.500000000000455
  0
CIRCLE
  5
250
330
1F
100
AcDbEntity
  8
0
  6
Continuous
 62
     7
370
    15
100
AcDbCircle
 10
-507.7795303371
 20
-961.0094929021
 30
0.0
 40
5.5
  0
CIRCLE
  5
25C
330
1F
100
AcDbEntity
  8
0
  6
Continuous
 62
   144
370
     0
100
AcDbCircle
 10
-144.9999999998
 20
-1391.4691104492
 30
0.0
 40
5.500000000000227
  0
CIRCLE
  5
25D
330
1F
100
AcDbEntity
  8
0
  6
Continuous
 62
     7
370
    15
100
AcDbCircle
 10
-821.0259713657
 20
-661.2165006852
 30
0.0
 40
5.499999999999773
  0
CIRCLE
  5
25E
330
1F
100
AcDbEntity
  8
0
  6
Continuous
 62
     7
370
    15
100
AcDbCircle
 10
-1254.9999999998
 20
-302.878157751
 30
0.0
 40
5.500000000000171
  0
CIRCLE
  5
25F
330
1F
100
AcDbEntity
  8
0
  6
Continuous
 62
     7
370
    15
100
AcDbCircle
 10
-1254.9999999999
 20
-1302.878157751
 30
0.0
 40
5.499999999999773
  0
CIRCLE
  5
260
330
1F
100
AcDbEntity
  8
0
  6
Continuous
 62
   144
370
     0
100
AcDbCircle
 10
-134.9241120511
 20
-1175.2249500641
 30
0.0
 40
5.5
  0
LWPOLYLINE
  5
266
330
1F
100
AcDbEntity
  8
0
  6
Continuous
 62
     7
370
    15
100
AcDbPolyline
 90
       44
 70
   128
 43
0.0
 10
-96.8871632034
 20
-1110.5416100198
 10
-125.7459362361
 20
-1098.6429060541
 10
-154.5444026897
 20
-1086.0260775162
 10
-183.2623081043
 20
-1072.6999980402
 10
-211.8794546799
 20
-1058.6740400884
 10
-240.375715482
 20
-1043.9580683598
 10
-268.7310485972
 20
-1028.562432852
 10
-296.9255112288
 20
-1012.497961582
 10
-324.9392737232
 20
-995.7759529705
 10
-352.7526335164
 20
-978.4081678956
 10
-380.3460289909
 20
-960.4068214211
 10
-407.7000532343
 20
-941.7845742057
 10
-434.7954676876
 20
-922.5545235981
 10
-461.6132156769
 20
-902.7301944258
 10
-488.1344358159
 20
-882.3255294827
 10
-514.3404752713
 20
-861.3548797227
 10
-540.212902882
 20
-839.8329941669
 10
-565.7335221219
 20
-817.7750095299
 10
-590.8843838976
 20
-795.1964395741
 10
-615.6477991728
 20
-772.1131641986
 10
-640.0063514088
 20
-748.5414182705
 10
-663.9429088142
 20
-724.4977802067
 10
-687.4406363939
 20
-699.9991603141
 10
-710.4830077893
 20
-675.062788896
 10
-733.0538169018
 20
-649.7062041342
 10
-755.1371892906
 20
-623.9472397536
 10
-776.7175933377
 20
-597.8040124798
 10
-797.7798511714
 20
-571.2949092969
 10
-818.3091493411
 20
-544.4385745161
 10
-838.2910492362
 20
-517.2538966626
 10
-857.7114972405
 20
-489.7599951908
 10
-876.5568346169
 20
-461.9762070375
 10
-894.8138071132
 20
-433.9220730219
 10
-912.4695742848
 20
-405.617324102
 10
-929.511718525
 20
-377.0818674976
 10
-945.9282537988
 20
-348.3357726894
 10
-961.7076340727
 20
-319.3992573034
 10
-976.8387614355
 20
-290.2926728916
 10
-991.3109939033
 20
-261.0364906189
 10
-1005.1141529047
 20
-231.6512868645
 10
-1018.2385304388
 20
-202.1577287509
 10
-1030.6748959039
 20
-172.576559608
 10
-1042.4145025889
 20
-142.9285843841
 10
-1053.449093825
 20
-113.2346550135
  0
SPLINE
  5
270
330
1F
100
AcDbEntity
  8
0
  6
Continuous
 62
   144
370
     0
100
AcDbSpline
210
0.0
220
0.0
230
1.0
 70
     8
 71
     3
 72
    11
 73
     7
 74
     0
 42
0.000000001
 43
0.00000001
 40
0.0
 40
0.0
 40
0.0
 40
0.0
 40
0.0720352626022512
 40
0.4609286406356587
 40
0.8498216839699376
 40
1.0
 40
1.0
 40
1.0
 40
1.0
 10
2025.000000000123
 20
-1176.30258416933
 30
0.0
 10
2024.903813737737
 20
-1176.29464110373
 30
0.0
 10
2024.288351232735
 20
-1176.243816184135
 30
0.0
 10
2023.532314747866
 20
-1175.809895714752
 30
0.0
 10
2023.042701151749
 20
-1175.267032870124
 30
0.0
 10
2023.009304011831
 20
-1174.920107398318
 30
0.0
 10
2023.000000000134
 20
-1174.823458444077
 30
0.0
  0
SPLINE
  5
272
330
1F
100
AcDbEntity
  8
0
  6
Continuous
 62
   144
370
     0
100
AcDbSpline
210
0.0
220
0.0
230
1.0
 70
     8
 71
     3
 72
    10
 73
     6
 74
     0
 42
0.000000001
 43
0.00000001
 40
0.0
 40
0.0
 40
0.0
 40
0.0
 40
0.3914498364195705
 40
0.7830166670726331
 40
1.0
 40
1.0
 40
1.0
 40
1.0
 10
2023.000000000134
 20
-881.7060617996141
 30
0.0
 10
2023.065862169081
 20
-881.9532635132451
 30
0.0
 10
2023.197606191474
 20
-882.4477408227068
 30
0.0
 10
2023.977582390487
 20
-882.9956916749602
 30
0.0
 10
2024.731267620978
 20
-883.121370598874
 30
0.0
 10
2025.000000000126
 20
-883.1661824047392
 30
0.0
  0
CIRCLE
  5
27D
330
1F
100
AcDbEntity
  8
0
  6
Continuous
 62
   144
370
     0
100
AcDbCircle
 10
1265.0000000001
 20
302.8781577528
 30
0.0
 40
8.75
  0
LWPOLYLINE
  5
2C2
330
1F
100
AcDbEntity
  8
0
  6
Continuous
 62
     7
370
    15
100
AcDbPolyline
 90
       52
 70
   128
 43
0.0
 10
-1004.5097166359
 20
714.2304548459
 10
-996.7257008943
 20
738.5961487539
 10
-988.1976165468
 20
762.491963762
 10
-978.9315258117
 20
785.9009134475
 10
-968.9340155217
 20
808.8063574777
 10
-958.2121924414
 20
831.1920134383
 10
-946.773678216
 20
853.0419684085
 10
-934.6266039527
 20
874.3406902722
 10
-921.7796044413
 20
895.0730387594
 10
-908.2418120158
 20
915.2242762085
 10
-894.0228500629
 20
934.7800780426
 10
-879.1328261807
 20
953.7265429523
 10
-863.5823249942
 20
972.0502027777
 10
-847.3824006309
 20
989.7380320818
 10
-830.5445688632
 20
1006.7774574098
 10
-813.0807989218
 20
1023.1563662276
 10
-795.0035049882
 20
1038.863115531
 10
-776.325537369
 20
1053.886540123
 10
-757.0601733623
 20
1068.2159605503
 10
-737.2211078187
 20
1081.8411906949
 10
-716.8224434064
 20
1094.7525450149
 10
-695.8786805865
 20
1106.9408454292
 10
-674.4047073054
 20
1118.3974278425
 10
-652.4157884112
 20
1129.1141483035
 10
-629.9275548028
 20
1139.0833887945
 10
-606.9559923189
 20
1148.2980626463
 10
-583.5174303742
 20
1156.7516195763
 10
-559.6285303513
 20
1164.4380503442
 10
-535.3062737575
 20
1171.3518910241
 10
-510.567950153
 20
1177.4882268885
 10
-485.4311448606
 20
1182.8426959018
 10
-459.9137264654
 20
1187.4114918213
 10
-434.0338341123
 20
1191.1913669025
 10
-407.8098646123
 20
1194.1796342081
 10
-381.2604593649
 20
1196.3741695181
 10
-354.4044911065
 20
1197.7734128394
 10
-327.2610504951
 20
1198.376369515
 10
-299.8494325392
 20
1198.1826109312
 10
-272.1891228823
 20
1197.1922748218
 10
-244.299783951
 20
1195.4060651708
 10
-216.2012409785
 20
1192.8252517114
 10
-187.9134679111
 20
1189.4516690238
 10
-159.4565732101
 20
1185.2877152309
 10
-130.8507855574
 20
1180.3363502937
 10
-102.1164394763
 20
1174.6010939071
 10
-73.2739608759
 20
1168.0860229978
 10
-44.3438525318
 20
1160.7957688266
 10
-15.3466795116
 20
1152.7355136959
 10
13.696945444
 20
1143.9109872659
 10
42.7663765737
 20
1134.3284624816
 10
71.8409497721
 20
1123.994751114
 10
100.8999972781
 20
1112.9171989176
  0
CIRCLE
  5
2CB
330
1F
100
AcDbEntity
  8
0
  6
Continuous
 62
     7
370
    15
100
AcDbCircle
 10
55.0901388588
 20
1389.1591818071
 30
0.0
 40
5.5
  0
CIRCLE
  5
2CC
330
1F
100
AcDbEntity
  8
0
  6
Continuous
 62
   144
370
     0
100
AcDbCircle
 10
-1254.9999999999
 20
1324.1591818071
 30
0.0
 40
5.5
  0
CIRCLE
  5
2CD
330
1F
100
AcDbEntity
  8
0
  6
Continuous
 62
   144
370
     0
100
AcDbCircle
 10
-1032.7348703236
 20
848.6194019353
 30
0.0
 40
5.500000000000227
  0
CIRCLE
  5
2CE
330
1F
100
AcDbEntity
  8
0
  6
Continuous
 62
     7
370
    15
100
AcDbCircle
 10
-1254.9999999999
 20
874.1591818071
 30
0.0
 40
5.5
  0
CIRCLE
  5
2CF
330
1F
100
AcDbEntity
  8
0
  6
Continuous
 62
   144
370
     0
100
AcDbCircle
 10
-744.9999999999
 20
1389.1591818071
 30
0.0
 40
5.500000000000227
  0
CIRCLE
  5
2D0
330
1F
100
AcDbEntity
  8
0
  6
Continuous
 62
   144
370
     0
100
AcDbCircle
 10
75.7161166277
 20
1201.4476918182
 30
0.0
 40
5.5
  0
SPLINE
  5
361
330
1F
100
AcDbEntity
  8
0
  6
Continuous
 62
     7
370
    15
100
AcDbSpline
210
0.0
220
0.0
230
1.0
 70
    24
 71
     3
 72
    13
 73
     9
 74
     0
 42
0.000000001
 43
0.00000001
 40
0.0
 40
0.0
 40
0.0
 40
0.0
 40
0.2227737310675502
 40
0.3586416344990647
 40
0.496896162400049
 40
0.5910985945546586
 40
0.7119666477799276
 40
1.0
 40
1.0
 40
1.0
 40
1.0
 10
593.4219913541001
 20
1308.789592381679
 30
0.0
 10
600.2716020922569
 20
1302.128685002963
 30
0.0
 10
702.1928836094886
 20
1203.015283956012
 30
0.0
 10
760.2565653955662
 20
1146.55122764258
 30
0.0
 10
822.0262013803675
 20
1086.483314320172
 30
0.0
 10
877.2686106351
 20
1032.762805887022
 30
0.0
 10
960.5197420482109
 20
951.8052016209767
 30
0.0
 10
1056.777008061302
 20
858.1997752760819
 30
0.0
 10
1116.519259875484
 20
800.1033927015975
 30
0.0
  0
SPLINE
  5
362
330
1F
100
AcDbEntity
  8
0
  6
Continuous
 62
     7
370
    15
100
AcDbSpline
210
0.0
220
0.0
230
1.0
 70
    24
 71
     3
 72
    13
 73
     9
 74
     0
 42
0.000000001
 43
0.00000001
 40
0.0
 40
0.0
 40
0.0
 40
0.0
 40
0.2227737310675502
 40
0.3586416344990647
 40
0.496896162400049
 40
0.5910985945546586
 40
0.7119666477799276
 40
1.0
 40
1.0
 40
1.0
 40
1.0
 10
590.6333412730809
 20
1305.92193990524
 30
0.0
 10
597.4829520112377
 20
1299.261032526523
 30
0.0
 10
699.4042335284696
 20
1200.147631479573
 30
0.0
 10
757.4679153145458
 20
1143.683575166141
 30
0.0
 10
819.2375512993486
 20
1083.615661843733
 30
0.0
 10
874.4799605540794
 20
1029.895153410582
 30
0.0
 10
957.731091967192
 20
948.9375491445384
 30
0.0
 10
1053.988357980283
 20
855.3321227996424
 30
0.0
 10
1113.730609794464
 20
797.2357402251572
 30
0.0
  0
SPLINE
  5
37B
330
1F
100
AcDbEntity
  8
0
  6
Continuous
 62
     7
370
    15
100
AcDbSpline
210
0.0
220
0.0
230
1.0
 70
    24
 71
     3
 72
    13
 73
     9
 74
     0
 42
0.000000001
 43
0.00000001
 40
0.0
 40
0.0
 40
0.0
 40
0.0
 40
0.2227737310675502
 40
0.3586416344990647
 40
0.496896162400049
 40
0.5910985945546586
 40
0.7119666477799276
 40
1.0
 40
1.0
 40
1.0
 40
1.0
 10
767.0329702240628
 20
-1266.191249195205
 30
0.0
 10
773.1214575820062
 20
-1258.828153646166
 30
0.0
 10
863.7173261276831
 20
-1149.266287581084
 30
0.0
 10
915.3290170725253
 20
-1086.849830170115
 30
0.0
 10
970.2348594882469
 20
-1020.449599679376
 30
0.0
 10
1019.33877549564
 20
-961.0659130363059
 30
0.0
 10
1093.339106393227
 20
-871.5738150772776
 30
0.0
 10
1178.900340401199
 20
-768.1005705328189
 30
0.0
 10
1232.004079987373
 20
-703.8797081745953
 30
0.0
  0
SPLINE
  5
37C
330
1F
100
AcDbEntity
  8
0
  6
Continuous
 62
     7
370
    15
100
AcDbSpline
210
0.0
220
0.0
230
1.0
 70
    24
 71
     3
 72
    13
 73
     9
 74
     0
 42
0.000000001
 43
0.00000001
 40
0.0
 40
0.0
 40
0.0
 40
0.0
 40
0.2227737310675502
 40
0.3586416344990647
 40
0.496896162400049
 40
0.5910985945546586
 40
0.7119666477799276
 40
1.0
 40
1.0
 40
1.0
 40
1.0
 10
770.1155978349777
 20
-1268.740250374573
 30
0.0
 10
776.2040851929214
 20
-1261.377154825534
 30
0.0
 10
866.7999537385987
 20
-1151.815288760453
 30
0.0
 10
918.41164468344
 20
-1089.398831349484
 30
0.0
 10
973.3174870991612
 20
-1022.998600858744
 30
0.0
 10
1022.421403106556
 20
-963.6149142156759
 30
0.0
 10
1096.421734004141
 20
-874.1228162566459
 30
0.0
 10
1181.982968012114
 20
-770.6495717121863
 30
0.0
 10
1235.086707598289
 20
-706.4287093539649
 30
0.0
  0
SPLINE
  5
388
330
1F
100
AcDbEntity
  8
0
  6
Continuous
 62
     7
370
    15
100
AcDbSpline
210
0.0
220
0.0
230
1.0
 70
    24
 71
     3
 72
    13
 73
     9
 74
     0
 42
0.000000001
 43
0.00000001
 40
0.0
 40
0.0
 40
0.0
 40
0.0
 40
0.2227737310675502
 40
0.3586416344990647
 40
0.496896162400049
 40
0.5910985945546586
 40
0.7119666477799276
 40
1.0
 40
1.0
 40
1.0
 40
1.0
 10
-580.6333412728519
 20
-1305.921939903397
 30
0.0
 10
-587.4829520110087
 20
-1299.261032524681
 30
0.0
 10
-689.40423352824
 20
-1200.147631477729
 30
0.0
 10
-747.4679153143157
 20
-1143.683575164297
 30
0.0
 10
-809.2375512991181
 20
-1083.615661841888
 30
0.0
 10
-864.4799605538485
 20
-1029.895153408738
 30
0.0
 10
-947.7310919669605
 20
-948.9375491426931
 30
0.0
 10
-1043.988357980051
 20
-855.3321227977966
 30
0.0
 10
-1103.730609794231
 20
-797.2357402233108
 30
0.0
  0
SPLINE
  5
38E
330
1F
100
AcDbEntity
  8
0
  6
Continuous
 62
     7
370
    15
100
AcDbSpline
210
0.0
220
0.0
230
1.0
 70
    24
 71
     3
 72
    13
 73
     9
 74
     0
 42
0.000000001
 43
0.00000001
 40
0.0
 40
0.0
 40
0.0
 40
0.0
 40
0.2227737310675502
 40
0.3586416344990647
 40
0.496896162400049
 40
0.5910985945546586
 40
0.7119666477799276
 40
1.0
 40
1.0
 40
1.0
 40
1.0
 10
-583.4219913538711
 20
-1308.789592379836
 30
0.0
 10
-590.2716020920278
 20
-1302.12868500112
 30
0.0
 10
-692.1928836092591
 20
-1203.015283954169
 30
0.0
 10
-750.2565653953361
 20
-1146.551227640736
 30
0.0
 10
-812.026201380137
 20
-1086.483314318327
 30
0.0
 10
-867.268610634869
 20
-1032.762805885177
 30
0.0
 10
-950.5197420479794
 20
-951.8052016191314
 30
0.0
 10
-1046.777008061069
 20
-858.199775274236
 30
0.0
 10
-1106.519259875252
 20
-800.1033926997512
 30
0.0
  0
SPLINE
  5
399
330
1F
100
AcDbEntity
  8
0
  6
Continuous
 62
   144
370
     0
100
AcDbSpline
210
0.0
220
0.0
230
1.0
 70
     8
 71
     3
 72
    11
 73
     7
 74
     0
 42
0.000000001
 43
0.00000001
 40
0.0
 40
0.0
 40
0.0
 40
0.0
 40
0.072035262604645
 40
0.4609286406371765
 40
0.8498216839702954
 40
1.0
 40
1.0
 40
1.0
 40
1.0
 10
2025.000000000126
 20
-853.413492672491
 30
0.0
 10
2024.903813737737
 20
-853.4054091697031
 30
0.0
 10
2024.288351232729
 20
-853.3536856412984
 30
0.0
 10
2023.53231474786
 20
-852.9173357628327
 30
0.0
 10
2023.042701151744
 20
-852.3716588551326
 30
0.0
 10
2023.009304011824
 20
-852.0230330110677
 30
0.0
 10
2023.000000000127
 20
-851.925910355084
 30
0.0
  0
SPLINE
  5
39B
330
1F
100
AcDbEntity
  8
0
  6
Continuous
 62
   144
370
     0
100
AcDbSpline
210
0.0
220
0.0
230
1.0
 70
     8
 71
     3
 72
    10
 73
     6
 74
     0
 42
0.000000001
 43
0.00000001
 40
0.0
 40
0.0
 40
0.0
 40
0.0
 40
0.3914498364182061
 40
0.783016667069996
 40
1.0
 40
1.0
 40
1.0
 40
1.0
 10
2023.000000000127
 20
-731.2525495879217
 30
0.0
 10
2023.065862169074
 20
-731.5009738482867
 30
0.0
 10
2023.197606191466
 20
-731.9978966166038
 30
0.0
 10
2023.977582390481
 20
-732.5487806097061
 30
0.0
 10
2024.731267620977
 20
-732.6757720409231
 30
0.0
 10
2025.00000000013
 20
-732.72105183156
 30
0.0
  0
LWPOLYLINE
  5
3D7
330
1F
100
AcDbEntity
  8
0
  6
Continuous
 62
     7
370
    15
100
AcDbPolyline
 90
       26
 70
   128
 43
0.0
 10
-962.8298801199
 20
947.6550007998
 10
-963.3488600687
 20
947.3706540796
 10
-964.1336188073
 20
947.3243146133
 10
-965.1478570624
 20
947.539975324
 10
-966.3742209362
 20
948.0139461973
 10
-967.7917270029
 20
948.73811746
 10
-969.3761213405
 20
949.7000983411
 10
-971.1002945227
 20
950.8834290811
 10
-972.9347454683
 20
952.2678625628
 10
-974.8480862131
 20
953.8297107456
 10
-976.8075789665
 20
955.542249974
 10
-978.779696264
 20
957.376178227
 10
-980.7306946321
 20
959.3001164838
 10
-982.6271919476
 20
961.2811456273
 10
-984.4367386158
 20
963.2853696997
 10
-986.1283727914
 20
965.2784958715
 10
-987.6731501447
 20
967.2264212011
 10
-989.0446391069
 20
969.0958161462
 10
-990.2193731216
 20
970.854694841
 10
-991.177252164
 20
972.4729623833
 10
-991.9018866583
 20
973.9229297668
 10
-992.3808779072
 20
975.1797876476
 10
-992.6060302378
 20
976.2220308389
 10
-992.5734912312
 20
977.0318262706
 10
-992.2838176389
 20
977.5953181186
 10
-992.260945805
 20
977.6185181607
  0
LWPOLYLINE
  5
3D8
330
1F
100
AcDbEntity
  8
0
  6
Continuous
 62
   144
370
     0
100
AcDbPolyline
 90
       26
 70
   128
 43
0.0
 10
-959.3498316388
 20
951.0732088226
 10
-959.8688115876
 20
950.7888621024
 10
-960.6535703262
 20
950.7425226361
 10
-961.6678085813
 20
950.9581833468
 10
-962.8941724551
 20
951.4321542201
 10
-964.3116785218
 20
952.1563254828
 10
-965.8960728594
 20
953.1183063639
 10
-967.6202460416
 20
954.3016371039
 10
-969.4546969872
 20
955.6860705856
 10
-971.368037732
 20
957.2479187684
 10
-973.3275304853
 20
958.9604579968
 10
-975.2996477829
 20
960.7943862498
 10
-977.250646151
 20
962.7183245066
 10
-979.1471434665
 20
964.6993536501
 10
-980.9566901347
 20
966.7035777225
 10
-982.6483243103
 20
968.6967038943
 10
-984.1931016636
 20
970.6446292239
 10
-985.5645906258
 20
972.514024169
 10
-986.7393246405
 20
974.2729028638
 10
-987.6972036829
 20
975.8911704061
 10
-988.4218381772
 20
977.3411377896
 10
-988.9008294261
 20
978.5979956704
 10
-989.1259817567
 20
979.6402388617
 10
-989.0934427501
 20
980.4500342934
 10
-988.8037691578
 20
981.0135261414
 10
-988.7808973239
 20
981.0367261835
  0
CIRCLE
  5
3ED
330
1F
100
AcDbEntity
  8
0
  6
Continuous
 62
   144
370
     0
100
AcDbCircle
 10
3100.2393880693
 20
111.5000000059
 30
0.0
 40
7.0
  0
CIRCLE
  5
3EE
330
1F
100
AcDbEntity
  8
0
  6
Continuous
 62
   144
370
     0
100
AcDbCircle
 10
3100.2393880693
 20
-526.4999999941
 30
0.0
 40
7.0
  0
LWPOLYLINE
  5
3F1
330
1F
100
AcDbEntity
  8
0
  6
Continuous
 62
     7
370
    15
100
AcDbPolyline
 90
       22
 70
   128
 43
0.0
 10
3125.3356125151
 20
-475.9999999941
 10
3127.897360965
 20
-476.9045284089
 10
3130.2880462289
 20
-478.0764296453
 10
3132.4653241997
 20
-479.4949468467
 10
3134.3906306663
 20
-481.1349550644
 10
3136.0298643672
 20
-482.9674062743
 10
3137.3539909965
 20
-484.9598438784
 10
3138.339557463
 20
-487.0769775807
 10
3138.9691072939
 20
-489.2813084523
 10
3139.2314898265
 20
-491.533793118
 10
3139.1220577094
 20
-493.7945352963
 10
3138.6427492177
 20
-496.0234924479
 10
3137.8020539213
 20
-498.1811850137
 10
3136.6148623173
 20
-500.2293956816
 10
3135.1022020871
 20
-502.131846296
 10
3133.290865652
 20
-503.8548404212
 10
3131.2129356225
 20
-505.3678601765
 10
3128.9052165469
 20
-506.6441067727
 10
3126.408583025
 20
-507.6609751754
 10
3123.7672557324
 20
-508.4004544883
 10
3121.0280181781
 20
-508.8494469642
 10
3118.2393880693
 20
-508.9999999941
  0
LWPOLYLINE
  5
3FA
330
1F
100
AcDbEntity
  8
0
  6
Continuous
 62
   144
370
     0
100
AcDbPolyline
 90
       22
 70
   128
 43
0.0
 10
3118.2393880693
 20
94.0000000059
 10
3121.0280181781
 20
93.8494469761
 10
3123.7672557324
 20
93.4004545002
 10
3126.408583025
 20
92.6609751873
 10
3128.9052165469
 20
91.6441067846
 10
3131.2129356225
 20
90.3678601884
 10
3133.290865652
 20
88.8548404331
 10
3135.1022020871
 20
87.1318463079
 10
3136.6148623173
 20
85.2293956935
 10
3137.8020539213
 20
83.1811850256
 10
3138.6427492177
 20
81.0234924598
 10
3139.1220577094
 20
78.7945353082
 10
3139.2314898265
 20
76.5337931299
 10
3138.9691072939
 20
74.2813084642
 10
3138.339557463
 20
72.0769775926
 10
3137.3539909965
 20
69.9598438903
 10
3136.0298643672
 20
67.9674062861
 10
3134.3906306663
 20
66.1349550763
 10
3132.4653241997
 20
64.4949468585
 10
3130.2880462289
 20
63.0764296572
 10
3127.897360965
 20
61.9045284208
 10
3125.3356125151
 20
61.0000000059
  0
CIRCLE
  5
47B
330
1F
100
AcDbEntity
  8
0
  6
Continuous
 62
   144
370
     0
100
AcDbCircle
 10
1265.0000000001
 20
302.8781577528
 30
0.0
 40
9.999999999999659
  0
LWPOLYLINE
  5
4CA
330
1F
100
AcDbEntity
  8
0
  6
Continuous
 62
   144
370
     0
100
AcDbPolyline
 90
        3
 70
   128
 43
0.0
 10
856.9815508711
 20
1039.9371448362
 10
857.8364005384
 20
1040.7829542115
 10
859.7924897193
 20
1042.7831225899
  0
LWPOLYLINE
  5
4DC
330
1F
100
AcDbEntity
  8
0
  6
Continuous
 62
   144
370
     0
100
AcDbPolyline
 90
        3
 70
   128
 43
0.0
 10
863.8291101804
 20
1047.2269239671
 10
865.5122880361
 20
1049.2343405954
 10
866.3845445276
 20
1050.3213672002
  0
LWPOLYLINE
  5
55B
330
1F
100
AcDbEntity
  8
0
  6
Continuous
 62
   144
370
     0
100
AcDbPolyline
 90
        3
 70
   128
 43
0.0
 10
-853.8291101802
 20
-1047.2269239653
 10
-855.5122880359
 20
-1049.2343405935
 10
-856.3845445274
 20
-1050.3213671983
  0
LWPOLYLINE
  5
747
330
1F
100
AcDbEntity
  8
0
  6
Continuous
 62
   144
370
     0
100
AcDbPolyline
 90
        3
 70
   128
 43
0.0
 10
867.689943086
 20
1035.1032401245
 10
868.1446845659
 20
1035.667481742
 10
868.3371852489
 20
1035.9065922861
  0
LWPOLYLINE
  5
748
330
1F
100
AcDbEntity
  8
0
  6
Continuous
 62
   144
370
     0
100
AcDbPolyline
 90
        3
 70
   128
 43
0.0
 10
870.8415994826
 20
1039.0323927777
 10
871.3846389019
 20
1039.7142361538
 10
871.458776892
 20
1039.807450768
  0
LWPOLYLINE
  5
74B
330
1F
100
AcDbEntity
  8
0
  6
Continuous
 62
   144
370
     0
100
AcDbPolyline
 90
       25
 70
   128
 43
0.0
 10
-988.9023200385
 20
981.1273493264
 10
-989.1981604512
 20
980.5638752853
 10
-989.2350745293
 20
979.7521498094
 10
-989.0124306627
 20
978.7060617468
 10
-988.5340383495
 20
977.443509954
 10
-987.8080830151
 20
975.9860970425
 10
-986.8469859563
 20
974.358759751
 10
-985.6671918103
 20
972.589342272
 10
-984.2888871821
 20
970.708119829
 10
-982.735655246
 20
968.7472806596
 10
-981.0340722311
 20
966.7403752657
 10
-979.2132526944
 20
964.7217423549
 10
-977.3043513632
 20
962.725921296
 10
-975.3400300684
 20
960.7870611407
 10
-973.353898892
 20
958.9383363238
 10
-971.3799410891
 20
957.2113790395
 10
-969.451931625
 20
955.6357380057
 10
-967.6028592762
 20
954.2383728774
 10
-965.8643621831
 20
953.0431929593
 10
-964.2661865131
 20
952.0706481112
 10
-962.835677495
 20
951.337378845
 10
-961.5973115347
 20
950.8559316013
 10
-960.5722774171
 20
950.6345440758
 10
-959.7781137602
 20
950.6770042706
 10
-959.2452662242
 20
950.9656608222
  0
SPLINE
  5
754
330
1F
100
AcDbEntity
  8
0
  6
Continuous
 62
   144
370
     0
100
AcDbSpline
210
0.0
220
0.0
230
1.0
 70
     8
 71
     3
 72
    10
 73
     6
 74
     0
 42
0.000000001
 43
0.00000001
 40
0.0
 40
0.0
 40
0.0
 40
0.0
 40
0.2184646958196692
 40
0.8925815887042803
 40
1.0
 40
1.0
 40
1.0
 40
1.0
 10
2068.231322864324
 20
61.69492446000943
 30
0.0
 10
2068.177092561492
 20
61.6146823652626
 30
0.0
 10
2067.955523718632
 20
61.28683709881635
 30
0.0
 10
2067.787927753724
 20
60.65302090266876
 30
0.0
 10
2067.80248820815
 20
60.07890902679441
 30
0.0
 10
2067.804489475237
 20
60.00000000594461
 30
0.0
  0
SPLINE
  5
755
330
1F
100
AcDbEntity
  8
0
  6
Continuous
 62
   144
370
     0
100
AcDbSpline
210
0.0
220
0.0
230
1.0
 70
     8
 71
     3
 72
    14
 73
    10
 74
     0
 42
0.000000001
 43
0.00000001
 40
0.0
 40
0.0
 40
0.0
 40
0.0
 40
0.25
 40
0.25
 40
0.5
 40
0.5
 40
0.75
 40
0.75
 40
1.0
 40
1.0
 40
1.0
 40
1.0
 10
2537.139150153173
 20
58.00000000594432
 30
0.0
 10
2540.25017634127
 20
58.32729862697101
 30
0.0
 10
2543.401027314592
 20
58.65443888607304
 30
0.0
 10
2549.77576300415
 20
59.259056747786
 30
0.0
 10
2553.000616334755
 20
59.53639712782735
 30
0.0
 10
2559.507257785376
 20
59.99922764775898
 30
0.0
 10
2562.788998581538
 20
60.18452928275417
 30
0.0
 10
2569.381360623204
 20
60.43493475320347
 30
0.0
 10
2572.692453729235
 20
60.50000000594444
 30
0.0
 10
2576.004985004244
 20
60.50000000594444
 30
0.0
  0
SPLINE
  5
756
330
1F
100
AcDbEntity
  8
0
  6
Continuous
 62
   144
370
     0
100
AcDbSpline
210
0.0
220
0.0
230
1.0
 70
     8
 71
     3
 72
    20
 73
    16
 74
     0
 42
0.000000001
 43
0.00000001
 40
0.0
 40
0.0
 40
0.0
 40
0.0
 40
0.2499999999999837
 40
0.2499999999999837
 40
0.3749999999999864
 40
0.3749999999999864
 40
0.4999999999999891
 40
0.4999999999999891
 40
0.6249999999999918
 40
0.6249999999999918
 40
0.7499999999999944
 40
0.7499999999999944
 40
0.8749999999999972
 40
0.8749999999999972
 40
1.0
 40
1.0
 40
1.0
 40
1.0
 10
2069.165772334702
 20
60.50000000594444
 30
0.0
 10
2069.093172978325
 20
60.50000000594454
 30
0.0
 10
2069.022240302453
 20
60.43559899672872
 30
0.0
 10
2068.93683815504
 20
60.24657826779538
 30
0.0
 10
2068.912557295563
 20
60.16949116986032
 30
0.0
 10
2068.874715077926
 20
59.98864163322256
 30
0.0
 10
2068.861103119284
 20
59.88391312143385
 30
0.0
 10
2068.848119599626
 20
59.65157311061614
 30
0.0
 10
2068.848712339354
 20
59.52542353135974
 30
0.0
 10
2068.866137154618
 20
59.25463005782478
 30
0.0
 10
2068.883246657275
 20
59.10849735125714
 30
0.0
 10
2068.935776917619
 20
58.80546784226434
 30
0.0
 10
2068.970878882383
 20
58.6494514373214
 30
0.0
 10
2069.060599055947
 20
58.32977477183267
 30
0.0
 10
2069.115635607138
 20
58.16511582390327
 30
0.0
 10
2069.18099138145
 20
58.00000000594432
 30
0.0
  0
LWPOLYLINE
  5
758
330
1F
100
AcDbEntity
  8
0
  6
Continuous
 62
   144
370
     0
100
AcDbPolyline
 90
        9
 70
   128
 43
0.0
 10
2069.1809913815
 20
-472.9999999941
 10
2069.210565788
 20
-473.4877257991
 10
2069.2981524797
 20
-473.956708575
 10
2069.4403855493
 20
-474.3889255766
 10
2069.6317990595
 20
-474.767766947
 10
2069.8650370965
 20
-475.0786740248
 10
2070.1311364534
 20
-475.3096988253
 10
2070.4198710811
 20
-475.4519631951
 10
2070.7201450698
 20
-475.4999999941
  0
SPLINE
  5
759
330
1F
100
AcDbEntity
  8
0
  6
Continuous
 62
   144
370
     0
100
AcDbSpline
210
0.0
220
0.0
230
1.0
 70
     8
 71
     3
 72
    14
 73
    10
 74
     0
 42
0.000000001
 43
0.00000001
 40
0.0
 40
0.0
 40
0.0
 40
0.0
 40
0.25
 40
0.25
 40
0.5
 40
0.5
 40
0.75
 40
0.75
 40
1.0
 40
1.0
 40
1.0
 40
1.0
 10
2575.793740342493
 20
-475.499999994056
 30
0.0
 10
2572.498813401651
 20
-475.4999999940559
 30
0.0
 10
2569.204230664984
 20
-475.4349087317458
 30
0.0
 10
2562.646684252705
 20
-475.1844572086192
 30
0.0
 10
2559.382796056205
 20
-474.9991515825319
 30
0.0
 10
2552.911379339031
 20
-474.5362981468591
 30
0.0
 10
2549.703906427126
 20
-474.2589266034383
 30
0.0
 10
2543.364779222128
 20
-473.6543326922763
 30
0.0
 10
2540.232571754218
 20
-473.327298804621
 30
0.0
 10
2537.139150153173
 20
-472.9999999940556
 30
0.0
  0
CIRCLE
  5
75B
330
1F
100
AcDbEntity
  8
0
  6
Continuous
 62
     7
370
    15
100
AcDbCircle
 10
2043.2313228643
 20
-459.9999999941
 30
0.0
 40
4.499999999999943
  0
CIRCLE
  5
75C
330
1F
100
AcDbEntity
  8
0
  6
Continuous
 62
   144
370
     0
100
AcDbCircle
 10
2043.2313228643
 20
45.0000000059
 30
0.0
 40
4.499999999999908
  0
SPLINE
  5
766
330
1F
100
AcDbEntity
  8
0
  6
Continuous
 62
   144
370
     0
100
AcDbSpline
210
0.0
220
0.0
230
1.0
 70
     8
 71
     3
 72
     8
 73
     4
 74
     0
 42
0.000000001
 43
0.00000001
 40
0.0
 40
0.0
 40
0.0
 40
0.0
 40
1.0
 40
1.0
 40
1.0
 40
1.0
 10
2537.139150153173
 20
-472.4999999940558
 30
0.0
 10
2548.979100908628
 20
-473.3333333273891
 30
0.0
 10
2561.282712313205
 20
-474.1666666607225
 30
0.0
 10
2573.988352905221
 20
-474.9999999940558
 30
0.0
  0
SPLINE
  5
769
330
1F
100
AcDbEntity
  8
0
  6
Continuous
 62
   144
370
     0
100
AcDbSpline
210
0.0
220
0.0
230
1.0
 70
     8
 71
     3
 72
     8
 73
     4
 74
     0
 42
0.000000001
 43
0.00000001
 40
0.0
 40
0.0
 40
0.0
 40
0.0
 40
1.0
 40
1.0
 40
1.0
 40
1.0
 10
2573.988352905221
 20
60.00000000594423
 30
0.0
 10
2561.282712313205
 20
59.16666667261092
 30
0.0
 10
2548.979100908628
 20
58.3333333392776
 30
0.0
 10
2537.139150153173
 20
57.50000000594429
 30
0.0
  0
LWPOLYLINE
  5
76F
330
1F
100
AcDbEntity
  8
0
  6
Continuous
 62
   144
370
     0
100
AcDbPolyline
 90
        3
 70
   128
 43
0.0
 10
-857.6899430857
 20
-1035.1032401226
 10
-858.1446845656
 20
-1035.6674817402
 10
-858.3371852487
 20
-1035.9065922843
  0
LWPOLYLINE
  5
770
330
1F
100
AcDbEntity
  8
0
  6
Continuous
 62
   144
370
     0
100
AcDbPolyline
 90
        3
 70
   128
 43
0.0
 10
-860.8415994824
 20
-1039.0323927759
 10
-861.3846389016
 20
-1039.714236152
 10
-861.4587768917
 20
-1039.8074507661
  0
LWPOLYLINE
  5
773
330
1F
100
AcDbEntity
  8
0
  6
Continuous
 62
   144
370
     0
100
AcDbPolyline
 90
        6
 70
   128
 43
0.0
 10
973.7908218394
 20
-951.8102796417
 10
972.8356774953
 20
-951.3373788432
 10
971.597311535
 20
-950.8559315995
 10
970.5722774174
 20
-950.634544074
 10
969.7781137604
 20
-950.6770042688
 10
969.2452662244
 20
-950.9656608203
  0
CIRCLE
  5
774
330
1F
100
AcDbEntity
  8
0
  6
Continuous
 62
     7
370
    15
100
AcDbCircle
 10
-44.9999999998
 20
-1389.1591818052
 30
0.0
 40
5.5
  0
LWPOLYLINE
  5
776
330
1F
100
AcDbEntity
  8
0
  6
Continuous
 62
     7
370
    15
100
AcDbPolyline
 90
       49
 70
   128
 43
0.0
 10
982.4232728466
 20
-801.0569060719
 10
972.0962404638
 20
-823.3152166492
 10
961.0693789714
 20
-845.0578839855
 10
949.3503130576
 20
-866.269873788
 10
936.947146046
 20
-886.9365187091
 10
923.868454292
 20
-907.0435284879
 10
910.1232812526
 20
-926.5769998317
 10
895.7211312334
 20
-945.5234260295
 10
880.6719628165
 20
-963.8697062914
 10
864.9861819746
 20
-981.6031548075
 10
848.6746348755
 20
-998.7115095194
 10
831.7486003825
 20
-1015.1829405994
 10
814.2197822554
 20
-1031.0060586299
 10
796.1003010577
 20
-1046.1699224793
 10
777.4026857758
 20
-1060.664046867
 10
758.1398651556
 20
-1074.4784096139
 10
738.3251587625
 20
-1087.6034585722
 10
717.9722677717
 20
-1100.0301182303
 10
697.0952654943
 20
-1111.7497959886
 10
675.7085876458
 20
-1122.7543881005
 10
653.8270223646
 20
-1133.0362852762
 10
631.4656999864
 20
-1142.588377944
 10
608.640082582
 20
-1151.4040611666
 10
585.3659532662
 20
-1159.4772392078
 10
561.6594052839
 20
-1166.802329748
 10
537.5368308824
 20
-1173.3742677437
 10
513.0149099766
 20
-1179.18850893
 10
488.1105986157
 20
-1184.2410329628
 10
462.8411172583
 20
-1188.5283461989
 10
437.2239388654
 20
-1192.0474841114
 10
411.2767768182
 20
-1194.7960133397
 10
385.0175726703
 20
-1196.7720333721
 10
358.464483741
 20
-1197.97417786
 10
331.6358705612
 20
-1198.4016155627
 10
304.5502841767
 20
-1198.0540509219
 10
277.2264533215
 20
-1196.9317242664
 10
249.6832714672
 20
-1195.0354116458
 10
221.9397837591
 20
-1192.3664242938
 10
194.0151738467
 20
-1188.9266077216
 10
165.9287506195
 20
-1184.7183404419
 10
137.6999348549
 20
-1179.7445323241
 10
109.3482457899
 20
-1174.0086225821
 10
80.8932876242
 20
-1167.5145773966
 10
52.3547359643
 20
-1160.2668871723
 10
23.7523242187
 20
-1152.2705634331
 10
-4.894170047
 20
-1143.5311353566
 10
-33.5649387858
 20
-1134.0546459511
 10
-62.2401571657
 20
-1123.8476478769
 10
-90.8999972779
 20
-1112.9171989158
  0
CIRCLE
  5
780
330
1F
100
AcDbEntity
  8
0
  6
Continuous
 62
     7
370
    15
100
AcDbCircle
 10
-65.7161166275
 20
-1201.4476918164
 30
0.0
 40
5.5
  0
CIRCLE
  5
781
330
1F
100
AcDbEntity
  8
0
  6
Continuous
 62
   144
370
     0
100
AcDbCircle
 10
755.0000000001
 20
-1389.1591818052
 30
0.0
 40
5.5
  0
CIRCLE
  5
782
330
1F
100
AcDbEntity
  8
0
  6
Continuous
 62
   144
370
     0
100
AcDbCircle
 10
1265.0000000002
 20
-874.1591818052
 30
0.0
 40
5.500000000000455
  0
CIRCLE
  5
783
330
1F
100
AcDbEntity
  8
0
  6
Continuous
 62
     7
370
    15
100
AcDbCircle
 10
1265.0000000002
 20
-1324.1591818052
 30
0.0
 40
5.5
  0
LWPOLYLINE
  5
7B8
330
1F
100
AcDbEntity
  8
0
  6
PHANTOM
 62
     8
370
     0
100
AcDbPolyline
 90
       23
 70
   128
 43
0.0
 10
1899.8160715003
 20
71.0000000059
 10
1899.2172616218
 20
71.1811627487
 10
1898.6312143362
 20
71.7207898075
 10
1898.070420224
 20
72.6073799686
 10
1897.546831638
 20
73.8220371018
 10
1897.07160796
 20
75.3388728993
 10
1896.6548777575
 20
77.1255586394
 10
1896.3055229114
 20
79.1440142176
 10
1896.0309893135
 20
81.3512197576
 10
1895.837128171
 20
83.7001325053
 10
1895.7280712976
 20
86.1406894635
 10
1895.706143051
 20
88.6208743979
 10
1895.771810794
 20
91.0878264726
 10
1895.9236749324
 20
93.4889668871
 10
1896.1584987459
 20
95.7731195021
 10
1896.4712773725
 20
97.8916015704
 10
1896.8553444789
 20
99.7992613247
 10
1897.3025143415
 20
101.4554403092
 10
1897.8032563111
 20
102.8248399444
 10
1898.3468979418
 20
103.8782738544
 10
1898.9218524562
 20
104.5932899244
 10
1899.5158656971
 20
104.9546488282
 10
1899.8160715003
 20
105.0000000059
  0
LWPOLYLINE
  5
7B9
330
1F
100
AcDbEntity
  8
0
  6
PHANTOM
 62
     8
370
     0
100
AcDbPolyline
 90
       23
 70
   128
 43
0.0
 10
1230.8160715003
 20
71.0000000059
 10
1230.2172616218
 20
71.1811627487
 10
1229.6312143362
 20
71.7207898075
 10
1229.070420224
 20
72.6073799686
 10
1228.546831638
 20
73.8220371018
 10
1228.07160796
 20
75.3388728993
 10
1227.6548777575
 20
77.1255586394
 10
1227.3055229114
 20
79.1440142176
 10
1227.0309893135
 20
81.3512197576
 10
1226.837128171
 20
83.7001325053
 10
1226.7280712976
 20
86.1406894635
 10
1226.706143051
 20
88.6208743979
 10
1226.771810794
 20
91.0878264726
 10
1226.9236749324
 20
93.4889668871
 10
1227.1584987459
 20
95.7731195021
 10
1227.4712773725
 20
97.8916015704
 10
1227.8553444789
 20
99.7992613247
 10
1228.3025143415
 20
101.4554403092
 10
1228.8032563111
 20
102.8248399444
 10
1229.3468979418
 20
103.8782738544
 10
1229.9218524562
 20
104.5932899244
 10
1230.5158656971
 20
104.9546488282
 10
1230.8160715003
 20
105.0000000059
  0
LWPOLYLINE
  5
7BA
330
1F
100
AcDbEntity
  8
0
  6
PHANTOM
 62
     8
370
     0
100
AcDbPolyline
 90
       21
 70
   128
 43
0.0
 10
2895.3956901254
 20
89.5000000059
 10
2896.0820425679
 20
89.4538906615
 10
2897.4360255474
 20
89.0869035961
 10
2898.7343534953
 20
88.3629399158
 10
2899.9416114098
 20
87.3017474625
 10
2901.024868442
 20
85.9322728
 10
2901.9545761638
 20
84.2918716273
 10
2902.7053745723
 20
82.4252898119
 10
2903.256783844
 20
80.3834428402
 10
2903.5937629714
 20
78.2220269747
 10
2903.7071200423
 20
76.0000000059
 10
2903.5937629714
 20
73.7779730372
 10
2903.256783844
 20
71.6165571717
 10
2902.7053745723
 20
69.5747101999
 10
2901.9545761638
 20
67.7081283846
 10
2901.024868442
 20
66.0677272119
 10
2899.9416114098
 20
64.6982525494
 10
2898.7343534953
 20
63.6370600961
 10
2897.4360255474
 20
62.9130964158
 10
2896.0820425679
 20
62.5461093504
 10
2895.3956901254
 20
62.5000000059
  0
LWPOLYLINE
  5
7BD
330
1F
100
AcDbEntity
  8
0
  6
PHANTOM
 62
     8
370
     0
100
AcDbPolyline
 90
       21
 70
   128
 43
0.0
 10
2895.3956901254
 20
-477.4999999941
 10
2896.0820425679
 20
-477.5461093385
 10
2897.4360255474
 20
-477.9130964039
 10
2898.7343534953
 20
-478.6370600842
 10
2899.9416114098
 20
-479.6982525375
 10
2901.024868442
 20
-481.0677272
 10
2901.9545761638
 20
-482.7081283727
 10
2902.7053745723
 20
-484.5747101881
 10
2903.256783844
 20
-486.6165571598
 10
2903.5937629714
 20
-488.7779730253
 10
2903.7071200423
 20
-490.9999999941
 10
2903.5937629714
 20
-493.2220269628
 10
2903.256783844
 20
-495.3834428283
 10
2902.7053745723
 20
-497.4252898001
 10
2901.9545761638
 20
-499.2918716154
 10
2901.024868442
 20
-500.9322727881
 10
2899.9416114098
 20
-502.3017474506
 10
2898.7343534953
 20
-503.3629399039
 10
2897.4360255474
 20
-504.0869035842
 10
2896.0820425679
 20
-504.4538906496
 10
2895.3956901254
 20
-504.4999999941
  0
LWPOLYLINE
  5
7C0
330
1F
100
AcDbEntity
  8
0
  6
PHANTOM
 62
     8
370
     0
100
AcDbPolyline
 90
       23
 70
   128
 43
0.0
 10
2059.0000000001
 20
-697.9707334156
 10
2058.8188372574
 20
-699.6588292951
 10
2058.2792101986
 20
-701.3109463417
 10
2057.3926200375
 20
-702.8918725489
 10
2056.1779629043
 20
-704.3679132194
 10
2054.6611271068
 20
-705.7076091087
 10
2052.8744413666
 20
-706.8824069251
 10
2050.8559857884
 20
-707.8672678926
 10
2048.6487802485
 20
-708.6412014096
 10
2046.2998675008
 20
-709.1877124268
 10
2043.8593105426
 20
-709.4951530108
 10
2041.3791256082
 20
-709.5569705992
 10
2038.9121735335
 20
-709.3718476575
 10
2036.511033119
 20
-708.9437297598
 10
2034.226880504
 20
-708.2817414958
 10
2032.1083984357
 20
-707.399991996
 10
2030.2007386814
 20
-706.3172742202
 10
2028.5445596968
 20
-705.0566644179
 10
2027.1751600617
 20
-703.6450302986
 10
2026.1217261517
 20
-702.1124583927
 10
2025.4067100817
 20
-700.4916128095
 10
2025.0453511779
 20
-698.8170390587
 10
2025.0000000001
 20
-697.9707334156
  0
LWPOLYLINE
  5
7C1
330
1F
100
AcDbEntity
  8
0
  6
PHANTOM
 62
     8
370
     0
100
AcDbPolyline
 90
       23
 70
   128
 43
0.0
 10
2059.0000000001
 20
-1153.9707334156
 10
2058.8188372574
 20
-1155.6588292951
 10
2058.2792101986
 20
-1157.3109463417
 10
2057.3926200375
 20
-1158.8918725489
 10
2056.1779629043
 20
-1160.3679132194
 10
2054.6611271068
 20
-1161.7076091087
 10
2052.8744413666
 20
-1162.8824069251
 10
2050.8559857884
 20
-1163.8672678926
 10
2048.6487802485
 20
-1164.6412014096
 10
2046.2998675008
 20
-1165.1877124268
 10
2043.8593105426
 20
-1165.4951530108
 10
2041.3791256082
 20
-1165.5569705992
 10
2038.9121735335
 20
-1165.3718476575
 10
2036.511033119
 20
-1164.9437297598
 10
2034.226880504
 20
-1164.2817414958
 10
2032.1083984357
 20
-1163.399991996
 10
2030.2007386814
 20
-1162.3172742202
 10
2028.5445596968
 20
-1161.0566644179
 10
2027.1751600617
 20
-1159.6450302986
 10
2026.1217261517
 20
-1158.1124583927
 10
2025.4067100817
 20
-1156.4916128095
 10
2025.0453511779
 20
-1154.8170390587
 10
2025.0000000001
 20
-1153.9707334156
  0
LINE
  5
7DB
330
1F
100
AcDbEntity
  8
0
  6
Continuous
 62
     7
370
    15
100
AcDbLine
 10
-616.2443031109
 20
-1215.6127382316
 30
0.0
 11
-615.371919947
 21
-1213.8130305844
 31
0.0
  0
LINE
  5
7DC
330
1F
100
AcDbEntity
  8
0
  6
Continuous
 62
     7
370
    15
100
AcDbLine
 10
-621.6708967122
 20
-1210.7596895108
 30
0.0
 11
-622.5432798761
 21
-1212.559397158
 31
0.0
  0
LINE
  5
7DD
330
1F
100
AcDbEntity
  8
0
  6
Continuous
 62
     7
370
    15
100
AcDbLine
 10
1132.4891927866
 20
-894.8436602206
 30
0.0
 11
1126.3239375647
 21
-889.7456578619
 31
0.0
  0
LINE
  5
7DE
330
1F
100
AcDbEntity
  8
0
  6
Continuous
 62
     7
370
    15
100
AcDbLine
 10
1119.3141843215
 20
-898.2228837919
 30
0.0
 11
1125.4794395433
 21
-903.3208861507
 31
0.0
  0
LINE
  5
7DF
330
1F
100
AcDbEntity
  8
0
  6
Continuous
 62
     7
370
    15
100
AcDbLine
 10
840.4829882199
 20
-1235.4266288682
 30
0.0
 11
818.9045949435
 21
-1217.5836206126
 31
0.0
  0
LINE
  5
7E0
330
1F
100
AcDbEntity
  8
0
  6
Continuous
 62
     7
370
    15
100
AcDbLine
 10
1142.1209332854
 20
71.0000000059
 30
0.0
 11
2045.1209332854
 21
71.0000000059
 31
0.0
  0
LINE
  5
7E1
330
1F
100
AcDbEntity
  8
0
  6
Continuous
 62
     7
370
    15
100
AcDbLine
 10
2065.0000000001
 20
105.0000000059
 30
0.0
 11
1141.8845666
 21
105.0000000059
 31
0.0
  0
LINE
  5
7E2
330
1F
100
AcDbEntity
  8
0
  6
Continuous
 62
     7
370
    15
100
AcDbLine
 10
2068.2313228643
 20
62.5000000059
 30
0.0
 11
3124.2393880694
 21
62.5000000059
 31
0.0
  0
LINE
  5
7E3
330
1F
100
AcDbEntity
  8
0
  6
Continuous
 62
     7
370
    15
100
AcDbLine
 10
3124.2393880694
 20
89.5000000059
 30
0.0
 11
2068.2313228643
 21
89.5000000059
 31
0.0
  0
LINE
  5
7E4
330
1F
100
AcDbEntity
  8
0
  6
Continuous
 62
     7
370
    15
100
AcDbLine
 10
2068.2313228643
 20
-504.4999999941
 30
0.0
 11
3124.2393880694
 21
-504.4999999941
 31
0.0
  0
LINE
  5
7E5
330
1F
100
AcDbEntity
  8
0
  6
Continuous
 62
     7
370
    15
100
AcDbLine
 10
3124.2393880694
 20
-477.4999999941
 30
0.0
 11
2068.2313228643
 21
-477.4999999941
 31
0.0
  0
LINE
  5
7E6
330
1F
100
AcDbEntity
  8
0
  6
Continuous
 62
     7
370
    15
100
AcDbLine
 10
1145.4683800502
 20
820.0747923568
 30
0.0
 11
1144.4226362698
 21
818.9994226782
 31
0.0
  0
LINE
  5
7E7
330
1F
100
AcDbEntity
  8
0
  6
Continuous
 62
     7
370
    15
100
AcDbLine
 10
1160.3381075141
 20
803.5224147285
 30
0.0
 11
1161.3838512944
 21
804.5977844072
 31
0.0
  0
LINE
  5
7E8
330
1F
100
AcDbEntity
  8
0
  6
Continuous
 62
     7
370
    15
100
AcDbLine
 10
838.2312885216
 20
1118.8476552552
 30
0.0
 11
837.1855447412
 21
1117.7722855765
 31
0.0
  0
LINE
  5
7E9
330
1F
100
AcDbEntity
  8
0
  6
Continuous
 62
     7
370
    15
100
AcDbLine
 10
853.1010159855
 20
1102.2952776269
 30
0.0
 11
854.1467597659
 21
1103.3706473055
 31
0.0
  0
LINE
  5
7EA
330
1F
100
AcDbEntity
  8
0
  6
Continuous
 62
     7
370
    15
100
AcDbLine
 10
774.8026647805
 20
-1202.6561373723
 30
0.0
 11
775.9586501345
 21
-1203.6120128146
 31
0.0
  0
LINE
  5
7EB
330
1F
100
AcDbEntity
  8
0
  6
Continuous
 62
     7
370
    15
100
AcDbLine
 10
790.10560668
 20
-1186.503429574
 30
0.0
 11
788.949621326
 21
-1185.5475541317
 31
0.0
  0
LINE
  5
7EC
330
1F
100
AcDbEntity
  8
0
  6
Continuous
 62
     7
370
    15
100
AcDbLine
 10
1086.0484730378
 20
-813.6979327467
 30
0.0
 11
1087.2044583919
 21
-814.653808189
 31
0.0
  0
LINE
  5
7ED
330
1F
100
AcDbEntity
  8
0
  6
Continuous
 62
     7
370
    15
100
AcDbLine
 10
1101.3514149374
 20
-797.5452249484
 30
0.0
 11
1100.1954295833
 21
-796.5893495061
 31
0.0
  0
LINE
  5
7EE
330
1F
100
AcDbEntity
  8
0
  6
Continuous
 62
     7
370
    15
100
AcDbLine
 10
2025.0000000001
 20
-482.6490065977
 30
0.0
 11
2025.0000000001
 21
-1214.9999999941
 31
0.0
  0
LINE
  5
7EF
330
1F
100
AcDbEntity
  8
0
  6
Continuous
 62
     7
370
    15
100
AcDbLine
 10
2059.0000000001
 20
-1191.1769252883
 30
0.0
 11
2059.0000000001
 21
-501.1769252883
 31
0.0
  0
LINE
  5
7F0
330
1F
100
AcDbEntity
  8
0
  6
Continuous
 62
     7
370
    15
100
AcDbLine
 10
992.4635736531
 20
-1001.4135755173
 30
0.0
 11
991.8094529729
 21
-1000.6640892991
 31
0.0
  0
LINE
  5
7F1
330
1F
100
AcDbEntity
  8
0
  6
Continuous
 62
     7
370
    15
100
AcDbLine
 10
-962.8298801199
 20
947.6550007998
 30
0.0
 11
-959.7436830722
 21
950.6863561288
 31
0.0
  0
LINE
  5
7F2
330
1F
100
AcDbEntity
  8
0
  6
Continuous
 62
     7
370
    15
100
AcDbLine
 10
-989.1747487573
 20
980.6498734897
 30
0.0
 11
-992.260945805
 21
977.6185181607
 31
0.0
  0
LINE
  5
7F3
330
1F
100
AcDbEntity
  8
0
  6
Continuous
 62
     7
370
    15
100
AcDbLine
 10
-1019.5501528543
 20
-943.8189965695
 30
0.0
 11
-1019.5304022555
 21
-945.2330722089
 31
0.0
  0
LINE
  5
7F4
330
1F
100
AcDbEntity
  8
0
  6
Continuous
 62
     7
370
    15
100
AcDbLine
 10
-1015.2289235408
 20
-949.4160473304
 30
0.0
 11
-1013.8148479014
 21
-949.3962967316
 31
0.0
  0
LINE
  5
7F5
330
1F
100
AcDbEntity
  8
0
  6
Continuous
 62
     7
370
    15
100
AcDbLine
 10
-883.8004321517
 20
-965.0762688982
 30
0.0
 11
-878.2231319897
 21
-959.3409639453
 31
0.0
  0
LINE
  5
7F6
330
1F
100
AcDbEntity
  8
0
  6
Continuous
 62
     7
370
    15
100
AcDbLine
 10
-886.1091762999
 20
-951.6721762225
 30
0.0
 11
-891.6864764619
 21
-957.4074811754
 31
0.0
  0
LINE
  5
7F7
330
1F
100
AcDbEntity
  8
0
  6
Continuous
 62
     7
370
    15
100
AcDbLine
 10
1083.9075202437
 20
-941.0418362427
 30
0.0
 11
1062.3291269673
 21
-923.1988279871
 31
0.0
  0
LINE
  5
7F8
330
1F
100
AcDbEntity
  8
0
  6
Continuous
 62
     7
370
    15
100
AcDbLine
 10
1055.3193737241
 20
-931.6760539171
 30
0.0
 11
1076.8977670005
 21
-949.5190621727
 31
0.0
  0
LINE
  5
7F9
330
1F
100
AcDbEntity
  8
0
  6
Continuous
 62
     7
370
    15
100
AcDbLine
 10
779.5101398137
 20
1122.2486029579
 30
0.0
 11
774.8000674768
 21
1125.4340459915
 31
0.0
  0
LINE
  5
7FA
330
1F
100
AcDbEntity
  8
0
  6
Continuous
 62
     7
370
    15
100
AcDbLine
 10
-806.4807097361
 20
-1096.2381085308
 30
0.0
 11
-799.4812440398
 21
-1101.2752310853
 31
0.0
  0
LINE
  5
7FB
330
1F
100
AcDbEntity
  8
0
  6
Continuous
 62
     7
370
    15
100
AcDbLine
 10
-769.5101398134
 20
-1122.2486029561
 30
0.0
 11
-764.8000674765
 21
-1125.4340459897
 31
0.0
  0
LINE
  5
7FC
330
1F
100
AcDbEntity
  8
0
  6
Continuous
 62
     7
370
    15
100
AcDbLine
 10
1079.877398802
 20
106.6074121115
 30
0.0
 11
1141.8845666
 21
106.6074121115
 31
0.0
  0
LINE
  5
7FD
330
1F
100
AcDbEntity
  8
0
  6
Continuous
 62
     7
370
    15
100
AcDbLine
 10
1355.0
 20
1500.0
 30
0.0
 11
108.0
 21
1500.0
 31
0.0
  0
LINE
  5
7FE
330
1F
100
AcDbEntity
  8
0
  6
Continuous
 62
     7
370
    15
100
AcDbLine
 10
1375.0
 20
126.6074121115
 30
0.0
 11
1375.0
 21
1480.0
 31
0.0
  0
LINE
  5
7FF
330
1F
100
AcDbEntity
  8
0
  6
Continuous
 62
   144
370
     0
100
AcDbLine
 10
886.6247534952
 20
1025.0592892558
 30
0.0
 11
885.9275909749
 21
1024.3423761367
 31
0.0
  0
LINE
  5
800
330
1F
100
AcDbEntity
  8
0
  6
Continuous
 62
   144
370
     0
100
AcDbLine
 10
883.1389408939
 20
1021.4747236603
 30
0.0
 11
882.4417783736
 21
1020.7578105412
 31
0.0
  0
LINE
  5
801
330
1F
100
AcDbEntity
  8
0
  6
Continuous
 62
   144
370
     0
100
AcDbLine
 10
971.2263931105
 20
993.0036723626
 30
0.0
 11
966.2080012767
 21
997.8838100044
 31
0.0
  0
LINE
  5
802
330
1F
100
AcDbEntity
  8
0
  6
Continuous
 62
   144
370
     0
100
AcDbLine
 10
946.8257049015
 20
967.9117131938
 30
0.0
 11
971.2263931105
 21
993.0036723626
 31
0.0
  0
LINE
  5
803
330
1F
100
AcDbEntity
  8
0
  6
Continuous
 62
   144
370
     0
100
AcDbLine
 10
974.7853165468
 20
940.7223749038
 30
0.0
 11
946.8257049015
 21
967.9117131938
 31
0.0
  0
LINE
  5
804
330
1F
100
AcDbEntity
  8
0
  6
Continuous
 62
   144
370
     0
100
AcDbLine
 10
996.4200916407
 20
909.9195429553
 30
0.0
 11
997.117254161
 21
910.6364560745
 31
0.0
  0
LINE
  5
805
330
1F
100
AcDbEntity
  8
0
  6
Continuous
 62
   144
370
     0
100
AcDbLine
 10
999.905904242
 20
913.5041085509
 30
0.0
 11
1000.6030667623
 21
914.22102167
 31
0.0
  0
LINE
  5
806
330
1F
100
AcDbEntity
  8
0
  6
Continuous
 62
   144
370
     0
100
AcDbLine
 10
911.8293246968
 20
941.9645867138
 30
0.0
 11
916.1308034115
 21
937.7816115923
 31
0.0
  0
LINE
  5
807
330
1F
100
AcDbEntity
  8
0
  6
Continuous
 62
   144
370
     0
100
AcDbLine
 10
105.0
 20
1367.2205522354
 30
0.0
 11
105.0
 21
1497.0
 31
0.0
  0
LINE
  5
808
330
1F
100
AcDbEntity
  8
0
  6
Continuous
 62
   144
370
     0
100
AcDbLine
 10
105.0
 20
1323.4097373077
 30
0.0
 11
105.0
 21
1113.3275738162
 31
0.0
  0
LINE
  5
809
330
1F
100
AcDbEntity
  8
0
  6
Continuous
 62
     7
370
    15
100
AcDbLine
 10
650.5847852877
 20
1201.5914460024
 30
0.0
 11
625.2964852716
 21
1213.8495964924
 31
0.0
  0
LINE
  5
80A
330
1F
100
AcDbEntity
  8
0
  6
Continuous
 62
     7
370
    15
100
AcDbLine
 10
565.7775901895
 20
1242.7005501923
 30
0.0
 11
531.5282911844
 21
1259.3024198757
 31
0.0
  0
LINE
  5
80B
330
1F
100
AcDbEntity
  8
0
  6
Continuous
 62
   144
370
     0
100
AcDbLine
 10
535.1978190084
 20
1256.2093317833
 30
0.0
 11
535.7137071543
 21
1257.2735978991
 31
0.0
  0
LINE
  5
80C
330
1F
100
AcDbEntity
  8
0
  6
Continuous
 62
   144
370
     0
100
AcDbLine
 10
652.2509743048
 20
1199.6532870001
 30
0.0
 11
652.3556951431
 21
1199.8693238303
 31
0.0
  0
LINE
  5
80D
330
1F
100
AcDbEntity
  8
0
  6
Continuous
 62
   144
370
     0
100
AcDbLine
 10
530.9177820593
 20
1258.0429527211
 30
0.0
 11
531.5282911844
 21
1259.3024198757
 31
0.0
  0
LINE
  5
80E
330
1F
100
AcDbEntity
  8
0
  6
Continuous
 62
     7
370
    15
100
AcDbLine
 10
804.4778416902
 20
1106.3830158135
 30
0.0
 11
795.8484135477
 21
1111.9399171548
 31
0.0
  0
LINE
  5
80F
330
1F
100
AcDbEntity
  8
0
  6
Continuous
 62
   144
370
     0
100
AcDbLine
 10
799.5158256344
 20
1108.3959397499
 30
0.0
 11
800.0540259523
 21
1109.2317222633
 31
0.0
  0
LINE
  5
810
330
1F
100
AcDbEntity
  8
0
  6
Continuous
 62
     7
370
    15
100
AcDbLine
 10
1137.1274302234
 20
-817.0492831941
 30
0.0
 11
1137.8980871262
 21
-817.686533489
 31
0.0
  0
LINE
  5
811
330
1F
100
AcDbEntity
  8
0
  6
Continuous
 62
     7
370
    15
100
AcDbLine
 10
1140.9807147371
 20
-820.2355346683
 30
0.0
 11
1141.7513716398
 21
-820.8727849632
 31
0.0
  0
LINE
  5
812
330
1F
100
AcDbEntity
  8
0
  6
Continuous
 62
   144
370
     0
100
AcDbLine
 10
1104.774156144
 20
-856.1756267941
 30
0.0
 11
1105.5448130467
 21
-856.8128770889
 31
0.0
  0
LINE
  5
813
330
1F
100
AcDbEntity
  8
0
  6
Continuous
 62
   144
370
     0
100
AcDbLine
 10
1108.6274406577
 20
-859.3618782683
 30
0.0
 11
1109.3980975604
 21
-859.9991285632
 31
0.0
  0
LINE
  5
814
330
1F
100
AcDbEntity
  8
0
  6
Continuous
 62
   144
370
     0
100
AcDbLine
 10
1206.0731268283
 20
-727.3930249478
 30
0.0
 11
1209.9264113419
 21
-730.579276422
 31
0.0
  0
LINE
  5
815
330
1F
100
AcDbEntity
  8
0
  6
Continuous
 62
   144
370
     0
100
AcDbLine
 10
1213.0090389528
 20
-733.1282776013
 30
0.0
 11
1213.7796958555
 21
-733.7655278962
 31
0.0
  0
LINE
  5
816
330
1F
100
AcDbEntity
  8
0
  6
Continuous
 62
   144
370
     0
100
AcDbLine
 10
1238.4407167429
 20
-754.1575373311
 30
0.0
 11
1244.6059719647
 21
-759.2555396899
 31
0.0
  0
LINE
  5
817
330
1F
100
AcDbEntity
  8
0
  6
Continuous
 62
     7
370
    15
100
AcDbLine
 10
1305.3519977013
 20
-673.2385625446
 30
0.0
 11
1311.5172529231
 21
-678.3365649033
 31
0.0
  0
LINE
  5
818
330
1F
100
AcDbEntity
  8
0
  6
Continuous
 62
     7
370
    15
100
AcDbLine
 10
1244.6059719647
 20
-759.2555396899
 30
0.0
 11
1311.5172529231
 21
-678.3365649033
 31
0.0
  0
LINE
  5
819
330
1F
100
AcDbEntity
  8
0
  6
Continuous
 62
   144
370
     0
100
AcDbLine
 10
1178.32947833
 20
-704.4520143334
 30
0.0
 11
1184.4947335518
 21
-709.5500166922
 31
0.0
  0
LINE
  5
81A
330
1F
100
AcDbEntity
  8
0
  6
Continuous
 62
     7
370
    15
100
AcDbLine
 10
1178.32947833
 20
-704.4520143334
 30
0.0
 11
1245.2407592884
 21
-623.5330395469
 31
0.0
  0
LINE
  5
81B
330
1F
100
AcDbEntity
  8
0
  6
Continuous
 62
     7
370
    15
100
AcDbLine
 10
1245.2407592884
 20
-623.5330395469
 30
0.0
 11
1251.4060145103
 21
-628.6310419057
 31
0.0
  0
LINE
  5
81C
330
1F
100
AcDbEntity
  8
0
  6
Continuous
 62
     7
370
    15
100
AcDbLine
 10
-640.5847852875
 20
-1201.5914460006
 30
0.0
 11
-615.2964852714
 21
-1213.8495964906
 31
0.0
  0
LINE
  5
81D
330
1F
100
AcDbEntity
  8
0
  6
Continuous
 62
     7
370
    15
100
AcDbLine
 10
-555.7775901892
 20
-1242.7005501905
 30
0.0
 11
-525.0857763647
 21
-1257.5779785836
 31
0.0
  0
LINE
  5
81E
330
1F
100
AcDbEntity
  8
0
  6
Continuous
 62
   144
370
     0
100
AcDbLine
 10
-528.8357293443
 20
-1254.6508058524
 30
0.0
 11
-529.2711923345
 21
-1255.5491566071
 31
0.0
  0
LINE
  5
81F
330
1F
100
AcDbEntity
  8
0
  6
Continuous
 62
   144
370
     0
100
AcDbLine
 10
-524.5556923953
 20
-1256.4844267902
 30
0.0
 11
-525.0857763647
 21
-1257.5779785836
 31
0.0
  0
LINE
  5
820
330
1F
100
AcDbEntity
  8
0
  6
Continuous
 62
     7
370
    15
100
AcDbLine
 10
-785.8484135475
 20
-1111.939917153
 30
0.0
 11
-790.09455582
 21
-1109.2056231418
 31
0.0
  0
LINE
  5
821
330
1F
100
AcDbEntity
  8
0
  6
Continuous
 62
   144
370
     0
100
AcDbLine
 10
-792.7525516301
 20
-1106.1174933049
 30
0.0
 11
-792.9518730008
 21
-1106.4270236242
 31
0.0
  0
LINE
  5
822
330
1F
100
AcDbEntity
  8
0
  6
Continuous
 62
   144
370
     0
100
AcDbLine
 10
-787.2039627677
 20
1146.8358590501
 30
0.0
 11
-786.1379677621
 21
1145.1436254231
 31
0.0
  0
LINE
  5
823
330
1F
100
AcDbEntity
  8
0
  6
Continuous
 62
   144
370
     0
100
AcDbLine
 10
-718.448622685
 20
1187.7834256458
 30
0.0
 11
-719.5146176905
 21
1189.4756592728
 31
0.0
  0
LINE
  5
824
330
1F
100
AcDbEntity
  8
0
  6
Continuous
 62
   144
370
     0
100
AcDbLine
 10
-709.4052354704
 20
1192.1891461507
 30
0.0
 11
-711.0534495559
 21
1194.8056343006
 31
0.0
  0
LINE
  5
825
330
1F
100
AcDbEntity
  8
0
  6
Continuous
 62
   144
370
     0
100
AcDbLine
 10
-794.4740429451
 20
1139.6150692592
 30
0.0
 11
-795.6651309023
 21
1141.5058840222
 31
0.0
  0
LINE
  5
826
330
1F
100
AcDbEntity
  8
0
  6
Continuous
 62
   144
370
     0
100
AcDbLine
 10
566.7762284735
 20
-1268.3709869044
 30
0.0
 11
567.6174054976
 21
-1270.1854899257
 31
0.0
  0
LINE
  5
827
330
1F
100
AcDbEntity
  8
0
  6
Continuous
 62
   144
370
     0
100
AcDbLine
 10
149.4946284141
 20
-1369.5224348271
 30
0.0
 11
149.3890930374
 21
-1367.525221197
 31
0.0
  0
LINE
  5
828
330
1F
100
AcDbEntity
  8
0
  6
Continuous
 62
   144
370
     0
100
AcDbLine
 10
69.5005478333
 20
-1371.7466362653
 30
0.0
 11
69.60608321
 21
-1373.7438498954
 31
0.0
  0
LINE
  5
829
330
1F
100
AcDbEntity
  8
0
  6
Continuous
 62
   144
370
     0
100
AcDbLine
 10
-134.9943745412
 20
-1363.7355111594
 30
0.0
 11
-134.8207558815
 21
-1361.7430612702
 31
0.0
  0
LINE
  5
82A
330
1F
100
AcDbEntity
  8
0
  6
Continuous
 62
   144
370
     0
100
AcDbLine
 10
-35.198261421
 20
-1370.4239942535
 30
0.0
 11
-35.3718800806
 21
-1372.4164441427
 31
0.0
  0
LINE
  5
82B
330
1F
100
AcDbEntity
  8
0
  6
Continuous
 62
   144
370
     0
100
AcDbLine
 10
-308.3231973683
 20
-1329.4539208939
 30
0.0
 11
-308.7671120908
 21
-1331.541674038
 31
0.0
  0
LINE
  5
82C
330
1F
100
AcDbEntity
  8
0
  6
Continuous
 62
   144
370
     0
100
AcDbLine
 10
-210.5342663706
 20
-1350.3665665327
 30
0.0
 11
-210.9537728011
 21
-1352.3395262587
 31
0.0
  0
LINE
  5
82D
330
1F
100
AcDbEntity
  8
0
  6
Continuous
 62
   144
370
     0
100
AcDbLine
 10
-473.8195892297
 20
-1277.8014531901
 30
0.0
 11
-474.4706835824
 21
-1279.6925047874
 31
0.0
  0
LINE
  5
82E
330
1F
100
AcDbEntity
  8
0
  6
Continuous
 62
     7
370
    15
100
AcDbLine
 10
945.4116292622
 20
967.8919625949
 30
0.0
 11
1045.7794659376
 21
870.2892097592
 31
0.0
  0
LINE
  5
82F
330
1F
100
AcDbEntity
  8
0
  6
Continuous
 62
     7
370
    15
100
AcDbLine
 10
1017.7907084909
 20
953.3016572845
 30
0.0
 11
1012.2134083289
 21
947.5663523317
 31
0.0
  0
LINE
  5
830
330
1F
100
AcDbEntity
  8
0
  6
Continuous
 62
     7
370
    15
100
AcDbLine
 10
992.6928577617
 20
927.4927849966
 30
0.0
 11
989.9042076807
 21
924.6251325201
 31
0.0
  0
LINE
  5
831
330
1F
100
AcDbEntity
  8
0
  6
Continuous
 62
   144
370
     0
100
AcDbLine
 10
1001.9746548368
 20
968.6819865491
 30
0.0
 11
996.3973546747
 21
962.9466815962
 31
0.0
  0
LINE
  5
832
330
1F
100
AcDbEntity
  8
0
  6
Continuous
 62
   144
370
     0
100
AcDbLine
 10
976.8768041076
 20
942.8731142612
 30
0.0
 11
974.0881540266
 21
940.0054617847
 31
0.0
  0
LINE
  5
833
330
1F
100
AcDbEntity
  8
0
  6
Continuous
 62
     7
370
    15
100
AcDbLine
 10
973.2981300724
 20
996.5684873593
 30
0.0
 11
1073.6659667478
 21
898.9657345236
 31
0.0
  0
LINE
  5
834
330
1F
100
AcDbEntity
  8
0
  6
Continuous
 62
     7
370
    15
100
AcDbLine
 10
1048.6740587871
 20
923.2691278852
 30
0.0
 11
1043.0967586251
 21
917.5338229324
 31
0.0
  0
LINE
  5
835
330
1F
100
AcDbEntity
  8
0
  6
Continuous
 62
     7
370
    15
100
AcDbLine
 10
1023.5762080579
 20
897.4602555973
 30
0.0
 11
1020.7875579769
 21
894.5926031208
 31
0.0
  0
LINE
  5
836
330
1F
100
AcDbEntity
  8
0
  6
Continuous
 62
     7
370
    15
100
AcDbLine
 10
1062.0925008
 20
910.2203572571
 30
0.0
 11
1056.5152006379
 21
904.4850523042
 31
0.0
  0
LINE
  5
837
330
1F
100
AcDbEntity
  8
0
  6
Continuous
 62
     7
370
    15
100
AcDbLine
 10
1036.9946500708
 20
884.4114849691
 30
0.0
 11
1034.2059999898
 21
881.5438324927
 31
0.0
  0
LINE
  5
838
330
1F
100
AcDbEntity
  8
0
  6
Continuous
 62
   144
370
     0
100
AcDbLine
 10
1073.6659667478
 20
898.9657345236
 30
0.0
 11
1068.0886665857
 21
893.2304295708
 31
0.0
  0
LINE
  5
839
330
1F
100
AcDbEntity
  8
0
  6
Continuous
 62
   144
370
     0
100
AcDbLine
 10
1048.5681160186
 20
873.1568622357
 30
0.0
 11
1045.7794659376
 21
870.2892097592
 31
0.0
  0
LINE
  5
83A
330
1F
100
AcDbEntity
  8
0
  6
Continuous
 62
     7
370
    15
100
AcDbLine
 10
913.3421533304
 20
934.9139591159
 30
0.0
 11
1013.7099900058
 21
837.3112062802
 31
0.0
  0
LINE
  5
83B
330
1F
100
AcDbEntity
  8
0
  6
Continuous
 62
     7
370
    15
100
AcDbLine
 10
969.905178905
 20
935.7039830701
 30
0.0
 11
967.116528824
 21
932.8363305936
 31
0.0
  0
LINE
  5
83C
330
1F
100
AcDbEntity
  8
0
  6
Continuous
 62
     7
370
    15
100
AcDbLine
 10
947.5959782569
 20
912.7627632586
 30
0.0
 11
942.0186780948
 21
907.0274583057
 31
0.0
  0
LINE
  5
83D
330
1F
100
AcDbEntity
  8
0
  6
Continuous
 62
   144
370
     0
100
AcDbLine
 10
941.2286541406
 20
963.5904838803
 30
0.0
 11
913.3421533304
 21
934.9139591159
 31
0.0
  0
LINE
  5
83E
330
1F
100
AcDbEntity
  8
0
  6
Continuous
 62
     7
370
    15
100
AcDbLine
 10
985.7212325592
 20
920.3236538055
 30
0.0
 11
982.9325824782
 21
917.456001329
 31
0.0
  0
LINE
  5
83F
330
1F
100
AcDbEntity
  8
0
  6
Continuous
 62
     7
370
    15
100
AcDbLine
 10
963.412031911
 20
897.382433994
 30
0.0
 11
957.834731749
 21
891.6471290411
 31
0.0
  0
LINE
  5
840
330
1F
100
AcDbEntity
  8
0
  6
Continuous
 62
     7
370
    15
100
AcDbLine
 10
1016.6045828554
 20
890.2911244062
 30
0.0
 11
1013.8159327744
 21
887.4234719297
 31
0.0
  0
LINE
  5
841
330
1F
100
AcDbEntity
  8
0
  6
Continuous
 62
     7
370
    15
100
AcDbLine
 10
994.2953822072
 20
867.3499045947
 30
0.0
 11
988.7180820452
 21
861.6145996418
 31
0.0
  0
LINE
  5
842
330
1F
100
AcDbEntity
  8
0
  6
Continuous
 62
     7
370
    15
100
AcDbLine
 10
1007.7138242201
 20
854.3011339665
 30
0.0
 11
1002.136524058
 21
848.5658290136
 31
0.0
  0
LINE
  5
843
330
1F
100
AcDbEntity
  8
0
  6
Continuous
 62
   144
370
     0
100
AcDbLine
 10
1019.2872901679
 20
843.0465112331
 30
0.0
 11
1013.7099900058
 21
837.3112062802
 31
0.0
  0
LINE
  5
844
330
1F
100
AcDbEntity
  8
0
  6
Continuous
 62
     7
370
    15
100
AcDbLine
 10
653.1484362474
 20
1296.739263524
 30
0.0
 11
633.6278856802
 21
1276.6656961889
 31
0.0
  0
LINE
  5
845
330
1F
100
AcDbEntity
  8
0
  6
Continuous
 62
     7
370
    15
100
AcDbLine
 10
661.7175178261
 20
1288.4062558688
 30
0.0
 11
642.1969672589
 21
1268.3326885337
 31
0.0
  0
LINE
  5
846
330
1F
100
AcDbEntity
  8
0
  6
Continuous
 62
   144
370
     0
100
AcDbLine
 10
669.4131050448
 20
1280.9226782396
 30
0.0
 11
647.1039043966
 21
1257.9814584281
 31
0.0
  0
LINE
  5
847
330
1F
100
AcDbEntity
  8
0
  6
Continuous
 62
     7
370
    15
100
AcDbLine
 10
674.3188929524
 20
1276.152042342
 30
0.0
 11
654.7983423852
 21
1256.0784750069
 31
0.0
  0
LINE
  5
848
330
1F
100
AcDbEntity
  8
0
  6
Continuous
 62
     7
370
    15
100
AcDbLine
 10
697.649954116
 20
1253.4637402766
 30
0.0
 11
678.1294035488
 21
1233.3901729415
 31
0.0
  0
LINE
  5
849
330
1F
100
AcDbEntity
  8
0
  6
Continuous
 62
   144
370
     0
100
AcDbLine
 10
691.7475820176
 20
1259.2035049675
 30
0.0
 11
672.2270314505
 21
1239.1299376325
 31
0.0
  0
LINE
  5
84A
330
1F
100
AcDbEntity
  8
0
  6
Continuous
 62
     7
370
    15
100
AcDbLine
 10
678.5252070972
 20
1272.0616100539
 30
0.0
 11
659.0046565301
 21
1251.9880427188
 31
0.0
  0
LINE
  5
84B
330
1F
100
AcDbEntity
  8
0
  6
Continuous
 62
   144
370
     0
100
AcDbLine
 10
738.1245524776
 20
1214.1041969122
 30
0.0
 11
715.8153518294
 21
1191.1629771007
 31
0.0
  0
LINE
  5
84C
330
1F
100
AcDbEntity
  8
0
  6
Continuous
 62
   144
370
     0
100
AcDbLine
 10
787.2940330948
 20
1166.2893109616
 30
0.0
 11
764.9848324466
 21
1143.3480911501
 31
0.0
  0
LINE
  5
84D
330
1F
100
AcDbEntity
  8
0
  6
Continuous
 62
     7
370
    15
100
AcDbLine
 10
635.2253420564
 20
1261.1635573426
 30
0.0
 11
612.9161414082
 21
1238.2223375311
 31
0.0
  0
LINE
  5
84E
330
1F
100
AcDbEntity
  8
0
  6
Continuous
 62
   144
370
     0
100
AcDbLine
 10
642.9209292751
 20
1253.6799797134
 30
0.0
 11
620.611728627
 21
1230.7387599019
 31
0.0
  0
LINE
  5
84F
330
1F
100
AcDbEntity
  8
0
  6
Continuous
 62
     7
370
    15
100
AcDbLine
 10
626.6562604777
 20
1269.4965649978
 30
0.0
 11
604.3470598295
 21
1246.5553451863
 31
0.0
  0
LINE
  5
850
330
1F
100
AcDbEntity
  8
0
  6
Continuous
 62
     7
370
    15
100
AcDbLine
 10
645.0380671016
 20
1246.0416913394
 30
0.0
 11
625.5175165345
 21
1225.9681240043
 31
0.0
  0
LINE
  5
851
330
1F
100
AcDbEntity
  8
0
  6
Continuous
 62
     7
370
    15
100
AcDbLine
 10
649.2443812465
 20
1241.9512590513
 30
0.0
 11
629.7238306793
 21
1221.8776917162
 31
0.0
  0
LINE
  5
852
330
1F
100
AcDbEntity
  8
0
  6
Continuous
 62
     7
370
    15
100
AcDbLine
 10
711.6323767079
 20
1186.861498386
 30
0.0
 11
689.3231760597
 21
1163.9202785745
 31
0.0
  0
LINE
  5
853
330
1F
100
AcDbEntity
  8
0
  6
Continuous
 62
   144
370
     0
100
AcDbLine
 10
668.3691282653
 20
1223.353389274
 30
0.0
 11
648.8485776981
 21
1203.2798219389
 31
0.0
  0
LINE
  5
854
330
1F
100
AcDbEntity
  8
0
  6
Continuous
 62
     7
370
    15
100
AcDbLine
 10
760.8018573251
 20
1139.0466124355
 30
0.0
 11
738.4926566769
 21
1116.1053926239
 31
0.0
  0
LINE
  5
855
330
1F
100
AcDbEntity
  8
0
  6
Continuous
 62
     7
370
    15
100
AcDbLine
 10
837.3068846492
 20
1117.6542885225
 30
0.0
 11
814.9976840011
 21
1094.713068711
 31
0.0
  0
LINE
  5
856
330
1F
100
AcDbEntity
  8
0
  6
Continuous
 62
     7
370
    15
100
AcDbLine
 10
845.1432803634
 20
1110.0337816017
 30
0.0
 11
825.6227297962
 21
1089.9602142666
 31
0.0
  0
LINE
  5
857
330
1F
100
AcDbEntity
  8
0
  6
Continuous
 62
   144
370
     0
100
AcDbLine
 10
633.6278856802
 20
1276.6656961889
 30
0.0
 11
839.633585514
 21
1076.3353506356
 31
0.0
  0
LINE
  5
858
330
1F
100
AcDbEntity
  8
0
  6
Continuous
 62
     7
370
    15
100
AcDbLine
 10
859.1541360811
 20
1096.4089179707
 30
0.0
 11
839.633585514
 21
1076.3353506356
 31
0.0
  0
LINE
  5
859
330
1F
100
AcDbEntity
  8
0
  6
Continuous
 62
     7
370
    15
100
AcDbLine
 10
822.0115338165
 20
1132.5282600686
 30
0.0
 11
802.4909832494
 21
1112.4546927335
 31
0.0
  0
LINE
  5
85A
330
1F
100
AcDbEntity
  8
0
  6
Continuous
 62
     7
370
    15
100
AcDbLine
 10
816.9527958191
 20
1137.4476323574
 30
0.0
 11
797.432245252
 21
1117.3740650223
 31
0.0
  0
LINE
  5
85B
330
1F
100
AcDbEntity
  8
0
  6
Continuous
 62
   144
370
     0
100
AcDbLine
 10
-694.7942098696
 20
1202.6841376513
 30
0.0
 11
-738.4447424461
 21
1175.1871957537
 31
0.0
  0
LINE
  5
85C
330
1F
100
AcDbEntity
  8
0
  6
Continuous
 62
   144
370
     0
100
AcDbLine
 10
-783.3667209115
 20
1146.889327231
 30
0.0
 11
-813.2505637546
 21
1128.0644872616
 31
0.0
  0
LINE
  5
85D
330
1F
100
AcDbEntity
  8
0
  6
Continuous
 62
     7
370
    15
100
AcDbLine
 10
-693.7155092556
 20
1200.9717342695
 30
0.0
 11
-694.7942098696
 21
1202.6841376513
 31
0.0
  0
LINE
  5
85E
330
1F
100
AcDbEntity
  8
0
  6
Continuous
 62
   144
370
     0
100
AcDbLine
 10
-699.0054996521
 20
1198.0381208316
 30
0.0
 11
-699.9043818235
 21
1199.4650680773
 31
0.0
  0
LINE
  5
85F
330
1F
100
AcDbEntity
  8
0
  6
Continuous
 62
   144
370
     0
100
AcDbLine
 10
-812.6554255112
 20
1127.1197239719
 30
0.0
 11
-813.2505637546
 21
1128.0644872616
 31
0.0
  0
LINE
  5
860
330
1F
100
AcDbEntity
  8
0
  6
Continuous
 62
   144
370
     0
100
AcDbLine
 10
-809.401524701
 20
1129.3847652803
 30
0.0
 11
-809.8995675739
 21
1130.1753927154
 31
0.0
  0
LINE
  5
861
330
1F
100
AcDbEntity
  8
0
  6
Continuous
 62
     7
370
    15
100
AcDbLine
 10
-372.1907551199
 20
1328.4520891379
 30
0.0
 11
-372.6529466475
 21
1329.9155625601
 31
0.0
  0
LINE
  5
862
330
1F
100
AcDbEntity
  8
0
  6
Continuous
 62
     7
370
    15
100
AcDbLine
 10
-372.6529466475
 20
1329.9155625601
 30
0.0
 11
-381.3391113366
 21
1327.1723137481
 31
0.0
  0
LINE
  5
863
330
1F
100
AcDbEntity
  8
0
  6
Continuous
 62
   144
370
     0
100
AcDbLine
 10
-377.9709899226
 20
1326.9838855215
 30
0.0
 11
-378.330573905
 21
1328.1224645949
 31
0.0
  0
LINE
  5
864
330
1F
100
AcDbEntity
  8
0
  6
Continuous
 62
     7
370
    15
100
AcDbLine
 10
-506.1534188685
 20
1287.753685031
 30
0.0
 11
-478.3216366001
 21
1296.5434681373
 31
0.0
  0
LINE
  5
865
330
1F
100
AcDbEntity
  8
0
  6
Continuous
 62
     7
370
    15
100
AcDbLine
 10
-505.8527101197
 20
1286.8015272448
 30
0.0
 11
-506.1534188685
 21
1287.753685031
 31
0.0
  0
LINE
  5
866
330
1F
100
AcDbEntity
  8
0
  6
Continuous
 62
   144
370
     0
100
AcDbLine
 10
-502.0538757321
 20
1288.2077150638
 30
0.0
 11
-502.2952981102
 21
1288.9721497465
 31
0.0
  0
LINE
  5
867
330
1F
100
AcDbEntity
  8
0
  6
Continuous
 62
     7
370
    15
100
AcDbLine
 10
-29.0317404646
 20
1373.3566478427
 30
0.0
 11
-63.8976398488
 21
1371.5142881821
 31
0.0
  0
LINE
  5
868
330
1F
100
AcDbEntity
  8
0
  6
Continuous
 62
     7
370
    15
100
AcDbLine
 10
-136.5233599987
 20
1367.6766502754
 30
0.0
 11
-168.8366945717
 21
1365.9691714732
 31
0.0
  0
LINE
  5
869
330
1F
100
AcDbEntity
  8
0
  6
Continuous
 62
   144
370
     0
100
AcDbLine
 10
-164.6559502975
 20
1365.1512350827
 30
0.0
 11
-164.7106917647
 21
1366.1871948504
 31
0.0
  0
LINE
  5
86A
330
1F
100
AcDbEntity
  8
0
  6
Continuous
 62
   144
370
     0
100
AcDbLine
 10
-34.836119038
 20
1371.9931450999
 30
0.0
 11
-34.8918058081
 21
1373.0469943364
 31
0.0
  0
LINE
  5
86B
330
1F
100
AcDbEntity
  8
0
  6
Continuous
 62
   144
370
     0
100
AcDbLine
 10
-28.9624227871
 20
1372.0448392848
 30
0.0
 11
-29.0317404646
 21
1373.3566478427
 31
0.0
  0
LINE
  5
86C
330
1F
100
AcDbEntity
  8
0
  6
Continuous
 62
   144
370
     0
100
AcDbLine
 10
-168.7719889144
 20
1364.7446435015
 30
0.0
 11
-168.8366945717
 21
1365.9691714732
 31
0.0
  0
LINE
  5
86D
330
1F
100
AcDbEntity
  8
0
  6
Continuous
 62
     7
370
    15
100
AcDbLine
 10
165.9358563257
 20
1359.903127702
 30
0.0
 11
141.4947091952
 21
1362.032887265
 31
0.0
  0
LINE
  5
86E
330
1F
100
AcDbEntity
  8
0
  6
Continuous
 62
     7
370
    15
100
AcDbLine
 10
51.1993934855
 20
1369.9010659191
 30
0.0
 11
42.0878165864
 21
1370.6950330734
 31
0.0
  0
LINE
  5
86F
330
1F
100
AcDbEntity
  8
0
  6
Continuous
 62
     7
370
    15
100
AcDbLine
 10
36.4708315895
 20
1371.1844874942
 30
0.0
 11
26.464364081
 21
1372.0564338786
 31
0.0
  0
LINE
  5
870
330
1F
100
AcDbEntity
  8
0
  6
Continuous
 62
   144
370
     0
100
AcDbLine
 10
30.5960931853
 20
1370.8849460108
 30
0.0
 11
30.6662692226
 21
1371.6902870848
 31
0.0
  0
LINE
  5
871
330
1F
100
AcDbEntity
  8
0
  6
Continuous
 62
   144
370
     0
100
AcDbLine
 10
160.1135448093
 20
1359.693937713
 30
0.0
 11
160.1755120213
 21
1360.4050742065
 31
0.0
  0
LINE
  5
872
330
1F
100
AcDbEntity
  8
0
  6
Continuous
 62
   144
370
     0
100
AcDbLine
 10
165.8474140522
 20
1358.888163076
 30
0.0
 11
165.9358563257
 21
1359.903127702
 31
0.0
  0
LINE
  5
873
330
1F
100
AcDbEntity
  8
0
  6
Continuous
 62
     7
370
    15
100
AcDbLine
 10
300.7217796411
 20
1333.3339056397
 30
0.0
 11
335.9378485423
 21
1325.8459842364
 31
0.0
  0
LINE
  5
874
330
1F
100
AcDbEntity
  8
0
  6
Continuous
 62
     7
370
    15
100
AcDbLine
 10
198.9991735367
 20
1354.9629773454
 30
0.0
 11
234.5297796055
 21
1347.4081765411
 31
0.0
  0
LINE
  5
875
330
1F
100
AcDbEntity
  8
0
  6
Continuous
 62
     7
370
    15
100
AcDbLine
 10
335.7389705598
 20
1324.9106511371
 30
0.0
 11
335.9378485423
 21
1325.8459842364
 31
0.0
  0
LINE
  5
876
330
1F
100
AcDbEntity
  8
0
  6
Continuous
 62
   144
370
     0
100
AcDbLine
 10
203.1314784718
 20
1353.286324234
 30
0.0
 11
203.2938181294
 21
1354.049815764
 31
0.0
  0
LINE
  5
877
330
1F
100
AcDbEntity
  8
0
  6
Continuous
 62
   144
370
     0
100
AcDbLine
 10
198.7909573577
 20
1353.9837262409
 30
0.0
 11
198.9991735367
 21
1354.9629773454
 31
0.0
  0
LINE
  5
878
330
1F
100
AcDbEntity
  8
0
  6
Continuous
 62
   144
370
     0
100
AcDbLine
 10
2065.0000000001
 20
-560.6912562949
 30
0.0
 11
2064.9999999136
 21
-474.9999999941
 31
0.0
  0
LINE
  5
879
330
1F
100
AcDbEntity
  8
0
  6
Continuous
 62
   144
370
     0
100
AcDbLine
 10
2063.0000000001
 20
-560.6912562949
 30
0.0
 11
2065.0000000001
 21
-560.6912562949
 31
0.0
  0
LINE
  5
87A
330
1F
100
AcDbEntity
  8
0
  6
Continuous
 62
     7
370
    15
100
AcDbLine
 10
1073.1831796812
 20
-831.6104032835
 30
0.0
 11
1079.348434903
 21
-836.7084056423
 31
0.0
  0
LINE
  5
87B
330
1F
100
AcDbEntity
  8
0
  6
Continuous
 62
   144
370
     0
100
AcDbLine
 10
1047.6931678875
 20
-862.4366793927
 30
0.0
 11
1075.4368163857
 21
-885.377690007
 31
0.0
  0
LINE
  5
87C
330
1F
100
AcDbEntity
  8
0
  6
Continuous
 62
     7
370
    15
100
AcDbLine
 10
1087.2417658413
 20
-814.608690527
 30
0.0
 11
1093.4070210632
 21
-819.7066928857
 31
0.0
  0
LINE
  5
87D
330
1F
100
AcDbEntity
  8
0
  6
Continuous
 62
     7
370
    15
100
AcDbLine
 10
1114.9854143396
 20
-837.5497011413
 30
0.0
 11
1118.0680419505
 21
-840.0987023207
 31
0.0
  0
LINE
  5
87E
330
1F
100
AcDbEntity
  8
0
  6
Continuous
 62
     7
370
    15
100
AcDbLine
 10
1047.6931678875
 20
-862.4366793927
 30
0.0
 11
1174.505976561
 21
-709.0759557498
 31
0.0
  0
LINE
  5
87F
330
1F
100
AcDbEntity
  8
0
  6
Continuous
 62
     7
370
    15
100
AcDbLine
 10
1114.6933824422
 20
-781.4101530045
 30
0.0
 11
1120.8586376641
 21
-786.5081553632
 31
0.0
  0
LINE
  5
880
330
1F
100
AcDbEntity
  8
0
  6
Continuous
 62
     7
370
    15
100
AcDbLine
 10
1142.4370309405
 20
-804.3511636188
 30
0.0
 11
1145.5196585514
 21
-806.9001647982
 31
0.0
  0
LINE
  5
881
330
1F
100
AcDbEntity
  8
0
  6
Continuous
 62
   144
370
     0
100
AcDbLine
 10
1113.9696615222
 20
-917.2402047491
 30
0.0
 11
1240.7824701956
 21
-763.8794811062
 31
0.0
  0
LINE
  5
882
330
1F
100
AcDbEntity
  8
0
  6
Continuous
 62
     7
370
    15
100
AcDbLine
 10
1147.3530042542
 20
-864.3142135247
 30
0.0
 11
1153.518259476
 21
-869.4122158834
 31
0.0
  0
LINE
  5
883
330
1F
100
AcDbEntity
  8
0
  6
Continuous
 62
   144
370
     0
100
AcDbLine
 10
1133.294418094
 20
-881.3159262812
 30
0.0
 11
1139.4596733158
 21
-886.41392864
 31
0.0
  0
LINE
  5
884
330
1F
100
AcDbEntity
  8
0
  6
Continuous
 62
     7
370
    15
100
AcDbLine
 10
1150.1435999678
 20
-810.7236665672
 30
0.0
 11
1153.2262275787
 21
-813.2726677466
 31
0.0
  0
LINE
  5
885
330
1F
100
AcDbEntity
  8
0
  6
Continuous
 62
     7
370
    15
100
AcDbLine
 10
1174.8046208551
 20
-831.1156760022
 30
0.0
 11
1180.9698760769
 21
-836.2136783609
 31
0.0
  0
LINE
  5
886
330
1F
100
AcDbEntity
  8
0
  6
Continuous
 62
     7
370
    15
100
AcDbLine
 10
781.8579593844
 20
-1196.4776992936
 30
0.0
 11
803.4363526608
 21
-1214.3207075492
 31
0.0
  0
LINE
  5
887
330
1F
100
AcDbEntity
  8
0
  6
Continuous
 62
     7
370
    15
100
AcDbLine
 10
788.698418979
 20
-1188.205208175
 30
0.0
 11
813.3594398663
 21
-1208.59721761
 31
0.0
  0
LINE
  5
888
330
1F
100
AcDbEntity
  8
0
  6
Continuous
 62
     7
370
    15
100
AcDbLine
 10
774.2410674389
 20
-1205.6891667541
 30
0.0
 11
795.8194607153
 21
-1223.5321750097
 31
0.0
  0
LINE
  5
889
330
1F
100
AcDbEntity
  8
0
  6
Continuous
 62
   144
370
     0
100
AcDbLine
 10
804.7855002039
 20
-1168.7503404549
 30
0.0
 11
829.4465210913
 21
-1189.1423498898
 31
0.0
  0
LINE
  5
88A
330
1F
100
AcDbEntity
  8
0
  6
Continuous
 62
     7
370
    15
100
AcDbLine
 10
813.7976114981
 20
-1157.8515682876
 30
0.0
 11
835.3760047745
 21
-1175.6945765432
 31
0.0
  0
LINE
  5
88B
330
1F
100
AcDbEntity
  8
0
  6
Continuous
 62
   144
370
     0
100
AcDbLine
 10
808.5511063642
 20
-1164.1964149347
 30
0.0
 11
830.1294996407
 21
-1182.0394231903
 31
0.0
  0
LINE
  5
88C
330
1F
100
AcDbEntity
  8
0
  6
Continuous
 62
     7
370
    15
100
AcDbLine
 10
849.7747041918
 20
-1114.3427695488
 30
0.0
 11
871.3530974682
 21
-1132.1857778044
 31
0.0
  0
LINE
  5
88D
330
1F
100
AcDbEntity
  8
0
  6
Continuous
 62
     7
370
    15
100
AcDbLine
 10
893.4805106352
 20
-1061.4872719562
 30
0.0
 11
915.0589039116
 21
-1079.3302802118
 31
0.0
  0
LINE
  5
88E
330
1F
100
AcDbEntity
  8
0
  6
Continuous
 62
     7
370
    15
100
AcDbLine
 10
806.6086573535
 20
-1232.4536791375
 30
0.0
 11
828.1870506299
 21
-1250.2966873931
 31
0.0
  0
LINE
  5
88F
330
1F
100
AcDbEntity
  8
0
  6
Continuous
 62
   144
370
     0
100
AcDbLine
 10
811.1429216881
 20
-1220.6932104977
 30
0.0
 11
835.8039425754
 21
-1241.0852199326
 31
0.0
  0
LINE
  5
890
330
1F
100
AcDbEntity
  8
0
  6
Continuous
 62
     7
370
    15
100
AcDbLine
 10
837.1530901185
 20
-1195.5148528383
 30
0.0
 11
858.7314833949
 21
-1213.3578610938
 31
0.0
  0
LINE
  5
891
330
1F
100
AcDbEntity
  8
0
  6
Continuous
 62
   144
370
     0
100
AcDbLine
 10
817.9833812827
 20
-1212.420719379
 30
0.0
 11
842.64440217
 21
-1232.812728814
 31
0.0
  0
LINE
  5
892
330
1F
100
AcDbEntity
  8
0
  6
Continuous
 62
     7
370
    15
100
AcDbLine
 10
840.9186962789
 20
-1190.9609273181
 30
0.0
 11
862.4970895553
 21
-1208.8039355737
 31
0.0
  0
LINE
  5
893
330
1F
100
AcDbEntity
  8
0
  6
Continuous
 62
     7
370
    15
100
AcDbLine
 10
846.1652014127
 20
-1184.616080671
 30
0.0
 11
867.7435946891
 21
-1202.4590889266
 31
0.0
  0
LINE
  5
894
330
1F
100
AcDbEntity
  8
0
  6
Continuous
 62
     7
370
    15
100
AcDbLine
 10
882.1422941064
 20
-1141.1072819322
 30
0.0
 11
903.7206873828
 21
-1158.9502901878
 31
0.0
  0
LINE
  5
895
330
1F
100
AcDbEntity
  8
0
  6
Continuous
 62
     7
370
    15
100
AcDbLine
 10
925.8481005498
 20
-1088.2517843396
 30
0.0
 11
947.4264938262
 21
-1106.0947925952
 31
0.0
  0
LINE
  5
896
330
1F
100
AcDbEntity
  8
0
  6
Continuous
 62
     7
370
    15
100
AcDbLine
 10
937.9359732979
 20
-1007.7251796633
 30
0.0
 11
962.5969941852
 21
-1028.1171890983
 31
0.0
  0
LINE
  5
897
330
1F
100
AcDbEntity
  8
0
  6
Continuous
 62
     7
370
    15
100
AcDbLine
 10
944.9015948582
 20
-999.3013242635
 30
0.0
 11
969.5626157455
 21
-1019.6933336984
 31
0.0
  0
LINE
  5
898
330
1F
100
AcDbEntity
  8
0
  6
Continuous
 62
   144
370
     0
100
AcDbLine
 10
795.8194607153
 20
-1223.5321750097
 30
0.0
 11
978.9339685391
 21
-1002.0831453484
 31
0.0
  0
LINE
  5
899
330
1F
100
AcDbEntity
  8
0
  6
Continuous
 62
     7
370
    15
100
AcDbLine
 10
957.3555752627
 20
-984.2401370928
 30
0.0
 11
982.01659615
 21
-1004.6321465277
 31
0.0
  0
LINE
  5
89A
330
1F
100
AcDbEntity
  8
0
  6
Continuous
 62
     7
370
    15
100
AcDbLine
 10
924.3402298695
 20
-1024.1671548269
 30
0.0
 11
945.9186231459
 21
-1042.0101630825
 31
0.0
  0
LINE
  5
89B
330
1F
100
AcDbEntity
  8
0
  6
Continuous
 62
     7
370
    15
100
AcDbLine
 10
919.8436148761
 20
-1029.6051238818
 30
0.0
 11
941.4220081525
 21
-1047.4481321374
 31
0.0
  0
LINE
  5
89C
330
1F
100
AcDbEntity
  8
0
  6
Continuous
 62
   144
370
     0
100
AcDbLine
 10
957.8485061254
 20
-983.6440125009
 30
0.0
 11
979.4268994018
 21
-1001.4870207565
 31
0.0
  0
LINE
  5
89D
330
1F
100
AcDbEntity
  8
0
  6
Continuous
 62
   144
370
     0
100
AcDbLine
 10
703.687821585
 20
-1203.3810889256
 30
0.0
 11
748.4447424463
 21
-1175.1871957518
 31
0.0
  0
LINE
  5
89E
330
1F
100
AcDbEntity
  8
0
  6
Continuous
 62
   144
370
     0
100
AcDbLine
 10
793.3667209118
 20
-1146.8893272292
 30
0.0
 11
822.14417547
 21
-1128.7614385359
 31
0.0
  0
LINE
  5
89F
330
1F
100
AcDbEntity
  8
0
  6
Continuous
 62
   144
370
     0
100
AcDbLine
 10
702.5701890094
 20
-1201.6068822763
 30
0.0
 11
703.687821585
 21
-1203.3810889256
 31
0.0
  0
LINE
  5
8A0
330
1F
100
AcDbEntity
  8
0
  6
Continuous
 62
     7
370
    15
100
AcDbLine
 10
421.4374107691
 20
-1317.6667232912
 30
0.0
 11
381.4184324949
 21
-1330.3054445838
 31
0.0
  0
LINE
  5
8A1
330
1F
100
AcDbEntity
  8
0
  6
Continuous
 62
     7
370
    15
100
AcDbLine
 10
514.9189047159
 20
-1288.1435670547
 30
0.0
 11
488.3216366004
 21
-1296.5434681355
 31
0.0
  0
LINE
  5
8A2
330
1F
100
AcDbEntity
  8
0
  6
Continuous
 62
   144
370
     0
100
AcDbLine
 10
386.7141653115
 20
-1327.3031241842
 30
0.0
 11
387.0960597523
 21
-1328.5123466187
 31
0.0
  0
LINE
  5
8A3
330
1F
100
AcDbEntity
  8
0
  6
Continuous
 62
     7
370
    15
100
AcDbLine
 10
514.6371663074
 20
-1287.2514765507
 30
0.0
 11
514.9189047159
 21
-1288.1435670547
 31
0.0
  0
LINE
  5
8A4
330
1F
100
AcDbEntity
  8
0
  6
Continuous
 62
     7
370
    15
100
AcDbLine
 10
37.7456516769
 20
-1373.4246064522
 30
0.0
 11
73.8976398492
 21
-1371.5142881803
 31
0.0
  0
LINE
  5
8A5
330
1F
100
AcDbEntity
  8
0
  6
Continuous
 62
     7
370
    15
100
AcDbLine
 10
146.5233599989
 20
-1367.6766502736
 30
0.0
 11
177.550605784
 21
-1366.0371300827
 31
0.0
  0
LINE
  5
8A6
330
1F
100
AcDbEntity
  8
0
  6
Continuous
 62
   144
370
     0
100
AcDbLine
 10
173.372967381
 20
-1365.2779710281
 30
0.0
 11
173.424602977
 21
-1366.2551534598
 31
0.0
  0
LINE
  5
8A7
330
1F
100
AcDbEntity
  8
0
  6
Continuous
 62
   144
370
     0
100
AcDbLine
 10
43.547038721
 20
-1372.0044902466
 30
0.0
 11
43.6057170204
 21
-1373.1149529458
 31
0.0
  0
LINE
  5
8A8
330
1F
100
AcDbEntity
  8
0
  6
Continuous
 62
   144
370
     0
100
AcDbLine
 10
37.6730737196
 20
-1372.0510984386
 30
0.0
 11
37.7456516769
 21
-1373.4246064522
 31
0.0
  0
LINE
  5
8A9
330
1F
100
AcDbEntity
  8
0
  6
Continuous
 62
   144
370
     0
100
AcDbLine
 10
177.4890059979
 20
-1364.8713794469
 30
0.0
 11
177.550605784
 21
-1366.0371300827
 31
0.0
  0
LINE
  5
8AA
330
1F
100
AcDbEntity
  8
0
  6
Continuous
 62
   144
370
     0
100
AcDbLine
 10
-159.8744306365
 20
-1359.5599271025
 30
0.0
 11
-131.4947091948
 21
-1362.0328872632
 31
0.0
  0
LINE
  5
8AB
330
1F
100
AcDbEntity
  8
0
  6
Continuous
 62
   144
370
     0
100
AcDbLine
 10
-41.1993934855
 20
-1369.9010659173
 30
0.0
 11
-20.4029383918
 21
-1371.713233279
 31
0.0
  0
LINE
  5
8AC
330
1F
100
AcDbEntity
  8
0
  6
Continuous
 62
   144
370
     0
100
AcDbLine
 10
-159.7678298507
 20
-1358.3365751636
 30
0.0
 11
-159.8744306365
 21
-1359.5599271025
 31
0.0
  0
LINE
  5
8AD
330
1F
100
AcDbEntity
  8
0
  6
Continuous
 62
   144
370
     0
100
AcDbLine
 10
-20.3315903021
 20
-1370.8944417184
 30
0.0
 11
-20.4029383918
 21
-1371.713233279
 31
0.0
  0
LINE
  5
8AE
330
1F
100
AcDbEntity
  8
0
  6
Continuous
 62
   144
370
     0
100
AcDbLine
 10
-329.8010147008
 20
-1325.0245670388
 30
0.0
 11
-302.8008156639
 21
-1330.7655646734
 31
0.0
  0
LINE
  5
8AF
330
1F
100
AcDbEntity
  8
0
  6
Continuous
 62
   144
370
     0
100
AcDbLine
 10
-212.3051047832
 20
-1350.0074843867
 30
0.0
 11
-192.8623396952
 21
-1354.1415601477
 31
0.0
  0
LINE
  5
8B0
330
1F
100
AcDbEntity
  8
0
  6
Continuous
 62
   144
370
     0
100
AcDbLine
 10
-329.5623505866
 20
-1323.9021177716
 30
0.0
 11
-329.8010147008
 21
-1325.0245670388
 31
0.0
  0
LINE
  5
8B1
330
1F
100
AcDbEntity
  8
0
  6
Continuous
 62
   144
370
     0
100
AcDbLine
 10
-192.6963155915
 20
-1353.3607404833
 30
0.0
 11
-192.8623396952
 21
-1354.1415601477
 31
0.0
  0
LINE
  5
8B2
330
1F
100
AcDbEntity
  8
0
  6
Continuous
 62
   144
370
     0
100
AcDbLine
 10
-963.2981300721
 20
-996.5684873575
 30
0.0
 11
-935.4116292619
 21
-967.8919625931
 31
0.0
  0
LINE
  5
8B3
330
1F
100
AcDbEntity
  8
0
  6
Continuous
 62
     7
370
    15
100
AcDbLine
 10
-991.9746548365
 20
-968.6819865473
 30
0.0
 11
-986.3973546745
 21
-962.9466815944
 31
0.0
  0
LINE
  5
8B4
330
1F
100
AcDbEntity
  8
0
  6
Continuous
 62
     7
370
    15
100
AcDbLine
 10
-1007.7907084907
 20
-953.3016572827
 30
0.0
 11
-1002.2134083286
 21
-947.5663523298
 31
0.0
  0
LINE
  5
8B5
330
1F
100
AcDbEntity
  8
0
  6
Continuous
 62
     7
370
    15
100
AcDbLine
 10
-963.2981300721
 20
-996.5684873575
 30
0.0
 11
-1063.6659667475
 21
-898.9657345218
 31
0.0
  0
LINE
  5
8B6
330
1F
100
AcDbEntity
  8
0
  6
Continuous
 62
     7
370
    15
100
AcDbLine
 10
-1038.6740587869
 20
-923.2691278834
 30
0.0
 11
-1033.0967586248
 21
-917.5338229305
 31
0.0
  0
LINE
  5
8B7
330
1F
100
AcDbEntity
  8
0
  6
Continuous
 62
   144
370
     0
100
AcDbLine
 10
-935.4116292619
 20
-967.8919625931
 30
0.0
 11
-1063.3530970192
 21
-843.4752184588
 31
0.0
  0
LINE
  5
8B8
330
1F
100
AcDbEntity
  8
0
  6
Continuous
 62
     7
370
    15
100
AcDbLine
 10
-1052.0925007997
 20
-910.2203572552
 30
0.0
 11
-1046.5152006377
 21
-904.4850523024
 31
0.0
  0
LINE
  5
8B9
330
1F
100
AcDbEntity
  8
0
  6
Continuous
 62
   144
370
     0
100
AcDbLine
 10
-1063.6659667475
 20
-898.9657345218
 30
0.0
 11
-1058.0886665855
 21
-893.2304295689
 31
0.0
  0
LINE
  5
8BA
330
1F
100
AcDbEntity
  8
0
  6
Continuous
 62
     7
370
    15
100
AcDbLine
 10
-903.3421533302
 20
-934.913959114
 30
0.0
 11
-1003.7099900056
 21
-837.3112062783
 31
0.0
  0
LINE
  5
8BB
330
1F
100
AcDbEntity
  8
0
  6
Continuous
 62
     7
370
    15
100
AcDbLine
 10
-953.4120319108
 20
-897.3824339921
 30
0.0
 11
-947.8347317488
 21
-891.6471290392
 31
0.0
  0
LINE
  5
8BC
330
1F
100
AcDbEntity
  8
0
  6
Continuous
 62
   144
370
     0
100
AcDbLine
 10
-937.5959782567
 20
-912.7627632567
 30
0.0
 11
-932.0186780946
 21
-907.0274583038
 31
0.0
  0
LINE
  5
8BD
330
1F
100
AcDbEntity
  8
0
  6
Continuous
 62
     7
370
    15
100
AcDbLine
 10
-984.295382207
 20
-867.3499045928
 30
0.0
 11
-978.718082045
 21
-861.6145996399
 31
0.0
  0
LINE
  5
8BE
330
1F
100
AcDbEntity
  8
0
  6
Continuous
 62
     7
370
    15
100
AcDbLine
 10
-997.7138242198
 20
-854.3011339647
 30
0.0
 11
-992.1365240578
 21
-848.5658290118
 31
0.0
  0
LINE
  5
8BF
330
1F
100
AcDbEntity
  8
0
  6
Continuous
 62
   144
370
     0
100
AcDbLine
 10
-1009.2872901676
 20
-843.0465112312
 30
0.0
 11
-1003.7099900056
 21
-837.3112062783
 31
0.0
  0
LINE
  5
8C0
330
1F
100
AcDbEntity
  8
0
  6
Continuous
 62
     7
370
    15
100
AcDbLine
 10
-643.1484362471
 20
-1296.7392635222
 30
0.0
 11
-623.62788568
 21
-1276.6656961871
 31
0.0
  0
LINE
  5
8C1
330
1F
100
AcDbEntity
  8
0
  6
Continuous
 62
   144
370
     0
100
AcDbLine
 10
-651.7175178258
 20
-1288.4062558669
 30
0.0
 11
-629.4083171777
 21
-1265.4650360554
 31
0.0
  0
LINE
  5
8C2
330
1F
100
AcDbEntity
  8
0
  6
Continuous
 62
   144
370
     0
100
AcDbLine
 10
-677.5112364565
 20
-1263.3231413194
 30
0.0
 11
-657.9906858894
 21
-1243.2495739843
 31
0.0
  0
LINE
  5
8C3
330
1F
100
AcDbEntity
  8
0
  6
Continuous
 62
   144
370
     0
100
AcDbLine
 10
-659.4131050446
 20
-1280.9226782377
 30
0.0
 11
-637.1039043964
 21
-1257.9814584262
 31
0.0
  0
LINE
  5
8C4
330
1F
100
AcDbEntity
  8
0
  6
Continuous
 62
     7
370
    15
100
AcDbLine
 10
-728.1245524774
 20
-1214.1041969103
 30
0.0
 11
-708.6040019102
 21
-1194.0306295753
 31
0.0
  0
LINE
  5
8C5
330
1F
100
AcDbEntity
  8
0
  6
Continuous
 62
   144
370
     0
100
AcDbLine
 10
-687.6499541157
 20
-1253.4637402747
 30
0.0
 11
-668.1294035486
 21
-1233.3901729396
 31
0.0
  0
LINE
  5
8C6
330
1F
100
AcDbEntity
  8
0
  6
Continuous
 62
     7
370
    15
100
AcDbLine
 10
-777.2940330945
 20
-1166.2893109598
 30
0.0
 11
-757.7734825274
 21
-1146.2157436247
 31
0.0
  0
LINE
  5
8C7
330
1F
100
AcDbEntity
  8
0
  6
Continuous
 62
     7
370
    15
100
AcDbLine
 10
-616.6562604774
 20
-1269.496564996
 30
0.0
 11
-594.3470598293
 21
-1246.5553451845
 31
0.0
  0
LINE
  5
8C8
330
1F
100
AcDbEntity
  8
0
  6
Continuous
 62
     7
370
    15
100
AcDbLine
 10
-625.2253420561
 20
-1261.1635573408
 30
0.0
 11
-602.916141408
 21
-1238.2223375293
 31
0.0
  0
LINE
  5
8C9
330
1F
100
AcDbEntity
  8
0
  6
Continuous
 62
   144
370
     0
100
AcDbLine
 10
-630.1322791939
 20
-1250.8123272351
 30
0.0
 11
-610.6117286267
 21
-1230.7387599
 31
0.0
  0
LINE
  5
8CA
330
1F
100
AcDbEntity
  8
0
  6
Continuous
 62
     7
370
    15
100
AcDbLine
 10
-635.0380671014
 20
-1246.0416913375
 30
0.0
 11
-615.5175165343
 21
-1225.9681240025
 31
0.0
  0
LINE
  5
8CB
330
1F
100
AcDbEntity
  8
0
  6
Continuous
 62
     7
370
    15
100
AcDbLine
 10
-639.2443812463
 20
-1241.9512590494
 30
0.0
 11
-619.7238306791
 21
-1221.8776917143
 31
0.0
  0
LINE
  5
8CC
330
1F
100
AcDbEntity
  8
0
  6
Continuous
 62
     7
370
    15
100
AcDbLine
 10
-701.6323767077
 20
-1186.8614983842
 30
0.0
 11
-679.3231760595
 21
-1163.9202785727
 31
0.0
  0
LINE
  5
8CD
330
1F
100
AcDbEntity
  8
0
  6
Continuous
 62
   144
370
     0
100
AcDbLine
 10
-658.369128265
 20
-1223.3533892721
 30
0.0
 11
-638.8485776979
 21
-1203.279821937
 31
0.0
  0
LINE
  5
8CE
330
1F
100
AcDbEntity
  8
0
  6
Continuous
 62
     7
370
    15
100
AcDbLine
 10
-750.8018573249
 20
-1139.0466124336
 30
0.0
 11
-728.4926566767
 21
-1116.1053926221
 31
0.0
  0
LINE
  5
8CF
330
1F
100
AcDbEntity
  8
0
  6
Continuous
 62
   144
370
     0
100
AcDbLine
 10
-835.1432803631
 20
-1110.0337815998
 30
0.0
 11
-815.622729796
 21
-1089.9602142648
 31
0.0
  0
LINE
  5
8D0
330
1F
100
AcDbEntity
  8
0
  6
Continuous
 62
     7
370
    15
100
AcDbLine
 10
-849.1541360809
 20
-1096.4089179689
 30
0.0
 11
-826.8449354328
 21
-1073.4676981573
 31
0.0
  0
LINE
  5
8D1
330
1F
100
AcDbEntity
  8
0
  6
Continuous
 62
     7
370
    15
100
AcDbLine
 10
-812.0115338163
 20
-1132.5282600668
 30
0.0
 11
-792.4909832492
 21
-1112.4546927317
 31
0.0
  0
LINE
  5
8D2
330
1F
100
AcDbEntity
  8
0
  6
Continuous
 62
   144
370
     0
100
AcDbLine
 10
-623.62788568
 20
-1276.6656961871
 30
0.0
 11
-815.6227154577
 21
-1089.960228208
 31
0.0
  0
LINE
  5
8D3
330
1F
100
AcDbEntity
  8
0
  6
Continuous
 62
   144
370
     0
100
AcDbLine
 10
-827.306884649
 20
-1117.6542885206
 30
0.0
 11
-804.9976840008
 21
-1094.7130687091
 31
0.0
  0
LINE
  5
8D4
330
1F
100
AcDbEntity
  8
0
  6
Continuous
 62
     7
370
    15
100
AcDbLine
 10
-806.9527958189
 20
-1137.4476323555
 30
0.0
 11
-787.4322452518
 21
-1117.3740650204
 31
0.0
  0
LINE
  5
8D5
330
1F
100
AcDbEntity
  8
0
  6
Continuous
 62
   144
370
     0
100
AcDbLine
 10
-849.7086883583
 20
-1095.8696433301
 30
0.0
 11
-830.1881377912
 21
-1075.796075995
 31
0.0
  0
LINE
  5
8D6
330
1F
100
AcDbEntity
  8
0
  6
Continuous
 62
   144
370
     0
100
AcDbLine
 10
-901.1124115775
 20
-942.6617492323
 30
0.0
 11
-906.8477165303
 21
-937.0844490702
 31
0.0
  0
LINE
  5
8D7
330
1F
100
AcDbEntity
  8
0
  6
Continuous
 62
   144
370
     0
100
AcDbLine
 10
-906.8477165303
 20
-937.0844490702
 30
0.0
 11
-931.2484047393
 21
-962.1764082391
 31
0.0
  0
LINE
  5
8D8
330
1F
100
AcDbEntity
  8
0
  6
Continuous
 62
   144
370
     0
100
AcDbLine
 10
-931.2484047393
 20
-962.1764082391
 30
0.0
 11
-957.0572770272
 21
-937.0785575099
 31
0.0
  0
LINE
  5
8D9
330
1F
100
AcDbEntity
  8
0
  6
Continuous
 62
   144
370
     0
100
AcDbLine
 10
-986.4200916405
 20
-909.9195429535
 30
0.0
 11
-987.1172541607
 21
-910.6364560726
 31
0.0
  0
LINE
  5
8DA
330
1F
100
AcDbEntity
  8
0
  6
Continuous
 62
   144
370
     0
100
AcDbLine
 10
-989.9059042418
 20
-913.5041085491
 30
0.0
 11
-990.603066762
 21
-914.2210216682
 31
0.0
  0
LINE
  5
8DB
330
1F
100
AcDbEntity
  8
0
  6
Continuous
 62
   144
370
     0
100
AcDbLine
 10
-960.5094799911
 20
-993.700834881
 30
0.0
 11
-956.2080012765
 21
-997.8838100026
 31
0.0
  0
LINE
  5
8DC
330
1F
100
AcDbEntity
  8
0
  6
Continuous
 62
   144
370
     0
100
AcDbLine
 10
-876.6247534949
 20
-1025.059289254
 30
0.0
 11
-875.9275909746
 21
-1024.3423761349
 31
0.0
  0
LINE
  5
8DD
330
1F
100
AcDbEntity
  8
0
  6
Continuous
 62
   144
370
     0
100
AcDbLine
 10
-873.1389408936
 20
-1021.4747236585
 30
0.0
 11
-872.4417783734
 21
-1020.7578105393
 31
0.0
  0
LINE
  5
8DE
330
1F
100
AcDbEntity
  8
0
  6
Continuous
 62
   144
370
     0
100
AcDbLine
 10
-917.3036224779
 20
-975.7370187044
 30
0.0
 11
-925.5130997864
 21
-967.7537084011
 31
0.0
  0
LINE
  5
8DF
330
1F
100
AcDbEntity
  8
0
  6
Continuous
 62
   144
370
     0
100
AcDbLine
 10
-925.5130997864
 20
-967.7537084011
 30
0.0
 11
-923.4216122256
 21
-965.6029690438
 31
0.0
  0
LINE
  5
8E0
330
1F
100
AcDbEntity
  8
0
  6
Continuous
 62
   144
370
     0
100
AcDbLine
 10
-903.9010616585
 20
-945.5294017087
 30
0.0
 11
-901.1124115775
 21
-942.6617492323
 31
0.0
  0
LINE
  5
8E1
330
1F
100
AcDbEntity
  8
0
  6
Continuous
 62
     7
370
    15
100
AcDbLine
 10
-1364.9999999998
 20
-119.9999999982
 30
0.0
 11
-1364.9999999998
 21
-1479.9999999982
 31
0.0
  0
LINE
  5
8E2
330
1F
100
AcDbEntity
  8
0
  6
Continuous
 62
     7
370
    15
100
AcDbLine
 10
-1072.2700955847
 20
-99.9999999982
 30
0.0
 11
-1344.9999999998
 21
-99.9999999982
 31
0.0
  0
LINE
  5
8E3
330
1F
100
AcDbEntity
  8
0
  6
Continuous
 62
   144
370
     0
100
AcDbLine
 10
-94.9999999998
 20
-1113.3275738144
 30
0.0
 11
-94.9999999998
 21
-1323.4097373059
 31
0.0
  0
LINE
  5
8E4
330
1F
100
AcDbEntity
  8
0
  6
Continuous
 62
   144
370
     0
100
AcDbLine
 10
-94.9999999998
 20
-1365.8994219686
 30
0.0
 11
-94.9999999998
 21
-1496.9999999982
 31
0.0
  0
LINE
  5
8E5
330
1F
100
AcDbEntity
  8
0
  6
Continuous
 62
     7
370
    15
100
AcDbLine
 10
-1344.9999999998
 20
-1499.9999999982
 30
0.0
 11
-97.9999999998
 21
-1499.9999999982
 31
0.0
  0
LINE
  5
8E6
330
1F
100
AcDbEntity
  8
0
  6
Continuous
 62
   144
370
     0
100
AcDbLine
 10
649.2700414545
 20
-1232.3325238427
 30
0.0
 11
648.4288644305
 21
-1230.5180208214
 31
0.0
  0
LINE
  5
8E7
330
1F
100
AcDbEntity
  8
0
  6
Continuous
 62
   144
370
     0
100
AcDbLine
 10
575.8487435799
 20
-1264.1651017841
 30
0.0
 11
576.6899206039
 21
-1265.9796048054
 31
0.0
  0
LINE
  5
8E8
330
1F
100
AcDbEntity
  8
0
  6
Continuous
 62
     7
370
    15
100
AcDbLine
 10
2023.0000000001
 20
-881.7060617996
 30
0.0
 11
2023.0000000001
 21
-1174.8673269696
 31
0.0
  0
LINE
  5
8E9
330
1F
100
AcDbEntity
  8
0
  6
Continuous
 62
     7
370
    15
100
AcDbLine
 10
2063.0000000001
 20
-1168.8727998656
 30
0.0
 11
2063.0000000001
 21
-890.3611854562
 31
0.0
  0
LINE
  5
8EA
330
1F
100
AcDbEntity
  8
0
  6
Continuous
 62
   144
370
     0
100
AcDbLine
 10
1262.9792740579
 20
306.3781577528
 30
0.0
 11
1267.0207259423
 21
306.3781577528
 31
0.0
  0
LINE
  5
8EB
330
1F
100
AcDbEntity
  8
0
  6
Continuous
 62
   144
370
     0
100
AcDbLine
 10
1260.9585481158
 20
302.8781577528
 30
0.0
 11
1262.9792740579
 21
306.3781577528
 31
0.0
  0
LINE
  5
8EC
330
1F
100
AcDbEntity
  8
0
  6
Continuous
 62
   144
370
     0
100
AcDbLine
 10
1262.9792740579
 20
299.3781577528
 30
0.0
 11
1260.9585481158
 21
302.8781577528
 31
0.0
  0
LINE
  5
8ED
330
1F
100
AcDbEntity
  8
0
  6
Continuous
 62
   144
370
     0
100
AcDbLine
 10
1267.0207259423
 20
299.3781577528
 30
0.0
 11
1262.9792740579
 21
299.3781577528
 31
0.0
  0
LINE
  5
8EE
330
1F
100
AcDbEntity
  8
0
  6
Continuous
 62
   144
370
     0
100
AcDbLine
 10
1269.0414518844
 20
302.8781577528
 30
0.0
 11
1267.0207259423
 21
299.3781577528
 31
0.0
  0
LINE
  5
8EF
330
1F
100
AcDbEntity
  8
0
  6
Continuous
 62
   144
370
     0
100
AcDbLine
 10
1267.0207259423
 20
306.3781577528
 30
0.0
 11
1269.0414518844
 21
302.8781577528
 31
0.0
  0
LINE
  5
8F0
330
1F
100
AcDbEntity
  8
0
  6
Continuous
 62
     7
370
    15
100
AcDbLine
 10
1018.8083007981
 20
888.1481177936
 30
0.0
 11
996.49910015
 21
865.2068979821
 31
0.0
  0
LINE
  5
8F1
330
1F
100
AcDbEntity
  8
0
  6
Continuous
 62
   144
370
     0
100
AcDbLine
 10
986.0031849011
 20
914.4699924714
 30
0.0
 11
966.4826343339
 21
894.3964251363
 31
0.0
  0
LINE
  5
8F2
330
1F
100
AcDbEntity
  8
0
  6
Continuous
 62
     7
370
    15
100
AcDbLine
 10
1060.3518876189
 20
847.7490360689
 30
0.0
 11
1038.0426869708
 21
824.8078162574
 31
0.0
  0
LINE
  5
8F3
330
1F
100
AcDbEntity
  8
0
  6
Continuous
 62
   144
370
     0
100
AcDbLine
 10
1096.3526481249
 20
807.1606019201
 30
0.0
 11
1076.8320975578
 21
787.087034585
 31
0.0
  0
LINE
  5
8F4
330
1F
100
AcDbEntity
  8
0
  6
Continuous
 62
     7
370
    15
100
AcDbLine
 10
1128.5040104645
 20
-843.1704134581
 30
0.0
 11
1150.0824037409
 21
-861.0134217137
 31
0.0
  0
LINE
  5
8F5
330
1F
100
AcDbEntity
  8
0
  6
Continuous
 62
     7
370
    15
100
AcDbLine
 10
1152.1024424988
 20
-808.354745705
 30
0.0
 11
1176.7634633861
 21
-828.74675514
 31
0.0
  0
LINE
  5
8F6
330
1F
100
AcDbEntity
  8
0
  6
Continuous
 62
     7
370
    15
100
AcDbLine
 10
1189.0297384914
 20
-763.6968212032
 30
0.0
 11
1213.6907593787
 21
-784.0888306382
 31
0.0
  0
LINE
  5
8F7
330
1F
100
AcDbEntity
  8
0
  6
Continuous
 62
     7
370
    15
100
AcDbLine
 10
1226.591527767
 20
-724.5485424405
 30
0.0
 11
1248.1699210434
 21
-742.3915506961
 31
0.0
  0
LINE
  5
8F8
330
1F
100
AcDbEntity
  8
0
  6
Continuous
 62
     7
370
    15
100
AcDbLine
 10
-908.9194534923
 20
-940.6492640669
 30
0.0
 11
-1145.7774283205
 21
-710.3166083069
 31
0.0
  0
LINE
  5
8F9
330
1F
100
AcDbEntity
  8
0
  6
Continuous
 62
   144
370
     0
100
AcDbLine
 10
-976.0031849008
 20
-914.4699924695
 30
0.0
 11
-956.4826343337
 21
-894.3964251344
 31
0.0
  0
LINE
  5
8FA
330
1F
100
AcDbEntity
  8
0
  6
Continuous
 62
     7
370
    15
100
AcDbLine
 10
-1008.8083007979
 20
-888.1481177918
 30
0.0
 11
-986.4991001497
 21
-865.2068979803
 31
0.0
  0
LINE
  5
8FB
330
1F
100
AcDbEntity
  8
0
  6
Continuous
 62
     7
370
    15
100
AcDbLine
 10
-1050.3518876187
 20
-847.7490360671
 30
0.0
 11
-1028.0426869705
 21
-824.8078162556
 31
0.0
  0
LINE
  5
8FC
330
1F
100
AcDbEntity
  8
0
  6
Continuous
 62
   144
370
     0
100
AcDbLine
 10
-1086.3526481247
 20
-807.1606019182
 30
0.0
 11
-1066.8320975575
 21
-787.0870345831
 31
0.0
  0
LINE
  5
8FD
330
1F
100
AcDbEntity
  8
0
  6
Continuous
 62
   144
370
     0
100
AcDbLine
 10
936.927175426
 20
967.7734590018
 30
0.0
 11
909.0406746158
 21
939.0969342374
 31
0.0
  0
LINE
  5
8FE
330
1F
100
AcDbEntity
  8
0
  6
Continuous
 62
   144
370
     0
100
AcDbLine
 10
2066.9999999136
 20
-519.9999999941
 30
0.0
 11
2066.9999999136
 21
-474.9999999941
 31
0.0
  0
LINE
  5
8FF
330
1F
100
AcDbEntity
  8
0
  6
Continuous
 62
   144
370
     0
100
AcDbLine
 10
2066.9999999136
 20
60.0000000059
 30
0.0
 11
2066.9999999136
 21
105.0000000059
 31
0.0
  0
LINE
  5
900
330
1F
100
AcDbEntity
  8
0
  6
Continuous
 62
   144
370
     0
100
AcDbLine
 10
2064.9999999136
 20
60.0000000059
 30
0.0
 11
2064.9999999136
 21
105.0000000059
 31
0.0
  0
LINE
  5
901
330
1F
100
AcDbEntity
  8
0
  6
Continuous
 62
   144
370
     0
100
AcDbLine
 10
1082.4025112549
 20
-898.9231355512
 30
0.0
 11
1103.9809045313
 21
-916.7661438068
 31
0.0
  0
LINE
  5
902
330
1F
100
AcDbEntity
  8
0
  6
Continuous
 62
   144
370
     0
100
AcDbLine
 10
-868.3026061826
 20
-1019.2034739622
 30
0.0
 11
-848.7820556154
 21
-999.1299066271
 31
0.0
  0
LINE
  5
903
330
1F
100
AcDbEntity
  8
0
  6
Continuous
 62
   144
370
     0
100
AcDbLine
 10
-924.1385253447
 20
-964.9058065235
 30
0.0
 11
-904.6179747776
 21
-944.8322391884
 31
0.0
  0
LINE
  5
904
330
1F
100
AcDbEntity
  8
0
  6
Continuous
 62
   144
370
     0
100
AcDbLine
 10
-909.9081018851
 20
-978.7441889146
 30
0.0
 11
-924.1385253447
 21
-964.9058065235
 31
0.0
  0
LINE
  5
905
330
1F
100
AcDbEntity
  8
0
  6
Continuous
 62
     7
370
    15
100
AcDbLine
 10
-1365.0
 20
1480.0
 30
0.0
 11
-1365.0
 21
720.0
 31
0.0
  0
LINE
  5
906
330
1F
100
AcDbEntity
  8
0
  6
Continuous
 62
     7
370
    15
100
AcDbLine
 10
-1345.0
 20
700.0
 30
0.0
 11
-1023.6594515874
 21
700.0
 31
0.0
  0
LINE
  5
907
330
1F
100
AcDbEntity
  8
0
  6
Continuous
 62
     7
370
    15
100
AcDbLine
 10
102.0
 20
1500.0
 30
0.0
 11
-1345.0
 21
1500.0
 31
0.0
  0
LINE
  5
908
330
1F
100
AcDbEntity
  8
0
  6
Continuous
 62
   144
370
     0
100
AcDbLine
 10
991.273095033
 20
970.0220741802
 30
0.0
 11
975.3576237887
 21
985.4990821298
 31
0.0
  0
LINE
  5
909
330
1F
100
AcDbEntity
  8
0
  6
Continuous
 62
     7
370
    15
100
AcDbLine
 10
1161.3838512944
 20
804.5977844072
 30
0.0
 11
1145.4683800502
 21
820.0747923568
 31
0.0
  0
LINE
  5
90A
330
1F
100
AcDbEntity
  8
0
  6
Continuous
 62
   144
370
     0
100
AcDbLine
 10
672.0419494249
 20
1280.4585609504
 30
0.0
 11
656.1264781807
 21
1295.9355689001
 31
0.0
  0
LINE
  5
90B
330
1F
100
AcDbEntity
  8
0
  6
Continuous
 62
   144
370
     0
100
AcDbLine
 10
660.9853923335
 20
1289.815646249
 30
0.0
 11
665.7887102315
 21
1285.1446573633
 31
0.0
  0
LINE
  5
90C
330
1F
100
AcDbEntity
  8
0
  6
Continuous
 62
   144
370
     0
100
AcDbLine
 10
854.1467597659
 20
1103.3706473055
 30
0.0
 11
838.2312885216
 21
1118.8476552552
 31
0.0
  0
LINE
  5
90D
330
1F
100
AcDbEntity
  8
0
  6
Continuous
 62
   144
370
     0
100
AcDbLine
 10
1034.7099522522
 20
938.9408339895
 30
0.0
 11
1018.794481008
 21
954.4178419391
 31
0.0
  0
LINE
  5
90E
330
1F
100
AcDbEntity
  8
0
  6
Continuous
 62
   144
370
     0
100
AcDbLine
 10
-947.6739134931
 20
1023.3586362938
 30
0.0
 11
-946.4013169483
 21
1021.8157500264
 31
0.0
  0
LINE
  5
90F
330
1F
100
AcDbEntity
  8
0
  6
Continuous
 62
     7
370
    15
100
AcDbLine
 10
-947.6739134931
 20
1023.3586362938
 30
0.0
 11
-850.224285328
 21
1103.7366023854
 31
0.0
  0
LINE
  5
910
330
1F
100
AcDbEntity
  8
0
  6
Continuous
 62
     7
370
    15
100
AcDbLine
 10
-857.3346621778
 20
1097.8718531801
 30
0.0
 11
-856.0620656331
 21
1096.3289669127
 31
0.0
  0
LINE
  5
911
330
1F
100
AcDbEntity
  8
0
  6
Continuous
 62
   144
370
     0
100
AcDbLine
 10
-948.8164347082
 20
1019.8237234065
 30
0.0
 11
-935.7880261745
 21
1030.5697570144
 31
0.0
  0
LINE
  5
912
330
1F
100
AcDbEntity
  8
0
  6
Continuous
 62
   144
370
     0
100
AcDbLine
 10
-866.6753564069
 20
1087.5749599246
 30
0.0
 11
-851.3257497427
 21
1100.2355537843
 31
0.0
  0
LINE
  5
913
330
1F
100
AcDbEntity
  8
0
  6
Continuous
 62
   144
370
     0
100
AcDbLine
 10
-850.5966061167
 20
1103.429506419
 30
0.0
 11
-849.324009572
 21
1101.8866201516
 31
0.0
  0
LINE
  5
914
330
1F
100
AcDbEntity
  8
0
  6
Continuous
 62
   144
370
     0
100
AcDbLine
 10
-812.1821271056
 20
1131.1012713378
 30
0.0
 11
-705.3692251314
 21
1198.3863188766
 31
0.0
  0
LINE
  5
915
330
1F
100
AcDbEntity
  8
0
  6
Continuous
 62
   144
370
     0
100
AcDbLine
 10
-662.8372008583
 20
1221.4071339273
 30
0.0
 11
-548.4410224193
 21
1274.4395267182
 31
0.0
  0
LINE
  5
916
330
1F
100
AcDbEntity
  8
0
  6
Continuous
 62
   144
370
     0
100
AcDbLine
 10
-501.6037792423
 20
1291.2879148421
 30
0.0
 11
-381.5772612532
 21
1329.1944725307
 31
0.0
  0
LINE
  5
917
330
1F
100
AcDbEntity
  8
0
  6
Continuous
 62
     7
370
    15
100
AcDbLine
 10
-389.3598931989
 20
1326.7365757945
 30
0.0
 11
-388.7575806628
 21
1324.8294261914
 31
0.0
  0
LINE
  5
918
330
1F
100
AcDbEntity
  8
0
  6
Continuous
 62
   144
370
     0
100
AcDbLine
 10
-411.4374107688
 20
1317.666723293
 30
0.0
 11
-381.3391304081
 21
1327.172307725
 31
0.0
  0
LINE
  5
919
330
1F
100
AcDbEntity
  8
0
  6
Continuous
 62
   144
370
     0
100
AcDbLine
 10
-501.6037792423
 20
1291.2879148421
 30
0.0
 11
-501.0014667062
 21
1289.3807652389
 31
0.0
  0
LINE
  5
91A
330
1F
100
AcDbEntity
  8
0
  6
Continuous
 62
   144
370
     0
100
AcDbLine
 10
-381.9414429442
 20
1329.0794573281
 30
0.0
 11
-381.3391304081
 21
1327.172307725
 31
0.0
  0
LINE
  5
91B
330
1F
100
AcDbEntity
  8
0
  6
Continuous
 62
   144
370
     0
100
AcDbLine
 10
-335.3894791844
 20
1339.9863567682
 30
0.0
 11
-335.0304734427
 21
1338.0188418693
 31
0.0
  0
LINE
  5
91C
330
1F
100
AcDbEntity
  8
0
  6
Continuous
 62
   144
370
     0
100
AcDbLine
 10
-219.2749526656
 20
1361.1733789009
 30
0.0
 11
-218.9159469239
 21
1359.2058640019
 31
0.0
  0
LINE
  5
91D
330
1F
100
AcDbEntity
  8
0
  6
Continuous
 62
   144
370
     0
100
AcDbLine
 10
-339.9294857945
 20
1337.124935773
 30
0.0
 11
-316.3422797018
 21
1341.4288129235
 31
0.0
  0
LINE
  5
91E
330
1F
100
AcDbEntity
  8
0
  6
Continuous
 62
   144
370
     0
100
AcDbLine
 10
-237.6041406648
 20
1355.7958929477
 30
0.0
 11
-202.2034428704
 21
1362.2553376888
 31
0.0
  0
LINE
  5
91F
330
1F
100
AcDbEntity
  8
0
  6
Continuous
 62
   144
370
     0
100
AcDbLine
 10
-335.3894791844
 20
1339.9863567682
 30
0.0
 11
-211.8542572121
 21
1362.5274079231
 31
0.0
  0
LINE
  5
920
330
1F
100
AcDbEntity
  8
0
  6
Continuous
 62
   144
370
     0
100
AcDbLine
 10
-159.8055079391
 20
1368.4491814275
 30
0.0
 11
-34.7959288834
 21
1375.0548508555
 31
0.0
  0
LINE
  5
921
330
1F
100
AcDbEntity
  8
0
  6
Continuous
 62
   144
370
     0
100
AcDbLine
 10
209.7716933869
 20
1354.7171491581
 30
0.0
 11
209.3557363425
 21
1352.7608823723
 31
0.0
  0
LINE
  5
922
330
1F
100
AcDbEntity
  8
0
  6
Continuous
 62
     7
370
    15
100
AcDbLine
 10
209.7716933869
 20
1354.7171491581
 30
0.0
 11
331.1122310267
 21
1328.9167564045
 31
0.0
  0
LINE
  5
923
330
1F
100
AcDbEntity
  8
0
  6
Continuous
 62
   144
370
     0
100
AcDbLine
 10
326.3117799485
 20
1329.9374665944
 30
0.0
 11
325.8958229041
 21
1327.9811998086
 31
0.0
  0
LINE
  5
924
330
1F
100
AcDbEntity
  8
0
  6
Continuous
 62
   144
370
     0
100
AcDbLine
 10
36.6444701737
 20
1373.1769356473
 30
0.0
 11
160.8137675188
 21
1362.3570364401
 31
0.0
  0
LINE
  5
925
330
1F
100
AcDbEntity
  8
0
  6
Continuous
 62
   144
370
     0
100
AcDbLine
 10
40.5734346249
 20
1370.8269937154
 30
0.0
 11
36.470851514
 21
1371.1844857581
 31
0.0
  0
LINE
  5
926
330
1F
100
AcDbEntity
  8
0
  6
Continuous
 62
   144
370
     0
100
AcDbLine
 10
36.6444701737
 20
1373.1769356473
 30
0.0
 11
36.470851514
 21
1371.1844857581
 31
0.0
  0
LINE
  5
927
330
1F
100
AcDbEntity
  8
0
  6
Continuous
 62
   144
370
     0
100
AcDbLine
 10
42.2614153216
 20
1372.6874846988
 30
0.0
 11
42.0877966619
 21
1370.6950348096
 31
0.0
  0
LINE
  5
928
330
1F
100
AcDbEntity
  8
0
  6
Continuous
 62
   144
370
     0
100
AcDbLine
 10
380.2260854168
 20
1315.5842114284
 30
0.0
 11
496.867857892
 21
1275.4241230093
 31
0.0
  0
LINE
  5
929
330
1F
100
AcDbEntity
  8
0
  6
Continuous
 62
   144
370
     0
100
AcDbLine
 10
1050.3133791213
 20
-931.4530713536
 30
0.0
 11
1074.9744000087
 21
-951.8450807885
 31
0.0
  0
LINE
  5
92A
330
1F
100
AcDbEntity
  8
0
  6
Continuous
 62
   144
370
     0
100
AcDbLine
 10
1062.2737750046
 20
-916.9887992749
 30
0.0
 11
1086.9347958919
 21
-937.3808087099
 31
0.0
  0
LINE
  5
92B
330
1F
100
AcDbEntity
  8
0
  6
Continuous
 62
   144
370
     0
100
AcDbLine
 10
1034.1168909293
 20
-951.0402500904
 30
0.0
 11
1058.7779118166
 21
-971.4322595254
 31
0.0
  0
LINE
  5
92C
330
1F
100
AcDbEntity
  8
0
  6
Continuous
 62
   144
370
     0
100
AcDbLine
 10
1029.6853086642
 20
-956.399571993
 30
0.0
 11
1054.3463295515
 21
-976.791581428
 31
0.0
  0
LINE
  5
92D
330
1F
100
AcDbEntity
  8
0
  6
Continuous
 62
   144
370
     0
100
AcDbLine
 10
988.2671392766
 20
-1006.4885219633
 30
0.0
 11
991.3497668875
 21
-1009.0375231427
 31
0.0
  0
LINE
  5
92E
330
1F
100
AcDbEntity
  8
0
  6
Continuous
 62
   144
370
     0
100
AcDbLine
 10
1008.4798967246
 20
-982.0442789767
 30
0.0
 11
1033.1409176119
 21
-1002.4362884116
 31
0.0
  0
LINE
  5
92F
330
1F
100
AcDbEntity
  8
0
  6
Continuous
 62
   144
370
     0
100
AcDbLine
 10
953.6251921732
 20
-1048.3826660309
 30
0.0
 11
978.2862130605
 21
-1068.7746754659
 31
0.0
  0
LINE
  5
930
330
1F
100
AcDbEntity
  8
0
  6
Continuous
 62
   144
370
     0
100
AcDbLine
 10
967.2209356016
 20
-1031.9406908673
 30
0.0
 11
871.1671225136
 21
-1148.1031072503
 31
0.0
  0
LINE
  5
931
330
1F
100
AcDbEntity
  8
0
  6
Continuous
 62
   144
370
     0
100
AcDbLine
 10
967.2209356016
 20
-1031.9406908673
 30
0.0
 11
991.8819564889
 21
-1052.3327003023
 31
0.0
  0
LINE
  5
932
330
1F
100
AcDbEntity
  8
0
  6
Continuous
 62
   144
370
     0
100
AcDbLine
 10
806.6086573535
 20
-1232.4536791375
 30
0.0
 11
1082.4025112549
 21
-898.9231355512
 31
0.0
  0
LINE
  5
933
330
1F
100
AcDbEntity
  8
0
  6
Continuous
 62
   144
370
     0
100
AcDbLine
 10
811.1429216881
 20
-1220.6932104977
 30
0.0
 11
817.9833812827
 21
-1212.420719379
 31
0.0
  0
LINE
  5
934
330
1F
100
AcDbEntity
  8
0
  6
Continuous
 62
   144
370
     0
100
AcDbLine
 10
871.1671225136
 20
-1148.1031072503
 30
0.0
 11
874.2497501245
 21
-1150.6521084297
 31
0.0
  0
LINE
  5
935
330
1F
100
AcDbEntity
  8
0
  6
Continuous
 62
     7
370
    15
100
AcDbLine
 10
1034.9379539269
 20
-950.0472997979
 30
0.0
 11
1038.0205815378
 21
-952.5963009772
 31
0.0
  0
LINE
  5
936
330
1F
100
AcDbEntity
  8
0
  6
Continuous
 62
   144
370
     0
100
AcDbLine
 10
1223.9162343406
 20
-659.5218692643
 30
0.0
 11
1209.7692777951
 21
-676.6304525049
 31
0.0
  0
LINE
  5
937
330
1F
100
AcDbEntity
  8
0
  6
Continuous
 62
   144
370
     0
100
AcDbLine
 10
788.949621326
 20
-1185.5475541317
 30
0.0
 11
774.8026647805
 21
-1202.6561373723
 31
0.0
  0
LINE
  5
938
330
1F
100
AcDbEntity
  8
0
  6
Continuous
 62
   144
370
     0
100
AcDbLine
 10
950.8190877768
 20
-989.7911572009
 30
0.0
 11
936.6721312313
 21
-1006.8997404415
 31
0.0
  0
LINE
  5
939
330
1F
100
AcDbEntity
  8
0
  6
Continuous
 62
   144
370
     0
100
AcDbLine
 10
1100.1954295833
 20
-796.5893495061
 30
0.0
 11
1086.0484730378
 21
-813.6979327467
 31
0.0
  0
LINE
  5
93A
330
1F
100
AcDbEntity
  8
0
  6
Continuous
 62
   144
370
     0
100
AcDbLine
 10
1177.6885260053
 20
-827.6280331893
 30
0.0
 11
1183.8537812271
 21
-832.726035548
 31
0.0
  0
LINE
  5
93B
330
1F
100
AcDbEntity
  8
0
  6
Continuous
 62
   144
370
     0
100
AcDbLine
 10
1234.6172149738
 20
-758.7814787475
 30
0.0
 11
1240.7824701956
 21
-763.8794811062
 31
0.0
  0
LINE
  5
93C
330
1F
100
AcDbEntity
  8
0
  6
Continuous
 62
   144
370
     0
100
AcDbLine
 10
822.1821271058
 20
-1131.101271336
 30
0.0
 11
715.3692251317
 21
-1198.3863188748
 31
0.0
  0
LINE
  5
93D
330
1F
100
AcDbEntity
  8
0
  6
Continuous
 62
   144
370
     0
100
AcDbLine
 10
566.2968996902
 20
-1270.7976570769
 30
0.0
 11
565.4557226661
 21
-1268.9831540556
 31
0.0
  0
LINE
  5
93E
330
1F
100
AcDbEntity
  8
0
  6
Continuous
 62
     7
370
    15
100
AcDbLine
 10
672.8372008585
 20
-1221.4071339255
 30
0.0
 11
558.4410224196
 21
-1274.4395267164
 31
0.0
  0
LINE
  5
93F
330
1F
100
AcDbEntity
  8
0
  6
Continuous
 62
   144
370
     0
100
AcDbLine
 10
558.8293357708
 20
-1274.2595103343
 30
0.0
 11
557.9881587468
 21
-1272.445007313
 31
0.0
  0
LINE
  5
940
330
1F
100
AcDbEntity
  8
0
  6
Continuous
 62
   144
370
     0
100
AcDbLine
 10
565.4557226661
 20
-1268.9831540556
 30
0.0
 11
560.3509953848
 21
-1271.3496308555
 31
0.0
  0
LINE
  5
941
330
1F
100
AcDbEntity
  8
0
  6
Continuous
 62
     7
370
    15
100
AcDbLine
 10
511.6037792426
 20
-1291.2879148403
 30
0.0
 11
391.5772612535
 21
-1329.1944725289
 31
0.0
  0
LINE
  5
942
330
1F
100
AcDbEntity
  8
0
  6
Continuous
 62
   144
370
     0
100
AcDbLine
 10
399.3598931991
 20
-1326.7365757927
 30
0.0
 11
398.757580663
 21
-1324.8294261895
 31
0.0
  0
LINE
  5
943
330
1F
100
AcDbEntity
  8
0
  6
Continuous
 62
   144
370
     0
100
AcDbLine
 10
511.6037792426
 20
-1291.2879148403
 30
0.0
 11
511.0014667064
 21
-1289.3807652371
 31
0.0
  0
LINE
  5
944
330
1F
100
AcDbEntity
  8
0
  6
Continuous
 62
   144
370
     0
100
AcDbLine
 10
345.3894791846
 20
-1339.9863567664
 30
0.0
 11
345.030473443
 21
-1338.0188418675
 31
0.0
  0
LINE
  5
945
330
1F
100
AcDbEntity
  8
0
  6
Continuous
 62
   144
370
     0
100
AcDbLine
 10
229.2749526658
 20
-1361.173378899
 30
0.0
 11
228.9159469242
 21
-1359.2058640001
 31
0.0
  0
LINE
  5
946
330
1F
100
AcDbEntity
  8
0
  6
Continuous
 62
   144
370
     0
100
AcDbLine
 10
348.6610267743
 20
-1337.3563871679
 30
0.0
 11
326.342279702
 21
-1341.4288129217
 31
0.0
  0
LINE
  5
947
330
1F
100
AcDbEntity
  8
0
  6
Continuous
 62
   144
370
     0
100
AcDbLine
 10
345.3894791846
 20
-1339.9863567664
 30
0.0
 11
221.8542572123
 21
-1362.5274079213
 31
0.0
  0
LINE
  5
948
330
1F
100
AcDbEntity
  8
0
  6
Continuous
 62
   144
370
     0
100
AcDbLine
 10
169.8055079393
 20
-1368.4491814256
 30
0.0
 11
44.7959288837
 21
-1375.0548508537
 31
0.0
  0
LINE
  5
949
330
1F
100
AcDbEntity
  8
0
  6
Continuous
 62
   144
370
     0
100
AcDbLine
 10
-199.7716933867
 20
-1354.7171491563
 30
0.0
 11
-321.1122310264
 21
-1328.9167564027
 31
0.0
  0
LINE
  5
94A
330
1F
100
AcDbEntity
  8
0
  6
Continuous
 62
   144
370
     0
100
AcDbLine
 10
-26.6444701734
 20
-1373.1769356455
 30
0.0
 11
-150.8137675185
 21
-1362.3570364382
 31
0.0
  0
LINE
  5
94B
330
1F
100
AcDbEntity
  8
0
  6
Continuous
 62
   144
370
     0
100
AcDbLine
 10
-370.2260854166
 20
-1315.5842114266
 30
0.0
 11
-486.8678578918
 21
-1275.4241230075
 31
0.0
  0
LINE
  5
94C
330
1F
100
AcDbEntity
  8
0
  6
Continuous
 62
   144
370
     0
100
AcDbLine
 10
-798.8826288501
 20
-1100.6596571405
 30
0.0
 11
-696.9361588816
 21
-1199.7975527094
 31
0.0
  0
LINE
  5
94D
330
1F
100
AcDbEntity
  8
0
  6
Continuous
 62
   144
370
     0
100
AcDbLine
 10
-793.450983641
 20
-1111.5211398718
 30
0.0
 11
-790.66233356
 21
-1108.6534873954
 31
0.0
  0
LINE
  5
94E
330
1F
100
AcDbEntity
  8
0
  6
Continuous
 62
   144
370
     0
100
AcDbLine
 10
-787.4347996061
 20
-1117.3715810373
 30
0.0
 11
-784.646149525
 21
-1114.5039285609
 31
0.0
  0
LINE
  5
94F
330
1F
100
AcDbEntity
  8
0
  6
Continuous
 62
   144
370
     0
100
AcDbLine
 10
-629.4083171777
 20
-1265.4650360554
 30
0.0
 11
-637.1039043964
 21
-1257.9814584262
 31
0.0
  0
LINE
  5
950
330
1F
100
AcDbEntity
  8
0
  6
Continuous
 62
   144
370
     0
100
AcDbLine
 10
-801.6712789311
 20
-1103.5273096169
 30
0.0
 11
-798.8826288501
 21
-1100.6596571405
 31
0.0
  0
LINE
  5
951
330
1F
100
AcDbEntity
  8
0
  6
Continuous
 62
   144
370
     0
100
AcDbLine
 10
-699.7248089627
 20
-1202.6652051858
 30
0.0
 11
-696.9361588816
 21
-1199.7975527094
 31
0.0
  0
LINE
  5
952
330
1F
100
AcDbEntity
  8
0
  6
Continuous
 62
   144
370
     0
100
AcDbLine
 10
-841.0009977645
 20
-1059.7016282822
 30
0.0
 11
-804.9976840008
 21
-1094.7130687091
 31
0.0
  0
LINE
  5
953
330
1F
100
AcDbEntity
  8
0
  6
Continuous
 62
   144
370
     0
100
AcDbLine
 10
-843.7896478455
 20
-1062.5692807586
 30
0.0
 11
-841.0009977645
 21
-1059.7016282822
 31
0.0
  0
LINE
  5
954
330
1F
100
AcDbEntity
  8
0
  6
Continuous
 62
   144
370
     0
100
AcDbLine
 10
-997.3667904785
 20
-913.2231118051
 30
0.0
 11
-994.5781403975
 21
-910.3554593287
 31
0.0
  0
LINE
  5
955
330
1F
100
AcDbEntity
  8
0
  6
Continuous
 62
   144
370
     0
100
AcDbLine
 10
-981.2730950327
 20
-970.0220741783
 30
0.0
 11
-965.3576237885
 21
-985.499082128
 31
0.0
  0
LINE
  5
956
330
1F
100
AcDbEntity
  8
0
  6
Continuous
 62
   144
370
     0
100
AcDbLine
 10
-662.0419494247
 20
-1280.4585609486
 30
0.0
 11
-646.1264781804
 21
-1295.9355688982
 31
0.0
  0
LINE
  5
957
330
1F
100
AcDbEntity
  8
0
  6
Continuous
 62
   144
370
     0
100
AcDbLine
 10
-844.1467597656
 20
-1103.3706473037
 30
0.0
 11
-828.2312885214
 21
-1118.8476552533
 31
0.0
  0
LINE
  5
958
330
1F
100
AcDbEntity
  8
0
  6
Continuous
 62
   144
370
     0
100
AcDbLine
 10
1083.0
 20
106.6074121115
 30
0.0
 11
1083.0
 21
105.8408181948
 31
0.0
  0
LINE
  5
959
330
1F
100
AcDbEntity
  8
0
  6
Continuous
 62
   144
370
     0
100
AcDbLine
 10
1085.0
 20
105.8408181948
 30
0.0
 11
1085.0
 21
106.6074121115
 31
0.0
  0
LINE
  5
95A
330
1F
100
AcDbEntity
  8
0
  6
Continuous
 62
   144
370
     0
100
AcDbLine
 10
1116.5192598755
 20
800.1033927016
 30
0.0
 11
1113.7306097945
 21
797.2357402252
 31
0.0
  0
LINE
  5
95B
330
1F
100
AcDbEntity
  8
0
  6
Continuous
 62
   144
370
     0
100
AcDbLine
 10
593.4219913541
 20
1308.7895923817
 30
0.0
 11
590.6333412731
 21
1305.9219399052
 31
0.0
  0
LINE
  5
95C
330
1F
100
AcDbEntity
  8
0
  6
Continuous
 62
     7
370
    15
100
AcDbLine
 10
1113.7306097945
 20
797.2357402252
 30
0.0
 11
1214.7237414104
 21
699.0249190126
 31
0.0
  0
LINE
  5
95D
330
1F
100
AcDbEntity
  8
0
  6
Continuous
 62
   144
370
     0
100
AcDbLine
 10
1116.5192598755
 20
800.1033927016
 30
0.0
 11
1217.5123914914
 21
701.8925714891
 31
0.0
  0
LINE
  5
95E
330
1F
100
AcDbEntity
  8
0
  6
Continuous
 62
     7
370
    15
100
AcDbLine
 10
1173.2023355115
 20
744.9819075274
 30
0.0
 11
1170.4136854305
 21
742.1142550509
 31
0.0
  0
LINE
  5
95F
330
1F
100
AcDbEntity
  8
0
  6
Continuous
 62
   144
370
     0
100
AcDbLine
 10
1154.7633510343
 20
762.9129071791
 30
0.0
 11
1151.9747009533
 21
760.0452547027
 31
0.0
  0
LINE
  5
960
330
1F
100
AcDbEntity
  8
0
  6
Continuous
 62
   144
370
     0
100
AcDbLine
 10
1217.5123914914
 20
701.8925714891
 30
0.0
 11
1214.7237414104
 21
699.0249190126
 31
0.0
  0
LINE
  5
961
330
1F
100
AcDbEntity
  8
0
  6
Continuous
 62
     7
370
    15
100
AcDbLine
 10
-1184.9999999999
 20
-99.9999999982
 30
0.0
 11
-1184.9999999999
 21
700.0
 31
0.0
  0
LINE
  5
962
330
1F
100
AcDbEntity
  8
0
  6
Continuous
 62
     7
370
    15
100
AcDbLine
 10
-1324.9999999999
 20
-99.9999999982
 30
0.0
 11
-1324.9999999999
 21
700.0
 31
0.0
  0
LINE
  5
963
330
1F
100
AcDbEntity
  8
0
  6
Continuous
 62
     7
370
    15
100
AcDbLine
 10
1005.0000000001
 20
105.8408181948
 30
0.0
 11
1005.0000000001
 21
-789.1591818052
 31
0.0
  0
LINE
  5
964
330
1F
100
AcDbEntity
  8
0
  6
Continuous
 62
     7
370
    15
100
AcDbLine
 10
1005.0000000001
 20
105.8408181948
 30
0.0
 11
1141.8845666
 21
105.8408181948
 31
0.0
  0
LINE
  5
965
330
1F
100
AcDbEntity
  8
0
  6
Continuous
 62
     7
370
    15
100
AcDbLine
 10
1145.0000000001
 20
71.0000000059
 30
0.0
 11
1145.0000000001
 21
-744.7589278761
 31
0.0
  0
LINE
  5
966
330
1F
100
AcDbEntity
  8
0
  6
Continuous
 62
     7
370
    15
100
AcDbLine
 10
1285.0000000001
 20
-710.4051322652
 30
0.0
 11
1285.0000000001
 21
-789.1591818052
 31
0.0
  0
LINE
  5
967
330
1F
100
AcDbEntity
  8
0
  6
Continuous
 62
     7
370
    15
100
AcDbLine
 10
1219.8788791593
 20
-789.1591818052
 30
0.0
 11
1325.0000000001
 21
-789.1591818052
 31
0.0
  0
LINE
  5
968
330
1F
100
AcDbEntity
  8
0
  6
Continuous
 62
     7
370
    15
100
AcDbLine
 10
1232.0040799874
 20
-703.8797081746
 30
0.0
 11
1321.7749339218
 21
-595.3155712752
 31
0.0
  0
LINE
  5
969
330
1F
100
AcDbEntity
  8
0
  6
Continuous
 62
   144
370
     0
100
AcDbLine
 10
1232.0040799874
 20
-703.8797081746
 30
0.0
 11
1235.0867075983
 21
-706.428709354
 31
0.0
  0
LINE
  5
96A
330
1F
100
AcDbEntity
  8
0
  6
Continuous
 62
   144
370
     0
100
AcDbLine
 10
767.0329702241
 20
-1266.1912491952
 30
0.0
 11
770.115597835
 21
-1268.7402503746
 31
0.0
  0
LINE
  5
96B
330
1F
100
AcDbEntity
  8
0
  6
Continuous
 62
     7
370
    15
100
AcDbLine
 10
1235.0867075983
 20
-706.428709354
 30
0.0
 11
1324.8575615327
 21
-597.8645724545
 31
0.0
  0
LINE
  5
96C
330
1F
100
AcDbEntity
  8
0
  6
Continuous
 62
   144
370
     0
100
AcDbLine
 10
1265.9985176916
 20
-662.7686278296
 30
0.0
 11
1269.0811453025
 21
-665.3176290089
 31
0.0
  0
LINE
  5
96D
330
1F
100
AcDbEntity
  8
0
  6
Continuous
 62
   144
370
     0
100
AcDbLine
 10
1260.4309909579
 20
-669.5017010712
 30
0.0
 11
1263.5136185689
 21
-672.0507022506
 31
0.0
  0
LINE
  5
96E
330
1F
100
AcDbEntity
  8
0
  6
Continuous
 62
   144
370
     0
100
AcDbLine
 10
1321.7749339218
 20
-595.3155712752
 30
0.0
 11
1324.8575615327
 21
-597.8645724545
 31
0.0
  0
LINE
  5
96F
330
1F
100
AcDbEntity
  8
0
  6
Continuous
 62
   144
370
     0
100
AcDbLine
 10
1282.3885766562
 20
-642.9473548079
 30
0.0
 11
1285.4712042671
 21
-645.4963559873
 31
0.0
  0
LINE
  5
970
330
1F
100
AcDbEntity
  8
0
  6
Continuous
 62
   144
370
     0
100
AcDbLine
 10
1272.3566330903
 20
-655.0794583462
 30
0.0
 11
1275.4392607013
 21
-657.6284595255
 31
0.0
  0
LINE
  5
971
330
1F
100
AcDbEntity
  8
0
  6
Continuous
 62
   144
370
     0
100
AcDbLine
 10
-1103.7306097942
 20
-797.2357402233
 30
0.0
 11
-1204.7237414102
 21
-699.0249190108
 31
0.0
  0
LINE
  5
972
330
1F
100
AcDbEntity
  8
0
  6
Continuous
 62
   144
370
     0
100
AcDbLine
 10
-583.4219913539
 20
-1308.7895923798
 30
0.0
 11
-580.6333412729
 21
-1305.9219399034
 31
0.0
  0
LINE
  5
973
330
1F
100
AcDbEntity
  8
0
  6
Continuous
 62
   144
370
     0
100
AcDbLine
 10
-1106.5192598753
 20
-800.1033926998
 30
0.0
 11
-1103.7306097942
 21
-797.2357402233
 31
0.0
  0
LINE
  5
974
330
1F
100
AcDbEntity
  8
0
  6
Continuous
 62
   144
370
     0
100
AcDbLine
 10
-1106.5192598753
 20
-800.1033926998
 30
0.0
 11
-1207.5123914912
 21
-701.8925714872
 31
0.0
  0
LINE
  5
975
330
1F
100
AcDbEntity
  8
0
  6
Continuous
 62
   144
370
     0
100
AcDbLine
 10
-1207.5123914912
 20
-701.8925714872
 30
0.0
 11
-1204.7237414102
 21
-699.0249190108
 31
0.0
  0
LINE
  5
976
330
1F
100
AcDbEntity
  8
0
  6
Continuous
 62
   144
370
     0
100
AcDbLine
 10
-1163.2023355113
 20
-744.9819075255
 30
0.0
 11
-1160.4136854303
 21
-742.1142550491
 31
0.0
  0
LINE
  5
977
330
1F
100
AcDbEntity
  8
0
  6
Continuous
 62
   144
370
     0
100
AcDbLine
 10
-1151.9162960842
 20
-755.9570221956
 30
0.0
 11
-1149.1276460032
 21
-753.0893697192
 31
0.0
  0
LINE
  5
978
330
1F
100
AcDbEntity
  8
0
  6
Continuous
 62
     7
370
    15
100
AcDbLine
 10
2023.0000000001
 20
-731.2525495879
 30
0.0
 11
2023.0000000001
 21
-851.9259103551
 31
0.0
  0
LINE
  5
979
330
1F
100
AcDbEntity
  8
0
  6
Continuous
 62
   144
370
     0
100
AcDbLine
 10
2063.0000000001
 20
-846.1304103609
 30
0.0
 11
2063.0000000001
 21
-732.616546308
 31
0.0
  0
LINE
  5
97A
330
1F
100
AcDbEntity
  8
0
  6
Continuous
 62
   144
370
     0
100
AcDbLine
 10
2063.0000000001
 20
-732.616546308
 30
0.0
 11
2059.0000000001
 21
-732.616546308
 31
0.0
  0
LINE
  5
97B
330
1F
100
AcDbEntity
  8
0
  6
Continuous
 62
   144
370
     0
100
AcDbLine
 10
980.4927573052
 20
-1008.044238985
 30
0.0
 11
979.7748860741
 21
-1007.3431524825
 31
0.0
  0
LINE
  5
97C
330
1F
100
AcDbEntity
  8
0
  6
Continuous
 62
   144
370
     0
100
AcDbLine
 10
981.1234861095
 20
-1007.281468829
 30
0.0
 11
980.4056148784
 21
-1006.5803823265
 31
0.0
  0
LINE
  5
97D
330
1F
100
AcDbEntity
  8
0
  6
Continuous
 62
   144
370
     0
100
AcDbLine
 10
991.8094529729
 20
-1000.6640892991
 30
0.0
 11
991.736611383
 21
-1000.7386747912
 31
0.0
  0
LINE
  5
97E
330
1F
100
AcDbEntity
  8
0
  6
Continuous
 62
   144
370
     0
100
AcDbLine
 10
1140.8736453109
 20
822.4506407064
 30
0.0
 11
1121.3530947437
 21
802.3770733713
 31
0.0
  0
LINE
  5
97F
330
1F
100
AcDbEntity
  8
0
  6
Continuous
 62
   144
370
     0
100
AcDbLine
 10
1146.1857601634
 20
817.2848719684
 30
0.0
 11
1126.6652095963
 21
797.2113046334
 31
0.0
  0
LINE
  5
980
330
1F
100
AcDbEntity
  8
0
  6
Continuous
 62
     7
370
    15
100
AcDbLine
 10
1162.4905346057
 20
801.4292859297
 30
0.0
 11
1140.1813339575
 21
778.4880661182
 31
0.0
  0
LINE
  5
981
330
1F
100
AcDbEntity
  8
0
  6
Continuous
 62
   144
370
     0
100
AcDbLine
 10
1148.6484626663
 20
814.8900156912
 30
0.0
 11
1129.1279120992
 21
794.8164483561
 31
0.0
  0
LINE
  5
982
330
1F
100
AcDbEntity
  8
0
  6
Continuous
 62
     7
370
    15
100
AcDbLine
 10
1138.0878748568
 20
825.1596645738
 30
0.0
 11
1118.5673242897
 21
805.0860972388
 31
0.0
  0
LINE
  5
983
330
1F
100
AcDbEntity
  8
0
  6
Continuous
 62
   144
370
     0
100
AcDbLine
 10
1133.3032453131
 20
829.8124799601
 30
0.0
 11
1113.7826947459
 21
809.738912625
 31
0.0
  0
LINE
  5
984
330
1F
100
AcDbEntity
  8
0
  6
Continuous
 62
     7
370
    15
100
AcDbLine
 10
1204.5788047386
 20
760.5005266465
 30
0.0
 11
1182.2696040905
 21
737.559306835
 31
0.0
  0
LINE
  5
985
330
1F
100
AcDbEntity
  8
0
  6
Continuous
 62
     7
370
    15
100
AcDbLine
 10
1147.8477077642
 20
815.6687101952
 30
0.0
 11
1128.327157197
 21
795.5951428601
 31
0.0
  0
LINE
  5
986
330
1F
100
AcDbEntity
  8
0
  6
Continuous
 62
   144
370
     0
100
AcDbLine
 10
1207.7706332858
 20
-681.4013709522
 30
0.0
 11
1229.3490265622
 21
-699.2443792078
 31
0.0
  0
LINE
  5
987
330
1F
100
AcDbEntity
  8
0
  6
Continuous
 62
   144
370
     0
100
AcDbLine
 10
1212.4924700967
 20
-675.6910305077
 30
0.0
 11
1234.0708633731
 21
-693.5340387633
 31
0.0
  0
LINE
  5
988
330
1F
100
AcDbEntity
  8
0
  6
Continuous
 62
     7
370
    15
100
AcDbLine
 10
1226.9854707738
 20
-658.1639597422
 30
0.0
 11
1251.6464916612
 21
-678.5559691771
 31
0.0
  0
LINE
  5
989
330
1F
100
AcDbEntity
  8
0
  6
Continuous
 62
   144
370
     0
100
AcDbLine
 10
1214.6815190264
 20
-673.0437101664
 30
0.0
 11
1236.2599123028
 21
-690.8867184219
 31
0.0
  0
LINE
  5
98A
330
1F
100
AcDbEntity
  8
0
  6
Continuous
 62
     7
370
    15
100
AcDbLine
 10
1205.2944154627
 20
-684.3959782101
 30
0.0
 11
1226.8728087391
 21
-702.2389864657
 31
0.0
  0
LINE
  5
98B
330
1F
100
AcDbEntity
  8
0
  6
Continuous
 62
   144
370
     0
100
AcDbLine
 10
1201.0414502062
 20
-689.5392901215
 30
0.0
 11
1222.6198434826
 21
-707.3822983771
 31
0.0
  0
LINE
  5
98C
330
1F
100
AcDbEntity
  8
0
  6
Continuous
 62
     7
370
    15
100
AcDbLine
 10
1264.3969252955
 20
-612.9205194462
 30
0.0
 11
1289.0579461829
 21
-633.3125288812
 31
0.0
  0
LINE
  5
98D
330
1F
100
AcDbEntity
  8
0
  6
Continuous
 62
     7
370
    15
100
AcDbLine
 10
1213.9697433818
 20
-673.9044940972
 30
0.0
 11
1235.5481366582
 21
-691.7475023528
 31
0.0
  0
LINE
  5
98E
330
1F
100
AcDbEntity
  8
0
  6
Continuous
 62
   144
370
     0
100
AcDbLine
 10
1126.68064917
 20
-898.173909705
 30
0.0
 11
1125.1040329336
 21
-896.8702178054
 31
0.0
  0
LINE
  5
98F
330
1F
100
AcDbEntity
  8
0
  6
Continuous
 62
     7
370
    15
100
AcDbLine
 10
-1123.3032453128
 20
-829.8124799583
 30
0.0
 11
-1103.7826947457
 21
-809.7389126232
 31
0.0
  0
LINE
  5
990
330
1F
100
AcDbEntity
  8
0
  6
Continuous
 62
     7
370
    15
100
AcDbLine
 10
-1130.8736453106
 20
-822.4506407045
 30
0.0
 11
-1111.3530947435
 21
-802.3770733694
 31
0.0
  0
LINE
  5
991
330
1F
100
AcDbEntity
  8
0
  6
Continuous
 62
   144
370
     0
100
AcDbLine
 10
-1136.1857601632
 20
-817.2848719666
 30
0.0
 11
-1116.6652095961
 21
-797.2113046315
 31
0.0
  0
LINE
  5
992
330
1F
100
AcDbEntity
  8
0
  6
Continuous
 62
     7
370
    15
100
AcDbLine
 10
-1152.4905346055
 20
-801.4292859278
 30
0.0
 11
-1132.9699840383
 21
-781.3557185928
 31
0.0
  0
LINE
  5
993
330
1F
100
AcDbEntity
  8
0
  6
Continuous
 62
   144
370
     0
100
AcDbLine
 10
-1138.6484626661
 20
-814.8900156893
 30
0.0
 11
-1119.1279120989
 21
-794.8164483543
 31
0.0
  0
LINE
  5
994
330
1F
100
AcDbEntity
  8
0
  6
Continuous
 62
   144
370
     0
100
AcDbLine
 10
-1136.1861749598
 20
-817.2844685974
 30
0.0
 11
-1113.8769743117
 21
-794.3432487859
 31
0.0
  0
LINE
  5
995
330
1F
100
AcDbEntity
  8
0
  6
Continuous
 62
     7
370
    15
100
AcDbLine
 10
-1194.5788047384
 20
-760.5005266446
 30
0.0
 11
-1175.0582541712
 21
-740.4269593095
 31
0.0
  0
LINE
  5
996
330
1F
100
AcDbEntity
  8
0
  6
Continuous
 62
   144
370
     0
100
AcDbLine
 10
-1137.8477077639
 20
-815.6687101933
 30
0.0
 11
-1118.3271571968
 21
-795.5951428583
 31
0.0
  0
LINE
  5
997
330
1F
100
AcDbEntity
  8
0
  6
Continuous
 62
   144
370
     0
100
AcDbLine
 10
2063.0000000001
 20
-729.2065545077
 30
0.0
 11
2059.0000000001
 21
-729.2065545077
 31
0.0
  0
LINE
  5
998
330
1F
100
AcDbEntity
  8
0
  6
Continuous
 62
     7
370
    15
100
AcDbLine
 10
2063.0000000001
 20
-729.2065545077
 30
0.0
 11
2063.0000000001
 21
-526.1761068858
 31
0.0
  0
LINE
  5
999
330
1F
100
AcDbEntity
  8
0
  6
Continuous
 62
     7
370
    15
100
AcDbLine
 10
2023.0000000001
 20
-516.1761068858
 30
0.0
 11
2023.0000000001
 21
-729.2065545077
 31
0.0
  0
LINE
  5
99A
330
1F
100
AcDbEntity
  8
0
  6
Continuous
 62
   144
370
     0
100
AcDbLine
 10
2023.0000000001
 20
-516.1761068858
 30
0.0
 11
2025.0000000001
 21
-516.1761068858
 31
0.0
  0
LINE
  5
99B
330
1F
100
AcDbEntity
  8
0
  6
Continuous
 62
   144
370
     0
100
AcDbLine
 10
2025.0000000001
 20
-729.2065545077
 30
0.0
 11
2023.0000000001
 21
-729.2065545077
 31
0.0
  0
LINE
  5
99C
330
1F
100
AcDbEntity
  8
0
  6
Continuous
 62
   144
370
     0
100
AcDbLine
 10
3124.2393880694
 20
1112.8831790425
 30
0.0
 11
3124.2393880694
 21
1500.0
 31
0.0
  0
LINE
  5
99D
330
1F
100
AcDbEntity
  8
0
  6
Continuous
 62
   144
370
     0
100
AcDbLine
 10
1624.2393880694
 20
3000.0
 30
0.0
 11
-1365.0
 21
3000.0
 31
0.0
  0
LINE
  5
99E
330
1F
100
AcDbEntity
  8
0
  6
Continuous
 62
   144
370
     0
100
AcDbLine
 10
-2865.0
 20
1500.0
 30
0.0
 11
-2865.0
 21
-1499.9999999982
 31
0.0
  0
LINE
  5
99F
330
1F
100
AcDbEntity
  8
0
  6
Continuous
 62
   144
370
     0
100
AcDbLine
 10
-1365.0
 20
-2999.9999999982
 30
0.0
 11
2057.9888662695
 21
-2999.9999999982
 31
0.0
  0
LINE
  5
9A0
330
1F
100
AcDbEntity
  8
0
  6
Continuous
 62
   144
370
     0
100
AcDbLine
 10
3557.8183800338
 20
-1477.3851897726
 30
0.0
 11
3557.8746465162
 21
-1481.1168209575
 31
0.0
  0
LINE
  5
9A1
330
1F
100
AcDbEntity
  8
0
  6
Continuous
 62
   144
370
     0
100
AcDbLine
 10
3557.8746465162
 20
-1481.1168209575
 30
0.0
 11
3624.2393880694
 21
-1481.1168209575
 31
0.0
  0
LINE
  5
9A2
330
1F
100
AcDbEntity
  8
0
  6
Continuous
 62
   144
370
     0
100
AcDbLine
 10
4624.2393880694
 20
-481.1168209575
 30
0.0
 11
4624.2393880694
 21
112.8831790425
 31
0.0
  0
LINE
  5
9A3
330
1F
100
AcDbEntity
  8
0
  6
Continuous
 62
   144
370
     0
100
AcDbLine
 10
3624.2393880694
 20
1112.8831790425
 30
0.0
 11
3124.2393880694
 21
1112.8831790425
 31
0.0
  0
LINE
  5
9A4
330
1F
100
AcDbEntity
  8
0
  6
Continuous
 62
   144
370
     0
100
AcDbLine
 10
3116.2393880693
 20
-474.9999999941
 30
0.0
 11
3116.2393880693
 21
-475.9999999941
 31
0.0
  0
LINE
  5
9A5
330
1F
100
AcDbEntity
  8
0
  6
Continuous
 62
   144
370
     0
100
AcDbLine
 10
3116.2393880693
 20
-475.9999999941
 30
0.0
 11
3125.3356125151
 21
-475.9999999941
 31
0.0
  0
LINE
  5
9A6
330
1F
100
AcDbEntity
  8
0
  6
Continuous
 62
   144
370
     0
100
AcDbLine
 10
3118.2393880693
 20
-508.9999999941
 30
0.0
 11
3118.2393880693
 21
-526.4999999941
 31
0.0
  0
LINE
  5
9A7
330
1F
100
AcDbEntity
  8
0
  6
Continuous
 62
     7
370
    15
100
AcDbLine
 10
3082.2393880693
 20
-526.4999999941
 30
0.0
 11
3082.2393880693
 21
-504.4999999941
 31
0.0
  0
LINE
  5
9A8
330
1F
100
AcDbEntity
  8
0
  6
Continuous
 62
     7
370
    15
100
AcDbLine
 10
3082.2393880693
 20
-477.4999999941
 30
0.0
 11
3082.2393880693
 21
-474.9999999941
 31
0.0
  0
LINE
  5
9A9
330
1F
100
AcDbEntity
  8
0
  6
Continuous
 62
     7
370
    15
100
AcDbLine
 10
3082.2393880693
 20
60.0000000059
 30
0.0
 11
3082.2393880693
 21
62.5000000059
 31
0.0
  0
LINE
  5
9AA
330
1F
100
AcDbEntity
  8
0
  6
Continuous
 62
     7
370
    15
100
AcDbLine
 10
3082.2393880693
 20
89.5000000059
 30
0.0
 11
3082.2393880693
 21
111.5000000059
 31
0.0
  0
LINE
  5
9AB
330
1F
100
AcDbEntity
  8
0
  6
Continuous
 62
   144
370
     0
100
AcDbLine
 10
3118.2393880693
 20
111.5000000059
 30
0.0
 11
3118.2393880693
 21
94.0000000059
 31
0.0
  0
LINE
  5
9AC
330
1F
100
AcDbEntity
  8
0
  6
Continuous
 62
   144
370
     0
100
AcDbLine
 10
3125.3356125151
 20
61.0000000059
 30
0.0
 11
3116.2393880693
 21
61.0000000059
 31
0.0
  0
LINE
  5
9AD
330
1F
100
AcDbEntity
  8
0
  6
Continuous
 62
   144
370
     0
100
AcDbLine
 10
3116.2393880693
 20
61.0000000059
 30
0.0
 11
3116.2393880693
 21
60.0000000059
 31
0.0
  0
LINE
  5
9AE
330
1F
100
AcDbEntity
  8
0
  6
Continuous
 62
   144
370
     0
100
AcDbLine
 10
1053.0651714966
 20
-928.1251987641
 30
0.0
 11
1052.2945145938
 21
-927.4879484692
 31
0.0
  0
LINE
  5
9AF
330
1F
100
AcDbEntity
  8
0
  6
Continuous
 62
   144
370
     0
100
AcDbLine
 10
1049.2118869829
 20
-924.9389472899
 30
0.0
 11
1048.4412300802
 21
-924.301696995
 31
0.0
  0
LINE
  5
9B0
330
1F
100
AcDbEntity
  8
0
  6
Continuous
 62
   144
370
     0
100
AcDbLine
 10
995.9929381038
 20
-997.1453482631
 30
0.0
 11
995.2222812011
 21
-996.5080979682
 31
0.0
  0
LINE
  5
9B1
330
1F
100
AcDbEntity
  8
0
  6
Continuous
 62
   144
370
     0
100
AcDbLine
 10
992.1396535902
 20
-993.9590967889
 30
0.0
 11
991.3689966874
 21
-993.321846494
 31
0.0
  0
LINE
  5
9B2
330
1F
100
AcDbEntity
  8
0
  6
Continuous
 62
     7
370
    15
100
AcDbLine
 10
1301.6238614957
 20
71.0000000059
 30
0.0
 11
1301.6238614957
 21
65.0000000059
 31
0.0
  0
LINE
  5
9B3
330
1F
100
AcDbEntity
  8
0
  6
Continuous
 62
     7
370
    15
100
AcDbLine
 10
1161.6238614957
 20
65.0000000059
 30
0.0
 11
1161.6238614957
 21
71.0000000059
 31
0.0
  0
LINE
  5
9B4
330
1F
100
AcDbEntity
  8
0
  6
Continuous
 62
     7
370
    15
100
AcDbLine
 10
1306.6238614957
 20
65.0000000059
 30
0.0
 11
1306.6238614957
 21
71.0000000059
 31
0.0
  0
LINE
  5
9B5
330
1F
100
AcDbEntity
  8
0
  6
Continuous
 62
     7
370
    15
100
AcDbLine
 10
1446.6238614957
 20
71.0000000059
 30
0.0
 11
1446.6238614957
 21
65.0000000059
 31
0.0
  0
LINE
  5
9B6
330
1F
100
AcDbEntity
  8
0
  6
Continuous
 62
   144
370
     0
100
AcDbLine
 10
1591.6238614957
 20
71.0000000059
 30
0.0
 11
1591.6238614957
 21
65.0000000059
 31
0.0
  0
LINE
  5
9B7
330
1F
100
AcDbEntity
  8
0
  6
Continuous
 62
   144
370
     0
100
AcDbLine
 10
1451.6238614957
 20
65.0000000059
 30
0.0
 11
1451.6238614957
 21
71.0000000059
 31
0.0
  0
LINE
  5
9B8
330
1F
100
AcDbEntity
  8
0
  6
Continuous
 62
     7
370
    15
100
AcDbLine
 10
982.3065062005
 20
-954.0657969436
 30
0.0
 11
1003.8848994769
 21
-971.9088051992
 31
0.0
  0
LINE
  5
9B9
330
1F
100
AcDbEntity
  8
0
  6
Continuous
 62
   144
370
     0
100
AcDbLine
 10
993.4591831205
 20
-940.5783375861
 30
0.0
 11
1015.0375763969
 21
-958.4213458416
 31
0.0
  0
LINE
  5
9BA
330
1F
100
AcDbEntity
  8
0
  6
Continuous
 62
   144
370
     0
100
AcDbLine
 10
-953.6913222922
 20
-878.2459654454
 30
0.0
 11
-953.6067330088
 21
-878.1589797495
 31
0.0
  0
LINE
  5
9BB
330
1F
100
AcDbEntity
  8
0
  6
Continuous
 62
   144
370
     0
100
AcDbLine
 10
-950.0221674133
 20
-881.6447923508
 30
0.0
 11
-950.1067566967
 21
-881.7317780467
 31
0.0
  0
LINE
  5
9BC
330
1F
100
AcDbEntity
  8
0
  6
Continuous
 62
   144
370
     0
100
AcDbLine
 10
-948.8798450693
 20
-886.9248440151
 30
0.0
 11
-958.9166287368
 21
-877.1645687315
 31
0.0
  0
LINE
  5
9BD
330
1F
100
AcDbEntity
  8
0
  6
Continuous
 62
   144
370
     0
100
AcDbLine
 10
-1019.5501528543
 20
-943.8189965695
 30
0.0
 11
-1013.8148479014
 21
-949.3962967316
 31
0.0
  0
LINE
  5
9BE
330
1F
100
AcDbEntity
  8
0
  6
Continuous
 62
   144
370
     0
100
AcDbLine
 10
-1015.2289235408
 20
-949.4160473304
 30
0.0
 11
-1019.5304022555
 21
-945.2330722089
 31
0.0
  0
LINE
  5
9BF
330
1F
100
AcDbEntity
  8
0
  6
Continuous
 62
     7
370
    15
100
AcDbLine
 10
653.1484362474
 20
1296.739263524
 30
0.0
 11
963.4193511957
 21
995.016157528
 31
0.0
  0
LINE
  5
9C0
330
1F
100
AcDbEntity
  8
0
  6
Continuous
 62
   144
370
     0
100
AcDbLine
 10
968.9966513577
 20
1000.7514624808
 30
0.0
 11
941.1101505475
 21
972.0749377165
 31
0.0
  0
LINE
  5
9C1
330
1F
100
AcDbEntity
  8
0
  6
Continuous
 62
   144
370
     0
100
AcDbLine
 10
994.5519559945
 20
-939.2567956969
 30
0.0
 11
1016.1303492709
 21
-957.0998039525
 31
0.0
  0
LINE
  5
9C2
330
1F
100
AcDbEntity
  8
0
  6
Continuous
 62
     7
370
    15
100
AcDbLine
 10
-643.1484362471
 20
-1296.7392635222
 30
0.0
 11
-953.4193511954
 21
-995.0161575261
 31
0.0
  0
LINE
  5
9C3
330
1F
100
AcDbEntity
  8
0
  6
Continuous
 62
   144
370
     0
100
AcDbLine
 10
-958.9966513575
 20
-1000.751462479
 30
0.0
 11
-931.1101505473
 21
-972.0749377146
 31
0.0
  0
LINE
  5
9C4
330
1F
100
AcDbEntity
  8
0
  6
Continuous
 62
   144
370
     0
100
AcDbLine
 10
2015.4928818317
 20
107.0000000059
 30
0.0
 11
1141.8845666
 21
107.0000000059
 31
0.0
  0
LINE
  5
9C5
330
1F
100
AcDbEntity
  8
0
  6
Continuous
 62
   144
370
     0
100
AcDbLine
 10
1901.8363232239
 20
105.0000000059
 30
0.0
 11
1901.8363232239
 21
107.0000000059
 31
0.0
  0
LINE
  5
9C6
330
1F
100
AcDbEntity
  8
0
  6
Continuous
 62
     7
370
    15
100
AcDbLine
 10
1141.8845666
 20
105.0000000059
 30
0.0
 11
1141.8845666
 21
107.0000000059
 31
0.0
  0
LINE
  5
9C7
330
1F
100
AcDbEntity
  8
0
  6
Continuous
 62
   144
370
     0
100
AcDbLine
 10
2015.4928818317
 20
105.0000000059
 30
0.0
 11
2015.4928818317
 21
107.0000000059
 31
0.0
  0
LINE
  5
9C8
330
1F
100
AcDbEntity
  8
0
  6
Continuous
 62
     7
370
    15
100
AcDbLine
 10
967.7208299103
 20
990.8331824064
 30
0.0
 11
1204.5788047386
 21
760.5005266465
 31
0.0
  0
LINE
  5
9C9
330
1F
100
AcDbEntity
  8
0
  6
Continuous
 62
     7
370
    15
100
AcDbLine
 10
1128.2993759305
 20
834.6784952369
 30
0.0
 11
1108.7788253634
 21
814.6049279019
 31
0.0
  0
LINE
  5
9CA
330
1F
100
AcDbEntity
  8
0
  6
Continuous
 62
   144
370
     0
100
AcDbLine
 10
970.0050052322
 20
988.6119349754
 30
0.0
 11
950.4844546651
 21
968.5383676403
 31
0.0
  0
LINE
  5
9CB
330
1F
100
AcDbEntity
  8
0
  6
Continuous
 62
   144
370
     0
100
AcDbLine
 10
1099.0185500798
 20
804.5681442343
 30
0.0
 11
1079.4979995127
 21
784.4945768993
 31
0.0
  0
LINE
  5
9CC
330
1F
100
AcDbEntity
  8
0
  6
Continuous
 62
   144
370
     0
100
AcDbLine
 10
940.7241793815
 20
958.5015839728
 30
0.0
 11
921.2036288144
 21
938.4280166377
 31
0.0
  0
LINE
  5
9CD
330
1F
100
AcDbEntity
  8
0
  6
Continuous
 62
     7
370
    15
100
AcDbLine
 10
-840.814395986
 20
1108.9054815382
 30
0.0
 11
-849.3239941431
 21
1101.8866328775
 31
0.0
  0
LINE
  5
9CE
330
1F
100
AcDbEntity
  8
0
  6
Continuous
 62
   144
370
     0
100
AcDbLine
 10
-945.4288537631
 20
1021.9408366289
 30
0.0
 11
-945.7611792711
 21
1022.3437455199
 31
0.0
  0
LINE
  5
9CF
330
1F
100
AcDbEntity
  8
0
  6
Continuous
 62
   144
370
     0
100
AcDbLine
 10
-844.7219292158
 20
1104.151235133
 30
0.0
 11
-845.4735718861
 21
1105.062520928
 31
0.0
  0
LINE
  5
9D0
330
1F
100
AcDbEntity
  8
0
  6
Continuous
 62
   144
370
     0
100
AcDbLine
 10
-201.9626734651
 20
1360.9358117397
 30
0.0
 11
-202.2034428704
 21
1362.2553376888
 31
0.0
  0
LINE
  5
9D1
330
1F
100
AcDbEntity
  8
0
  6
Continuous
 62
   144
370
     0
100
AcDbLine
 10
-339.7930662757
 20
1336.3772947059
 30
0.0
 11
-339.9294857945
 21
1337.124935773
 31
0.0
  0
LINE
  5
9D2
330
1F
100
AcDbEntity
  8
0
  6
Continuous
 62
   144
370
     0
100
AcDbLine
 10
-334.9119715399
 20
1337.481381182
 30
0.0
 11
-335.0106985472
 21
1338.0224501271
 31
0.0
  0
LINE
  5
9D3
330
1F
100
AcDbEntity
  8
0
  6
Continuous
 62
     7
370
    15
100
AcDbLine
 10
1325.0000000001
 20
-1214.9999999941
 30
0.0
 11
2025.0000000001
 21
-1214.9999999941
 31
0.0
  0
LINE
  5
9D4
330
1F
100
AcDbEntity
  8
0
  6
Continuous
 62
     7
370
    15
100
AcDbLine
 10
1325.0000000001
 20
-1074.9999999941
 30
0.0
 11
2023.0000000001
 21
-1074.9999999941
 31
0.0
  0
LINE
  5
9D5
330
1F
100
AcDbEntity
  8
0
  6
Continuous
 62
     7
370
    15
100
AcDbLine
 10
1325.0000000001
 20
-934.9999999941
 30
0.0
 11
2023.0000000001
 21
-934.9999999941
 31
0.0
  0
LINE
  5
9D6
330
1F
100
AcDbEntity
  8
0
  6
Continuous
 62
     7
370
    15
100
AcDbLine
 10
1325.0000000001
 20
-794.999999994
 30
0.0
 11
2023.0000000001
 21
-794.9999999941
 31
0.0
  0
LINE
  5
9D7
330
1F
100
AcDbEntity
  8
0
  6
Continuous
 62
   144
370
     0
100
AcDbLine
 10
1325.9307901899
 20
-794.9999999941
 30
0.0
 11
1325.9307901899
 21
-788.3299302638
 31
0.0
  0
LINE
  5
9D8
330
1F
100
AcDbEntity
  8
0
  6
Continuous
 62
     7
370
    15
100
AcDbLine
 10
1325.9307901899
 20
-788.3299302638
 30
0.0
 11
1285.0000000001
 21
-788.3299302638
 31
0.0
  0
LINE
  5
9D9
330
1F
100
AcDbEntity
  8
0
  6
Continuous
 62
     7
370
    15
100
AcDbLine
 10
1053.8584231093
 20
-867.5346817514
 30
0.0
 11
1264.3969252955
 21
-612.9205194462
 31
0.0
  0
LINE
  5
9DA
330
1F
100
AcDbEntity
  8
0
  6
Continuous
 62
     7
370
    15
100
AcDbLine
 10
1196.5936068702
 20
-694.9182773058
 30
0.0
 11
1218.1720001466
 21
-712.7612855614
 31
0.0
  0
LINE
  5
9DB
330
1F
100
AcDbEntity
  8
0
  6
Continuous
 62
     7
370
    15
100
AcDbLine
 10
1055.8887826586
 20
-865.0792719787
 30
0.0
 11
1080.5498035459
 21
-885.4712814136
 31
0.0
  0
LINE
  5
9DC
330
1F
100
AcDbEntity
  8
0
  6
Continuous
 62
   144
370
     0
100
AcDbLine
 10
1225.8785691739
 20
-719.1337885098
 30
0.0
 11
1250.5395900612
 21
-739.5257979448
 31
0.0
  0
LINE
  5
9DD
330
1F
100
AcDbEntity
  8
0
  6
Continuous
 62
   144
370
     0
100
AcDbLine
 10
1085.1737449622
 20
-889.2947831827
 30
0.0
 11
1109.8347658496
 21
-909.6867926176
 31
0.0
  0
LINE
  5
9DE
330
1F
100
AcDbEntity
  8
0
  6
Continuous
 62
     7
370
    15
100
AcDbLine
 10
849.8026207745
 20
-1109.7400094375
 30
0.0
 11
861.6846028039
 21
-1099.9395662071
 31
0.0
  0
LINE
  5
9DF
330
1F
100
AcDbEntity
  8
0
  6
Continuous
 62
     7
370
    15
100
AcDbLine
 10
848.7704943373
 20
-1108.4886672797
 30
0.0
 11
849.8026207745
 21
-1109.7400094375
 31
0.0
  0
LINE
  5
9E0
330
1F
100
AcDbEntity
  8
0
  6
Continuous
 62
     7
370
    15
100
AcDbLine
 10
210.6821576304
 20
-1361.101186302
 30
0.0
 11
210.9349838501
 21
-1362.4867890837
 31
0.0
  0
LINE
  5
9E1
330
1F
100
AcDbEntity
  8
0
  6
Continuous
 62
     7
370
    15
100
AcDbLine
 10
247.6041406651
 20
-1355.7958929459
 30
0.0
 11
210.9349838501
 21
-1362.4867890837
 31
0.0
  0
LINE
  5
9E2
330
1F
100
AcDbEntity
  8
0
  6
Continuous
 62
   144
370
     0
100
AcDbLine
 10
344.5005345889
 20
-1337.5727844357
 30
0.0
 11
344.5963779689
 21
-1338.09804979
 31
0.0
  0
LINE
  5
9E3
330
1F
100
AcDbEntity
  8
0
  6
Continuous
 62
   144
370
     0
100
AcDbLine
 10
348.5368938686
 20
-1336.676082334
 30
0.0
 11
348.6610267743
 21
-1337.3563871679
 31
0.0
  0
LINE
  5
9E4
330
1F
100
AcDbEntity
  8
0
  6
Continuous
 62
     7
370
    15
100
AcDbLine
 10
-957.7208299101
 20
-990.8331824046
 30
0.0
 11
-1194.5788047384
 21
-760.5005266446
 31
0.0
  0
LINE
  5
9E5
330
1F
100
AcDbEntity
  8
0
  6
Continuous
 62
   144
370
     0
100
AcDbLine
 10
-1118.2993759303
 20
-834.6784952351
 30
0.0
 11
-1098.7788253632
 21
-814.6049279
 31
0.0
  0
LINE
  5
9E6
330
1F
100
AcDbEntity
  8
0
  6
Continuous
 62
   144
370
     0
100
AcDbLine
 10
-960.005005232
 20
-988.6119349735
 30
0.0
 11
-937.6958045838
 21
-965.670715162
 31
0.0
  0
LINE
  5
9E7
330
1F
100
AcDbEntity
  8
0
  6
Continuous
 62
     7
370
    15
100
AcDbLine
 10
-1089.0185500796
 20
-804.5681442325
 30
0.0
 11
-1069.4979995125
 21
-784.4945768974
 31
0.0
  0
LINE
  5
9E8
330
1F
100
AcDbEntity
  8
0
  6
Continuous
 62
   144
370
     0
100
AcDbLine
 10
-930.7241793813
 20
-958.5015839709
 30
0.0
 11
-911.2036288142
 21
-938.4280166358
 31
0.0
  0
LINE
  5
9E9
330
1F
100
AcDbEntity
  8
0
  6
Continuous
 62
   144
370
     0
100
AcDbLine
 10
1085.0
 20
106.1281577582
 30
0.0
 11
1141.8845666
 21
106.1281577582
 31
0.0
  0
LINE
  5
9EA
330
1F
100
AcDbEntity
  8
0
  6
Continuous
 62
   144
370
     0
100
AcDbLine
 10
953.48120724
 20
-962.1836722338
 30
0.0
 11
943.6994968947
 21
-972.199566738
 31
0.0
  0
LINE
  5
9EB
330
1F
100
AcDbEntity
  8
0
  6
Continuous
 62
   144
370
     0
100
AcDbLine
 10
948.1987255022
 20
-963.3147038887
 30
0.0
 11
948.2855301582
 21
-963.3994789431
 31
0.0
  0
LINE
  5
9EC
330
1F
100
AcDbEntity
  8
0
  6
Continuous
 62
   144
370
     0
100
AcDbLine
 10
944.7920621777
 20
-966.9765841231
 30
0.0
 11
944.7052575217
 21
-966.8918090687
 31
0.0
  0
LINE
  5
9ED
330
1F
100
AcDbEntity
  8
0
  6
Continuous
 62
     7
370
    15
100
AcDbLine
 10
815.8624545127
 20
1079.9234305991
 30
0.0
 11
796.3419039455
 21
1059.849863264
 31
0.0
  0
LINE
  5
9EE
330
1F
100
AcDbEntity
  8
0
  6
Continuous
 62
     7
370
    15
100
AcDbLine
 10
829.8733102304
 20
1066.2985669681
 30
0.0
 11
810.3527596633
 21
1046.224999633
 31
0.0
  0
LINE
  5
9EF
330
1F
100
AcDbEntity
  8
0
  6
Continuous
 62
   144
370
     0
100
AcDbLine
 10
623.8676103967
 20
1266.6289125214
 30
0.0
 11
829.8733102304
 21
1066.2985669681
 31
0.0
  0
LINE
  5
9F0
330
1F
100
AcDbEntity
  8
0
  6
Continuous
 62
     7
370
    15
100
AcDbLine
 10
808.0260587985
 20
1087.5439375199
 30
0.0
 11
788.5055082314
 21
1067.4703701848
 31
0.0
  0
LINE
  5
9F1
330
1F
100
AcDbEntity
  8
0
  6
Continuous
 62
     7
370
    15
100
AcDbLine
 10
795.5193580469
 20
1105.2855615424
 30
0.0
 11
773.2101573987
 21
1082.3443417309
 31
0.0
  0
LINE
  5
9F2
330
1F
100
AcDbEntity
  8
0
  6
Continuous
 62
     7
370
    15
100
AcDbLine
 10
790.4606200494
 20
1110.2049338312
 30
0.0
 11
768.1514194013
 21
1087.2637140197
 31
0.0
  0
LINE
  5
9F3
330
1F
100
AcDbEntity
  8
0
  6
Continuous
 62
   144
370
     0
100
AcDbLine
 10
830.4278625079
 20
1065.7592923293
 30
0.0
 11
810.9073119407
 21
1045.6857249942
 31
0.0
  0
LINE
  5
9F4
330
1F
100
AcDbEntity
  8
0
  6
Continuous
 62
     7
370
    15
100
AcDbLine
 10
500.6860213822
 20
1271.9942934396
 30
0.0
 11
459.3595375106
 21
1286.2231173945
 31
0.0
  0
LINE
  5
9F5
330
1F
100
AcDbEntity
  8
0
  6
Continuous
 62
     7
370
    15
100
AcDbLine
 10
413.5719925289
 20
1301.9878971637
 30
0.0
 11
368.3124095684
 21
1317.5708981327
 31
0.0
  0
LINE
  5
9F6
330
1F
100
AcDbEntity
  8
0
  6
Continuous
 62
   144
370
     0
100
AcDbLine
 10
495.0880600059
 20
1272.6996456335
 30
0.0
 11
495.4642205953
 21
1273.7921740518
 31
0.0
  0
LINE
  5
9F7
330
1F
100
AcDbEntity
  8
0
  6
Continuous
 62
   144
370
     0
100
AcDbLine
 10
500.230953955
 20
1270.6725864067
 30
0.0
 11
500.6860213822
 21
1271.9942934396
 31
0.0
  0
LINE
  5
9F8
330
1F
100
AcDbEntity
  8
0
  6
Continuous
 62
     7
370
    15
100
AcDbLine
 10
367.7970975888
 20
1316.0742156044
 30
0.0
 11
368.3124095684
 21
1317.5708981327
 31
0.0
  0
LINE
  5
9F9
330
1F
100
AcDbEntity
  8
0
  6
Continuous
 62
     7
370
    15
100
AcDbLine
 10
977.2691847728
 20
-1026.0658366468
 30
0.0
 11
998.8475780492
 21
-1043.9088449024
 31
0.0
  0
LINE
  5
9FA
330
1F
100
AcDbEntity
  8
0
  6
Continuous
 62
     7
370
    15
100
AcDbLine
 10
989.7231651773
 20
-1011.0046494762
 30
0.0
 11
1011.3015584537
 21
-1028.8476577317
 31
0.0
  0
LINE
  5
9FB
330
1F
100
AcDbEntity
  8
0
  6
Continuous
 62
     7
370
    15
100
AcDbLine
 10
952.2112047907
 20
-1056.3696362652
 30
0.0
 11
973.7895980671
 21
-1074.2126445208
 31
0.0
  0
LINE
  5
9FC
330
1F
100
AcDbEntity
  8
0
  6
Continuous
 62
   144
370
     0
100
AcDbLine
 10
931.9087835922
 20
972.6535966436
 30
0.0
 11
940.3932374283
 21
972.7721002367
 31
0.0
  0
LINE
  5
9FD
330
1F
100
AcDbEntity
  8
0
  6
Continuous
 62
     7
370
    15
100
AcDbLine
 10
-494.4270623711
 20
-1270.7062425645
 30
0.0
 11
-449.3595375096
 21
-1286.223117393
 31
0.0
  0
LINE
  5
9FE
330
1F
100
AcDbEntity
  8
0
  6
Continuous
 62
     7
370
    15
100
AcDbLine
 10
-403.5719925295
 20
-1301.9878971616
 30
0.0
 11
-362.0534505572
 21
-1316.2828472576
 31
0.0
  0
LINE
  5
9FF
330
1F
100
AcDbEntity
  8
0
  6
Continuous
 62
     7
370
    15
100
AcDbLine
 10
-493.9154639258
 20
-1269.2203457002
 30
0.0
 11
-494.4270623711
 21
-1270.7062425645
 31
0.0
  0
LINE
  5
A00
330
1F
100
AcDbEntity
  8
0
  6
Continuous
 62
   144
370
     0
100
AcDbLine
 10
-365.8931614666
 20
-1313.6816514223
 30
0.0
 11
-366.286907757
 21
-1314.825256106
 31
0.0
  0
LINE
  5
A01
330
1F
100
AcDbEntity
  8
0
  6
Continuous
 62
   144
370
     0
100
AcDbLine
 10
-361.5951681506
 20
-1314.9518025735
 30
0.0
 11
-362.0534505572
 21
-1316.2828472576
 31
0.0
  0
LINE
  5
A02
330
1F
100
AcDbEntity
  8
0
  6
Continuous
 62
     7
370
    15
100
AcDbLine
 10
-798.0260587983
 20
-1087.543937518
 30
0.0
 11
-778.5055082311
 21
-1067.470370183
 31
0.0
  0
LINE
  5
A03
330
1F
100
AcDbEntity
  8
0
  6
Continuous
 62
   144
370
     0
100
AcDbLine
 10
-613.8676103964
 20
-1266.6289125196
 30
0.0
 11
-819.8733102302
 21
-1066.2985669662
 31
0.0
  0
LINE
  5
A04
330
1F
100
AcDbEntity
  8
0
  6
Continuous
 62
     7
370
    15
100
AcDbLine
 10
-805.8624545124
 20
-1079.9234305972
 30
0.0
 11
-786.3419039453
 21
-1059.8498632621
 31
0.0
  0
LINE
  5
A05
330
1F
100
AcDbEntity
  8
0
  6
Continuous
 62
     7
370
    15
100
AcDbLine
 10
-819.8733102302
 20
-1066.2985669662
 30
0.0
 11
-800.3527596631
 21
-1046.2249996312
 31
0.0
  0
LINE
  5
A06
330
1F
100
AcDbEntity
  8
0
  6
Continuous
 62
     7
370
    15
100
AcDbLine
 10
-782.7307079656
 20
-1102.4179090642
 30
0.0
 11
-763.2101573985
 21
-1082.3443417291
 31
0.0
  0
LINE
  5
A07
330
1F
100
AcDbEntity
  8
0
  6
Continuous
 62
     7
370
    15
100
AcDbLine
 10
-777.6719699682
 20
-1107.3372813529
 30
0.0
 11
-758.1514194011
 21
-1087.2637140178
 31
0.0
  0
LINE
  5
A08
330
1F
100
AcDbEntity
  8
0
  6
Continuous
 62
   144
370
     0
100
AcDbLine
 10
-820.4278625076
 20
-1065.7592923275
 30
0.0
 11
-800.9073119405
 21
-1045.6857249924
 31
0.0
  0
LINE
  5
A09
330
1F
100
AcDbEntity
  8
0
  6
Continuous
 62
   144
370
     0
100
AcDbLine
 10
-920.4947079526
 20
-972.6338460429
 30
0.0
 11
-930.3932374281
 21
-972.7721002349
 31
0.0
  0
LINE
  5
A0A
330
1F
100
AcDbEntity
  8
0
  6
Continuous
 62
     7
370
    15
100
AcDbLine
 10
880.3641498514
 20
966.9834350476
 30
0.0
 11
885.9414500134
 21
972.7187400005
 31
0.0
  0
LINE
  5
A0B
330
1F
100
AcDbEntity
  8
0
  6
Continuous
 62
     7
370
    15
100
AcDbLine
 10
847.205519213
 20
999.2285619505
 30
0.0
 11
852.7828193751
 21
1004.9638669034
 31
0.0
  0
LINE
  5
A0C
330
1F
100
AcDbEntity
  8
0
  6
Continuous
 62
     7
370
    15
100
AcDbLine
 10
872.3033699422
 20
1025.0374342384
 30
0.0
 11
875.0920200232
 21
1027.9050867149
 31
0.0
  0
LINE
  5
A0D
330
1F
100
AcDbEntity
  8
0
  6
Continuous
 62
     7
370
    15
100
AcDbLine
 10
909.0406746158
 20
939.0969342374
 30
0.0
 11
808.6728379404
 21
1036.6996870731
 31
0.0
  0
LINE
  5
A0E
330
1F
100
AcDbEntity
  8
0
  6
Continuous
 62
   144
370
     0
100
AcDbLine
 10
823.196125824
 20
1022.5765085269
 30
0.0
 11
828.773425986
 21
1028.3118134797
 31
0.0
  0
LINE
  5
A0F
330
1F
100
AcDbEntity
  8
0
  6
Continuous
 62
   144
370
     0
100
AcDbLine
 10
814.7877895906
 20
1030.7531992908
 30
0.0
 11
820.3650897527
 21
1036.4885042437
 31
0.0
  0
LINE
  5
A10
330
1F
100
AcDbEntity
  8
0
  6
Continuous
 62
   144
370
     0
100
AcDbLine
 10
808.6728379404
 20
1036.6996870731
 30
0.0
 11
814.2501381024
 21
1042.434992026
 31
0.0
  0
LINE
  5
A11
330
1F
100
AcDbEntity
  8
0
  6
Continuous
 62
   144
370
     0
100
AcDbLine
 10
941.1101505475
 20
972.0749377165
 30
0.0
 11
863.8291101804
 21
1047.2269239671
 31
0.0
  0
LINE
  5
A12
330
1F
100
AcDbEntity
  8
0
  6
Continuous
 62
     7
370
    15
100
AcDbLine
 10
912.4336257831
 20
999.9614385266
 30
0.0
 11
915.2222758641
 21
1002.8290910031
 31
0.0
  0
LINE
  5
A13
330
1F
100
AcDbEntity
  8
0
  6
Continuous
 62
     7
370
    15
100
AcDbLine
 10
934.7428264313
 20
1022.9026583382
 30
0.0
 11
940.3201265933
 21
1028.637963291
 31
0.0
  0
LINE
  5
A14
330
1F
100
AcDbEntity
  8
0
  6
Continuous
 62
     7
370
    15
100
AcDbLine
 10
968.9966513577
 20
1000.7514624808
 30
0.0
 11
868.6288146823
 21
1098.3542153165
 31
0.0
  0
LINE
  5
A15
330
1F
100
AcDbEntity
  8
0
  6
Continuous
 62
     7
370
    15
100
AcDbLine
 10
879.2749951448
 20
1032.2065654295
 30
0.0
 11
882.0636452258
 21
1035.074217906
 31
0.0
  0
LINE
  5
A16
330
1F
100
AcDbEntity
  8
0
  6
Continuous
 62
     7
370
    15
100
AcDbLine
 10
901.5841957929
 20
1055.147785241
 30
0.0
 11
907.161495955
 21
1060.8830901939
 31
0.0
  0
LINE
  5
A17
330
1F
100
AcDbEntity
  8
0
  6
Continuous
 62
     7
370
    15
100
AcDbLine
 10
877.5748024039
 20
1078.4957318174
 30
0.0
 11
883.1521025659
 21
1084.2310367703
 31
0.0
  0
LINE
  5
A18
330
1F
100
AcDbEntity
  8
0
  6
Continuous
 62
     7
370
    15
100
AcDbLine
 10
869.1664661705
 20
1086.6724225814
 30
0.0
 11
874.7437663325
 21
1092.4077275343
 31
0.0
  0
LINE
  5
A19
330
1F
100
AcDbEntity
  8
0
  6
Continuous
 62
   144
370
     0
100
AcDbLine
 10
863.0515145203
 20
1092.6189103637
 30
0.0
 11
868.6288146823
 21
1098.3542153165
 31
0.0
  0
LINE
  5
A1A
330
1F
100
AcDbEntity
  8
0
  6
Continuous
 62
     7
370
    15
100
AcDbLine
 10
930.7867360363
 20
1026.749760416
 30
0.0
 11
911.2661854692
 21
1006.6761930809
 31
0.0
  0
LINE
  5
A1B
330
1F
100
AcDbEntity
  8
0
  6
Continuous
 62
     7
370
    15
100
AcDbLine
 10
944.242304104
 20
1013.6648865372
 30
0.0
 11
924.7217535369
 21
993.5913192021
 31
0.0
  0
LINE
  5
A1C
330
1F
100
AcDbEntity
  8
0
  6
Continuous
 62
     7
370
    15
100
AcDbLine
 10
949.188927736
 20
1008.854539919
 30
0.0
 11
929.6683771689
 21
988.780972584
 31
0.0
  0
LINE
  5
A1D
330
1F
100
AcDbEntity
  8
0
  6
Continuous
 62
     7
370
    15
100
AcDbLine
 10
912.5655206639
 20
1044.468990393
 30
0.0
 11
893.0449700968
 21
1024.395423058
 31
0.0
  0
LINE
  5
A1E
330
1F
100
AcDbEntity
  8
0
  6
Continuous
 62
     7
370
    15
100
AcDbLine
 10
954.4929607681
 20
1003.6966303515
 30
0.0
 11
934.972410201
 21
983.6230630164
 31
0.0
  0
LINE
  5
A1F
330
1F
100
AcDbEntity
  8
0
  6
Continuous
 62
     7
370
    15
100
AcDbLine
 10
883.7236391794
 20
1072.5162924283
 30
0.0
 11
864.2030886122
 21
1052.4427250932
 31
0.0
  0
LINE
  5
A20
330
1F
100
AcDbEntity
  8
0
  6
Continuous
 62
     7
370
    15
100
AcDbLine
 10
1111.5928194601
 20
792.3402897037
 30
0.0
 11
1092.072268893
 21
772.2667223687
 31
0.0
  0
LINE
  5
A21
330
1F
100
AcDbEntity
  8
0
  6
Continuous
 62
   144
370
     0
100
AcDbLine
 10
1116.9049343127
 20
787.1745209658
 30
0.0
 11
1097.3843837456
 21
767.1009536308
 31
0.0
  0
LINE
  5
A22
330
1F
100
AcDbEntity
  8
0
  6
Continuous
 62
     7
370
    15
100
AcDbLine
 10
1104.0224194624
 20
799.7021289575
 30
0.0
 11
1084.5018688952
 21
779.6285616224
 31
0.0
  0
LINE
  5
A23
330
1F
100
AcDbEntity
  8
0
  6
Continuous
 62
     7
370
    15
100
AcDbLine
 10
918.9194534925
 20
940.6492640687
 30
0.0
 11
1155.7774283208
 21
710.3166083088
 31
0.0
  0
LINE
  5
A24
330
1F
100
AcDbEntity
  8
0
  6
Continuous
 62
     7
370
    15
100
AcDbLine
 10
1135.998358836
 20
774.1865874035
 30
0.0
 11
1113.6891581879
 21
751.245367592
 31
0.0
  0
LINE
  5
A25
330
1F
100
AcDbEntity
  8
0
  6
Continuous
 62
   144
370
     0
100
AcDbLine
 10
1122.1562868966
 20
787.647317165
 30
0.0
 11
1099.8470862485
 21
764.7060973535
 31
0.0
  0
LINE
  5
A26
330
1F
100
AcDbEntity
  8
0
  6
Continuous
 62
     7
370
    15
100
AcDbLine
 10
1175.2979788879
 20
730.3901756439
 30
0.0
 11
1155.7774283208
 21
710.3166083088
 31
0.0
  0
LINE
  5
A27
330
1F
100
AcDbEntity
  8
0
  6
Continuous
 62
     7
370
    15
100
AcDbLine
 10
1118.5668819135
 20
785.5583591926
 30
0.0
 11
1099.0463313463
 21
765.4847918575
 31
0.0
  0
LINE
  5
A28
330
1F
100
AcDbEntity
  8
0
  6
Continuous
 62
   144
370
     0
100
AcDbLine
 10
1079.319883644
 20
-896.3741343718
 30
0.0
 11
988.2671392766
 21
-1006.4885219633
 31
0.0
  0
LINE
  5
A29
330
1F
100
AcDbEntity
  8
0
  6
Continuous
 62
     7
370
    15
100
AcDbLine
 10
1110.1461597531
 20
-921.8641461655
 30
0.0
 11
1020.9311184752
 21
-1029.7561125475
 31
0.0
  0
LINE
  5
A2A
330
1F
100
AcDbEntity
  8
0
  6
Continuous
 62
     7
370
    15
100
AcDbLine
 10
1055.1820783858
 20
-988.3348077731
 30
0.0
 11
1049.016823164
 21
-983.2368054144
 31
0.0
  0
LINE
  5
A2B
330
1F
100
AcDbEntity
  8
0
  6
Continuous
 62
   144
370
     0
100
AcDbLine
 10
1084.6561479594
 20
-952.6904222746
 30
0.0
 11
1078.4908927376
 21
-947.5924199159
 31
0.0
  0
LINE
  5
A2C
330
1F
100
AcDbEntity
  8
0
  6
Continuous
 62
     7
370
    15
100
AcDbLine
 10
1033.8405899846
 20
-1014.1440784538
 30
0.0
 11
1027.6753347628
 21
-1009.046076095
 31
0.0
  0
LINE
  5
A2D
330
1F
100
AcDbEntity
  8
0
  6
Continuous
 62
     7
370
    15
100
AcDbLine
 10
1026.3665814876
 20
-1023.1827502063
 30
0.0
 11
1020.2013262658
 21
-1018.0847478475
 31
0.0
  0
LINE
  5
A2E
330
1F
100
AcDbEntity
  8
0
  6
Continuous
 62
   144
370
     0
100
AcDbLine
 10
1020.9311184752
 20
-1029.7561125475
 30
0.0
 11
1014.7658632534
 21
-1024.6581101888
 31
0.0
  0
LINE
  5
A2F
330
1F
100
AcDbEntity
  8
0
  6
Continuous
 62
     7
370
    15
100
AcDbLine
 10
1043.8696661184
 20
-867.0606208091
 30
0.0
 11
960.090087853
 21
-968.3792248499
 31
0.0
  0
LINE
  5
A30
330
1F
100
AcDbEntity
  8
0
  6
Continuous
 62
   144
370
     0
100
AcDbLine
 10
1071.6133146167
 20
-890.0016314234
 30
0.0
 11
1043.8696661184
 21
-867.0606208091
 31
0.0
  0
LINE
  5
A31
330
1F
100
AcDbEntity
  8
0
  6
Continuous
 62
   144
370
     0
100
AcDbLine
 10
1102.0976921608
 20
-859.4124011986
 30
0.0
 11
998.3903724591
 21
-984.830564891
 31
0.0
  0
LINE
  5
A32
330
1F
100
AcDbEntity
  8
0
  6
Continuous
 62
     7
370
    15
100
AcDbLine
 10
1049.2059304339
 20
-923.3769087119
 30
0.0
 11
1046.123302823
 21
-920.8279075325
 31
0.0
  0
LINE
  5
A33
330
1F
100
AcDbEntity
  8
0
  6
Continuous
 62
     7
370
    15
100
AcDbLine
 10
1024.5449095466
 20
-902.984899277
 30
0.0
 11
1018.3796543247
 21
-897.8868969182
 31
0.0
  0
LINE
  5
A34
330
1F
100
AcDbEntity
  8
0
  6
Continuous
 62
     7
370
    15
100
AcDbLine
 10
1019.7318608603
 20
-959.0212942104
 30
0.0
 11
1016.6492332494
 21
-956.472293031
 31
0.0
  0
LINE
  5
A35
330
1F
100
AcDbEntity
  8
0
  6
Continuous
 62
     7
370
    15
100
AcDbLine
 10
995.070839973
 20
-938.6292847755
 30
0.0
 11
988.9055847512
 21
-933.5312824167
 31
0.0
  0
LINE
  5
A36
330
1F
100
AcDbEntity
  8
0
  6
Continuous
 62
     7
370
    15
100
AcDbLine
 10
998.3903724591
 20
-984.830564891
 30
0.0
 11
995.3077448482
 21
-982.2815637116
 31
0.0
  0
LINE
  5
A37
330
1F
100
AcDbEntity
  8
0
  6
Continuous
 62
     7
370
    15
100
AcDbLine
 10
973.7293515718
 20
-964.4385554561
 30
0.0
 11
967.56409635
 21
-959.3405530973
 31
0.0
  0
LINE
  5
A38
330
1F
100
AcDbEntity
  8
0
  6
Continuous
 62
     7
370
    15
100
AcDbLine
 10
966.2553430748
 20
-973.4772272086
 30
0.0
 11
960.090087853
 21
-968.3792248499
 31
0.0
  0
LINE
  5
A39
330
1F
100
AcDbEntity
  8
0
  6
Continuous
 62
     7
370
    15
100
AcDbLine
 10
774.2410674389
 20
-1205.6891667541
 30
0.0
 11
1050.0349213403
 21
-872.1586231678
 31
0.0
  0
LINE
  5
A3A
330
1F
100
AcDbEntity
  8
0
  6
Continuous
 62
     7
370
    15
100
AcDbLine
 10
1004.8319286256
 20
-926.8247388864
 30
0.0
 11
1026.410321902
 21
-944.667747142
 31
0.0
  0
LINE
  5
A3B
330
1F
100
AcDbEntity
  8
0
  6
Continuous
 62
   144
370
     0
100
AcDbLine
 10
1021.0284168176
 20
-907.2375601496
 30
0.0
 11
1042.606810094
 21
-925.0805684052
 31
0.0
  0
LINE
  5
A3C
330
1F
100
AcDbEntity
  8
0
  6
Continuous
 62
     7
370
    15
100
AcDbLine
 10
1042.1004244253
 20
-881.7541853302
 30
0.0
 11
1063.6788177017
 21
-899.5971935858
 31
0.0
  0
LINE
  5
A3D
330
1F
100
AcDbEntity
  8
0
  6
Continuous
 62
   144
370
     0
100
AcDbLine
 10
1037.3857713894
 20
-887.4558380961
 30
0.0
 11
1058.9641646658
 21
-905.2988463516
 31
0.0
  0
LINE
  5
A3E
330
1F
100
AcDbEntity
  8
0
  6
Continuous
 62
   144
370
     0
100
AcDbLine
 10
1000.4003463605
 20
-932.184060789
 30
0.0
 11
1021.9787396369
 21
-950.0270690446
 31
0.0
  0
LINE
  5
A3F
330
1F
100
AcDbEntity
  8
0
  6
Continuous
 62
   144
370
     0
100
AcDbLine
 10
978.9339812841
 20
-1002.0831299352
 30
0.0
 11
1285.9753185719
 21
-630.7635277018
 31
0.0
  0
LINE
  5
A40
330
1F
100
AcDbEntity
  8
0
  6
Continuous
 62
   144
370
     0
100
AcDbLine
 10
979.1949344209
 20
-957.8287677726
 30
0.0
 11
1000.7733276973
 21
-975.6717760282
 31
0.0
  0
LINE
  5
A41
330
1F
100
AcDbEntity
  8
0
  6
Continuous
 62
   144
370
     0
100
AcDbLine
 10
979.6760304484
 20
-957.2469556065
 30
0.0
 11
1001.2544237248
 21
-975.089963862
 31
0.0
  0
LINE
  5
A42
330
1F
100
AcDbEntity
  8
0
  6
Continuous
 62
     7
370
    15
100
AcDbLine
 10
1240.1382232004
 20
-708.1658833356
 30
0.0
 11
1261.7166164768
 21
-726.0088915911
 31
0.0
  0
LINE
  5
A43
330
1F
100
AcDbEntity
  8
0
  6
Continuous
 62
   144
370
     0
100
AcDbLine
 10
1244.8600600113
 20
-702.4555428911
 30
0.0
 11
1266.4384532878
 21
-720.2985511467
 31
0.0
  0
LINE
  5
A44
330
1F
100
AcDbEntity
  8
0
  6
Continuous
 62
     7
370
    15
100
AcDbLine
 10
1107.8044063003
 20
-912.1422023904
 30
0.0
 11
1318.3429084866
 21
-657.5280400852
 31
0.0
  0
LINE
  5
A45
330
1F
100
AcDbEntity
  8
0
  6
Continuous
 62
     7
370
    15
100
AcDbLine
 10
1233.4090401208
 20
-716.3038025048
 30
0.0
 11
1254.9874333972
 21
-734.1468107604
 31
0.0
  0
LINE
  5
A46
330
1F
100
AcDbEntity
  8
0
  6
Continuous
 62
     7
370
    15
100
AcDbLine
 10
1259.3530606884
 20
-684.9284721256
 30
0.0
 11
1280.9314539648
 21
-702.7714803811
 31
0.0
  0
LINE
  5
A47
330
1F
100
AcDbEntity
  8
0
  6
Continuous
 62
   144
370
     0
100
AcDbLine
 10
1088.2563725732
 20
-891.8437843621
 30
0.0
 11
1296.7645152101
 21
-639.6850318296
 31
0.0
  0
LINE
  5
A48
330
1F
100
AcDbEntity
  8
0
  6
Continuous
 62
   144
370
     0
100
AcDbLine
 10
1247.049108941
 20
-699.8082225497
 30
0.0
 11
1268.6275022174
 21
-717.6512308053
 31
0.0
  0
LINE
  5
A49
330
1F
100
AcDbEntity
  8
0
  6
Continuous
 62
     7
370
    15
100
AcDbLine
 10
1296.7645152101
 20
-639.6850318296
 30
0.0
 11
1318.3429084866
 21
-657.5280400852
 31
0.0
  0
LINE
  5
A4A
330
1F
100
AcDbEntity
  8
0
  6
Continuous
 62
     7
370
    15
100
AcDbLine
 10
1246.3373332964
 20
-700.6690064806
 30
0.0
 11
1267.9157265728
 21
-718.5120147361
 31
0.0
  0
LINE
  5
A4B
330
1F
100
AcDbEntity
  8
0
  6
Continuous
 62
     7
370
    15
100
AcDbLine
 10
-899.0406746156
 20
-939.0969342356
 30
0.0
 11
-798.6728379402
 21
-1036.6996870712
 31
0.0
  0
LINE
  5
A4C
330
1F
100
AcDbEntity
  8
0
  6
Continuous
 62
   144
370
     0
100
AcDbLine
 10
-870.3641498512
 20
-966.9834350457
 30
0.0
 11
-875.9414500132
 21
-972.7187399986
 31
0.0
  0
LINE
  5
A4D
330
1F
100
AcDbEntity
  8
0
  6
Continuous
 62
     7
370
    15
100
AcDbLine
 10
-837.2055192128
 20
-999.2285619486
 30
0.0
 11
-842.7828193748
 21
-1004.9638669015
 31
0.0
  0
LINE
  5
A4E
330
1F
100
AcDbEntity
  8
0
  6
Continuous
 62
   144
370
     0
100
AcDbLine
 10
-813.1961258238
 20
-1022.576508525
 30
0.0
 11
-818.7734259858
 21
-1028.3118134779
 31
0.0
  0
LINE
  5
A4F
330
1F
100
AcDbEntity
  8
0
  6
Continuous
 62
   144
370
     0
100
AcDbLine
 10
-804.7877895904
 20
-1030.753199289
 30
0.0
 11
-810.3650897524
 21
-1036.4885042419
 31
0.0
  0
LINE
  5
A50
330
1F
100
AcDbEntity
  8
0
  6
Continuous
 62
   144
370
     0
100
AcDbLine
 10
-798.6728379402
 20
-1036.6996870712
 30
0.0
 11
-804.2501381022
 21
-1042.4349920241
 31
0.0
  0
LINE
  5
A51
330
1F
100
AcDbEntity
  8
0
  6
Continuous
 62
     7
370
    15
100
AcDbLine
 10
-924.742826431
 20
-1022.9026583363
 30
0.0
 11
-930.3201265931
 21
-1028.6379632892
 31
0.0
  0
LINE
  5
A52
330
1F
100
AcDbEntity
  8
0
  6
Continuous
 62
     7
370
    15
100
AcDbLine
 10
-869.2749951445
 20
-1032.2065654277
 30
0.0
 11
-872.0636452255
 21
-1035.0742179041
 31
0.0
  0
LINE
  5
A53
330
1F
100
AcDbEntity
  8
0
  6
Continuous
 62
     7
370
    15
100
AcDbLine
 10
-891.5841957927
 20
-1055.1477852392
 30
0.0
 11
-897.1614959547
 21
-1060.8830901921
 31
0.0
  0
LINE
  5
A54
330
1F
100
AcDbEntity
  8
0
  6
Continuous
 62
     7
370
    15
100
AcDbLine
 10
-958.9966513575
 20
-1000.751462479
 30
0.0
 11
-858.6288146821
 21
-1098.3542153147
 31
0.0
  0
LINE
  5
A55
330
1F
100
AcDbEntity
  8
0
  6
Continuous
 62
   144
370
     0
100
AcDbLine
 10
-931.1101505473
 20
-972.0749377146
 30
0.0
 11
-853.8291101802
 21
-1047.2269239653
 31
0.0
  0
LINE
  5
A56
330
1F
100
AcDbEntity
  8
0
  6
Continuous
 62
     7
370
    15
100
AcDbLine
 10
-867.5748024037
 20
-1078.4957318156
 30
0.0
 11
-873.1521025657
 21
-1084.2310367685
 31
0.0
  0
LINE
  5
A57
330
1F
100
AcDbEntity
  8
0
  6
Continuous
 62
     7
370
    15
100
AcDbLine
 10
-859.1664661703
 20
-1086.6724225796
 30
0.0
 11
-864.7437663323
 21
-1092.4077275325
 31
0.0
  0
LINE
  5
A58
330
1F
100
AcDbEntity
  8
0
  6
Continuous
 62
   144
370
     0
100
AcDbLine
 10
-853.0515145201
 20
-1092.6189103618
 30
0.0
 11
-858.6288146821
 21
-1098.3542153147
 31
0.0
  0
LINE
  5
A59
330
1F
100
AcDbEntity
  8
0
  6
Continuous
 62
     7
370
    15
100
AcDbLine
 10
-920.7867360361
 20
-1026.7497604141
 30
0.0
 11
-901.2661854689
 21
-1006.676193079
 31
0.0
  0
LINE
  5
A5A
330
1F
100
AcDbEntity
  8
0
  6
Continuous
 62
   144
370
     0
100
AcDbLine
 10
-934.2423041038
 20
-1013.6648865354
 30
0.0
 11
-911.9331034557
 21
-990.7236667238
 31
0.0
  0
LINE
  5
A5B
330
1F
100
AcDbEntity
  8
0
  6
Continuous
 62
   144
370
     0
100
AcDbLine
 10
-815.622729796
 20
-1089.9602142648
 30
0.0
 11
-933.8988006283
 21
-974.942590191
 31
0.0
  0
LINE
  5
A5C
330
1F
100
AcDbEntity
  8
0
  6
Continuous
 62
   144
370
     0
100
AcDbLine
 10
-902.5655206637
 20
-1044.4689903912
 30
0.0
 11
-883.0449700966
 21
-1024.3954230561
 31
0.0
  0
LINE
  5
A5D
330
1F
100
AcDbEntity
  8
0
  6
Continuous
 62
     7
370
    15
100
AcDbLine
 10
-944.4929607679
 20
-1003.6966303497
 30
0.0
 11
-922.1837601197
 21
-980.7554105381
 31
0.0
  0
LINE
  5
A5E
330
1F
100
AcDbEntity
  8
0
  6
Continuous
 62
   144
370
     0
100
AcDbLine
 10
-939.1889277358
 20
-1008.8545399172
 30
0.0
 11
-916.8797270877
 21
-985.9133201057
 31
0.0
  0
LINE
  5
A5F
330
1F
100
AcDbEntity
  8
0
  6
Continuous
 62
     7
370
    15
100
AcDbLine
 10
-873.7236391791
 20
-1072.5162924264
 30
0.0
 11
-854.203088612
 21
-1052.4427250913
 31
0.0
  0
LINE
  5
A60
330
1F
100
AcDbEntity
  8
0
  6
Continuous
 62
   144
370
     0
100
AcDbLine
 10
-897.5799451529
 20
-1049.3172157834
 30
0.0
 11
-878.0593945857
 21
-1029.2436484483
 31
0.0
  0
LINE
  5
A61
330
1F
100
AcDbEntity
  8
0
  6
Continuous
 62
   144
370
     0
100
AcDbLine
 10
-897.5808403525
 20
-1049.316345246
 30
0.0
 11
-878.0602897854
 21
-1029.242777911
 31
0.0
  0
LINE
  5
A62
330
1F
100
AcDbEntity
  8
0
  6
Continuous
 62
     7
370
    15
100
AcDbLine
 10
-1094.0224194621
 20
-799.7021289557
 30
0.0
 11
-1074.501868895
 21
-779.6285616206
 31
0.0
  0
LINE
  5
A63
330
1F
100
AcDbEntity
  8
0
  6
Continuous
 62
     7
370
    15
100
AcDbLine
 10
-1101.5928194599
 20
-792.3402897019
 30
0.0
 11
-1082.0722688928
 21
-772.2667223668
 31
0.0
  0
LINE
  5
A64
330
1F
100
AcDbEntity
  8
0
  6
Continuous
 62
   144
370
     0
100
AcDbLine
 10
-1106.9049343125
 20
-787.174520964
 30
0.0
 11
-1087.3843837454
 21
-767.1009536289
 31
0.0
  0
LINE
  5
A65
330
1F
100
AcDbEntity
  8
0
  6
Continuous
 62
     7
370
    15
100
AcDbLine
 10
-1123.2097087548
 20
-771.3189349252
 30
0.0
 11
-1103.6891581876
 21
-751.2453675901
 31
0.0
  0
LINE
  5
A66
330
1F
100
AcDbEntity
  8
0
  6
Continuous
 62
   144
370
     0
100
AcDbLine
 10
-930.7241793813
 20
-958.5015839709
 30
0.0
 11
-1165.2979788877
 21
-730.390175642
 31
0.0
  0
LINE
  5
A67
330
1F
100
AcDbEntity
  8
0
  6
Continuous
 62
   144
370
     0
100
AcDbLine
 10
-1109.3676368154
 20
-784.7796646867
 30
0.0
 11
-1089.8470862482
 21
-764.7060973517
 31
0.0
  0
LINE
  5
A68
330
1F
100
AcDbEntity
  8
0
  6
Continuous
 62
   144
370
     0
100
AcDbLine
 10
-1106.9053491091
 20
-787.1741175948
 30
0.0
 11
-1087.384798542
 21
-767.1005502597
 31
0.0
  0
LINE
  5
A69
330
1F
100
AcDbEntity
  8
0
  6
Continuous
 62
     7
370
    15
100
AcDbLine
 10
-1165.2979788877
 20
-730.390175642
 30
0.0
 11
-1145.7774283205
 21
-710.3166083069
 31
0.0
  0
LINE
  5
A6A
330
1F
100
AcDbEntity
  8
0
  6
Continuous
 62
   144
370
     0
100
AcDbLine
 10
-1108.5668819132
 20
-785.5583591907
 30
0.0
 11
-1089.0463313461
 21
-765.4847918556
 31
0.0
  0
LINE
  5
A6B
330
1F
100
AcDbEntity
  8
0
  6
Continuous
 62
   144
370
     0
100
AcDbLine
 10
626.6562604777
 20
1269.4965649978
 30
0.0
 11
1178.0866289689
 21
733.2578281203
 31
0.0
  0
LINE
  5
A6C
330
1F
100
AcDbEntity
  8
0
  6
Continuous
 62
     7
370
    15
100
AcDbLine
 10
829.8733245687
 20
1066.2985530248
 30
0.0
 11
1175.2979788879
 21
730.3901756439
 31
0.0
  0
LINE
  5
A6D
330
1F
100
AcDbEntity
  8
0
  6
Continuous
 62
   144
370
     0
100
AcDbLine
 10
904.2945602666
 20
999.5070618898
 30
0.0
 11
881.9853596184
 21
976.5658420783
 31
0.0
  0
LINE
  5
A6E
330
1F
100
AcDbEntity
  8
0
  6
Continuous
 62
   144
370
     0
100
AcDbLine
 10
886.0733448943
 20
1017.2262918669
 30
0.0
 11
883.2846948132
 21
1014.3586393904
 31
0.0
  0
LINE
  5
A6F
330
1F
100
AcDbEntity
  8
0
  6
Continuous
 62
   144
370
     0
100
AcDbLine
 10
661.019060687
 20
1236.080442795
 30
0.0
 11
658.230410606
 21
1233.2127903186
 31
0.0
  0
LINE
  5
A70
330
1F
100
AcDbEntity
  8
0
  6
Continuous
 62
     7
370
    15
100
AcDbLine
 10
689.3064293183
 20
1208.5723770606
 30
0.0
 11
686.5177792373
 21
1205.7047245842
 31
0.0
  0
LINE
  5
A71
330
1F
100
AcDbEntity
  8
0
  6
Continuous
 62
   144
370
     0
100
AcDbLine
 10
826.6682967944
 20
1074.9947605212
 30
0.0
 11
823.8796467133
 21
1072.1271080448
 31
0.0
  0
LINE
  5
A72
330
1F
100
AcDbEntity
  8
0
  6
Continuous
 62
   144
370
     0
100
AcDbLine
 10
815.9429627207
 20
1085.4246169906
 30
0.0
 11
813.1543126397
 21
1082.5569645142
 31
0.0
  0
LINE
  5
A73
330
1F
100
AcDbEntity
  8
0
  6
Continuous
 62
   144
370
     0
100
AcDbLine
 10
804.6996537288
 20
1096.3581784277
 30
0.0
 11
801.9110036478
 21
1093.4905259512
 31
0.0
  0
LINE
  5
A74
330
1F
100
AcDbEntity
  8
0
  6
Continuous
 62
   144
370
     0
100
AcDbLine
 10
910.4013900189
 20
993.5684722512
 30
0.0
 11
907.6127399379
 21
990.7008197748
 31
0.0
  0
LINE
  5
A75
330
1F
100
AcDbEntity
  8
0
  6
Continuous
 62
     7
370
    15
100
AcDbLine
 10
839.6335998523
 20
1076.3353366924
 30
0.0
 11
1185.0582541715
 21
740.4269593114
 31
0.0
  0
LINE
  5
A76
330
1F
100
AcDbEntity
  8
0
  6
Continuous
 62
   144
370
     0
100
AcDbLine
 10
1129.2466557592
 20
789.1214993861
 30
0.0
 11
1182.2696040905
 21
737.559306835
 31
0.0
  0
LINE
  5
A77
330
1F
100
AcDbEntity
  8
0
  6
Continuous
 62
   144
370
     0
100
AcDbLine
 10
647.1039043966
 20
1257.9814584281
 30
0.0
 11
665.2020358086
 21
1240.3819215097
 31
0.0
  0
LINE
  5
A78
330
1F
100
AcDbEntity
  8
0
  6
Continuous
 62
   144
370
     0
100
AcDbLine
 10
667.9906858896
 20
1243.2495739861
 30
0.0
 11
665.2020358086
 21
1240.3819215097
 31
0.0
  0
LINE
  5
A79
330
1F
100
AcDbEntity
  8
0
  6
Continuous
 62
   144
370
     0
100
AcDbLine
 10
814.9976840011
 20
1094.713068711
 30
0.0
 11
838.6748790439
 21
1071.688168582
 31
0.0
  0
LINE
  5
A7A
330
1F
100
AcDbEntity
  8
0
  6
Continuous
 62
   144
370
     0
100
AcDbLine
 10
841.463529125
 20
1074.5558210584
 30
0.0
 11
838.6748790439
 21
1071.688168582
 31
0.0
  0
LINE
  5
A7B
330
1F
100
AcDbEntity
  8
0
  6
Continuous
 62
   144
370
     0
100
AcDbLine
 10
1132.0353058402
 20
791.9891518625
 30
0.0
 11
1129.2466557592
 21
789.1214993861
 31
0.0
  0
LINE
  5
A7C
330
1F
100
AcDbEntity
  8
0
  6
Continuous
 62
   144
370
     0
100
AcDbLine
 10
715.8153518294
 20
1191.1629771007
 30
0.0
 11
764.9848324466
 21
1143.3480911501
 31
0.0
  0
LINE
  5
A7D
330
1F
100
AcDbEntity
  8
0
  6
Continuous
 62
     7
370
    15
100
AcDbLine
 10
914.9614782533
 20
983.5545355346
 30
0.0
 11
895.4409276862
 21
963.4809681995
 31
0.0
  0
LINE
  5
A7E
330
1F
100
AcDbEntity
  8
0
  6
Continuous
 62
     7
370
    15
100
AcDbLine
 10
604.3470598295
 20
1246.5553451863
 30
0.0
 11
914.6179747778
 21
944.8322391903
 31
0.0
  0
LINE
  5
A7F
330
1F
100
AcDbEntity
  8
0
  6
Continuous
 62
     7
370
    15
100
AcDbLine
 10
919.9081018853
 20
978.7441889164
 30
0.0
 11
900.3875513182
 21
958.6706215813
 31
0.0
  0
LINE
  5
A80
330
1F
100
AcDbEntity
  8
0
  6
Continuous
 62
     7
370
    15
100
AcDbLine
 10
925.2121349174
 20
973.5862793489
 30
0.0
 11
905.6915843503
 21
953.5127120138
 31
0.0
  0
LINE
  5
A81
330
1F
100
AcDbEntity
  8
0
  6
Continuous
 62
     7
370
    15
100
AcDbLine
 10
891.1491686433
 20
1006.7108278918
 30
0.0
 11
871.6286180761
 21
986.6372605567
 31
0.0
  0
LINE
  5
A82
330
1F
100
AcDbEntity
  8
0
  6
Continuous
 62
     7
370
    15
100
AcDbLine
 10
854.4428133287
 20
1042.4059414256
 30
0.0
 11
834.9222627615
 21
1022.3323740906
 31
0.0
  0
LINE
  5
A83
330
1F
100
AcDbEntity
  8
0
  6
Continuous
 62
   144
370
     0
100
AcDbLine
 10
878.2991193024
 20
1019.2068647826
 30
0.0
 11
858.7785687353
 21
999.1332974475
 31
0.0
  0
LINE
  5
A84
330
1F
100
AcDbEntity
  8
0
  6
Continuous
 62
   144
370
     0
100
AcDbLine
 10
542.5253566313
 20
1256.194329094
 30
0.0
 11
646.0276449672
 21
1206.0230393801
 31
0.0
  0
LINE
  5
A85
330
1F
100
AcDbEntity
  8
0
  6
Continuous
 62
     7
370
    15
100
AcDbLine
 10
767.3763703454
 20
1132.6532239697
 30
0.0
 11
771.622512618
 21
1129.9189299585
 31
0.0
  0
LINE
  5
A86
330
1F
100
AcDbEntity
  8
0
  6
Continuous
 62
     7
370
    15
100
AcDbLine
 10
788.6070817082
 20
1118.9817539139
 30
0.0
 11
801.0482681223
 21
1110.9702791869
 31
0.0
  0
LINE
  5
A87
330
1F
100
AcDbEntity
  8
0
  6
Continuous
 62
   144
370
     0
100
AcDbLine
 10
774.6177021849
 20
1125.6113872105
 30
0.0
 11
778.8638444575
 21
1122.8770931994
 31
0.0
  0
LINE
  5
A88
330
1F
100
AcDbEntity
  8
0
  6
Continuous
 62
   144
370
     0
100
AcDbLine
 10
799.5321681864
 20
1111.9465684182
 30
0.0
 11
798.4493556367
 21
1110.2650461965
 31
0.0
  0
LINE
  5
A89
330
1F
100
AcDbEntity
  8
0
  6
Continuous
 62
     7
370
    15
100
AcDbLine
 10
-536.9996176524
 20
1274.9333766265
 30
0.0
 11
-537.9939214195
 21
1277.0781893565
 31
0.0
  0
LINE
  5
A8A
330
1F
100
AcDbEntity
  8
0
  6
Continuous
 62
     7
370
    15
100
AcDbLine
 10
-537.9939214195
 20
1277.0781893565
 30
0.0
 11
-665.009132908
 21
1218.1957976717
 31
0.0
  0
LINE
  5
A8B
330
1F
100
AcDbEntity
  8
0
  6
Continuous
 62
   144
370
     0
100
AcDbLine
 10
-660.8070745228
 20
1218.547965465
 30
0.0
 11
-661.4160163327
 21
1219.8615138885
 31
0.0
  0
LINE
  5
A8C
330
1F
100
AcDbEntity
  8
0
  6
Continuous
 62
     7
370
    15
100
AcDbLine
 10
1736.6238614957
 20
71.0000000059
 30
0.0
 11
1736.6238614957
 21
65.0000000059
 31
0.0
  0
LINE
  5
A8D
330
1F
100
AcDbEntity
  8
0
  6
Continuous
 62
     7
370
    15
100
AcDbLine
 10
1596.6238614957
 20
65.0000000059
 30
0.0
 11
1596.6238614957
 21
71.0000000059
 31
0.0
  0
LINE
  5
A8E
330
1F
100
AcDbEntity
  8
0
  6
Continuous
 62
     7
370
    15
100
AcDbLine
 10
1741.6238614957
 20
65.0000000059
 30
0.0
 11
1741.6238614957
 21
71.0000000059
 31
0.0
  0
LINE
  5
A8F
330
1F
100
AcDbEntity
  8
0
  6
Continuous
 62
   144
370
     0
100
AcDbLine
 10
1881.6238614957
 20
71.0000000059
 30
0.0
 11
1881.6238614957
 21
65.0000000059
 31
0.0
  0
LINE
  5
A90
330
1F
100
AcDbEntity
  8
0
  6
Continuous
 62
     7
370
    15
100
AcDbLine
 10
2065.0000000001
 20
65.000000006
 30
0.0
 11
1161.6238614957
 21
65.0000000059
 31
0.0
  0
LINE
  5
A91
330
1F
100
AcDbEntity
  8
0
  6
Continuous
 62
   144
370
     0
100
AcDbLine
 10
1908.6412814138
 20
65.0000000059
 30
0.0
 11
1908.6412814138
 21
71.0000000059
 31
0.0
  0
LINE
  5
A92
330
1F
100
AcDbEntity
  8
0
  6
Continuous
 62
     7
370
    15
100
AcDbLine
 10
2026.6238614957
 20
65.0000000059
 30
0.0
 11
2026.6238614957
 21
71.0000000059
 31
0.0
  0
LINE
  5
A93
330
1F
100
AcDbEntity
  8
0
  6
Continuous
 62
   144
370
     0
100
AcDbLine
 10
1886.6238614957
 20
65.0000000059
 30
0.0
 11
1886.6238614957
 21
71.0000000059
 31
0.0
  0
LINE
  5
A94
330
1F
100
AcDbEntity
  8
0
  6
Continuous
 62
     7
370
    15
100
AcDbLine
 10
2065.0000000001
 20
-1029.6912562949
 30
0.0
 11
2065.0000000001
 21
-1169.6912562949
 31
0.0
  0
LINE
  5
A95
330
1F
100
AcDbEntity
  8
0
  6
Continuous
 62
     7
370
    15
100
AcDbLine
 10
2065.0000000001
 20
-1169.6912562949
 30
0.0
 11
2062.9374310708
 21
-1169.6912562949
 31
0.0
  0
LINE
  5
A96
330
1F
100
AcDbEntity
  8
0
  6
Continuous
 62
   144
370
     0
100
AcDbLine
 10
2063.0000000001
 20
-1029.6912562949
 30
0.0
 11
2065.0000000001
 21
-1029.6912562949
 31
0.0
  0
LINE
  5
A97
330
1F
100
AcDbEntity
  8
0
  6
Continuous
 62
   144
370
     0
100
AcDbLine
 10
2065.0000000001
 20
-884.6912562949
 30
0.0
 11
2065.0000000001
 21
-1024.6912562949
 31
0.0
  0
LINE
  5
A98
330
1F
100
AcDbEntity
  8
0
  6
Continuous
 62
   144
370
     0
100
AcDbLine
 10
2063.0000000001
 20
-1024.6912562949
 30
0.0
 11
2065.0000000001
 21
-1024.6912562949
 31
0.0
  0
LINE
  5
A99
330
1F
100
AcDbEntity
  8
0
  6
Continuous
 62
   144
370
     0
100
AcDbLine
 10
2065.0000000001
 20
-884.6912562949
 30
0.0
 11
2059.3350115194
 21
-884.6912562949
 31
0.0
  0
LINE
  5
A9A
330
1F
100
AcDbEntity
  8
0
  6
Continuous
 62
   144
370
     0
100
AcDbLine
 10
2065.0000000001
 20
-710.6912562949
 30
0.0
 11
2063.0000000001
 21
-710.6912562949
 31
0.0
  0
LINE
  5
A9B
330
1F
100
AcDbEntity
  8
0
  6
Continuous
 62
     7
370
    15
100
AcDbLine
 10
2065.0000000001
 20
-710.6912562949
 30
0.0
 11
2065.0000000001
 21
-850.6912562949
 31
0.0
  0
LINE
  5
A9C
330
1F
100
AcDbEntity
  8
0
  6
Continuous
 62
   144
370
     0
100
AcDbLine
 10
2059.0000000001
 20
-730.3846153932
 30
0.0
 11
2065.0000000001
 21
-730.3846153932
 31
0.0
  0
LINE
  5
A9D
330
1F
100
AcDbEntity
  8
0
  6
Continuous
 62
   144
370
     0
100
AcDbLine
 10
2065.0000000001
 20
-850.6912562949
 30
0.0
 11
2060.8173003708
 21
-850.6912562949
 31
0.0
  0
LINE
  5
A9E
330
1F
100
AcDbEntity
  8
0
  6
Continuous
 62
   144
370
     0
100
AcDbLine
 10
2065.0000000001
 20
-705.6912562949
 30
0.0
 11
2065.0000000001
 21
-565.6912562949
 31
0.0
  0
LINE
  5
A9F
330
1F
100
AcDbEntity
  8
0
  6
Continuous
 62
   144
370
     0
100
AcDbLine
 10
2063.0000000001
 20
-705.6912562949
 30
0.0
 11
2065.0000000001
 21
-705.6912562949
 31
0.0
  0
LINE
  5
AA0
330
1F
100
AcDbEntity
  8
0
  6
Continuous
 62
   144
370
     0
100
AcDbLine
 10
2065.0000000001
 20
-565.6912562949
 30
0.0
 11
2063.0000000001
 21
-565.6912562949
 31
0.0
  0
LINE
  5
AA1
330
1F
100
AcDbEntity
  8
0
  6
Continuous
 62
   144
370
     0
100
AcDbLine
 10
2025.0000000001
 20
-74.999999994
 30
0.0
 11
2025.0000000001
 21
-79.999999994
 31
0.0
  0
LINE
  5
AA2
330
1F
100
AcDbEntity
  8
0
  6
Continuous
 62
   144
370
     0
100
AcDbLine
 10
2025.0000000001
 20
-219.999999994
 30
0.0
 11
2025.0000000001
 21
-224.999999994
 31
0.0
  0
LINE
  5
AA3
330
1F
100
AcDbEntity
  8
0
  6
Continuous
 62
   144
370
     0
100
AcDbLine
 10
2025.0000000001
 20
-364.999999994
 30
0.0
 11
2025.0000000001
 21
-369.999999994
 31
0.0
  0
LINE
  5
AA4
330
1F
100
AcDbEntity
  8
0
  6
Continuous
 62
     7
370
    15
100
AcDbLine
 10
2028.2313228643
 20
-74.999999994
 30
0.0
 11
1285.0000000001
 21
-74.999999994
 31
0.0
  0
LINE
  5
AA5
330
1F
100
AcDbEntity
  8
0
  6
Continuous
 62
     7
370
    15
100
AcDbLine
 10
1285.0000000001
 20
65.000000006
 30
0.0
 11
1285.0000000001
 21
-74.999999994
 31
0.0
  0
LINE
  5
AA6
330
1F
100
AcDbEntity
  8
0
  6
Continuous
 62
     7
370
    15
100
AcDbLine
 10
1285.0000000001
 20
-79.999999994
 30
0.0
 11
1285.0000000001
 21
-219.999999994
 31
0.0
  0
LINE
  5
AA7
330
1F
100
AcDbEntity
  8
0
  6
Continuous
 62
   144
370
     0
100
AcDbLine
 10
2028.2313228643
 20
-79.999999994
 30
0.0
 11
1285.0000000001
 21
-79.999999994
 31
0.0
  0
LINE
  5
AA8
330
1F
100
AcDbEntity
  8
0
  6
Continuous
 62
     7
370
    15
100
AcDbLine
 10
2028.2313228643
 20
-219.999999994
 30
0.0
 11
1285.0000000001
 21
-219.999999994
 31
0.0
  0
LINE
  5
AA9
330
1F
100
AcDbEntity
  8
0
  6
Continuous
 62
     7
370
    15
100
AcDbLine
 10
2028.2313228643
 20
-224.999999994
 30
0.0
 11
1285.0000000001
 21
-224.999999994
 31
0.0
  0
LINE
  5
AAA
330
1F
100
AcDbEntity
  8
0
  6
Continuous
 62
     7
370
    15
100
AcDbLine
 10
2028.2313228643
 20
-364.999999994
 30
0.0
 11
1285.0000000001
 21
-364.999999994
 31
0.0
  0
LINE
  5
AAB
330
1F
100
AcDbEntity
  8
0
  6
Continuous
 62
     7
370
    15
100
AcDbLine
 10
1285.0000000001
 20
-224.999999994
 30
0.0
 11
1285.0000000001
 21
-364.999999994
 31
0.0
  0
LINE
  5
AAC
330
1F
100
AcDbEntity
  8
0
  6
Continuous
 62
     7
370
    15
100
AcDbLine
 10
1285.0000000001
 20
-369.999999994
 30
0.0
 11
1285.0000000001
 21
-509.999999994
 31
0.0
  0
LINE
  5
AAD
330
1F
100
AcDbEntity
  8
0
  6
Continuous
 62
     7
370
    15
100
AcDbLine
 10
2025.0000000001
 20
-509.999999994
 30
0.0
 11
1285.0000000001
 21
-509.999999994
 31
0.0
  0
LINE
  5
AAE
330
1F
100
AcDbEntity
  8
0
  6
Continuous
 62
     7
370
    15
100
AcDbLine
 10
2028.2313228643
 20
-369.999999994
 30
0.0
 11
1285.0000000001
 21
-369.999999994
 31
0.0
  0
LINE
  5
AAF
330
1F
100
AcDbEntity
  8
0
  6
Continuous
 62
   144
370
     0
100
AcDbLine
 10
2065.0000000001
 20
-482.6490065977
 30
0.0
 11
2025.0000000001
 21
-482.6490065977
 31
0.0
  0
LINE
  5
AB0
330
1F
100
AcDbEntity
  8
0
  6
Continuous
 62
     7
370
    15
100
AcDbLine
 10
1285.0000000001
 20
-514.999999994
 30
0.0
 11
1285.0000000001
 21
-629.9570442391
 31
0.0
  0
LINE
  5
AB1
330
1F
100
AcDbEntity
  8
0
  6
Continuous
 62
     7
370
    15
100
AcDbLine
 10
1285.0000000001
 20
-638.2199950086
 30
0.0
 11
1285.0000000001
 21
-639.7892371229
 31
0.0
  0
LINE
  5
AB2
330
1F
100
AcDbEntity
  8
0
  6
Continuous
 62
     7
370
    15
100
AcDbLine
 10
1285.0000000001
 20
-646.06620558
 30
0.0
 11
1285.0000000001
 21
-647.6354476942
 31
0.0
  0
LINE
  5
AB3
330
1F
100
AcDbEntity
  8
0
  6
Continuous
 62
     7
370
    15
100
AcDbLine
 10
2025.0000000001
 20
-514.999999994
 30
0.0
 11
1285.0000000001
 21
-514.999999994
 31
0.0
  0
LINE
  5
AB4
330
1F
100
AcDbEntity
  8
0
  6
Continuous
 62
     7
370
    15
100
AcDbLine
 10
2023.0000000001
 20
-654.999999994
 30
0.0
 11
1315.2856301104
 21
-654.999999994
 31
0.0
  0
LINE
  5
AB5
330
1F
100
AcDbEntity
  8
0
  6
Continuous
 62
   144
370
     0
100
AcDbLine
 10
1290.9778523497
 20
-640.4061482903
 30
0.0
 11
1294.0604799606
 21
-642.9551494696
 31
0.0
  0
LINE
  5
AB6
330
1F
100
AcDbEntity
  8
0
  6
Continuous
 62
   144
370
     0
100
AcDbLine
 10
1241.7778011052
 20
-699.9060958196
 30
0.0
 11
1266.4388219925
 21
-720.2981052546
 31
0.0
  0
LINE
  5
AB7
330
1F
100
AcDbEntity
  8
0
  6
Continuous
 62
   144
370
     0
100
AcDbLine
 10
1290.9778523497
 20
-640.4061482903
 30
0.0
 11
1081.2316345284
 21
-894.0621636638
 31
0.0
  0
LINE
  5
AB8
330
1F
100
AcDbEntity
  8
0
  6
Continuous
 62
   144
370
     0
100
AcDbLine
 10
1234.5793777664
 20
-708.6114894141
 30
0.0
 11
1237.6620053773
 21
-711.1604905935
 31
0.0
  0
LINE
  5
AB9
330
1F
100
AcDbEntity
  8
0
  6
Continuous
 62
     7
370
    15
100
AcDbLine
 10
1246.5508077559
 20
-694.1338732692
 30
0.0
 11
1249.6334353668
 21
-696.6828744486
 31
0.0
  0
LINE
  5
ABA
330
1F
100
AcDbEntity
  8
0
  6
Continuous
 62
   144
370
     0
100
AcDbLine
 10
1261.799248524
 20
-675.6932130939
 30
0.0
 11
1264.8818761349
 21
-678.2422142733
 31
0.0
  0
LINE
  5
ABB
330
1F
100
AcDbEntity
  8
0
  6
Continuous
 62
   144
370
     0
100
AcDbLine
 10
1196.8680974843
 20
-754.2175231741
 30
0.0
 11
1199.9507250952
 21
-756.7665243535
 31
0.0
  0
LINE
  5
ABC
330
1F
100
AcDbEntity
  8
0
  6
Continuous
 62
   144
370
     0
100
AcDbLine
 10
1130.1122168855
 20
-834.9485649604
 30
0.0
 11
1133.1948444964
 21
-837.4975661397
 31
0.0
  0
LINE
  5
ABD
330
1F
100
AcDbEntity
  8
0
  6
Continuous
 62
   144
370
     0
100
AcDbLine
 10
1041.1074705872
 20
-942.5862116834
 30
0.0
 11
1044.1900981981
 21
-945.1352128628
 31
0.0
  0
LINE
  5
ABE
330
1F
100
AcDbEntity
  8
0
  6
Continuous
 62
   144
370
     0
100
AcDbLine
 10
1071.385386729
 20
-905.9696965342
 30
0.0
 11
1096.0464076163
 21
-926.3617059692
 31
0.0
  0
LINE
  5
ABF
330
1F
100
AcDbEntity
  8
0
  6
Continuous
 62
   144
370
     0
100
AcDbLine
 10
957.1614391732
 20
-1034.690662699
 30
0.0
 11
998.3903597141
 21
-984.8305803042
 31
0.0
  0
LINE
  5
AC0
330
1F
100
AcDbEntity
  8
0
  6
Continuous
 62
   144
370
     0
100
AcDbLine
 10
1102.0977049058
 20
-859.4123857854
 30
0.0
 11
1289.0579461829
 21
-633.3125288812
 31
0.0
  0
LINE
  5
AC1
330
1F
100
AcDbEntity
  8
0
  6
Continuous
 62
   144
370
     0
100
AcDbLine
 10
854.5906194765
 20
-1158.734403216
 30
0.0
 11
813.3594398663
 21
-1208.59721761
 31
0.0
  0
LINE
  5
AC2
330
1F
100
AcDbEntity
  8
0
  6
Continuous
 62
   144
370
     0
100
AcDbLine
 10
980.5605702493
 20
-1000.1160190149
 30
0.0
 11
983.6431978603
 21
-1002.6650201943
 31
0.0
  0
LINE
  5
AC3
330
1F
100
AcDbEntity
  8
0
  6
Continuous
 62
   144
370
     0
100
AcDbLine
 10
1238.8442387286
 20
-687.7613703208
 30
0.0
 11
1241.9268663395
 21
-690.3103715002
 31
0.0
  0
LINE
  5
AC4
330
1F
100
AcDbEntity
  8
0
  6
Continuous
 62
   144
370
     0
100
AcDbLine
 10
851.5079918656
 20
-1156.1854020366
 30
0.0
 11
854.5906194765
 21
-1158.734403216
 31
0.0
  0
LINE
  5
AC5
330
1F
100
AcDbEntity
  8
0
  6
Continuous
 62
   144
370
     0
100
AcDbLine
 10
954.0788115622
 20
-1032.1416615196
 30
0.0
 11
957.1614391732
 21
-1034.690662699
 31
0.0
  0
LINE
  5
AC6
330
1F
100
AcDbEntity
  8
0
  6
Continuous
 62
   144
370
     0
100
AcDbLine
 10
991.5170203124
 20
-986.8658660705
 30
0.0
 11
994.5996479233
 21
-989.4148672499
 31
0.0
  0
LINE
  5
AC7
330
1F
100
AcDbEntity
  8
0
  6
Continuous
 62
   144
370
     0
100
AcDbLine
 10
1056.6471597425
 20
-908.1009099242
 30
0.0
 11
1059.7297873535
 21
-910.6499111035
 31
0.0
  0
LINE
  5
AC8
330
1F
100
AcDbEntity
  8
0
  6
Continuous
 62
   144
370
     0
100
AcDbLine
 10
1099.0150772949
 20
-856.863384606
 30
0.0
 11
1102.0977049058
 21
-859.4123857854
 31
0.0
  0
LINE
  5
AC9
330
1F
100
AcDbEntity
  8
0
  6
Continuous
 62
   144
370
     0
100
AcDbLine
 10
1109.9395178672
 20
-843.6519422518
 30
0.0
 11
1113.0221454781
 21
-846.2009434312
 31
0.0
  0
LINE
  5
ACA
330
1F
100
AcDbEntity
  8
0
  6
Continuous
 62
     7
370
    15
100
AcDbLine
 10
1069.753361304
 20
-914.2203504794
 30
0.0
 11
1091.3317545804
 21
-932.063358735
 31
0.0
  0
LINE
  5
ACB
330
1F
100
AcDbEntity
  8
0
  6
Continuous
 62
     7
370
    15
100
AcDbLine
 10
828.1870506299
 20
-1250.2966873931
 30
0.0
 11
1103.9809045313
 21
-916.7661438068
 31
0.0
  0
LINE
  5
ACC
330
1F
100
AcDbEntity
  8
0
  6
Continuous
 62
     7
370
    15
100
AcDbLine
 10
546.8110734853
 20
-1277.6265403322
 30
0.0
 11
557.9881406017
 21
-1272.4450157248
 31
0.0
  0
LINE
  5
ACD
330
1F
100
AcDbEntity
  8
0
  6
Continuous
 62
     7
370
    15
100
AcDbLine
 10
565.4557408112
 20
-1268.9831456439
 30
0.0
 11
673.8262849738
 21
-1218.7441486474
 31
0.0
  0
LINE
  5
ACE
330
1F
100
AcDbEntity
  8
0
  6
Continuous
 62
   144
370
     0
100
AcDbLine
 10
669.6471738828
 20
-1219.1458160506
 30
0.0
 11
670.2331683985
 21
-1220.4098648642
 31
0.0
  0
LINE
  5
ACF
330
1F
100
AcDbEntity
  8
0
  6
Continuous
 62
   144
370
     0
100
AcDbLine
 10
551.3943819226
 20
-1273.1534154208
 30
0.0
 11
552.2904720163
 21
-1275.0863714286
 31
0.0
  0
LINE
  5
AD0
330
1F
100
AcDbEntity
  8
0
  6
Continuous
 62
   144
370
     0
100
AcDbLine
 10
545.7820577675
 20
-1275.4068504506
 30
0.0
 11
546.8110734853
 21
-1277.6265403322
 31
0.0
  0
LINE
  5
AD1
330
1F
100
AcDbEntity
  8
0
  6
Continuous
 62
   144
370
     0
100
AcDbLine
 10
673.1705838622
 20
-1217.3297357306
 30
0.0
 11
673.8262849738
 21
-1218.7441486474
 31
0.0
  0
LINE
  5
AD2
330
1F
100
AcDbEntity
  8
0
  6
Continuous
 62
   144
370
     0
100
AcDbLine
 10
-532.525356631
 20
-1256.1943290922
 30
0.0
 11
-636.0276449669
 21
-1206.0230393783
 31
0.0
  0
LINE
  5
AD3
330
1F
100
AcDbEntity
  8
0
  6
Continuous
 62
     7
370
    15
100
AcDbLine
 10
-749.51035825
 20
-1137.7185252184
 30
0.0
 11
-761.6225126177
 21
-1129.9189299567
 31
0.0
  0
LINE
  5
AD4
330
1F
100
AcDbEntity
  8
0
  6
Continuous
 62
     7
370
    15
100
AcDbLine
 10
-778.6070817079
 20
-1118.9817539121
 30
0.0
 11
-782.8532239805
 21
-1116.2474599009
 31
0.0
  0
LINE
  5
AD5
330
1F
100
AcDbEntity
  8
0
  6
Continuous
 62
   144
370
     0
100
AcDbLine
 10
-788.6633648273
 20
-1110.5973855365
 30
0.0
 11
-788.4493556364
 21
-1110.2650461946
 31
0.0
  0
LINE
  5
AD6
330
1F
100
AcDbEntity
  8
0
  6
Continuous
 62
   144
370
     0
100
AcDbLine
 10
-748.0878691102
 20
-1136.2557369925
 30
0.0
 11
-768.8638444572
 21
-1122.8770931976
 31
0.0
  0
LINE
  5
AD7
330
1F
100
AcDbEntity
  8
0
  6
Continuous
 62
   144
370
     0
100
AcDbLine
 10
-616.6562604774
 20
-1269.496564996
 30
0.0
 11
-1168.0866289687
 21
-733.2578281184
 31
0.0
  0
LINE
  5
AD8
330
1F
100
AcDbEntity
  8
0
  6
Continuous
 62
   144
370
     0
100
AcDbLine
 10
-819.8733245685
 20
-1066.298553023
 30
0.0
 11
-909.9080875468
 21
-978.7442028578
 31
0.0
  0
LINE
  5
AD9
330
1F
100
AcDbEntity
  8
0
  6
Continuous
 62
   144
370
     0
100
AcDbLine
 10
-907.7501283341
 20
-986.4221880092
 30
0.0
 11
-885.440927686
 21
-963.4809681977
 31
0.0
  0
LINE
  5
ADA
330
1F
100
AcDbEntity
  8
0
  6
Continuous
 62
   144
370
     0
100
AcDbLine
 10
-894.2945602664
 20
-999.5070618879
 30
0.0
 11
-871.9853596182
 21
-976.5658420764
 31
0.0
  0
LINE
  5
ADB
330
1F
100
AcDbEntity
  8
0
  6
Continuous
 62
     7
370
    15
100
AcDbLine
 10
-918.0007849982
 20
-976.4539318235
 30
0.0
 11
-895.69158435
 21
-953.512712012
 31
0.0
  0
LINE
  5
ADC
330
1F
100
AcDbEntity
  8
0
  6
Continuous
 62
   144
370
     0
100
AcDbLine
 10
-912.6967519661
 20
-981.611841391
 30
0.0
 11
-890.387551318
 21
-958.6706215795
 31
0.0
  0
LINE
  5
ADD
330
1F
100
AcDbEntity
  8
0
  6
Continuous
 62
   144
370
     0
100
AcDbLine
 10
-883.9378187241
 20
-1009.5784803664
 30
0.0
 11
-881.149168643
 21
-1006.71082789
 31
0.0
  0
LINE
  5
ADE
330
1F
100
AcDbEntity
  8
0
  6
Continuous
 62
   144
370
     0
100
AcDbLine
 10
-850.7320135824
 20
-1041.8694821385
 30
0.0
 11
-847.9433635014
 21
-1039.0018296621
 31
0.0
  0
LINE
  5
ADF
330
1F
100
AcDbEntity
  8
0
  6
Continuous
 62
   144
370
     0
100
AcDbLine
 10
-843.6876514592
 20
-1048.7197755987
 30
0.0
 11
-840.8990013782
 21
-1045.8521231223
 31
0.0
  0
LINE
  5
AE0
330
1F
100
AcDbEntity
  8
0
  6
Continuous
 62
     7
370
    15
100
AcDbLine
 10
-876.9970491895
 20
-1016.3280351622
 30
0.0
 11
-874.2083991085
 21
-1013.4603826857
 31
0.0
  0
LINE
  5
AE1
330
1F
100
AcDbEntity
  8
0
  6
Continuous
 62
     7
370
    15
100
AcDbLine
 10
-970.0445472628
 20
-925.8439492512
 30
0.0
 11
-967.2558971818
 21
-922.9762967748
 31
0.0
  0
LINE
  5
AE2
330
1F
100
AcDbEntity
  8
0
  6
Continuous
 62
   144
370
     0
100
AcDbLine
 10
-957.7544395475
 20
-937.795470629
 30
0.0
 11
-954.9657894665
 21
-934.9278181525
 31
0.0
  0
LINE
  5
AE3
330
1F
100
AcDbEntity
  8
0
  6
Continuous
 62
   144
370
     0
100
AcDbLine
 10
-1108.5673242895
 20
-805.0860972369
 30
0.0
 11
-1105.7786742084
 21
-802.2184447605
 31
0.0
  0
LINE
  5
AE4
330
1F
100
AcDbEntity
  8
0
  6
Continuous
 62
   144
370
     0
100
AcDbLine
 10
-1113.8769743117
 20
-794.3432487859
 30
0.0
 11
-1105.7786742084
 21
-802.2184447605
 31
0.0
  0
LINE
  5
AE5
330
1F
100
AcDbEntity
  8
0
  6
Continuous
 62
   144
370
     0
100
AcDbLine
 10
-1119.246655759
 20
-789.1214993842
 30
0.0
 11
-1136.4013080535
 21
-772.4394492041
 31
0.0
  0
LINE
  5
AE6
330
1F
100
AcDbEntity
  8
0
  6
Continuous
 62
   144
370
     0
100
AcDbLine
 10
-1139.1899581345
 20
-775.3071016805
 30
0.0
 11
-1136.4013080535
 21
-772.4394492041
 31
0.0
  0
LINE
  5
AE7
330
1F
100
AcDbEntity
  8
0
  6
Continuous
 62
   144
370
     0
100
AcDbLine
 10
-1122.03530584
 20
-791.9891518607
 30
0.0
 11
-1119.246655759
 21
-789.1214993842
 31
0.0
  0
LINE
  5
AE8
330
1F
100
AcDbEntity
  8
0
  6
Continuous
 62
   144
370
     0
100
AcDbLine
 10
-1076.8440633884
 20
-874.9917345933
 30
0.0
 11
-1054.5348627402
 21
-852.0505147817
 31
0.0
  0
LINE
  5
AE9
330
1F
100
AcDbEntity
  8
0
  6
Continuous
 62
   144
370
     0
100
AcDbLine
 10
-940.4844546649
 20
-968.5383676384
 30
0.0
 11
-1175.0582541712
 21
-740.4269593095
 31
0.0
  0
LINE
  5
AEA
330
1F
100
AcDbEntity
  8
0
  6
Continuous
 62
   144
370
     0
100
AcDbLine
 10
-1035.3004765676
 20
-915.3908163179
 30
0.0
 11
-1012.9912759194
 21
-892.4495965064
 31
0.0
  0
LINE
  5
AEB
330
1F
100
AcDbEntity
  8
0
  6
Continuous
 62
   144
370
     0
100
AcDbLine
 10
-1066.1417471003
 20
-846.3428709353
 30
0.0
 11
-1063.3530970192
 21
-843.4752184588
 31
0.0
  0
LINE
  5
AEC
330
1F
100
AcDbEntity
  8
0
  6
Continuous
 62
   144
370
     0
100
AcDbLine
 10
-991.0406965925
 20
-919.3749249598
 30
0.0
 11
-988.2520465115
 21
-916.5072724834
 31
0.0
  0
LINE
  5
AED
330
1F
100
AcDbEntity
  8
0
  6
Continuous
 62
   144
370
     0
100
AcDbLine
 10
-854.7443265784
 20
-1051.916397961
 30
0.0
 11
-851.9556764973
 21
-1049.0487454845
 31
0.0
  0
LINE
  5
AEE
330
1F
100
AcDbEntity
  8
0
  6
Continuous
 62
   144
370
     0
100
AcDbLine
 10
-850.6592766618
 20
-1055.8889067898
 30
0.0
 11
-847.8706265808
 21
-1053.0212543134
 31
0.0
  0
LINE
  5
AEF
330
1F
100
AcDbEntity
  8
0
  6
Continuous
 62
   144
370
     0
100
AcDbLine
 10
-851.9556764973
 20
-1049.0487454845
 30
0.0
 11
-847.8706265808
 21
-1053.0212543134
 31
0.0
  0
LINE
  5
AF0
330
1F
100
AcDbEntity
  8
0
  6
Continuous
 62
   144
370
     0
100
AcDbLine
 10
-890.9094439266
 20
-1016.7476115575
 30
0.0
 11
-888.1207938456
 21
-1013.8799590811
 31
0.0
  0
LINE
  5
AF1
330
1F
100
AcDbEntity
  8
0
  6
Continuous
 62
     7
370
    15
100
AcDbLine
 10
-594.3470598293
 20
-1246.5553451845
 30
0.0
 11
-904.6179747776
 21
-944.8322391884
 31
0.0
  0
LINE
  5
AF2
330
1F
100
AcDbEntity
  8
0
  6
Continuous
 62
   144
370
     0
100
AcDbLine
 10
-873.284694813
 20
-1014.3586393886
 30
0.0
 11
-853.7641442459
 21
-994.2850720535
 31
0.0
  0
LINE
  5
AF3
330
1F
100
AcDbEntity
  8
0
  6
Continuous
 62
     7
370
    15
100
AcDbLine
 10
-844.4428133284
 20
-1042.4059414238
 30
0.0
 11
-824.9222627613
 21
-1022.3323740887
 31
0.0
  0
LINE
  5
AF4
330
1F
100
AcDbEntity
  8
0
  6
Continuous
 62
   144
370
     0
100
AcDbLine
 10
-868.2991193022
 20
-1019.2068647807
 30
0.0
 11
-848.778568735
 21
-999.1332974457
 31
0.0
  0
LINE
  5
AF5
330
1F
100
AcDbEntity
  8
0
  6
Continuous
 62
     7
370
    15
100
AcDbLine
 10
552.204411938
 20
1249.2799589121
 30
0.0
 11
553.0767951019
 21
1251.0796665593
 31
0.0
  0
LINE
  5
AF6
330
1F
100
AcDbEntity
  8
0
  6
Continuous
 62
   144
370
     0
100
AcDbLine
 10
633.1912560618
 20
1210.0227165373
 30
0.0
 11
634.0636392256
 21
1211.8224241845
 31
0.0
  0
LINE
  5
AF7
330
1F
100
AcDbEntity
  8
0
  6
Continuous
 62
   144
370
     0
100
AcDbLine
 10
483.480580596
 20
1277.9181748125
 30
0.0
 11
484.1316749488
 21
1279.8092264098
 31
0.0
  0
LINE
  5
AF8
330
1F
100
AcDbEntity
  8
0
  6
Continuous
 62
   144
370
     0
100
AcDbLine
 10
388.928000729
 20
1310.4728924504
 30
0.0
 11
389.5790950817
 21
1312.3639440477
 31
0.0
  0
LINE
  5
AF9
330
1F
100
AcDbEntity
  8
0
  6
Continuous
 62
   144
370
     0
100
AcDbLine
 10
134.7449940725
 20
1362.8117480198
 30
0.0
 11
134.902120499
 21
1364.6149328367
 31
0.0
  0
LINE
  5
AFA
330
1F
100
AcDbEntity
  8
0
  6
Continuous
 62
   144
370
     0
100
AcDbLine
 10
45.0682568248
 20
1370.4353226324
 30
0.0
 11
45.2418754845
 21
1372.4277725216
 31
0.0
  0
LINE
  5
AFB
330
1F
100
AcDbEntity
  8
0
  6
Continuous
 62
   144
370
     0
100
AcDbLine
 10
-390.2368221075
 20
1323.7282013736
 30
0.0
 11
-390.4189064285
 21
1324.3047492947
 31
0.0
  0
LINE
  5
AFC
330
1F
100
AcDbEntity
  8
0
  6
Continuous
 62
   144
370
     0
100
AcDbLine
 10
-485.7461480012
 20
1294.0933756753
 30
0.0
 11
-485.7763865864
 21
1294.1891224882
 31
0.0
  0
LINE
  5
AFD
330
1F
100
AcDbEntity
  8
0
  6
Continuous
 62
   144
370
     0
100
AcDbLine
 10
-556.8697499999
 20
1268.3276316963
 30
0.0
 11
-557.710927024
 21
1270.1421347176
 31
0.0
  0
LINE
  5
AFE
330
1F
100
AcDbEntity
  8
0
  6
Continuous
 62
   144
370
     0
100
AcDbLine
 10
-647.5949010632
 20
1226.2687804929
 30
0.0
 11
-648.4360780873
 21
1228.0832835142
 31
0.0
  0
LINE
  5
AFF
330
1F
100
AcDbEntity
  8
0
  6
Continuous
 62
   144
370
     0
100
AcDbLine
 10
870.9202746675
 20
1040.3311175248
 30
0.0
 11
870.3205596819
 21
1039.6083161866
 31
0.0
  0
LINE
  5
B00
330
1F
100
AcDbEntity
  8
0
  6
Continuous
 62
   144
370
     0
100
AcDbLine
 10
867.7529351779
 20
1036.4947384893
 30
0.0
 11
867.0901519024
 21
1035.6865073601
 31
0.0
  0
LINE
  5
B01
330
1F
100
AcDbEntity
  8
0
  6
Continuous
 62
     7
370
    15
100
AcDbLine
 10
2068.2313228643
 20
60.5000000059
 30
0.0
 11
2912.6253903647
 21
60.5000000059
 31
0.0
  0
LINE
  5
B02
330
1F
100
AcDbEntity
  8
0
  6
Continuous
 62
   144
370
     0
100
AcDbLine
 10
2912.6253903647
 20
62.5000000059
 30
0.0
 11
2912.6253903647
 21
60.5000000059
 31
0.0
  0
LINE
  5
B03
330
1F
100
AcDbEntity
  8
0
  6
Continuous
 62
   144
370
     0
100
AcDbLine
 10
2068.2313228643
 20
62.5000000059
 30
0.0
 11
2068.2313228643
 21
60.5000000059
 31
0.0
  0
LINE
  5
B04
330
1F
100
AcDbEntity
  8
0
  6
Continuous
 62
     7
370
    15
100
AcDbLine
 10
2912.4973962015
 20
-475.4999999941
 30
0.0
 11
2069.1809913814
 21
-475.4999999941
 31
0.0
  0
LINE
  5
B05
330
1F
100
AcDbEntity
  8
0
  6
Continuous
 62
   144
370
     0
100
AcDbLine
 10
2069.1809913814
 20
-477.4999999941
 30
0.0
 11
2069.1809913814
 21
-475.4999999941
 31
0.0
  0
LINE
  5
B06
330
1F
100
AcDbEntity
  8
0
  6
Continuous
 62
   144
370
     0
100
AcDbLine
 10
2912.4973962015
 20
-477.4999999941
 30
0.0
 11
2912.4973962015
 21
-475.4999999941
 31
0.0
  0
LINE
  5
B07
330
1F
100
AcDbEntity
  8
0
  6
Continuous
 62
     7
370
    15
100
AcDbLine
 10
2028.2313228643
 20
-464.9999999941
 30
0.0
 11
2028.2313228643
 21
50.0000000059
 31
0.0
  0
LINE
  5
B08
330
1F
100
AcDbEntity
  8
0
  6
Continuous
 62
   144
370
     0
100
AcDbLine
 10
2038.2313228643
 20
-474.9999999941
 30
0.0
 11
2069.1809913815
 21
-474.9999999941
 31
0.0
  0
LINE
  5
B09
330
1F
100
AcDbEntity
  8
0
  6
Continuous
 62
   144
370
     0
100
AcDbLine
 10
2038.2313228643
 20
60.0000000059
 30
0.0
 11
2068.9125069293
 21
60.0000000059
 31
0.0
  0
LINE
  5
B0A
330
1F
100
AcDbEntity
  8
0
  6
Continuous
 62
   144
370
     0
100
AcDbLine
 10
2069.1809913815
 20
-474.9999999941
 30
0.0
 11
2069.1809913815
 21
58.0000000059
 31
0.0
  0
LINE
  5
B0B
330
1F
100
AcDbEntity
  8
0
  6
Continuous
 62
   144
370
     0
100
AcDbLine
 10
2537.1391501532
 20
-472.9999999941
 30
0.0
 11
2537.1391501532
 21
58.0000000059
 31
0.0
  0
LINE
  5
B0C
330
1F
100
AcDbEntity
  8
0
  6
Continuous
 62
   144
370
     0
100
AcDbLine
 10
2573.9883529052
 20
-474.9999999941
 30
0.0
 11
3124.2393880694
 21
-474.9999999941
 31
0.0
  0
LINE
  5
B0D
330
1F
100
AcDbEntity
  8
0
  6
Continuous
 62
   144
370
     0
100
AcDbLine
 10
2573.9883529052
 20
60.0000000059
 30
0.0
 11
3124.2393880694
 21
60.0000000059
 31
0.0
  0
LINE
  5
B0E
330
1F
100
AcDbEntity
  8
0
  6
Continuous
 62
     7
370
    15
100
AcDbLine
 10
3124.2393880694
 20
-474.9999999941
 30
0.0
 11
3124.2393880694
 21
60.0000000059
 31
0.0
  0
LINE
  5
B0F
330
1F
100
AcDbEntity
  8
0
  6
Continuous
 62
   144
370
     0
100
AcDbLine
 10
-860.9202746672
 20
-1040.3311175229
 30
0.0
 11
-860.3205596816
 21
-1039.6083161848
 31
0.0
  0
LINE
  5
B10
330
1F
100
AcDbEntity
  8
0
  6
Continuous
 62
   144
370
     0
100
AcDbLine
 10
-857.7529351776
 20
-1036.4947384874
 30
0.0
 11
-857.0901519022
 21
-1035.6865073582
 31
0.0
  0
LINE
  5
B11
330
1F
100
AcDbEntity
  8
0
  6
Continuous
 62
     7
370
    15
100
AcDbLine
 10
1108.2857698321
 20
-789.1591818052
 30
0.0
 11
1000.7085983275
 21
-789.1591818052
 31
0.0
  0
LINE
  5
B12
330
1F
100
AcDbEntity
  8
0
  6
Continuous
 62
     7
370
    15
100
AcDbLine
 10
1325.0000000001
 20
-1479.9999999982
 30
0.0
 11
1325.0000000001
 21
-789.1591818052
 31
0.0
  0
LINE
  5
B13
330
1F
100
AcDbEntity
  8
0
  6
Continuous
 62
     7
370
    15
100
AcDbLine
 10
-91.9999999998
 20
-1499.9999999982
 30
0.0
 11
1305.0000000001
 21
-1499.9999999982
 31
0.0
  0
LINE
  5
B14
330
1F
100
AcDbEntity
  8
0
  6
Continuous
 62
   144
370
     0
100
AcDbLine
 10
1050.7757954984
 20
-864.9856805721
 30
0.0
 11
1046.9522937293
 21
-869.6096219884
 31
0.0
  0
LINE
  5
B15
330
1F
100
AcDbEntity
  8
0
  6
Continuous
 62
   144
370
     0
100
AcDbLine
 10
1072.1560436318
 20
-906.6069468291
 30
0.0
 11
1079.4532902518
 21
-897.7820415694
 31
0.0
  0
LINE
  5
B16
330
1F
100
AcDbEntity
  8
0
  6
Continuous
 62
   144
370
     0
100
AcDbLine
 10
1079.4532902518
 20
-897.7820415694
 30
0.0
 11
1081.76526096
 21
-899.6937924539
 31
0.0
  0
LINE
  5
B17
330
1F
100
AcDbEntity
  8
0
  6
Continuous
 62
   144
370
     0
100
AcDbLine
 10
1103.3436542364
 20
-917.5368007095
 30
0.0
 11
1106.3888507684
 21
-920.0548504161
 31
0.0
  0
LINE
  5
B18
330
1F
100
AcDbEntity
  8
0
  6
Continuous
 62
   144
370
     0
100
AcDbLine
 10
1106.3888507684
 20
-920.0548504161
 30
0.0
 11
1111.486853127
 21
-913.8895951944
 31
0.0
  0
LINE
  5
B19
330
1F
100
AcDbEntity
  8
0
  6
Continuous
 62
   144
370
     0
100
AcDbLine
 10
1111.486853127
 20
-913.8895951944
 30
0.0
 11
1084.5512926104
 21
-891.6167863477
 31
0.0
  0
LINE
  5
B1A
330
1F
100
AcDbEntity
  8
0
  6
Continuous
 62
   144
370
     0
100
AcDbLine
 10
1084.5512926104
 20
-891.6167863477
 30
0.0
 11
1085.944401865
 21
-889.9320334775
 31
0.0
  0
LINE
  5
B1B
330
1F
100
AcDbEntity
  8
0
  6
Continuous
 62
   144
370
     0
100
AcDbLine
 10
1015.2840107518
 20
944.580343474
 30
0.0
 11
995.7634601846
 21
924.5067761389
 31
0.0
  0
LINE
  5
B1C
330
1F
100
AcDbEntity
  8
0
  6
Continuous
 62
     7
370
    15
100
AcDbLine
 10
1045.3004765678
 20
915.3908163198
 30
0.0
 11
1025.7799260007
 21
895.3172489847
 31
0.0
  0
LINE
  5
B1D
330
1F
100
AcDbEntity
  8
0
  6
Continuous
 62
     7
370
    15
100
AcDbLine
 10
1086.8440633886
 20
874.9917345951
 30
0.0
 11
1067.3235128215
 21
854.91816726
 31
0.0
  0
LINE
  5
B1E
330
1F
100
AcDbEntity
  8
0
  6
Continuous
 62
     7
370
    15
100
AcDbLine
 10
1125.6334739756
 20
837.2709529227
 30
0.0
 11
1106.1129234085
 21
817.1973855876
 31
0.0
  0
LINE
  5
B1F
330
1F
100
AcDbEntity
  8
0
  6
Continuous
 62
     7
370
    15
100
AcDbLine
 10
1096.1364205499
 20
-816.4059010748
 30
0.0
 11
1117.7148138263
 21
-834.2489093303
 31
0.0
  0
LINE
  5
B20
330
1F
100
AcDbEntity
  8
0
  6
Continuous
 62
     7
370
    15
100
AcDbLine
 10
1122.8174801951
 20
-784.139234501
 30
0.0
 11
1144.3958734715
 21
-801.9822427566
 31
0.0
  0
LINE
  5
B21
330
1F
100
AcDbEntity
  8
0
  6
Continuous
 62
     7
370
    15
100
AcDbLine
 10
1159.7447761877
 20
-739.4813099992
 30
0.0
 11
1181.3231694641
 21
-757.3243182548
 31
0.0
  0
LINE
  5
B22
330
1F
100
AcDbEntity
  8
0
  6
Continuous
 62
   144
370
     0
100
AcDbLine
 10
1194.2239378524
 20
-697.7840300572
 30
0.0
 11
1215.8023311288
 21
-715.6270383127
 31
0.0
  0
LINE
  5
B23
330
1F
100
AcDbEntity
  8
0
  6
Continuous
 62
     7
370
    15
100
AcDbLine
 10
1117.5772875924
 20
-777.9225101916
 30
0.0
 11
1123.7425428143
 21
-783.0205125503
 31
0.0
  0
LINE
  5
B24
330
1F
100
AcDbEntity
  8
0
  6
Continuous
 62
     7
370
    15
100
AcDbLine
 10
1145.3209360907
 20
-800.8635208059
 30
0.0
 11
1148.4035637016
 21
-803.4125219853
 31
0.0
  0
LINE
  5
B25
330
1F
100
AcDbEntity
  8
0
  6
Continuous
 62
     7
370
    15
100
AcDbLine
 10
1174.505976561
 20
-709.0759557498
 30
0.0
 11
1180.6712317828
 21
-714.1739581085
 31
0.0
  0
LINE
  5
B26
330
1F
100
AcDbEntity
  8
0
  6
Continuous
 62
     7
370
    15
100
AcDbLine
 10
1202.2496250592
 20
-732.0169663641
 30
0.0
 11
1205.3322526701
 21
-734.5659675435
 31
0.0
  0
LINE
  5
B27
330
1F
100
AcDbEntity
  8
0
  6
Continuous
 62
   144
370
     0
100
AcDbLine
 10
1285.0000000001
 20
-75.000019994
 30
0.0
 11
1285.0000000001
 21
-79.999979994
 31
0.0
  0
LINE
  5
B28
330
1F
100
AcDbEntity
  8
0
  6
Continuous
 62
   144
370
     0
100
AcDbLine
 10
1285.0000000001
 20
-220.000019994
 30
0.0
 11
1285.0000000001
 21
-224.999979994
 31
0.0
  0
LINE
  5
B29
330
1F
100
AcDbEntity
  8
0
  6
Continuous
 62
   144
370
     0
100
AcDbLine
 10
1285.0000000001
 20
-365.000019994
 30
0.0
 11
1285.0000000001
 21
-369.999979994
 31
0.0
  0
LINE
  5
B2A
330
1F
100
AcDbEntity
  8
0
  6
Continuous
 62
   144
370
     0
100
AcDbLine
 10
1285.0000000001
 20
-510.000019994
 30
0.0
 11
1285.0000000001
 21
-514.999979994
 31
0.0
  0
LINE
  5
B2B
330
1F
100
AcDbEntity
  8
0
  6
Continuous
 62
   144
370
     0
100
AcDbLine
 10
-1005.2840107515
 20
-944.5803434721
 30
0.0
 11
-985.7634601844
 21
-924.5067761371
 31
0.0
  0
LINE
  5
B2C
330
1F
100
AcDbEntity
  8
0
  6
Continuous
 62
     7
370
    15
100
AcDbLine
 10
-1115.6334739754
 20
-837.2709529208
 30
0.0
 11
-1096.1129234083
 21
-817.1973855858
 31
0.0
  0
LINE
  5
B2D
330
1F
100
AcDbEntity
  8
0
  6
Continuous
 62
   144
370
     0
100
AcDbLine
 10
1045.1696100503
 20
-787.1591818077
 30
0.0
 11
1045.1696100503
 21
-789.1591818077
 31
0.0
  0
LINE
  5
B2E
330
1F
100
AcDbEntity
  8
0
  6
Continuous
 62
     7
370
    15
100
AcDbLine
 10
1109.9395545235
 20
-787.1591818077
 30
0.0
 11
1045.1696100503
 21
-787.1591818077
 31
0.0
  0
LINE
  5
B2F
330
1F
100
AcDbEntity
  8
0
  6
PHANTOM
 62
     8
370
     0
100
AcDbLine
 10
330.3087877615
 20
1326.3430278521
 30
0.0
 11
330.451159206
 21
1327.0126078771
 31
0.0
  0
LINE
  5
B30
330
1F
100
AcDbEntity
  8
0
  6
PHANTOM
 62
     8
370
     0
100
AcDbLine
 10
510.8383319198
 20
-1288.6576643697
 30
0.0
 11
511.0607839575
 21
-1289.3620317702
 31
0.0
  0
LINE
  5
B31
330
1F
100
AcDbEntity
  8
0
  6
PHANTOM
 62
     8
370
     0
100
AcDbLine
 10
2934.4901938086
 20
89.5000000059
 30
0.0
 11
2934.4901938086
 21
62.5000000059
 31
0.0
  0
LINE
  5
B32
330
1F
100
AcDbEntity
  8
0
  6
PHANTOM
 62
     8
370
     0
100
AcDbLine
 10
3060.7393880694
 20
89.5000000059
 30
0.0
 11
3060.7393880694
 21
62.5000000059
 31
0.0
  0
LINE
  5
B33
330
1F
100
AcDbEntity
  8
0
  6
PHANTOM
 62
     8
370
     0
100
AcDbLine
 10
2934.4901938086
 20
-477.4999999941
 30
0.0
 11
2934.4901938086
 21
-504.4999999941
 31
0.0
  0
LINE
  5
B34
330
1F
100
AcDbEntity
  8
0
  6
PHANTOM
 62
     8
370
     0
100
AcDbLine
 10
3060.7393880694
 20
-477.4999999941
 30
0.0
 11
3060.7393880694
 21
-504.4999999941
 31
0.0
  0
LINE
  5
B35
330
1F
100
AcDbEntity
  8
0
  6
PHANTOM
 62
     8
370
     0
100
AcDbLine
 10
1146.1861749601
 20
817.2844685992
 30
0.0
 11
1126.6656243929
 21
797.2109012642
 31
0.0
  0
LINE
  5
B36
330
1F
100
AcDbEntity
  8
0
  6
PHANTOM
 62
     8
370
     0
100
AcDbLine
 10
1212.4928388015
 20
-675.6905846156
 30
0.0
 11
1234.0712320779
 21
-693.5335928712
 31
0.0
  0
LINE
  5
B37
330
1F
100
AcDbEntity
  8
0
  6
PHANTOM
 62
     8
370
     0
100
AcDbLine
 10
1233.6412814138
 20
65.0000000059
 30
0.0
 11
1233.6412814138
 21
71.0000000059
 31
0.0
  0
LINE
  5
B38
330
1F
100
AcDbEntity
  8
0
  6
PHANTOM
 62
     8
370
     0
100
AcDbLine
 10
1226.5104977358
 20
105.0000000059
 30
0.0
 11
1226.5104977358
 21
107.0000000059
 31
0.0
  0
LINE
  5
B39
330
1F
100
AcDbEntity
  8
0
  6
PHANTOM
 62
     8
370
     0
100
AcDbLine
 10
853.6661387449
 20
-1104.9323992701
 30
0.0
 11
854.4617966747
 21
-1105.8970488273
 31
0.0
  0
LINE
  5
B3A
330
1F
100
AcDbEntity
  8
0
  6
PHANTOM
 62
     8
370
     0
100
AcDbLine
 10
216.5099554859
 20
-1360.348544668
 30
0.0
 11
216.7079095393
 21
-1361.4334229975
 31
0.0
  0
LINE
  5
B3B
330
1F
100
AcDbEntity
  8
0
  6
PHANTOM
 62
     8
370
     0
100
AcDbLine
 10
372.0950909048
 20
1314.8040644532
 30
0.0
 11
372.5458667681
 21
1316.1133069811
 31
0.0
  0
LINE
  5
B3C
330
1F
100
AcDbEntity
  8
0
  6
PHANTOM
 62
     8
370
     0
100
AcDbLine
 10
-488.7725699767
 20
-1271.247404927
 30
0.0
 11
-489.2052615841
 21
-1272.5041231767
 31
0.0
  0
LINE
  5
B3D
330
1F
100
AcDbEntity
  8
0
  6
PHANTOM
 62
     8
370
     0
100
AcDbLine
 10
907.5799451531
 20
1049.3172157852
 30
0.0
 11
888.059394586
 21
1029.2436484501
 31
0.0
  0
LINE
  5
B3E
330
1F
100
AcDbEntity
  8
0
  6
PHANTOM
 62
     8
370
     0
100
AcDbLine
 10
1116.9053491094
 20
787.1741175966
 30
0.0
 11
1097.3847985422
 21
767.1005502615
 31
0.0
  0
LINE
  5
B3F
330
1F
100
AcDbEntity
  8
0
  6
PHANTOM
 62
     8
370
     0
100
AcDbLine
 10
702.7531837603
 20
1195.4960739966
 30
0.0
 11
699.9645336793
 21
1192.6284215201
 31
0.0
  0
LINE
  5
B40
330
1F
100
AcDbEntity
  8
0
  6
PHANTOM
 62
     8
370
     0
100
AcDbLine
 10
878.300014502
 20
1019.2059942453
 30
0.0
 11
858.7794639349
 21
999.1324269102
 31
0.0
  0
LINE
  5
B41
330
1F
100
AcDbEntity
  8
0
  6
PHANTOM
 62
     8
370
     0
100
AcDbLine
 10
-542.6042682538
 20
1272.6633889732
 30
0.0
 11
-543.4733199505
 21
1274.5380204529
 31
0.0
  0
LINE
  5
B42
330
1F
100
AcDbEntity
  8
0
  6
PHANTOM
 62
     8
370
     0
100
AcDbLine
 10
1032.7687320009
 20
-958.9476108636
 30
0.0
 11
1054.3471252773
 21
-976.7906191192
 31
0.0
  0
LINE
  5
B43
330
1F
100
AcDbEntity
  8
0
  6
PHANTOM
 62
     8
370
     0
100
AcDbLine
 10
-990.395165276
 20
-906.053980614
 30
0.0
 11
-987.606515195
 21
-903.1863281376
 31
0.0
  0
LINE
  5
B44
330
1F
100
AcDbEntity
  8
0
  6
PHANTOM
 62
     8
370
     0
100
AcDbLine
 10
562.0753333379
 20
1246.7177507399
 30
0.0
 11
561.202950174
 21
1244.9180430927
 31
0.0
  0
LINE
  5
B45
330
1F
100
AcDbEntity
  8
0
  6
PHANTOM
 62
     8
370
     0
100
AcDbLine
 10
55.2041249306
 20
1371.5596792233
 30
0.0
 11
55.0305062709
 21
1369.5672293341
 31
0.0
  0
LINE
  5
B46
330
1F
100
AcDbEntity
  8
0
  6
PHANTOM
 62
     8
370
     0
100
AcDbLine
 10
2069.1809913815
 20
58.0000000059
 30
0.0
 11
2537.1391501532
 21
58.0000000059
 31
0.0
  0
LINE
  5
B47
330
1F
100
AcDbEntity
  8
0
  6
PHANTOM
 62
     8
370
     0
100
AcDbLine
 10
2537.1391501532
 20
-472.9999999941
 30
0.0
 11
2069.1809913815
 21
-472.9999999941
 31
0.0
  0
LINE
  5
B48
330
1F
100
AcDbEntity
  8
0
  6
PHANTOM
 62
     8
370
     0
100
AcDbLine
 10
2067.0261762178
 20
-474.9999999941
 30
0.0
 11
2067.0261762178
 21
60.0000000059
 31
0.0
  0
LINE
  5
B49
330
1F
100
AcDbEntity
  8
0
  6
PHANTOM
 62
     8
370
     0
100
AcDbLine
 10
2814.1868140497
 20
-474.9999999941
 30
0.0
 11
2814.1868140497
 21
60.0000000059
 31
0.0
  0
LINE
  5
B4A
330
1F
100
AcDbEntity
  8
0
  6
PHANTOM
 62
     8
370
     0
100
AcDbLine
 10
3060.7393880694
 20
-474.9999999941
 30
0.0
 11
3060.7393880694
 21
60.0000000059
 31
0.0
  0
ARC
  5
B4B
330
1F
100
AcDbEntity
  8
0
  6
Continuous
 62
     7
370
    15
100
AcDbCircle
 10
666.5056233507
 20
1284.447494843
 30
0.0
 40
1.000000000002458
100
AcDbArc
 50
45.8002064021
 51
135.800206402
  0
ARC
  5
B4C
330
1F
100
AcDbEntity
  8
0
  6
Continuous
 62
     7
370
    15
100
AcDbCircle
 10
660.2684792144
 20
1290.5128087693
 30
0.0
 40
0.9999999999996214
100
AcDbArc
 50
315.8002064019
 51
45.800206402
  0
ARC
  5
B4D
330
1F
100
AcDbEntity
  8
0
  6
Continuous
 62
     7
370
    15
100
AcDbCircle
 10
987.4426179973
 20
-1005.1354707742
 30
0.0
 40
6.25000000000021
100
AcDbArc
 50
235.0861584787
 51
292.0100566764
  0
ARC
  5
B4E
330
1F
100
AcDbEntity
  8
0
  6
Continuous
 62
     7
370
    15
100
AcDbCircle
 10
-957.8419836684
 20
-886.1001793977
 30
0.0
 40
9.000000000001453
100
AcDbArc
 50
61.9278266152
 51
96.857765133
  0
ARC
  5
B4F
330
1F
100
AcDbEntity
  8
0
  6
Continuous
 62
     7
370
    15
100
AcDbCircle
 10
-957.8419836684
 20
-886.1001793977
 30
0.0
 40
8.99999999999427
100
AcDbArc
 50
354.742647671
 51
29.6725861889
  0
ARC
  5
B50
330
1F
100
AcDbEntity
  8
0
  6
Continuous
 62
     7
370
    15
100
AcDbCircle
 10
952.6373845951
 20
-971.1440273241
 30
0.0
 40
8.999999999994975
100
AcDbArc
 50
151.8053354352
 51
186.7352739531
  0
ARC
  5
B51
330
1F
100
AcDbEntity
  8
0
  6
Continuous
 62
     7
370
    15
100
AcDbCircle
 10
952.6373845951
 20
-971.1440273241
 30
0.0
 40
9.00000000000709
100
AcDbArc
 50
84.620156491
 51
119.5500950089
  0
ARC
  5
B52
330
1F
100
AcDbEntity
  8
0
  6
Continuous
 62
     7
370
    15
100
AcDbCircle
 10
1355.0
 20
1480.0
 30
0.0
 40
19.99999999999977
100
AcDbArc
 50
0.0
 51
90.0
  0
ARC
  5
B53
330
1F
100
AcDbEntity
  8
0
  6
Continuous
 62
   144
370
     0
100
AcDbCircle
 10
108.0
 20
1113.3275738162
 30
0.0
 40
3.000000000000298
100
AcDbArc
 50
180.0
 51
248.2260533714
  0
ARC
  5
B54
330
1F
100
AcDbEntity
  8
0
  6
Continuous
 62
   144
370
     0
100
AcDbCircle
 10
1079.877398802
 20
126.6074121115
 30
0.0
 40
20.00000000000006
100
AcDbArc
 50
200.0414456605
 51
270.0
  0
ARC
  5
B55
330
1F
100
AcDbEntity
  8
0
  6
Continuous
 62
   144
370
     0
100
AcDbCircle
 10
1355.0
 20
126.6074121115
 30
0.0
 40
19.99999999999958
100
AcDbArc
 50
281.3711415651
 51
0.0
  0
ARC
  5
B56
330
1F
100
AcDbEntity
  8
0
  6
Continuous
 62
   144
370
     0
100
AcDbCircle
 10
108.0
 20
1497.0
 30
0.0
 40
3.000000000000071
100
AcDbArc
 50
90.0
 51
180.0
  0
ARC
  5
B57
330
1F
100
AcDbEntity
  8
0
  6
Continuous
 62
   144
370
     0
100
AcDbCircle
 10
-1344.9999999998
 20
-1479.9999999982
 30
0.0
 40
19.99999999999955
100
AcDbArc
 50
180.0
 51
270.0
  0
ARC
  5
B58
330
1F
100
AcDbEntity
  8
0
  6
Continuous
 62
     7
370
    15
100
AcDbCircle
 10
-1344.9999999998
 20
-119.9999999982
 30
0.0
 40
20.00000000000182
100
AcDbArc
 50
90.0
 51
180.0
  0
ARC
  5
B59
330
1F
100
AcDbEntity
  8
0
  6
Continuous
 62
     7
370
    15
100
AcDbCircle
 10
-1072.2700955847
 20
-119.9999999982
 30
0.0
 40
19.9999999999946
100
AcDbArc
 50
19.7713406454
 51
90.0
  0
ARC
  5
B5A
330
1F
100
AcDbEntity
  8
0
  6
Continuous
 62
   144
370
     0
100
AcDbCircle
 10
-97.9999999998
 20
-1113.3275738144
 30
0.0
 40
3.00000000000118
100
AcDbArc
 50
0.0
 51
68.2260533714
  0
ARC
  5
B5B
330
1F
100
AcDbEntity
  8
0
  6
Continuous
 62
   144
370
     0
100
AcDbCircle
 10
-97.9999999998
 20
-1496.9999999982
 30
0.0
 40
2.999999999999176
100
AcDbArc
 50
270.0
 51
0.0
  0
ARC
  5
B5C
330
1F
100
AcDbEntity
  8
0
  6
Continuous
 62
     7
370
    15
100
AcDbCircle
 10
2045.1209332854
 20
88.0000000059
 30
0.0
 40
17.00000000000004
100
AcDbArc
 50
270.0
 51
90.0
  0
ARC
  5
B5D
330
1F
100
AcDbEntity
  8
0
  6
Continuous
 62
     7
370
    15
100
AcDbCircle
 10
1142.1209332854
 20
88.0000000059
 30
0.0
 40
17.00000000000004
100
AcDbArc
 50
90.0
 51
270.0
  0
ARC
  5
B5E
330
1F
100
AcDbEntity
  8
0
  6
Continuous
 62
     7
370
    15
100
AcDbCircle
 10
2056.1097342137
 20
-1168.4672453796
 30
0.0
 40
6.902190742739777
100
AcDbArc
 50
294.755451855
 51
356.6315112819
  0
ARC
  5
B5F
330
1F
100
AcDbEntity
  8
0
  6
Continuous
 62
   144
370
     0
100
AcDbCircle
 10
2056.0070644538
 20
-890.8367936211
 30
0.0
 40
7.009090574500022
100
AcDbArc
 50
3.8908465693
 51
64.7221902939
  0
ARC
  5
B60
330
1F
100
AcDbEntity
  8
0
  6
Continuous
 62
   144
370
     0
100
AcDbCircle
 10
2570.0532380546
 20
79.6948493823
 30
0.0
 40
501.9176979784637
100
AcDbArc
 50
178.8806342362
 51
180.4217846634
  0
ARC
  5
B61
330
1F
100
AcDbEntity
  8
0
  6
Continuous
 62
   144
370
     0
100
AcDbCircle
 10
2675.1762645039
 20
72.9450995312
 30
0.0
 40
607.0348114284793
100
AcDbArc
 50
179.7116579814
 51
180.9859231189
  0
ARC
  5
B62
330
1F
100
AcDbEntity
  8
0
  6
Continuous
 62
     7
370
    15
100
AcDbCircle
 10
3124.2393880694
 20
76.0000000059
 30
0.0
 40
13.50000000000002
100
AcDbArc
 50
270.0
 51
90.0
  0
ARC
  5
B63
330
1F
100
AcDbEntity
  8
0
  6
Continuous
 62
   144
370
     0
100
AcDbCircle
 10
2570.0532380546
 20
-487.3051506178
 30
0.0
 40
501.9176979784683
100
AcDbArc
 50
178.8806342362
 51
180.4217846634
  0
ARC
  5
B64
330
1F
100
AcDbEntity
  8
0
  6
Continuous
 62
   144
370
     0
100
AcDbCircle
 10
2675.1762645039
 20
-494.0549004688
 30
0.0
 40
607.0348114284716
100
AcDbArc
 50
179.7116579814
 51
180.9859231189
  0
ARC
  5
B65
330
1F
100
AcDbEntity
  8
0
  6
Continuous
 62
     7
370
    15
100
AcDbCircle
 10
3124.2393880694
 20
-490.9999999941
 30
0.0
 40
13.50000000000011
100
AcDbArc
 50
270.0
 51
90.0
  0
ARC
  5
B66
330
1F
100
AcDbEntity
  8
0
  6
Continuous
 62
   144
370
     0
100
AcDbCircle
 10
102.0
 20
1115.7082549922
 30
0.0
 40
2.999999999999986
100
AcDbArc
 50
248.4897558571
 51
0.0
  0
ARC
  5
B67
330
1F
100
AcDbEntity
  8
0
  6
Continuous
 62
   144
370
     0
100
AcDbCircle
 10
-1023.6594515874
 20
720.0
 30
0.0
 40
20.00000000000814
100
AcDbArc
 50
270.0
 51
343.2331863938
  0
ARC
  5
B68
330
1F
100
AcDbEntity
  8
0
  6
Continuous
 62
   144
370
     0
100
AcDbCircle
 10
-1345.0
 20
720.0
 30
0.0
 40
20.00000000000023
100
AcDbArc
 50
180.0
 51
270.0
  0
ARC
  5
B69
330
1F
100
AcDbEntity
  8
0
  6
Continuous
 62
   144
370
     0
100
AcDbCircle
 10
-1345.0
 20
1480.0
 30
0.0
 40
20.0
100
AcDbArc
 50
90.0
 51
180.0
  0
ARC
  5
B6A
330
1F
100
AcDbEntity
  8
0
  6
Continuous
 62
   144
370
     0
100
AcDbCircle
 10
102.0
 20
1497.0
 30
0.0
 40
3.0
100
AcDbArc
 50
0.0
 51
90.0
  0
ARC
  5
B6B
330
1F
100
AcDbEntity
  8
0
  6
Continuous
 62
     7
370
    15
100
AcDbCircle
 10
2042.0000000001
 20
-501.1769252883
 30
0.0
 40
17.0
100
AcDbArc
 50
0.0
 51
180.0
  0
ARC
  5
B6C
330
1F
100
AcDbEntity
  8
0
  6
Continuous
 62
     7
370
    15
100
AcDbCircle
 10
2042.0000000001
 20
-1191.1769252883
 30
0.0
 40
17.00000000000023
100
AcDbArc
 50
180.0
 51
0.0
  0
ARC
  5
B6D
330
1F
100
AcDbEntity
  8
0
  6
Continuous
 62
   144
370
     0
100
AcDbCircle
 10
2055.9818967711
 20
-845.6251299935
 30
0.0
 40
7.036268981713863
100
AcDbArc
 50
295.400002296
 51
355.8819976285
  0
ARC
  5
B6E
330
1F
100
AcDbEntity
  8
0
  6
Continuous
 62
   144
370
     0
100
AcDbCircle
 10
2053.0000000001
 20
-526.1761068858
 30
0.0
 40
10.00000000000045
100
AcDbArc
 50
0.0
 51
53.1301023541
  0
ARC
  5
B6F
330
1F
100
AcDbEntity
  8
0
  6
Continuous
 62
   144
370
     0
100
AcDbCircle
 10
1624.2393880694
 20
1500.0
 30
0.0
 40
1500.000000000002
100
AcDbArc
 50
0.0
 51
90.0
  0
ARC
  5
B70
330
1F
100
AcDbEntity
  8
0
  6
Continuous
 62
   144
370
     0
100
AcDbCircle
 10
-1365.0
 20
1500.0
 30
0.0
 40
1500.000000000003
100
AcDbArc
 50
90.0
 51
180.0
  0
ARC
  5
B71
330
1F
100
AcDbEntity
  8
0
  6
Continuous
 62
   144
370
     0
100
AcDbCircle
 10
-1365.0
 20
-1499.9999999982
 30
0.0
 40
1500.000000000002
100
AcDbArc
 50
180.0
 51
270.0
  0
ARC
  5
B72
330
1F
100
AcDbEntity
  8
0
  6
Continuous
 62
   144
370
     0
100
AcDbCircle
 10
2057.9888662695
 20
-1499.9999999982
 30
0.0
 40
1499.999999999991
100
AcDbArc
 50
270.0
 51
0.8638548484
  0
ARC
  5
B73
330
1F
100
AcDbEntity
  8
0
  6
Continuous
 62
   144
370
     0
100
AcDbCircle
 10
3624.2393880694
 20
-481.1168209575
 30
0.0
 40
999.9999999999991
100
AcDbArc
 50
270.0
 51
0.0
  0
ARC
  5
B74
330
1F
100
AcDbEntity
  8
0
  6
Continuous
 62
   144
370
     0
100
AcDbCircle
 10
3624.2393880694
 20
112.8831790425
 30
0.0
 40
999.9999999999989
100
AcDbArc
 50
0.0
 51
90.0
  0
ARC
  5
B75
330
1F
100
AcDbEntity
  8
0
  6
Continuous
 62
     7
370
    15
100
AcDbCircle
 10
3100.2393880693
 20
-526.4999999941
 30
0.0
 40
18.00000000000045
100
AcDbArc
 50
180.0
 51
360.0
  0
ARC
  5
B76
330
1F
100
AcDbEntity
  8
0
  6
Continuous
 62
   144
370
     0
100
AcDbCircle
 10
3100.2393880693
 20
111.5000000059
 30
0.0
 40
18.00000000000045
100
AcDbArc
 50
0.0
 51
180.0
  0
ARC
  5
B77
330
1F
100
AcDbEntity
  8
0
  6
Continuous
 62
   144
370
     0
100
AcDbCircle
 10
-955.4512979446
 20
-885.4347478153
 30
0.0
 40
6.502007863626462
100
AcDbArc
 50
34.7161844501
 51
56.8842283539
  0
ARC
  5
B78
330
1F
100
AcDbEntity
  8
0
  6
Continuous
 62
   144
370
     0
100
AcDbCircle
 10
-957.2435807424
 20
-883.6918415147
 30
0.0
 40
6.502007863608729
100
AcDbArc
 50
34.7161844501
 51
56.884228354
  0
ARC
  5
B79
330
1F
100
AcDbEntity
  8
0
  6
Continuous
 62
   144
370
     0
100
AcDbCircle
 10
950.2303315251
 20
-970.5404770457
 30
0.0
 40
6.502007863589907
100
AcDbArc
 50
124.5936932701
 51
146.7617371741
  0
ARC
  5
B7A
330
1F
100
AcDbEntity
  8
0
  6
Continuous
 62
   144
370
     0
100
AcDbCircle
 10
951.9770655153
 20
-968.7519244556
 30
0.0
 40
6.502007863611791
100
AcDbArc
 50
124.5936932701
 51
146.761737174
  0
ARC
  5
B7B
330
1F
100
AcDbEntity
  8
0
  6
Continuous
 62
   144
370
     0
100
AcDbCircle
 10
2072.555449114
 20
-473.789329992
 30
0.0
 40
4.483659442890731
100
AcDbArc
 50
195.6653545032
 51
221.1828176423
  0
ARC
  5
B7C
330
1F
100
AcDbEntity
  8
0
  6
Continuous
 62
   144
370
     0
100
AcDbCircle
 10
2038.2313228643
 20
-464.9999999941
 30
0.0
 40
10.00000000000114
100
AcDbArc
 50
180.0
 51
270.0
  0
ARC
  5
B7D
330
1F
100
AcDbEntity
  8
0
  6
Continuous
 62
   144
370
     0
100
AcDbCircle
 10
2038.2313228643
 20
50.0000000059
 30
0.0
 40
9.999999999999773
100
AcDbArc
 50
90.0
 51
180.0
  0
ARC
  5
B7E
330
1F
100
AcDbEntity
  8
0
  6
Continuous
 62
   144
370
     0
100
AcDbCircle
 10
-91.9999999998
 20
-1115.7082549904
 30
0.0
 40
2.999999999999673
100
AcDbArc
 50
68.4897558571
 51
180.0
  0
ARC
  5
B7F
330
1F
100
AcDbEntity
  8
0
  6
Continuous
 62
     7
370
    15
100
AcDbCircle
 10
1000.7085983275
 20
-809.1591818052
 30
0.0
 40
20.00000000000136
100
AcDbArc
 50
90.0
 51
156.1017422057
  0
ARC
  5
B80
330
1F
100
AcDbEntity
  8
0
  6
Continuous
 62
     7
370
    15
100
AcDbCircle
 10
1305.0000000001
 20
-1479.9999999982
 30
0.0
 40
20.00000000000023
100
AcDbArc
 50
270.0
 51
0.0
  0
ARC
  5
B81
330
1F
100
AcDbEntity
  8
0
  6
Continuous
 62
   144
370
     0
100
AcDbCircle
 10
-91.9999999998
 20
-1496.9999999982
 30
0.0
 40
2.999999999998408
100
AcDbArc
 50
180.0
 51
270.0
  0
ENDSEC
  0
SECTION
  2
OBJECTS
  0
DICTIONARY
  5
C
330
0
100
AcDbDictionary
281
     1
  3
ACAD_GROUP
350
D
  3
ACAD_LAYOUT
350
1A
  3
ACAD_MLINESTYLE
350
17
  3
ACAD_PLOTSETTINGS
350
19
  3
ACAD_PLOTSTYLENAME
350
E
  3
ACAD_SCALELIST
350
47
  0
DICTIONARY
  5
D
102
{ACAD_REACTORS
330
C
102
}
330
C
100
AcDbDictionary
281
     1
  0
DICTIONARY
  5
1A
102
{ACAD_REACTORS
330
C
102
}
330
C
100
AcDbDictionary
281
     1
  3
Layout1
350
1E
  3
Layout2
350
26
  3
Model
350
22
  0
DICTIONARY
  5
17
102
{ACAD_REACTORS
330
C
102
}
330
C
100
AcDbDictionary
281
     1
  3
Standard
350
18
  0
DICTIONARY
  5
19
102
{ACAD_REACTORS
330
C
102
}
330
C
100
AcDbDictionary
281
     1
  0
ACDBDICTIONARYWDFLT
  5
E
102
{ACAD_REACTORS
330
C
102
}
330
C
100
AcDbDictionary
281
     1
  3
Normal
350
F
100
AcDbDictionaryWithDefault
340
F
  0
DICTIONARY
  5
47
102
{ACAD_REACTORS
330
C
102
}
330
C
100
AcDbDictionary
281
     1
  3
A0
350
48
  3
A1
350
49
  3
A2
350
4A
  3
A3
350
4B
  3
A4
350
4C
  3
A5
350
4D
  3
A6
350
4E
  3
A7
350
4F
  3
A8
350
50
  3
A9
350
51
  3
B0
350
52
  3
B1
350
53
  3
B2
350
54
  3
B3
350
55
  3
B4
350
56
  3
B5
350
57
  3
B6
350
58
  3
B7
350
59
  3
B8
350
5A
  3
B9
350
5B
  3
C0
350
5C
  3
C1
350
5D
  3
C2
350
5E
  3
C3
350
5F
  3
C4
350
60
  3
C5
350
61
  3
C6
350
62
  3
C7
350
63
  3
C8
350
64
  3
C9
350
65
  3
D0
350
66
  3
D1
350
67
  3
D2
350
68
  0
LAYOUT
  5
1E
102
{ACAD_REACTORS
330
1A
102
}
330
1A
100
AcDbPlotSettings
  1

  2
none_device
  4

  6

 40
0.0
 41
0.0
 42
0.0
 43
0.0
 44
0.0
 45
0.0
 46
0.0
 47
0.0
 48
0.0
 49
0.0
140
0.0
141
0.0
142
1.0
143
1.0
 70
   688
 72
     1
 73
     0
 74
     5
  7

 75
    16
147
1.0
148
0.0
149
0.0
100
AcDbLayout
  1
Layout1
 70
     1
 71
     1
 10
0.0
 20
0.0
 11
420.0
 21
297.0
 12
0.0
 22
0.0
 32
0.0
 14
1.0000000000E+20
 24
1.0000000000E+20
 34
1.0000000000E+20
 15
-1.0000000000E+20
 25
-1.0000000000E+20
 35
-1.0000000000E+20
146
0.0
 13
0.0
 23
0.0
 33
0.0
 16
1.0
 26
0.0
 36
0.0
 17
0.0
 27
1.0
 37
0.0
 76
     0
330
1B
  0
LAYOUT
  5
26
102
{ACAD_REACTORS
330
1A
102
}
330
1A
100
AcDbPlotSettings
  1

  2
none_device
  4

  6

 40
0.0
 41
0.0
 42
0.0
 43
0.0
 44
0.0
 45
0.0
 46
0.0
 47
0.0
 48
0.0
 49
0.0
140
0.0
141
0.0
142
1.0
143
1.0
 70
   688
 72
     1
 73
     0
 74
     5
  7

 75
    16
147
1.0
148
0.0
149
0.0
100
AcDbLayout
  1
Layout2
 70
     1
 71
     2
 10
0.0
 20
0.0
 11
0.0
 21
0.0
 12
0.0
 22
0.0
 32
0.0
 14
0.0
 24
0.0
 34
0.0
 15
0.0
 25
0.0
 35
0.0
146
0.0
 13
0.0
 23
0.0
 33
0.0
 16
1.0
 26
0.0
 36
0.0
 17
0.0
 27
1.0
 37
0.0
 76
     0
330
23
  0
LAYOUT
  5
22
102
{ACAD_REACTORS
330
1A
102
}
330
1A
100
AcDbPlotSettings
  1

  2
none_device
  4
ANSI_A_(11.00_x_8.50_Inches)
  6

 40
6.35
 41
19.05
 42
6.35000508
 43
19.05000254
 44
279.4
 45
215.9
 46
102.0148652895
 47
88.89999873
 48
0.0
 49
0.0
140
0.0
141
0.0
142
0.0014025
143
1.0
 70
  1696
 72
     0
 73
     0
 74
     0
  7

 75
     0
147
0.0179189148
148
-1300.4909072572
149
0.0
100
AcDbLayout
  1
Model
 70
     1
 71
     0
 10
0.0
 20
0.0
 11
420.0
 21
297.0
 12
0.0
 22
0.0
 32
0.0
 14
-2865.0
 24
-2999.9999999982
 34
0.0
 15
4624.2393880694
 25
3000.0
 35
0.0
146
0.0
 13
0.0
 23
0.0
 33
0.0
 16
1.0
 26
0.0
 36
0.0
 17
0.0
 27
1.0
 37
0.0
 76
     0
330
1F
331
29
  0
MLINESTYLE
  5
18
102
{ACAD_REACTORS
330
17
102
}
330
17
100
AcDbMlineStyle
  2
Standard
 70
     0
  3

 62
   256
 51
90.0
 52
90.0
 71
     2
 49
0.5
 62
   256
  6
BYLAYER
 49
-0.5
 62
   256
  6
BYLAYER
  0
ACDBPLACEHOLDER
  5
F
102
{ACAD_REACTORS
330
E
102
}
330
E
  0
SCALE
  5
48
102
{ACAD_REACTORS
330
47
102
}
330
47
100
AcDbScale
 70
     0
300
1:1
140
1.0
141
1.0
290
     1
  0
SCALE
  5
49
102
{ACAD_REACTORS
330
47
102
}
330
47
100
AcDbScale
 70
     0
300
1:2
140
1.0
141
2.0
290
     0
  0
SCALE
  5
4A
102
{ACAD_REACTORS
330
47
102
}
330
47
100
AcDbScale
 70
     0
300
1:4
140
1.0
141
4.0
290
     0
  0
SCALE
  5
4B
102
{ACAD_REACTORS
330
47
102
}
330
47
100
AcDbScale
 70
     0
300
1:5
140
1.0
141
5.0
290
     0
  0
SCALE
  5
4C
102
{ACAD_REACTORS
330
47
102
}
330
47
100
AcDbScale
 70
     0
300
1:8
140
1.0
141
8.0
290
     0
  0
SCALE
  5
4D
102
{ACAD_REACTORS
330
47
102
}
330
47
100
AcDbScale
 70
     0
300
1:10
140
1.0
141
10.0
290
     0
  0
SCALE
  5
4E
102
{ACAD_REACTORS
330
47
102
}
330
47
100
AcDbScale
 70
     0
300
1:16
140
1.0
141
16.0
290
     0
  0
SCALE
  5
4F
102
{ACAD_REACTORS
330
47
102
}
330
47
100
AcDbScale
 70
     0
300
1:20
140
1.0
141
20.0
290
     0
  0
SCALE
  5
50
102
{ACAD_REACTORS
330
47
102
}
330
47
100
AcDbScale
 70
     0
300
1:30
140
1.0
141
30.0
290
     0
  0
SCALE
  5
51
102
{ACAD_REACTORS
330
47
102
}
330
47
100
AcDbScale
 70
     0
300
1:40
140
1.0
141
40.0
290
     0
  0
SCALE
  5
52
102
{ACAD_REACTORS
330
47
102
}
330
47
100
AcDbScale
 70
     0
300
1:50
140
1.0
141
50.0
290
     0
  0
SCALE
  5
53
102
{ACAD_REACTORS
330
47
102
}
330
47
100
AcDbScale
 70
     0
300
1:100
140
1.0
141
100.0
290
     0
  0
SCALE
  5
54
102
{ACAD_REACTORS
330
47
102
}
330
47
100
AcDbScale
 70
     0
300
2:1
140
2.0
141
1.0
290
     0
  0
SCALE
  5
55
102
{ACAD_REACTORS
330
47
102
}
330
47
100
AcDbScale
 70
     0
300
4:1
140
4.0
141
1.0
290
     0
  0
SCALE
  5
56
102
{ACAD_REACTORS
330
47
102
}
330
47
100
AcDbScale
 70
     0
300
8:1
140
8.0
141
1.0
290
     0
  0
SCALE
  5
57
102
{ACAD_REACTORS
330
47
102
}
330
47
100
AcDbScale
 70
     0
300
10:1
140
10.0
141
1.0
290
     0
  0
SCALE
  5
58
102
{ACAD_REACTORS
330
47
102
}
330
47
100
AcDbScale
 70
     0
300
100:1
140
100.0
141
1.0
290
     0
  0
SCALE
  5
59
102
{ACAD_REACTORS
330
47
102
}
330
47
100
AcDbScale
 70
     0
300
1/128" = 1'-0"
140
0.0078125
141
12.0
290
     0
  0
SCALE
  5
5A
102
{ACAD_REACTORS
330
47
102
}
330
47
100
AcDbScale
 70
     0
300
1/64" = 1'-0"
140
0.015625
141
12.0
290
     0
  0
SCALE
  5
5B
102
{ACAD_REACTORS
330
47
102
}
330
47
100
AcDbScale
 70
     0
300
1/32" = 1'-0"
140
0.03125
141
12.0
290
     0
  0
SCALE
  5
5C
102
{ACAD_REACTORS
330
47
102
}
330
47
100
AcDbScale
 70
     0
300
1/16" = 1'-0"
140
0.0625
141
12.0
290
     0
  0
SCALE
  5
5D
102
{ACAD_REACTORS
330
47
102
}
330
47
100
AcDbScale
 70
     0
300
3/32" = 1'-0"
140
0.09375
141
12.0
290
     0
  0
SCALE
  5
5E
102
{ACAD_REACTORS
330
47
102
}
330
47
100
AcDbScale
 70
     0
300
1/8" = 1'-0"
140
0.125
141
12.0
290
     0
  0
SCALE
  5
5F
102
{ACAD_REACTORS
330
47
102
}
330
47
100
AcDbScale
 70
     0
300
3/16" = 1'-0"
140
0.1875
141
12.0
290
     0
  0
SCALE
  5
60
102
{ACAD_REACTORS
330
47
102
}
330
47
100
AcDbScale
 70
     0
300
1/4" = 1'-0"
140
0.25
141
12.0
290
     0
  0
SCALE
  5
61
102
{ACAD_REACTORS
330
47
102
}
330
47
100
AcDbScale
 70
     0
300
3/8" = 1'-0"
140
0.375
141
12.0
290
     0
  0
SCALE
  5
62
102
{ACAD_REACTORS
330
47
102
}
330
47
100
AcDbScale
 70
     0
300
1/2" = 1'-0"
140
0.5
141
12.0
290
     0
  0
SCALE
  5
63
102
{ACAD_REACTORS
330
47
102
}
330
47
100
AcDbScale
 70
     0
300
3/4" = 1'-0"
140
0.75
141
12.0
290
     0
  0
SCALE
  5
64
102
{ACAD_REACTORS
330
47
102
}
330
47
100
AcDbScale
 70
     0
300
1" = 1'-0"
140
1.0
141
12.0
290
     0
  0
SCALE
  5
65
102
{ACAD_REACTORS
330
47
102
}
330
47
100
AcDbScale
 70
     0
300
1-1/2" = 1'-0"
140
1.5
141
12.0
290
     0
  0
SCALE
  5
66
102
{ACAD_REACTORS
330
47
102
}
330
47
100
AcDbScale
 70
     0
300
3" = 1'-0"
140
3.0
141
12.0
290
     0
  0
SCALE
  5
67
102
{ACAD_REACTORS
330
47
102
}
330
47
100
AcDbScale
 70
     0
300
6" = 1'-0"
140
6.0
141
12.0
290
     0
  0
SCALE
  5
68
102
{ACAD_REACTORS
330
47
102
}
330
47
100
AcDbScale
 70
     0
300
1'-0" = 1'-0"
140
12.0
141
12.0
290
     0
  0
ENDSEC
  0
EOF
