  0
SECTION
  2
HEADER
  9
$ACADVER
  1
AC1015
  9
$ACADMAINTVER
 70
     6
  9
$DWGCODEPAGE
  3
ANSI_1251
  9
$INSBASE
 10
0.0
 20
0.0
 30
0.0
  9
$EXTMIN
 10
175.6177431469
 20
-1485.9105982798
 30
0.0
  9
$EXTMAX
 10
938.0096475654
 20
366.0894017202
 30
0.0
  9
$LIMMIN
 10
0.0
 20
0.0
  9
$LIMMAX
 10
420.0
 20
297.0
  9
$ORTHOMODE
 70
     0
  9
$REGENMODE
 70
     1
  9
$FILLMODE
 70
     1
  9
$QTEXTMODE
 70
     0
  9
$MIRRTEXT
 70
     1
  9
$LTSCALE
 40
1.0
  9
$ATTMODE
 70
     1
  9
$TEXTSIZE
 40
3.0
  9
$TRACEWID
 40
1.0
  9
$TEXTSTYLE
  7
Standard
  9
$CLAYER
  8
0
  9
$CELTYPE
  6
ByLayer
  9
$CECOLOR
 62
   256
  9
$CELTSCALE
 40
1.0
  9
$DISPSILH
 70
     0
  9
$DIMSCALE
 40
1.0
  9
$DIMASZ
 40
3.0
  9
$DIMEXO
 40
0.0
  9
$DIMDLI
 40
3.75
  9
$DIMRND
 40
0.0
  9
$DIMDLE
 40
0.0
  9
$DIMEXE
 40
2.0
  9
$DIMTP
 40
0.0
  9
$DIMTM
 40
0.0
  9
$DIMTXT
 40
3.0
  9
$DIMCEN
 40
2.5
  9
$DIMTSZ
 40
0.0
  9
$DIMTOL
 70
     0
  9
$DIMLIM
 70
     0
  9
$DIMTIH
 70
     1
  9
$DIMTOH
 70
     1
  9
$DIMSE1
 70
     0
  9
$DIMSE2
 70
     0
  9
$DIMTAD
 70
     1
  9
$DIMZIN
 70
     0
  9
$DIMBLK
  1

  9
$DIMASO
 70
     1
  9
$DIMSHO
 70
     1
  9
$DIMPOST
  1

  9
$DIMAPOST
  1

  9
$DIMALT
 70
     0
  9
$DIMALTD
 70
     3
  9
$DIMALTF
 40
0.0393700787
  9
$DIMLFAC
 40
1.0
  9
$DIMTOFL
 70
     1
  9
$DIMTVP
 40
0.0
  9
$DIMTIX
 70
     0
  9
$DIMSOXD
 70
     0
  9
$DIMSAH
 70
     0
  9
$DIMBLK1
  1

  9
$DIMBLK2
  1

  9
$DIMSTYLE
  2
ISO-25
  9
$DIMCLRD
 70
     0
  9
$DIMCLRE
 70
     0
  9
$DIMCLRT
 70
     0
  9
$DIMTFAC
 40
1.0
  9
$DIMGAP
 40
2.0
  9
$DIMJUST
 70
     0
  9
$DIMSD1
 70
     0
  9
$DIMSD2
 70
     0
  9
$DIMTOLJ
 70
     0
  9
$DIMTZIN
 70
     0
  9
$DIMALTZ
 70
     0
  9
$DIMALTTZ
 70
     0
  9
$DIMUPT
 70
     0
  9
$DIMDEC
 70
     2
  9
$DIMTDEC
 70
     2
  9
$DIMALTU
 70
     2
  9
$DIMALTTD
 70
     3
  9
$DIMTXSTY
  7
Standard
  9
$DIMAUNIT
 70
     0
  9
$DIMADEC
 70
     2
  9
$DIMALTRND
 40
0.0
  9
$DIMAZIN
 70
     0
  9
$DIMDSEP
 70
    44
  9
$DIMATFIT
 70
     3
  9
$DIMFRAC
 70
     0
  9
$DIMLDRBLK
  1

  9
$DIMLUNIT
 70
     2
  9
$DIMLWD
 70
    -2
  9
$DIMLWE
 70
    -2
  9
$DIMTMOVE
 70
     0
  9
$LUNITS
 70
     2
  9
$LUPREC
 70
     2
  9
$SKETCHINC
 40
1.0
  9
$FILLETRAD
 40
10.0
  9
$AUNITS
 70
     1
  9
$AUPREC
 70
     2
  9
$MENU
  1
.
  9
$ELEVATION
 40
0.0
  9
$PELEVATION
 40
0.0
  9
$THICKNESS
 40
0.0
  9
$LIMCHECK
 70
     0
  9
$CHAMFERA
 40
0.0
  9
$CHAMFERB
 40
0.0
  9
$CHAMFERC
 40
0.0
  9
$CHAMFERD
 40
0.0
  9
$SKPOLY
 70
     0
  9
$TDCREATE
 40
2459306.440759537
  9
$TDUCREATE
 40
2459306.315759537
  9
$TDUPDATE
 40
2459306.440790845
  9
$TDUUPDATE
 40
2459306.315790845
  9
$TDINDWG
 40
0.0000000116
  9
$TDUSRTIMER
 40
0.0000000116
  9
$USRTIMER
 70
     1
  9
$ANGBASE
 50
0.0
  9
$ANGDIR
 70
     0
  9
$PDMODE
 70
     0
  9
$PDSIZE
 40
-1.0
  9
$PLINEWID
 40
0.0
  9
$SPLFRAME
 70
     0
  9
$SPLINETYPE
 70
     6
  9
$SPLINESEGS
 70
     8
  9
$HANDSEED
  5
4BC
  9
$SURFTAB1
 70
     6
  9
$SURFTAB2
 70
     6
  9
$SURFTYPE
 70
     6
  9
$SURFU
 70
     6
  9
$SURFV
 70
     6
  9
$UCSBASE
  2

  9
$UCSNAME
  2

  9
$UCSORG
 10
0.0
 20
0.0
 30
0.0
  9
$UCSXDIR
 10
1.0
 20
0.0
 30
0.0
  9
$UCSYDIR
 10
0.0
 20
1.0
 30
0.0
  9
$UCSORTHOREF
  2

  9
$UCSORTHOVIEW
 70
     0
  9
$UCSORGTOP
 10
0.0
 20
0.0
 30
0.0
  9
$UCSORGBOTTOM
 10
0.0
 20
0.0
 30
0.0
  9
$UCSORGLEFT
 10
0.0
 20
0.0
 30
0.0
  9
$UCSORGRIGHT
 10
0.0
 20
0.0
 30
0.0
  9
$UCSORGFRONT
 10
0.0
 20
0.0
 30
0.0
  9
$UCSORGBACK
 10
0.0
 20
0.0
 30
0.0
  9
$PUCSBASE
  2

  9
$PUCSNAME
  2

  9
$PUCSORG
 10
0.0
 20
0.0
 30
0.0
  9
$PUCSXDIR
 10
1.0
 20
0.0
 30
0.0
  9
$PUCSYDIR
 10
0.0
 20
1.0
 30
0.0
  9
$PUCSORTHOREF
  2

  9
$PUCSORTHOVIEW
 70
     0
  9
$PUCSORGTOP
 10
0.0
 20
0.0
 30
0.0
  9
$PUCSORGBOTTOM
 10
0.0
 20
0.0
 30
0.0
  9
$PUCSORGLEFT
 10
0.0
 20
0.0
 30
0.0
  9
$PUCSORGRIGHT
 10
0.0
 20
0.0
 30
0.0
  9
$PUCSORGFRONT
 10
0.0
 20
0.0
 30
0.0
  9
$PUCSORGBACK
 10
0.0
 20
0.0
 30
0.0
  9
$USERI1
 70
     0
  9
$USERI2
 70
     0
  9
$USERI3
 70
     0
  9
$USERI4
 70
     0
  9
$USERI5
 70
     0
  9
$USERR1
 40
0.0
  9
$USERR2
 40
0.0
  9
$USERR3
 40
0.0
  9
$USERR4
 40
0.0
  9
$USERR5
 40
0.0
  9
$WORLDVIEW
 70
     1
  9
$SHADEDGE
 70
     3
  9
$SHADEDIF
 70
    70
  9
$TILEMODE
 70
     1
  9
$MAXACTVP
 70
    64
  9
$PINSBASE
 10
0.0
 20
0.0
 30
0.0
  9
$PLIMCHECK
 70
     0
  9
$PEXTMIN
 10
1.0000000000E+20
 20
1.0000000000E+20
 30
1.0000000000E+20
  9
$PEXTMAX
 10
-1.0000000000E+20
 20
-1.0000000000E+20
 30
-1.0000000000E+20
  9
$PLIMMIN
 10
0.0
 20
0.0
  9
$PLIMMAX
 10
420.0
 20
297.0
  9
$UNITMODE
 70
     0
  9
$VISRETAIN
 70
     1
  9
$PLINEGEN
 70
     0
  9
$PSLTSCALE
 70
     1
  9
$TREEDEPTH
 70
  3020
  9
$CMLSTYLE
  2
Standard
  9
$CMLJUST
 70
     0
  9
$CMLSCALE
 40
20.0
  9
$PROXYGRAPHICS
 70
     1
  9
$MEASUREMENT
 70
     1
  9
$CELWEIGHT
370
    -1
  9
$ENDCAPS
280
     0
  9
$JOINSTYLE
280
     0
  9
$LWDISPLAY
290
     1
  9
$INSUNITS
 70
     4
  9
$HYPERLINKBASE
  1

  9
$STYLESHEET
  1

  9
$XEDIT
290
     1
  9
$CEPSNTYPE
380
     0
  9
$PSTYLEMODE
290
     1
  9
$FINGERPRINTGUID
  2
{B90FD7D8-FC92-4CA4-B3C1-085A1A8953BF}
  9
$VERSIONGUID
  2
{FAEB1C32-E019-11D5-929B-00C0DF256EC4}
  9
$EXTNAMES
290
     1
  9
$PSVPSCALE
 40
0.0
  9
$OLESTARTUP
290
     0
  0
ENDSEC
  0
SECTION
  2
CLASSES
  0
CLASS
  1
ACDBDICTIONARYWDFLT
  2
AcDbDictionaryWithDefault
  3
ObjectDBX Classes
 90
        0
280
     0
281
     0
  0
CLASS
  1
VISUALSTYLE
  2
AcDbVisualStyle
  3
ObjectDBX Classes
 90
     4095
280
     0
281
     0
  0
CLASS
  1
MATERIAL
  2
AcDbMaterial
  3
ObjectDBX Classes
 90
     1153
280
     0
281
     0
  0
CLASS
  1
SCALE
  2
AcDbScale
  3
ObjectDBX Classes
 90
     1153
280
     0
281
     0
  0
CLASS
  1
SUN
  2
AcDbSun
  3
SCENEOE
 90
     1153
280
     0
281
     0
  0
CLASS
  1
ACDBPLACEHOLDER
  2
AcDbPlaceHolder
  3
ObjectDBX Classes
 90
        0
280
     0
281
     0
  0
CLASS
  1
LAYOUT
  2
AcDbLayout
  3
ObjectDBX Classes
 90
        0
280
     0
281
     0
  0
ENDSEC
  0
SECTION
  2
TABLES
  0
TABLE
  2
VPORT
  5
8
330
0
100
AcDbSymbolTable
 70
     1
  0
VPORT
  5
29
330
8
100
AcDbSymbolTableRecord
100
AcDbViewportTableRecord
  2
*Active
 70
     0
 10
0.0
 20
0.0
 11
1.0
 21
1.0
 12
556.8136953561
 22
-559.9105982798
 13
0.0
 23
0.0
 14
10.0
 24
10.0
 15
10.0
 25
10.0
 16
0.0
 26
0.0
 36
1.0
 17
0.0
 27
0.0
 37
0.0
 40
1889.04
 41
0.4116586957
 42
50.0
 43
0.0
 44
0.0
 50
0.0
 51
0.0
 71
     0
 72
   100
 73
     1
 74
     3
 75
     0
 76
     0
 77
     0
 78
     0
281
     0
 65
     1
110
0.0
120
0.0
130
0.0
111
1.0
121
0.0
131
0.0
112
0.0
122
1.0
132
0.0
 79
     0
146
0.0
  0
ENDTAB
  0
TABLE
  2
LTYPE
  5
5
330
0
100
AcDbSymbolTable
 70
     6
  0
LTYPE
  5
14
330
5
100
AcDbSymbolTableRecord
100
AcDbLinetypeTableRecord
  2
ByBlock
 70
     0
  3

 72
    65
 73
     0
 40
0.0
  0
LTYPE
  5
15
330
5
100
AcDbSymbolTableRecord
100
AcDbLinetypeTableRecord
  2
ByLayer
 70
     0
  3

 72
    65
 73
     0
 40
0.0
  0
LTYPE
  5
16
330
5
100
AcDbSymbolTableRecord
100
AcDbLinetypeTableRecord
  2
Continuous
 70
     0
  3
Solid line
 72
    65
 73
     0
 40
0.0
  0
LTYPE
  5
6A
330
5
100
AcDbSymbolTableRecord
100
AcDbLinetypeTableRecord
  2
HIDDEN
 70
     0
  3
Hidden __ __ __ __ __ __ __ __ __ __ __ __ __ __
 72
    65
 73
     2
 40
1.905
 49
1.27
 74
     0
 49
-0.635
 74
     0
  0
LTYPE
  5
6B
330
5
100
AcDbSymbolTableRecord
100
AcDbLinetypeTableRecord
  2
PHANTOM
 70
     0
  3
Phantom ______  __  __  ______  __  __  ______
 72
    65
 73
     6
 40
12.7
 49
6.35
 74
     0
 49
-1.27
 74
     0
 49
1.27
 74
     0
 49
-1.27
 74
     0
 49
1.27
 74
     0
 49
-1.27
 74
     0
  0
LTYPE
  5
6C
330
5
100
AcDbSymbolTableRecord
100
AcDbLinetypeTableRecord
  2
CENTER
 70
     0
  3
Center ____ _ ____ _ ____ _ ____ _ ____ _ ____
 72
    65
 73
     4
 40
10.16
 49
6.35
 74
     0
 49
-1.27
 74
     0
 49
1.27
 74
     0
 49
-1.27
 74
     0
  0
LTYPE
  5
6D
330
5
100
AcDbSymbolTableRecord
100
AcDbLinetypeTableRecord
  2
CENTERX2
 70
     0
  3
Center (2x) ________  __  ________  __  _____
 72
    65
 73
     4
 40
20.32
 49
12.7
 74
     0
 49
-2.54
 74
     0
 49
2.54
 74
     0
 49
-2.54
 74
     0
  0
LTYPE
  5
6E
330
5
100
AcDbSymbolTableRecord
100
AcDbLinetypeTableRecord
  2
DOT2
 70
     0
  3
Dot (.5x) ........................................
 72
    65
 73
     2
 40
0.635
 49
0.0
 74
     0
 49
-0.635
 74
     0
  0
ENDTAB
  0
TABLE
  2
LAYER
  5
2
330
0
100
AcDbSymbolTable
 70
     1
  0
LAYER
  5
10
330
2
100
AcDbSymbolTableRecord
100
AcDbLayerTableRecord
  2
0
 70
     0
 62
     7
  6
Continuous
370
    -3
390
F
  0
ENDTAB
  0
TABLE
  2
STYLE
  5
3
330
0
100
AcDbSymbolTable
 70
     1
  0
STYLE
  5
11
330
3
100
AcDbSymbolTableRecord
100
AcDbTextStyleTableRecord
  2
Standard
 70
     0
 40
0.0
 41
1.0
 50
0.0
 71
     0
 42
3.0
  3
txt
  4

  0
ENDTAB
  0
TABLE
  2
VIEW
  5
6
330
0
100
AcDbSymbolTable
 70
     0
  0
ENDTAB
  0
TABLE
  2
UCS
  5
7
330
0
100
AcDbSymbolTable
 70
     0
  0
ENDTAB
  0
TABLE
  2
APPID
  5
9
330
0
100
AcDbSymbolTable
 70
     1
  0
APPID
  5
12
330
9
100
AcDbSymbolTableRecord
100
AcDbRegAppTableRecord
  2
ACAD
 70
     0
  0
ENDTAB
  0
TABLE
  2
DIMSTYLE
  5
A
330
0
100
AcDbSymbolTable
 70
     1
100
AcDbDimStyleTable
  0
DIMSTYLE
105
27
330
A
100
AcDbSymbolTableRecord
100
AcDbDimStyleTableRecord
  2
ISO-25
 70
     0
 41
2.5
 42
0.625
 43
3.75
 44
1.25
 73
     0
 74
     0
 77
     1
 78
     8
140
2.5
141
2.5
143
0.0393700787
147
0.625
171
     3
172
     1
178
     0
271
     2
272
     2
274
     3
278
    44
283
     0
284
     8
340
11
  0
ENDTAB
  0
TABLE
  2
BLOCK_RECORD
  5
1
330
0
100
AcDbSymbolTable
 70
     1
  0
BLOCK_RECORD
  5
1F
330
1
100
AcDbSymbolTableRecord
100
AcDbBlockTableRecord
  2
*Model_Space
340
22
  0
BLOCK_RECORD
  5
1B
330
1
100
AcDbSymbolTableRecord
100
AcDbBlockTableRecord
  2
*Paper_Space
340
1E
  0
BLOCK_RECORD
  5
23
330
1
100
AcDbSymbolTableRecord
100
AcDbBlockTableRecord
  2
*Paper_Space0
340
26
  0
ENDTAB
  0
ENDSEC
  0
SECTION
  2
BLOCKS
  0
BLOCK
  5
20
330
1F
100
AcDbEntity
  8
0
100
AcDbBlockBegin
  2
*Model_Space
 70
     0
 10
0.0
 20
0.0
 30
0.0
  3
*Model_Space
  1
*Model_Space
  0
ENDBLK
  5
21
330
1F
100
AcDbEntity
  8
0
100
AcDbBlockEnd
  0
BLOCK
  5
1C
330
1B
100
AcDbEntity
 67
     1
  8
0
100
AcDbBlockBegin
  2
*Paper_Space
 70
     0
 10
0.0
 20
0.0
 30
0.0
  3
*Paper_Space
  1
*Paper_Space
  0
ENDBLK
  5
1D
330
1B
100
AcDbEntity
 67
     1
  8
0
100
AcDbBlockEnd
  0
BLOCK
  5
24
330
23
100
AcDbEntity
  8
0
100
AcDbBlockBegin
  2
*Paper_Space0
 70
     0
 10
0.0
 20
0.0
 30
0.0
  3
*Paper_Space0
  1
*Paper_Space0
  0
ENDBLK
  5
25
330
23
100
AcDbEntity
  8
0
100
AcDbBlockEnd
  0
ENDSEC
  0
SECTION
  2
ENTITIES
  0
SPLINE
  5
92
330
1F
100
AcDbEntity
  8
0
  6
Continuous
 62
     7
370
    15
100
AcDbSpline
210
0.0
220
0.0
230
1.0
 70
     8
 71
     3
 72
    12
 73
     8
 74
     0
 42
0.000000001
 43
0.00000001
 40
0.0
 40
0.0
 40
0.0
 40
0.0
 40
0.072710618170196
 40
0.3767136135354423
 40
0.6790426590203571
 40
0.9778717600914935
 40
1.0
 40
1.0
 40
1.0
 40
1.0
 10
329.2957405804738
 20
352.6403254506729
 30
0.0
 10
329.1724574045651
 20
352.6104704597782
 30
0.0
 10
328.5337274383862
 20
352.4557917926859
 30
0.0
 10
327.4672343238924
 20
351.9004911263408
 30
0.0
 10
326.184491901214
 20
350.99192757369
 30
0.0
 10
325.3692931848391
 20
350.2473509481524
 30
0.0
 10
325.0510835050346
 20
349.7870531364785
 30
0.0
 10
325.0291447012222
 20
349.755318139002
 30
0.0
  0
SPLINE
  5
93
330
1F
100
AcDbEntity
  8
0
  6
Continuous
 62
     7
370
    15
100
AcDbSpline
210
0.0
220
0.0
230
1.0
 70
     8
 71
     3
 72
    12
 73
     8
 74
     0
 42
0.000000001
 43
0.00000001
 40
0.0
 40
0.0
 40
0.0
 40
0.0
 40
0.0072487708167024
 40
0.2801827735989435
 40
0.5654141502498923
 40
0.8612382164692737
 40
1.0
 40
1.0
 40
1.0
 40
1.0
 10
338.9729836319748
 20
349.7876831894496
 30
0.0
 10
338.9657601061664
 20
349.7979385042321
 30
0.0
 10
338.6865531140623
 20
350.1943315772878
 30
0.0
 10
337.963654353769
 20
350.8726856053853
 30
0.0
 10
336.7871630776974
 20
351.7616322910008
 30
0.0
 10
335.6797484166453
 20
352.3637203580373
 30
0.0
 10
334.9552712093915
 20
352.5686991572348
 30
0.0
 10
334.7239481015091
 20
352.6341481905592
 30
0.0
  0
SPLINE
  5
96
330
1F
100
AcDbEntity
  8
0
  6
Continuous
 62
     7
370
    15
100
AcDbSpline
210
0.0
220
0.0
230
1.0
 70
     8
 71
     3
 72
    12
 73
     8
 74
     0
 42
0.000000001
 43
0.00000001
 40
0.0
 40
0.0
 40
0.0
 40
0.0
 40
0.0727106181701513
 40
0.3767136135353656
 40
0.6790426590202766
 40
0.9778717600914466
 40
1.0
 40
1.0
 40
1.0
 40
1.0
 10
355.7535865491949
 20
352.640325450673
 30
0.0
 10
355.6303033732863
 20
352.6104704597784
 30
0.0
 10
354.9915734071076
 20
352.4557917926862
 30
0.0
 10
353.9250802926139
 20
351.900491126341
 30
0.0
 10
352.6423378699354
 20
350.99192757369
 30
0.0
 10
351.82713915356
 20
350.2473509481529
 30
0.0
 10
351.5089294737558
 20
349.7870531364786
 30
0.0
 10
351.4869906699433
 20
349.755318139002
 30
0.0
  0
SPLINE
  5
97
330
1F
100
AcDbEntity
  8
0
  6
Continuous
 62
     7
370
    15
100
AcDbSpline
210
0.0
220
0.0
230
1.0
 70
     8
 71
     3
 72
     9
 73
     5
 74
     0
 42
0.000000001
 43
0.00000001
 40
0.0
 40
0.0
 40
0.0
 40
0.0
 40
0.6041754604337182
 40
0.9999999999999999
 40
0.9999999999999999
 40
0.9999999999999999
 40
0.9999999999999999
 10
362.8488142157325
 20
351.920697949958
 30
0.0
 10
362.5297960110526
 20
352.1054585014204
 30
0.0
 10
362.001773564641
 20
352.4112646182888
 30
0.0
 10
361.4143218676924
 20
352.5709434073863
 30
0.0
 10
361.1817940702302
 20
352.6341481905592
 30
0.0
  0
SPLINE
  5
9D
330
1F
100
AcDbEntity
  8
0
  6
Continuous
 62
     7
370
    15
100
AcDbSpline
210
0.0
220
0.0
230
1.0
 70
     8
 71
     3
 72
    12
 73
     8
 74
     0
 42
0.000000001
 43
0.00000001
 40
0.0
 40
0.0
 40
0.0
 40
0.0
 40
0.0727106181702862
 40
0.3767136135355137
 40
0.6790426590204175
 40
0.9778717600915316
 40
1.0
 40
1.0
 40
1.0
 40
1.0
 10
364.549967484617
 20
352.6403254506729
 30
0.0
 10
364.4266843087082
 20
352.6104704597782
 30
0.0
 10
363.787954342529
 20
352.4557917926858
 30
0.0
 10
362.7214612280352
 20
351.9004911263405
 30
0.0
 10
361.4387188053572
 20
350.9919275736901
 30
0.0
 10
360.6235200889817
 20
350.247350948152
 30
0.0
 10
360.3053104091777
 20
349.7870531364785
 30
0.0
 10
360.2833716053653
 20
349.755318139002
 30
0.0
  0
SPLINE
  5
9E
330
1F
100
AcDbEntity
  8
0
  6
Continuous
 62
     7
370
    15
100
AcDbSpline
210
0.0
220
0.0
230
1.0
 70
     8
 71
     3
 72
    12
 73
     8
 74
     0
 42
0.000000001
 43
0.00000001
 40
0.0
 40
0.0
 40
0.0
 40
0.0
 40
0.0072487708167235
 40
0.2801827735989433
 40
0.5654141502499853
 40
0.8612382164693201
 40
1.0
 40
1.0
 40
1.0
 40
1.0
 10
374.227210536118
 20
349.7876831894496
 30
0.0
 10
374.2199870103096
 20
349.7979385042323
 30
0.0
 10
373.9407800182049
 20
350.1943315772866
 30
0.0
 10
373.2178812579122
 20
350.872685605386
 30
0.0
 10
372.0413899818402
 20
351.7616322910008
 30
0.0
 10
370.9339753207884
 20
352.3637203580375
 30
0.0
 10
370.2094981135346
 20
352.5686991572347
 30
0.0
 10
369.9781750056522
 20
352.6341481905592
 30
0.0
  0
SPLINE
  5
A5
330
1F
100
AcDbEntity
  8
0
  6
Continuous
 62
     7
370
    15
100
AcDbSpline
210
0.0
220
0.0
230
1.0
 70
     8
 71
     3
 72
    12
 73
     8
 74
     0
 42
0.000000001
 43
0.00000001
 40
0.0
 40
0.0
 40
0.0
 40
0.0
 40
0.0727106181701621
 40
0.376713613535383
 40
0.6790426590202369
 40
0.9778717600913639
 40
1.0
 40
1.0
 40
1.0
 40
1.0
 10
494.5499674846169
 20
352.6403254506729
 30
0.0
 10
494.4266843087081
 20
352.6104704597782
 30
0.0
 10
493.7879543425294
 20
352.4557917926862
 30
0.0
 10
492.7214612280355
 20
351.9004911263407
 30
0.0
 10
491.438718805358
 20
350.9919275736905
 30
0.0
 10
490.6235200889815
 20
350.2473509481526
 30
0.0
 10
490.3053104091779
 20
349.7870531364787
 30
0.0
 10
490.2833716053653
 20
349.755318139002
 30
0.0
  0
SPLINE
  5
A6
330
1F
100
AcDbEntity
  8
0
  6
Continuous
 62
     7
370
    15
100
AcDbSpline
210
0.0
220
0.0
230
1.0
 70
     8
 71
     3
 72
    12
 73
     8
 74
     0
 42
0.000000001
 43
0.00000001
 40
0.0
 40
0.0
 40
0.0
 40
0.0
 40
0.0072487708166229
 40
0.280182773598769
 40
0.5654141502498491
 40
0.8612382164692146
 40
1.0
 40
1.0
 40
1.0
 40
1.0
 10
504.2272105361181
 20
349.7876831894496
 30
0.0
 10
504.2199870103097
 20
349.7979385042321
 30
0.0
 10
503.940780018203
 20
350.1943315772861
 30
0.0
 10
503.2178812579137
 20
350.8726856053854
 30
0.0
 10
502.0413899818404
 20
351.7616322910004
 30
0.0
 10
500.9339753207888
 20
352.3637203580373
 30
0.0
 10
500.2094981135347
 20
352.5686991572347
 30
0.0
 10
499.9781750056522
 20
352.6341481905592
 30
0.0
  0
SPLINE
  5
B0
330
1F
100
AcDbEntity
  8
0
  6
Continuous
 62
     7
370
    15
100
AcDbSpline
210
0.0
220
0.0
230
1.0
 70
     8
 71
     3
 72
    12
 73
     8
 74
     0
 42
0.000000001
 43
0.00000001
 40
0.0
 40
0.0
 40
0.0
 40
0.0
 40
0.0727106181702888
 40
0.37671361353553
 40
0.6790426590204247
 40
0.9778717600915761
 40
1.0
 40
1.0
 40
1.0
 40
1.0
 10
800.5499674846168
 20
352.640325450673
 30
0.0
 10
800.426684308708
 20
352.6104704597782
 30
0.0
 10
799.7879543425288
 20
352.4557917926858
 30
0.0
 10
798.721461228035
 20
351.9004911263406
 30
0.0
 10
797.4387188053563
 20
350.9919275736896
 30
0.0
 10
796.6235200889824
 20
350.2473509481528
 30
0.0
 10
796.3053104091774
 20
349.7870531364785
 30
0.0
 10
796.2833716053651
 20
349.755318139002
 30
0.0
  0
SPLINE
  5
B1
330
1F
100
AcDbEntity
  8
0
  6
Continuous
 62
     7
370
    15
100
AcDbSpline
210
0.0
220
0.0
230
1.0
 70
     8
 71
     3
 72
    12
 73
     8
 74
     0
 42
0.000000001
 43
0.00000001
 40
0.0
 40
0.0
 40
0.0
 40
0.0
 40
0.0072487708167892
 40
0.2801827735989423
 40
0.5654141502500185
 40
0.8612382164694278
 40
1.0
 40
1.0
 40
1.0
 40
1.0
 10
810.227210536118
 20
349.7876831894496
 30
0.0
 10
810.2199870103095
 20
349.7979385042323
 30
0.0
 10
809.9407800181993
 20
350.1943315772854
 30
0.0
 10
809.2178812579142
 20
350.8726856053867
 30
0.0
 10
808.0413899818393
 20
351.7616322910008
 30
0.0
 10
806.9339753207881
 20
352.3637203580375
 30
0.0
 10
806.2094981135342
 20
352.5686991572349
 30
0.0
 10
805.978175005652
 20
352.6341481905592
 30
0.0
  0
SPLINE
  5
B4
330
1F
100
AcDbEntity
  8
0
  6
Continuous
 62
     7
370
    15
100
AcDbSpline
210
0.0
220
0.0
230
1.0
 70
     8
 71
     3
 72
    12
 73
     8
 74
     0
 42
0.000000001
 43
0.00000001
 40
0.0
 40
0.0
 40
0.0
 40
0.0
 40
0.0727106181697118
 40
0.3767136135349076
 40
0.6790426590198165
 40
0.977871760090922
 40
1.0
 40
1.0
 40
1.0
 40
1.0
 10
855.5499674846168
 20
352.6403254506731
 30
0.0
 10
855.4266843087087
 20
352.6104704597787
 30
0.0
 10
854.7879543425312
 20
352.4557917926867
 30
0.0
 10
853.7214612280374
 20
351.9004911263418
 30
0.0
 10
852.4387188053594
 20
350.991927573692
 30
0.0
 10
851.6235200889837
 20
350.2473509481542
 30
0.0
 10
851.3053104091783
 20
349.7870531364793
 30
0.0
 10
851.2833716053653
 20
349.755318139002
 30
0.0
  0
SPLINE
  5
B5
330
1F
100
AcDbEntity
  8
0
  6
Continuous
 62
     7
370
    15
100
AcDbSpline
210
0.0
220
0.0
230
1.0
 70
     8
 71
     3
 72
     9
 73
     5
 74
     0
 42
0.000000001
 43
0.00000001
 40
0.0
 40
0.0
 40
0.0
 40
0.0
 40
0.6266017180516625
 40
1.0
 40
1.0
 40
1.0
 40
1.0
 10
862.7424905441803
 20
351.8709003896593
 30
0.0
 10
862.3920544646896
 20
352.0747532072607
 30
0.0
 10
861.832789991907
 20
352.4000839743628
 30
0.0
 10
861.2105269546746
 20
352.5705110232916
 30
0.0
 10
860.9781750056521
 20
352.6341481905592
 30
0.0
  0
SPLINE
  5
B7
330
1F
100
AcDbEntity
  8
0
  6
Continuous
 62
     7
370
    15
100
AcDbSpline
210
0.0
220
0.0
230
1.0
 70
     8
 71
     3
 72
    12
 73
     8
 74
     0
 42
0.000000001
 43
0.00000001
 40
0.0
 40
0.0
 40
0.0
 40
0.0
 40
0.0727106181702415
 40
0.3767136135354037
 40
0.6790426590202411
 40
0.9778717600913814
 40
1.0
 40
1.0
 40
1.0
 40
1.0
 10
734.5499674846168
 20
352.6403254506729
 30
0.0
 10
734.4266843087081
 20
352.6104704597782
 30
0.0
 10
733.7879543425294
 20
352.4557917926861
 30
0.0
 10
732.7214612280352
 20
351.9004911263405
 30
0.0
 10
731.4387188053574
 20
350.9919275736907
 30
0.0
 10
730.6235200889819
 20
350.2473509481521
 30
0.0
 10
730.3053104091775
 20
349.7870531364787
 30
0.0
 10
730.2833716053651
 20
349.755318139002
 30
0.0
  0
SPLINE
  5
B8
330
1F
100
AcDbEntity
  8
0
  6
Continuous
 62
     7
370
    15
100
AcDbSpline
210
0.0
220
0.0
230
1.0
 70
     8
 71
     3
 72
    12
 73
     8
 74
     0
 42
0.000000001
 43
0.00000001
 40
0.0
 40
0.0
 40
0.0
 40
0.0
 40
0.0072487708168452
 40
0.2801827735990505
 40
0.56541415025006
 40
0.8612382164693778
 40
1.0
 40
1.0
 40
1.0
 40
1.0
 10
744.2272105361178
 20
349.7876831894495
 30
0.0
 10
744.2199870103091
 20
349.7979385042324
 30
0.0
 10
743.9407800182023
 20
350.1943315772867
 30
0.0
 10
743.2178812579125
 20
350.8726856053862
 30
0.0
 10
742.0413899818394
 20
351.761632291001
 30
0.0
 10
740.9339753207878
 20
352.3637203580373
 30
0.0
 10
740.2094981135343
 20
352.5686991572349
 30
0.0
 10
739.978175005652
 20
352.6341481905592
 30
0.0
  0
SPLINE
  5
C2
330
1F
100
AcDbEntity
  8
0
  6
Continuous
 62
     7
370
    15
100
AcDbSpline
210
0.0
220
0.0
230
1.0
 70
     8
 71
     3
 72
    12
 73
     8
 74
     0
 42
0.000000001
 43
0.00000001
 40
0.0
 40
0.0
 40
0.0
 40
0.0
 40
0.0727106181701764
 40
0.3767136135353936
 40
0.6790426590202682
 40
0.9778717600913635
 40
1.0
 40
1.0
 40
1.0
 40
1.0
 10
864.5499674846168
 20
352.640325450673
 30
0.0
 10
864.4266843087081
 20
352.6104704597782
 30
0.0
 10
863.787954342529
 20
352.4557917926861
 30
0.0
 10
862.7214612280358
 20
351.9004911263407
 30
0.0
 10
861.4387188053566
 20
350.9919275736905
 30
0.0
 10
860.6235200889837
 20
350.2473509481524
 30
0.0
 10
860.3053104091778
 20
349.7870531364788
 30
0.0
 10
860.2833716053652
 20
349.755318139002
 30
0.0
  0
SPLINE
  5
C3
330
1F
100
AcDbEntity
  8
0
  6
Continuous
 62
     7
370
    15
100
AcDbSpline
210
0.0
220
0.0
230
1.0
 70
     8
 71
     3
 72
    12
 73
     8
 74
     0
 42
0.000000001
 43
0.00000001
 40
0.0
 40
0.0
 40
0.0
 40
0.0
 40
0.0072487708167769
 40
0.2801827735989393
 40
0.5654141502499872
 40
0.8612382164693123
 40
1.0
 40
1.0
 40
1.0
 40
1.0
 10
874.2272105361179
 20
349.7876831894496
 30
0.0
 10
874.2199870103093
 20
349.7979385042324
 30
0.0
 10
873.9407800182066
 20
350.1943315772871
 30
0.0
 10
873.2178812579112
 20
350.8726856053858
 30
0.0
 10
872.0413899818403
 20
351.761632291001
 30
0.0
 10
870.9339753207881
 20
352.3637203580373
 30
0.0
 10
870.2094981135346
 20
352.5686991572349
 30
0.0
 10
869.9781750056521
 20
352.6341481905592
 30
0.0
  0
LWPOLYLINE
  5
103
330
1F
100
AcDbEntity
  8
0
  6
Continuous
 62
     7
370
    15
100
AcDbPolyline
 90
        9
 70
   128
 43
0.0
 10
587.2644083101
 20
340.0894017194
 10
587.3604818862
 20
339.9933281214
 10
587.6450106046
 20
339.708799382
 10
588.1070601862
 20
339.2467497809
 10
588.7288743248
 20
338.6249356254
 10
589.4865570516
 20
337.8672528845
 10
590.3509910445
 20
337.0028188813
 10
591.2889565899
 20
336.0648533295
 10
592.2644081978
 20
335.0894017194
  0
LWPOLYLINE
  5
105
330
1F
100
AcDbEntity
  8
0
  6
Continuous
 62
     7
370
    15
100
AcDbPolyline
 90
        9
 70
   128
 43
0.0
 10
642.2644081978
 20
335.0894017194
 10
643.23985981
 20
336.0648533295
 10
644.1778253682
 20
337.0028188813
 10
645.0422593818
 20
337.8672528845
 10
645.7999421366
 20
338.6249356254
 10
646.4217563092
 20
339.2467497809
 10
646.8838059297
 20
339.708799382
 10
647.1683346902
 20
339.9933281214
 10
647.2644083101
 20
340.0894017194
  0
LWPOLYLINE
  5
106
330
1F
100
AcDbEntity
  8
0
  6
Continuous
 62
     7
370
    15
100
AcDbPolyline
 90
       10
 70
   128
 43
0.0
 10
642.2644081978
 20
-1454.9105982806
 10
643.1326490878
 20
-1455.7788391689
 10
643.9745089212
 20
-1456.6206989972
 10
644.7644082128
 20
-1457.4105982806
 10
645.4783462725
 20
-1458.124536329
 10
646.0946304535
 20
-1458.7408204962
 10
646.5945352729
 20
-1459.2407252995
 10
646.9628713756
 20
-1459.6090613845
 10
647.1884470557
 20
-1459.8346370456
 10
647.2644083101
 20
-1459.9105982806
  0
LWPOLYLINE
  5
108
330
1F
100
AcDbEntity
  8
0
  6
Continuous
 62
     7
370
    15
100
AcDbPolyline
 90
        9
 70
   128
 43
0.0
 10
592.2644081978
 20
-1454.9105982806
 10
591.2889565899
 20
-1455.8860498906
 10
590.3509910445
 20
-1456.8240154424
 10
589.4865570516
 20
-1457.6884494457
 10
588.7288743248
 20
-1458.4461321865
 10
588.1070601862
 20
-1459.0679463421
 10
587.6450106046
 20
-1459.5299959431
 10
587.3604818862
 20
-1459.8145246826
 10
587.2644083101
 20
-1459.9105982806
  0
LWPOLYLINE
  5
116
330
1F
100
AcDbEntity
  8
0
  6
Continuous
 62
     7
370
    15
100
AcDbPolyline
 90
        9
 70
   128
 43
0.0
 10
802.3882399916
 20
340.0894017194
 10
802.7888641751
 20
339.9933281214
 10
803.3563103284
 20
339.708799382
 10
804.0687718143
 20
339.2467497809
 10
804.8988691372
 20
338.6249356254
 10
805.8147021226
 20
337.8672528845
 10
806.7810758225
 20
337.0028188813
 10
807.7608530375
 20
336.0648533295
 10
808.7163814787
 20
335.0894017194
  0
LWPOLYLINE
  5
118
330
1F
100
AcDbEntity
  8
0
  6
Continuous
 62
     7
370
    15
100
AcDbPolyline
 90
       10
 70
   128
 43
0.0
 10
856.1325645956
 20
335.0894017194
 10
856.9318351227
 20
335.9576426078
 10
857.6586145154
 20
336.7995024361
 10
858.2908199496
 20
337.5894017194
 10
858.8092421832
 20
338.3033397679
 10
859.1981292189
 20
338.919623935
 10
859.4456649209
 20
339.4195287384
 10
859.5443280421
 20
339.7878648234
 10
859.4911207536
 20
340.0134404845
 10
859.2876597319
 20
340.0894017194
  0
LWPOLYLINE
  5
11A
330
1F
100
AcDbEntity
  8
0
  6
Continuous
 62
     7
370
    15
100
AcDbPolyline
 90
        9
 70
   128
 43
0.0
 10
808.7163814787
 20
-1454.9105982806
 10
807.7608530375
 20
-1455.8860498906
 10
806.7810758225
 20
-1456.8240154424
 10
805.8147021226
 20
-1457.6884494457
 10
804.8988691372
 20
-1458.4461321865
 10
804.0687718143
 20
-1459.0679463421
 10
803.3563103284
 20
-1459.5299959431
 10
802.7888641751
 20
-1459.8145246826
 10
802.3882399916
 20
-1459.9105982806
  0
LWPOLYLINE
  5
11B
330
1F
100
AcDbEntity
  8
0
  6
Continuous
 62
     7
370
    15
100
AcDbPolyline
 90
        9
 70
   128
 43
0.0
 10
856.1325645956
 20
-1454.9105982806
 10
857.027123841
 20
-1455.8860498906
 10
857.8263364803
 20
-1456.8240154424
 10
858.4994892201
 20
-1457.6884494457
 10
859.020713178
 20
-1458.4461321865
 10
859.3699780098
 20
-1459.0679463421
 10
859.5338616636
 20
-1459.5299959431
 10
859.5060661827
 20
-1459.8145246826
 10
859.2876597319
 20
-1459.9105982806
  0
LWPOLYLINE
  5
121
330
1F
100
AcDbEntity
  8
0
  6
Continuous
 62
     7
370
    15
100
AcDbPolyline
 90
        9
 70
   128
 43
0.0
 10
917.214367302
 20
-1454.9105982806
 10
917.7677788831
 20
-1455.8860498906
 10
918.1527298786
 20
-1456.8240154424
 10
918.3544268375
 20
-1457.6884494457
 10
918.3651186589
 20
-1458.4461321865
 10
918.184394462
 20
-1459.0679463421
 10
917.8191993764
 20
-1459.5299959431
 10
917.2835676444
 20
-1459.8145246826
 10
916.5980832931
 20
-1459.9105982806
  0
LWPOLYLINE
  5
124
330
1F
100
AcDbEntity
  8
0
  6
Continuous
 62
     7
370
    15
100
AcDbPolyline
 90
        9
 70
   128
 43
0.0
 10
917.214367302
 20
335.0894017194
 10
917.7677788831
 20
336.0648533295
 10
918.1527298786
 20
337.0028188813
 10
918.3544268375
 20
337.8672528845
 10
918.3651186589
 20
338.6249356254
 10
918.184394462
 20
339.2467497809
 10
917.8191993764
 20
339.708799382
 10
917.2835676444
 20
339.9933281214
 10
916.5980832931
 20
340.0894017194
  0
SPLINE
  5
143
330
1F
100
AcDbEntity
  8
0
  6
Continuous
 62
     7
370
    15
100
AcDbSpline
210
0.0
220
0.0
230
1.0
 70
     8
 71
     3
 72
     8
 73
     4
 74
     0
 42
0.000000001
 43
0.00000001
 40
0.0
 40
0.0
 40
0.0
 40
0.0
 40
1.0
 40
1.0
 40
1.0
 40
1.0
 10
800.7644152683754
 20
-1472.435072848132
 30
0.0
 10
801.5977486017088
 20
-1472.598002407925
 30
0.0
 10
802.431081935042
 20
-1472.598002407925
 30
0.0
 10
803.2644152683754
 20
-1472.435072848132
 30
0.0
  0
SPLINE
  5
144
330
1F
100
AcDbEntity
  8
0
  6
Continuous
 62
     7
370
    15
100
AcDbSpline
210
0.0
220
0.0
230
1.0
 70
     8
 71
     3
 72
     8
 73
     4
 74
     0
 42
0.000000001
 43
0.00000001
 40
0.0
 40
0.0
 40
0.0
 40
0.0
 40
1.0
 40
1.0
 40
1.0
 40
1.0
 10
803.2644152683754
 20
-1472.435072848132
 30
0.0
 10
804.0977486017086
 20
-1472.598002407925
 30
0.0
 10
804.931081935042
 20
-1472.598002407925
 30
0.0
 10
805.7644152683754
 20
-1472.435072848132
 30
0.0
  0
SPLINE
  5
147
330
1F
100
AcDbEntity
  8
0
  6
Continuous
 62
     7
370
    15
100
AcDbSpline
210
0.0
220
0.0
230
1.0
 70
     8
 71
     3
 72
     8
 73
     4
 74
     0
 42
0.000000001
 43
0.00000001
 40
0.0
 40
0.0
 40
0.0
 40
0.0
 40
1.0
 40
1.0
 40
1.0
 40
1.0
 10
734.7644152683752
 20
-1472.435072848132
 30
0.0
 10
735.5977486017085
 20
-1472.598002407925
 30
0.0
 10
736.4310819350418
 20
-1472.598002407925
 30
0.0
 10
737.2644152683752
 20
-1472.435072848132
 30
0.0
  0
SPLINE
  5
148
330
1F
100
AcDbEntity
  8
0
  6
Continuous
 62
     7
370
    15
100
AcDbSpline
210
0.0
220
0.0
230
1.0
 70
     8
 71
     3
 72
     8
 73
     4
 74
     0
 42
0.000000001
 43
0.00000001
 40
0.0
 40
0.0
 40
0.0
 40
0.0
 40
1.0
 40
1.0
 40
1.0
 40
1.0
 10
737.2644152683752
 20
-1472.435072848132
 30
0.0
 10
738.0977486017085
 20
-1472.598002407925
 30
0.0
 10
738.9310819350419
 20
-1472.598002407925
 30
0.0
 10
739.7644152683753
 20
-1472.435072848132
 30
0.0
  0
SPLINE
  5
14B
330
1F
100
AcDbEntity
  8
0
  6
Continuous
 62
     7
370
    15
100
AcDbSpline
210
0.0
220
0.0
230
1.0
 70
     8
 71
     3
 72
     8
 73
     4
 74
     0
 42
0.000000001
 43
0.00000001
 40
0.0
 40
0.0
 40
0.0
 40
0.0
 40
1.0
 40
1.0
 40
1.0
 40
1.0
 10
355.9680343329533
 20
-1472.435072848132
 30
0.0
 10
356.8013676662867
 20
-1472.598002407925
 30
0.0
 10
357.63470099962
 20
-1472.598002407925
 30
0.0
 10
358.4680343329534
 20
-1472.435072848132
 30
0.0
  0
SPLINE
  5
14C
330
1F
100
AcDbEntity
  8
0
  6
Continuous
 62
     7
370
    15
100
AcDbSpline
210
0.0
220
0.0
230
1.0
 70
     8
 71
     3
 72
     8
 73
     4
 74
     0
 42
0.000000001
 43
0.00000001
 40
0.0
 40
0.0
 40
0.0
 40
0.0
 40
1.0
 40
1.0
 40
1.0
 40
1.0
 10
358.4680343329534
 20
-1472.435072848132
 30
0.0
 10
359.3013676662867
 20
-1472.598002407925
 30
0.0
 10
360.1347009996201
 20
-1472.598002407925
 30
0.0
 10
360.9680343329534
 20
-1472.435072848132
 30
0.0
  0
SPLINE
  5
14F
330
1F
100
AcDbEntity
  8
0
  6
Continuous
 62
     7
370
    15
100
AcDbSpline
210
0.0
220
0.0
230
1.0
 70
     8
 71
     3
 72
     8
 73
     4
 74
     0
 42
0.000000001
 43
0.00000001
 40
0.0
 40
0.0
 40
0.0
 40
0.0
 40
1.0
 40
1.0
 40
1.0
 40
1.0
 10
364.7644152683753
 20
-1472.435072848132
 30
0.0
 10
365.5977486017087
 20
-1472.598002407925
 30
0.0
 10
366.431081935042
 20
-1472.598002407925
 30
0.0
 10
367.2644152683754
 20
-1472.435072848132
 30
0.0
  0
SPLINE
  5
150
330
1F
100
AcDbEntity
  8
0
  6
Continuous
 62
     7
370
    15
100
AcDbSpline
210
0.0
220
0.0
230
1.0
 70
     8
 71
     3
 72
     8
 73
     4
 74
     0
 42
0.000000001
 43
0.00000001
 40
0.0
 40
0.0
 40
0.0
 40
0.0
 40
1.0
 40
1.0
 40
1.0
 40
1.0
 10
367.2644152683754
 20
-1472.435072848132
 30
0.0
 10
368.0977486017087
 20
-1472.598002407925
 30
0.0
 10
368.9310819350421
 20
-1472.598002407925
 30
0.0
 10
369.7644152683754
 20
-1472.435072848132
 30
0.0
  0
SPLINE
  5
153
330
1F
100
AcDbEntity
  8
0
  6
Continuous
 62
     7
370
    15
100
AcDbSpline
210
0.0
220
0.0
230
1.0
 70
     8
 71
     3
 72
     8
 73
     4
 74
     0
 42
0.000000001
 43
0.00000001
 40
0.0
 40
0.0
 40
0.0
 40
0.0
 40
1.0
 40
1.0
 40
1.0
 40
1.0
 10
329.5101883642366
 20
-1472.435072848132
 30
0.0
 10
330.3435216975699
 20
-1472.598002407925
 30
0.0
 10
331.1768550309033
 20
-1472.598002407925
 30
0.0
 10
332.0101883642366
 20
-1472.435072848132
 30
0.0
  0
SPLINE
  5
154
330
1F
100
AcDbEntity
  8
0
  6
Continuous
 62
     7
370
    15
100
AcDbSpline
210
0.0
220
0.0
230
1.0
 70
     8
 71
     3
 72
     8
 73
     4
 74
     0
 42
0.000000001
 43
0.00000001
 40
0.0
 40
0.0
 40
0.0
 40
0.0
 40
1.0
 40
1.0
 40
1.0
 40
1.0
 10
332.0101883642366
 20
-1472.435072848132
 30
0.0
 10
332.8435216975699
 20
-1472.598002407925
 30
0.0
 10
333.6768550309033
 20
-1472.598002407925
 30
0.0
 10
334.5101883642366
 20
-1472.435072848132
 30
0.0
  0
SPLINE
  5
157
330
1F
100
AcDbEntity
  8
0
  6
Continuous
 62
     7
370
    15
100
AcDbSpline
210
0.0
220
0.0
230
1.0
 70
     8
 71
     3
 72
     8
 73
     4
 74
     0
 42
0.000000001
 43
0.00000001
 40
0.0
 40
0.0
 40
0.0
 40
0.0
 40
1.0
 40
1.0
 40
1.0
 40
1.0
 10
333.7666247977975
 20
352.6138762885941
 30
0.0
 10
332.8125569067431
 20
352.776805848387
 30
0.0
 10
331.8584890156888
 20
352.776805848387
 30
0.0
 10
330.9044211246345
 20
352.6138762885941
 30
0.0
  0
SPLINE
  5
15C
330
1F
100
AcDbEntity
  8
0
  6
Continuous
 62
     7
370
    15
100
AcDbSpline
210
0.0
220
0.0
230
1.0
 70
     8
 71
     3
 72
     8
 73
     4
 74
     0
 42
0.000000001
 43
0.00000001
 40
0.0
 40
0.0
 40
0.0
 40
0.0
 40
1.0
 40
1.0
 40
1.0
 40
1.0
 10
330.9044211246345
 20
352.6138762885941
 30
0.0
 10
330.3189423134436
 20
352.776805848387
 30
0.0
 10
329.7334635022529
 20
352.776805848387
 30
0.0
 10
329.1479846910621
 20
352.6138762885941
 30
0.0
  0
SPLINE
  5
15F
330
1F
100
AcDbEntity
  8
0
  6
Continuous
 62
     7
370
    15
100
AcDbSpline
210
0.0
220
0.0
230
1.0
 70
     8
 71
     3
 72
     8
 73
     4
 74
     0
 42
0.000000001
 43
0.00000001
 40
0.0
 40
0.0
 40
0.0
 40
0.0
 40
1.0
 40
1.0
 40
1.0
 40
1.0
 10
360.2244707665186
 20
352.6138762885941
 30
0.0
 10
359.2704028754642
 20
352.776805848387
 30
0.0
 10
358.3163349844099
 20
352.776805848387
 30
0.0
 10
357.3622670933556
 20
352.6138762885941
 30
0.0
  0
SPLINE
  5
164
330
1F
100
AcDbEntity
  8
0
  6
Continuous
 62
     7
370
    15
100
AcDbSpline
210
0.0
220
0.0
230
1.0
 70
     8
 71
     3
 72
     8
 73
     4
 74
     0
 42
0.000000001
 43
0.00000001
 40
0.0
 40
0.0
 40
0.0
 40
0.0
 40
1.0
 40
1.0
 40
1.0
 40
1.0
 10
357.3622670933556
 20
352.6138762885941
 30
0.0
 10
356.7767882821648
 20
352.776805848387
 30
0.0
 10
356.191309470974
 20
352.776805848387
 30
0.0
 10
355.6058306597832
 20
352.6138762885941
 30
0.0
  0
SPLINE
  5
167
330
1F
100
AcDbEntity
  8
0
  6
Continuous
 62
     7
370
    15
100
AcDbSpline
210
0.0
220
0.0
230
1.0
 70
     8
 71
     3
 72
     8
 73
     4
 74
     0
 42
0.000000001
 43
0.00000001
 40
0.0
 40
0.0
 40
0.0
 40
0.0
 40
1.0
 40
1.0
 40
1.0
 40
1.0
 10
369.0208517019406
 20
352.6138762885941
 30
0.0
 10
368.0667838108862
 20
352.776805848387
 30
0.0
 10
367.1127159198319
 20
352.776805848387
 30
0.0
 10
366.1586480287776
 20
352.6138762885941
 30
0.0
  0
SPLINE
  5
16C
330
1F
100
AcDbEntity
  8
0
  6
Continuous
 62
     7
370
    15
100
AcDbSpline
210
0.0
220
0.0
230
1.0
 70
     8
 71
     3
 72
     8
 73
     4
 74
     0
 42
0.000000001
 43
0.00000001
 40
0.0
 40
0.0
 40
0.0
 40
0.0
 40
1.0
 40
1.0
 40
1.0
 40
1.0
 10
366.1586480287776
 20
352.6138762885941
 30
0.0
 10
365.5731692175868
 20
352.776805848387
 30
0.0
 10
364.987690406396
 20
352.776805848387
 30
0.0
 10
364.4022115952052
 20
352.6138762885941
 30
0.0
  0
SPLINE
  5
16F
330
1F
100
AcDbEntity
  8
0
  6
Continuous
 62
     7
370
    15
100
AcDbSpline
210
0.0
220
0.0
230
1.0
 70
     8
 71
     3
 72
     8
 73
     4
 74
     0
 42
0.000000001
 43
0.00000001
 40
0.0
 40
0.0
 40
0.0
 40
0.0
 40
1.0
 40
1.0
 40
1.0
 40
1.0
 10
499.0208517019406
 20
352.6138762885941
 30
0.0
 10
498.0667838108862
 20
352.776805848387
 30
0.0
 10
497.1127159198319
 20
352.776805848387
 30
0.0
 10
496.1586480287776
 20
352.6138762885941
 30
0.0
  0
SPLINE
  5
174
330
1F
100
AcDbEntity
  8
0
  6
Continuous
 62
     7
370
    15
100
AcDbSpline
210
0.0
220
0.0
230
1.0
 70
     8
 71
     3
 72
     8
 73
     4
 74
     0
 42
0.000000001
 43
0.00000001
 40
0.0
 40
0.0
 40
0.0
 40
0.0
 40
1.0
 40
1.0
 40
1.0
 40
1.0
 10
496.1586480287776
 20
352.6138762885941
 30
0.0
 10
495.5731692175868
 20
352.776805848387
 30
0.0
 10
494.987690406396
 20
352.776805848387
 30
0.0
 10
494.4022115952052
 20
352.6138762885941
 30
0.0
  0
SPLINE
  5
1BA
330
1F
100
AcDbEntity
  8
0
  6
Continuous
 62
     7
370
    15
100
AcDbSpline
210
0.0
220
0.0
230
1.0
 70
     8
 71
     3
 72
     8
 73
     4
 74
     0
 42
0.000000001
 43
0.00000001
 40
0.0
 40
0.0
 40
0.0
 40
0.0
 40
1.0
 40
1.0
 40
1.0
 40
1.0
 10
494.7644152683753
 20
-1472.435072848132
 30
0.0
 10
495.5977486017086
 20
-1472.598002407925
 30
0.0
 10
496.431081935042
 20
-1472.598002407925
 30
0.0
 10
497.2644152683753
 20
-1472.435072848132
 30
0.0
  0
SPLINE
  5
1BB
330
1F
100
AcDbEntity
  8
0
  6
Continuous
 62
     7
370
    15
100
AcDbSpline
210
0.0
220
0.0
230
1.0
 70
     8
 71
     3
 72
     8
 73
     4
 74
     0
 42
0.000000001
 43
0.00000001
 40
0.0
 40
0.0
 40
0.0
 40
0.0
 40
1.0
 40
1.0
 40
1.0
 40
1.0
 10
497.2644152683753
 20
-1472.435072848132
 30
0.0
 10
498.0977486017086
 20
-1472.598002407925
 30
0.0
 10
498.931081935042
 20
-1472.598002407925
 30
0.0
 10
499.7644152683753
 20
-1472.435072848132
 30
0.0
  0
SPLINE
  5
1BE
330
1F
100
AcDbEntity
  8
0
  6
Continuous
 62
     7
370
    15
100
AcDbSpline
210
0.0
220
0.0
230
1.0
 70
     8
 71
     3
 72
     8
 73
     4
 74
     0
 42
0.000000001
 43
0.00000001
 40
0.0
 40
0.0
 40
0.0
 40
0.0
 40
1.0
 40
1.0
 40
1.0
 40
1.0
 10
805.0208517019405
 20
352.6138762885941
 30
0.0
 10
804.0667838108861
 20
352.776805848387
 30
0.0
 10
803.1127159198318
 20
352.776805848387
 30
0.0
 10
802.1586480287774
 20
352.6138762885941
 30
0.0
  0
SPLINE
  5
1C3
330
1F
100
AcDbEntity
  8
0
  6
Continuous
 62
     7
370
    15
100
AcDbSpline
210
0.0
220
0.0
230
1.0
 70
     8
 71
     3
 72
     8
 73
     4
 74
     0
 42
0.000000001
 43
0.00000001
 40
0.0
 40
0.0
 40
0.0
 40
0.0
 40
1.0
 40
1.0
 40
1.0
 40
1.0
 10
802.1586480287774
 20
352.6138762885941
 30
0.0
 10
801.5731692175867
 20
352.776805848387
 30
0.0
 10
800.9876904063958
 20
352.776805848387
 30
0.0
 10
800.4022115952051
 20
352.6138762885941
 30
0.0
  0
SPLINE
  5
1C6
330
1F
100
AcDbEntity
  8
0
  6
Continuous
 62
     7
370
    15
100
AcDbSpline
210
0.0
220
0.0
230
1.0
 70
     8
 71
     3
 72
     8
 73
     4
 74
     0
 42
0.000000001
 43
0.00000001
 40
0.0
 40
0.0
 40
0.0
 40
0.0
 40
1.0
 40
1.0
 40
1.0
 40
1.0
 10
860.0208517019405
 20
352.6138762885941
 30
0.0
 10
859.0667838108861
 20
352.776805848387
 30
0.0
 10
858.1127159198319
 20
352.776805848387
 30
0.0
 10
857.1586480287775
 20
352.6138762885941
 30
0.0
  0
SPLINE
  5
1CB
330
1F
100
AcDbEntity
  8
0
  6
Continuous
 62
     7
370
    15
100
AcDbSpline
210
0.0
220
0.0
230
1.0
 70
     8
 71
     3
 72
     8
 73
     4
 74
     0
 42
0.000000001
 43
0.00000001
 40
0.0
 40
0.0
 40
0.0
 40
0.0
 40
1.0
 40
1.0
 40
1.0
 40
1.0
 10
857.1586480287775
 20
352.6138762885941
 30
0.0
 10
856.5731692175867
 20
352.776805848387
 30
0.0
 10
855.9876904063959
 20
352.776805848387
 30
0.0
 10
855.4022115952051
 20
352.6138762885941
 30
0.0
  0
SPLINE
  5
1CE
330
1F
100
AcDbEntity
  8
0
  6
Continuous
 62
     7
370
    15
100
AcDbSpline
210
0.0
220
0.0
230
1.0
 70
     8
 71
     3
 72
     8
 73
     4
 74
     0
 42
0.000000001
 43
0.00000001
 40
0.0
 40
0.0
 40
0.0
 40
0.0
 40
1.0
 40
1.0
 40
1.0
 40
1.0
 10
739.0208517019404
 20
352.6138762885941
 30
0.0
 10
738.0667838108861
 20
352.776805848387
 30
0.0
 10
737.1127159198318
 20
352.776805848387
 30
0.0
 10
736.1586480287774
 20
352.6138762885941
 30
0.0
  0
SPLINE
  5
1D3
330
1F
100
AcDbEntity
  8
0
  6
Continuous
 62
     7
370
    15
100
AcDbSpline
210
0.0
220
0.0
230
1.0
 70
     8
 71
     3
 72
     8
 73
     4
 74
     0
 42
0.000000001
 43
0.00000001
 40
0.0
 40
0.0
 40
0.0
 40
0.0
 40
1.0
 40
1.0
 40
1.0
 40
1.0
 10
736.1586480287774
 20
352.6138762885941
 30
0.0
 10
735.5731692175866
 20
352.776805848387
 30
0.0
 10
734.9876904063958
 20
352.776805848387
 30
0.0
 10
734.402211595205
 20
352.6138762885941
 30
0.0
  0
SPLINE
  5
1D6
330
1F
100
AcDbEntity
  8
0
  6
Continuous
 62
     7
370
    15
100
AcDbSpline
210
0.0
220
0.0
230
1.0
 70
     8
 71
     3
 72
     8
 73
     4
 74
     0
 42
0.000000001
 43
0.00000001
 40
0.0
 40
0.0
 40
0.0
 40
0.0
 40
1.0
 40
1.0
 40
1.0
 40
1.0
 10
864.7644152683752
 20
-1472.435072848132
 30
0.0
 10
865.5977486017084
 20
-1472.598002407925
 30
0.0
 10
866.4310819350417
 20
-1472.598002407925
 30
0.0
 10
867.264415268375
 20
-1472.435072848132
 30
0.0
  0
SPLINE
  5
1D7
330
1F
100
AcDbEntity
  8
0
  6
Continuous
 62
     7
370
    15
100
AcDbSpline
210
0.0
220
0.0
230
1.0
 70
     8
 71
     3
 72
     8
 73
     4
 74
     0
 42
0.000000001
 43
0.00000001
 40
0.0
 40
0.0
 40
0.0
 40
0.0
 40
1.0
 40
1.0
 40
1.0
 40
1.0
 10
867.264415268375
 20
-1472.435072848132
 30
0.0
 10
868.0977486017084
 20
-1472.598002407925
 30
0.0
 10
868.9310819350418
 20
-1472.598002407925
 30
0.0
 10
869.7644152683752
 20
-1472.435072848132
 30
0.0
  0
SPLINE
  5
1DA
330
1F
100
AcDbEntity
  8
0
  6
Continuous
 62
     7
370
    15
100
AcDbSpline
210
0.0
220
0.0
230
1.0
 70
     8
 71
     3
 72
     8
 73
     4
 74
     0
 42
0.000000001
 43
0.00000001
 40
0.0
 40
0.0
 40
0.0
 40
0.0
 40
1.0
 40
1.0
 40
1.0
 40
1.0
 10
855.7644152683752
 20
-1472.435072848132
 30
0.0
 10
856.5977486017085
 20
-1472.598002407925
 30
0.0
 10
857.4310819350418
 20
-1472.598002407925
 30
0.0
 10
858.2644152683752
 20
-1472.435072848132
 30
0.0
  0
SPLINE
  5
1DB
330
1F
100
AcDbEntity
  8
0
  6
Continuous
 62
     7
370
    15
100
AcDbSpline
210
0.0
220
0.0
230
1.0
 70
     8
 71
     3
 72
     8
 73
     4
 74
     0
 42
0.000000001
 43
0.00000001
 40
0.0
 40
0.0
 40
0.0
 40
0.0
 40
1.0
 40
1.0
 40
1.0
 40
1.0
 10
858.2644152683752
 20
-1472.435072848132
 30
0.0
 10
859.0977486017085
 20
-1472.598002407925
 30
0.0
 10
859.9310819350419
 20
-1472.598002407925
 30
0.0
 10
860.7644152683752
 20
-1472.435072848132
 30
0.0
  0
SPLINE
  5
1DE
330
1F
100
AcDbEntity
  8
0
  6
Continuous
 62
     7
370
    15
100
AcDbSpline
210
0.0
220
0.0
230
1.0
 70
     8
 71
     3
 72
     8
 73
     4
 74
     0
 42
0.000000001
 43
0.00000001
 40
0.0
 40
0.0
 40
0.0
 40
0.0
 40
1.0
 40
1.0
 40
1.0
 40
1.0
 10
869.0208517019405
 20
352.6138762885941
 30
0.0
 10
868.0667838108862
 20
352.776805848387
 30
0.0
 10
867.1127159198319
 20
352.776805848387
 30
0.0
 10
866.1586480287775
 20
352.6138762885941
 30
0.0
  0
SPLINE
  5
1E3
330
1F
100
AcDbEntity
  8
0
  6
Continuous
 62
     7
370
    15
100
AcDbSpline
210
0.0
220
0.0
230
1.0
 70
     8
 71
     3
 72
     8
 73
     4
 74
     0
 42
0.000000001
 43
0.00000001
 40
0.0
 40
0.0
 40
0.0
 40
0.0
 40
1.0
 40
1.0
 40
1.0
 40
1.0
 10
866.1586480287775
 20
352.6138762885941
 30
0.0
 10
865.5731692175867
 20
352.776805848387
 30
0.0
 10
864.9876904063959
 20
352.776805848387
 30
0.0
 10
864.4022115952051
 20
352.6138762885941
 30
0.0
  0
LWPOLYLINE
  5
1E6
330
1F
100
AcDbEntity
  8
0
  6
Continuous
 62
     7
370
    15
100
AcDbPolyline
 90
        9
 70
   128
 43
0.0
 10
250.8713073815
 20
-1459.9105982806
 10
251.1146518086
 20
-1459.8145246826
 10
251.1680853421
 20
-1459.5299959431
 10
251.0295545615
 20
-1459.0679463421
 10
250.7043831268
 20
-1458.4461321865
 10
250.205067194
 20
-1457.6884494457
 10
249.5507951944
 20
-1456.8240154424
 10
248.7667104339
 20
-1455.8860498906
 10
247.8829448502
 20
-1454.9105982806
  0
LWPOLYLINE
  5
1E8
330
1F
100
AcDbEntity
  8
0
  6
Continuous
 62
     7
370
    15
100
AcDbPolyline
 90
        9
 70
   128
 43
0.0
 10
200.8983134265
 20
-1454.9105982806
 10
199.9488296354
 20
-1455.8860498906
 10
198.9701157664
 20
-1456.8240154424
 10
197.9997832447
 20
-1457.6884494457
 10
197.0751214049
 20
-1458.4461321865
 10
196.2316644831
 20
-1459.0679463421
 10
195.5018260555
 20
-1459.5299959431
 10
194.9136534038
 20
-1459.8145246826
 10
194.4897496731
 20
-1459.9105982806
  0
LWPOLYLINE
  5
1E9
330
1F
100
AcDbEntity
  8
0
  6
Continuous
 62
     7
370
    15
100
AcDbPolyline
 90
       10
 70
   128
 43
0.0
 10
200.8983134265
 20
335.0894017194
 10
200.0564535932
 20
335.9576426078
 10
199.1882127031
 20
336.7995024361
 10
198.3199718165
 20
337.5894017194
 10
197.4781119933
 20
338.3033397679
 10
196.6882127182
 20
338.919623935
 10
195.974274681
 20
339.4195287384
 10
195.3579905277
 20
339.7878648234
 10
194.8580857404
 20
340.0134404845
 10
194.4897496731
 20
340.0894017194
  0
LWPOLYLINE
  5
1EB
330
1F
100
AcDbEntity
  8
0
  6
Continuous
 62
     7
370
    15
100
AcDbPolyline
 90
        9
 70
   128
 43
0.0
 10
247.8829448502
 20
335.0894017194
 10
248.7667104339
 20
336.0648533295
 10
249.5507951944
 20
337.0028188813
 10
250.205067194
 20
337.8672528845
 10
250.7043831268
 20
338.6249356254
 10
251.0295545615
 20
339.246749781
 10
251.1680853421
 20
339.708799382
 10
251.1146518086
 20
339.9933281215
 10
250.8713073815
 20
340.0894017194
  0
LWPOLYLINE
  5
257
330
1F
100
AcDbEntity
  8
0
  6
Continuous
 62
     7
370
    15
100
AcDbPolyline
 90
        9
 70
   128
 43
0.0
 10
440.2495329386
 20
-1459.9105982806
 10
440.7303300935
 20
-1459.8145246826
 10
441.0352527126
 20
-1459.5299959431
 10
441.1525827905
 20
-1459.0679463421
 10
441.0778113982
 20
-1458.4461321865
 10
440.8138119583
 20
-1457.6884494457
 10
440.3707298213
 20
-1456.8240154424
 10
439.7655923852
 20
-1455.8860498906
 10
439.0216547424
 20
-1454.9105982806
  0
LWPOLYLINE
  5
259
330
1F
100
AcDbEntity
  8
0
  6
Continuous
 62
     7
370
    15
100
AcDbPolyline
 90
       10
 70
   128
 43
0.0
 10
398.0640518834
 20
-1454.9105982806
 10
397.3092610005
 20
-1455.7788391689
 10
396.4902649106
 20
-1456.6206989972
 10
395.6319483954
 20
-1457.4105982806
 10
394.760390968
 20
-1458.124536329
 10
393.9020744596
 20
-1458.7408204962
 10
393.0830783831
 20
-1459.2407252995
 10
392.3282875198
 20
-1459.6090613845
 10
391.6606358083
 20
-1459.8346370456
 10
391.1004095078
 20
-1459.9105982806
  0
LWPOLYLINE
  5
25A
330
1F
100
AcDbEntity
  8
0
  6
Continuous
 62
     7
370
    15
100
AcDbPolyline
 90
        9
 70
   128
 43
0.0
 10
398.0640518834
 20
335.0894017194
 10
397.2099031401
 20
336.0648533295
 10
396.2783677536
 20
337.0028188813
 10
395.3052441065
 20
337.8672528845
 10
394.3279287946
 20
338.6249356254
 10
393.3839794975
 20
339.2467497809
 10
392.5096716571
 20
339.708799382
 10
391.7386044336
 20
339.9933281215
 10
391.1004095078
 20
340.0894017194
  0
LWPOLYLINE
  5
25C
330
1F
100
AcDbEntity
  8
0
  6
Continuous
 62
     7
370
    15
100
AcDbPolyline
 90
        9
 70
   128
 43
0.0
 10
439.0216547424
 20
335.0894017194
 10
439.7655923852
 20
336.0648533295
 10
440.3707298213
 20
337.0028188813
 10
440.8138119583
 20
337.8672528845
 10
441.0778113982
 20
338.6249356254
 10
441.1525827905
 20
339.2467497809
 10
441.0352527126
 20
339.708799382
 10
440.7303300935
 20
339.9933281215
 10
440.2495329386
 20
340.0894017194
  0
LINE
  5
2F5
330
1F
100
AcDbEntity
  8
0
  6
Continuous
 62
     7
370
    15
100
AcDbLine
 10
723.9898849409
 20
340.0772219629
 30
0.0
 11
723.9898849409
 21
-1459.898418524
 31
0.0
  0
LINE
  5
2F6
330
1F
100
AcDbEntity
  8
0
  6
Continuous
 62
     7
370
    15
100
AcDbLine
 10
655.3949702072
 20
340.0863558506
 30
0.0
 11
655.3949702072
 21
-1459.9075524117
 31
0.0
  0
LINE
  5
2F7
330
1F
100
AcDbEntity
  8
0
  6
Continuous
 62
     7
370
    15
100
AcDbLine
 10
859.5460414202
 20
-1459.6522165923
 30
0.0
 11
859.5460414202
 21
339.8310200311
 31
0.0
  0
LINE
  5
2F8
330
1F
100
AcDbEntity
  8
0
  6
Continuous
 62
     7
370
    15
100
AcDbLine
 10
918.3841451586
 20
-1458.1245364151
 30
0.0
 11
918.3841451586
 21
338.303339854
 31
0.0
  0
LINE
  5
2F9
330
1F
100
AcDbEntity
  8
0
  6
Continuous
 62
     7
370
    15
100
AcDbLine
 10
937.8796544549
 20
-1455.6064638966
 30
0.0
 11
937.8796544549
 21
335.7852673355
 31
0.0
  0
LINE
  5
2FA
330
1F
100
AcDbEntity
  8
0
  6
Continuous
 62
     7
370
    15
100
AcDbLine
 10
938.0096427957
 20
-1455.1183147896
 30
0.0
 11
938.0096427957
 21
335.2971182285
 31
0.0
  0
LINE
  5
2FB
330
1F
100
AcDbEntity
  8
0
  6
Continuous
 62
     7
370
    15
100
AcDbLine
 10
579.1338603296
 20
-1459.9075524117
 30
0.0
 11
579.1338603296
 21
340.0863558506
 31
0.0
  0
LINE
  5
2FC
330
1F
100
AcDbEntity
  8
0
  6
Continuous
 62
     7
370
    15
100
AcDbLine
 10
510.5389455959
 20
-1459.898418524
 30
0.0
 11
510.5389455959
 21
340.0772219629
 31
0.0
  0
LINE
  5
2FD
330
1F
100
AcDbEntity
  8
0
  6
Continuous
 62
     7
370
    15
100
AcDbLine
 10
796.2644152684
 20
-1468.5105982798
 30
0.0
 11
796.2644152684
 21
-1469.5674525293
 31
0.0
  0
LINE
  5
2FE
330
1F
100
AcDbEntity
  8
0
  6
Continuous
 62
     7
370
    15
100
AcDbLine
 10
810.2644152684
 20
-1469.5674525293
 30
0.0
 11
810.2644152684
 21
-1468.5105982798
 31
0.0
  0
LINE
  5
2FF
330
1F
100
AcDbEntity
  8
0
  6
Continuous
 62
     7
370
    15
100
AcDbLine
 10
730.2644152684
 20
-1468.5105982798
 30
0.0
 11
730.2644152684
 21
-1469.5674525293
 31
0.0
  0
LINE
  5
300
330
1F
100
AcDbEntity
  8
0
  6
Continuous
 62
     7
370
    15
100
AcDbLine
 10
744.2644152684
 20
-1469.5674525293
 30
0.0
 11
744.2644152684
 21
-1468.5105982798
 31
0.0
  0
LINE
  5
301
330
1F
100
AcDbEntity
  8
0
  6
Continuous
 62
     7
370
    15
100
AcDbLine
 10
351.468034333
 20
-1468.5105982798
 30
0.0
 11
351.468034333
 21
-1469.5674525293
 31
0.0
  0
LINE
  5
302
330
1F
100
AcDbEntity
  8
0
  6
Continuous
 62
     7
370
    15
100
AcDbLine
 10
354.468034333
 20
-1461.9105982798
 30
0.0
 11
354.468034333
 21
-1462.4105982798
 31
0.0
  0
LINE
  5
303
330
1F
100
AcDbEntity
  8
0
  6
Continuous
 62
     7
370
    15
100
AcDbLine
 10
354.468034333
 20
-1464.4105982798
 30
0.0
 11
354.468034333
 21
-1464.9105982798
 31
0.0
  0
LINE
  5
304
330
1F
100
AcDbEntity
  8
0
  6
Continuous
 62
     7
370
    15
100
AcDbLine
 10
362.468034333
 20
-1464.9105982798
 30
0.0
 11
362.468034333
 21
-1464.4105982798
 31
0.0
  0
LINE
  5
305
330
1F
100
AcDbEntity
  8
0
  6
Continuous
 62
     7
370
    15
100
AcDbLine
 10
362.468034333
 20
-1462.4105982798
 30
0.0
 11
362.468034333
 21
-1461.9105982798
 31
0.0
  0
LINE
  5
306
330
1F
100
AcDbEntity
  8
0
  6
Continuous
 62
     7
370
    15
100
AcDbLine
 10
360.2644152684
 20
-1468.5105982798
 30
0.0
 11
360.2644152684
 21
-1469.5674525293
 31
0.0
  0
LINE
  5
307
330
1F
100
AcDbEntity
  8
0
  6
Continuous
 62
     7
370
    15
100
AcDbLine
 10
374.2644152684
 20
-1469.5674525293
 30
0.0
 11
374.2644152684
 21
-1468.5105982798
 31
0.0
  0
LINE
  5
308
330
1F
100
AcDbEntity
  8
0
  6
Continuous
 62
     7
370
    15
100
AcDbLine
 10
363.2644152684
 20
-1461.9105982798
 30
0.0
 11
363.2644152684
 21
-1462.4105982798
 31
0.0
  0
LINE
  5
309
330
1F
100
AcDbEntity
  8
0
  6
Continuous
 62
     7
370
    15
100
AcDbLine
 10
363.2644152684
 20
-1464.4105982798
 30
0.0
 11
363.2644152684
 21
-1464.9105982798
 31
0.0
  0
LINE
  5
30A
330
1F
100
AcDbEntity
  8
0
  6
Continuous
 62
     7
370
    15
100
AcDbLine
 10
371.2644152684
 20
-1464.9105982798
 30
0.0
 11
371.2644152684
 21
-1464.4105982798
 31
0.0
  0
LINE
  5
30B
330
1F
100
AcDbEntity
  8
0
  6
Continuous
 62
     7
370
    15
100
AcDbLine
 10
371.2644152684
 20
-1462.4105982798
 30
0.0
 11
371.2644152684
 21
-1461.9105982798
 31
0.0
  0
LINE
  5
30C
330
1F
100
AcDbEntity
  8
0
  6
Continuous
 62
     7
370
    15
100
AcDbLine
 10
325.0101883642
 20
-1468.5105982798
 30
0.0
 11
325.0101883642
 21
-1469.5674525293
 31
0.0
  0
LINE
  5
30D
330
1F
100
AcDbEntity
  8
0
  6
Continuous
 62
     7
370
    15
100
AcDbLine
 10
339.0101883642
 20
-1469.5674525293
 30
0.0
 11
339.0101883642
 21
-1468.5105982798
 31
0.0
  0
LINE
  5
30E
330
1F
100
AcDbEntity
  8
0
  6
Continuous
 62
     7
370
    15
100
AcDbLine
 10
339.0101883642
 20
348.6894017202
 30
0.0
 11
339.0101883642
 21
349.7462559697
 31
0.0
  0
LINE
  5
30F
330
1F
100
AcDbEntity
  8
0
  6
Continuous
 62
     7
370
    15
100
AcDbLine
 10
325.0101883642
 20
349.7462559697
 30
0.0
 11
325.0101883642
 21
348.6894017202
 31
0.0
  0
LINE
  5
310
330
1F
100
AcDbEntity
  8
0
  6
Continuous
 62
     7
370
    15
100
AcDbLine
 10
351.4680343329
 20
349.7462559697
 30
0.0
 11
351.4680343329
 21
348.6894017202
 31
0.0
  0
LINE
  5
311
330
1F
100
AcDbEntity
  8
0
  6
Continuous
 62
     7
370
    15
100
AcDbLine
 10
362.4680343329
 20
342.0894017202
 30
0.0
 11
362.4680343329
 21
342.5894017202
 31
0.0
  0
LINE
  5
312
330
1F
100
AcDbEntity
  8
0
  6
Continuous
 62
     7
370
    15
100
AcDbLine
 10
362.4680343329
 20
344.5894017202
 30
0.0
 11
362.4680343329
 21
345.0894017202
 31
0.0
  0
LINE
  5
313
330
1F
100
AcDbEntity
  8
0
  6
Continuous
 62
     7
370
    15
100
AcDbLine
 10
354.4680343329
 20
345.0894017202
 30
0.0
 11
354.4680343329
 21
344.5894017202
 31
0.0
  0
LINE
  5
314
330
1F
100
AcDbEntity
  8
0
  6
Continuous
 62
     7
370
    15
100
AcDbLine
 10
354.4680343329
 20
342.5894017202
 30
0.0
 11
354.4680343329
 21
342.0894017202
 31
0.0
  0
LINE
  5
315
330
1F
100
AcDbEntity
  8
0
  6
Continuous
 62
     7
370
    15
100
AcDbLine
 10
374.2644152684
 20
348.6894017202
 30
0.0
 11
374.2644152684
 21
349.7462559697
 31
0.0
  0
LINE
  5
316
330
1F
100
AcDbEntity
  8
0
  6
Continuous
 62
     7
370
    15
100
AcDbLine
 10
360.2644152684
 20
349.7462559697
 30
0.0
 11
360.2644152684
 21
348.6894017202
 31
0.0
  0
LINE
  5
317
330
1F
100
AcDbEntity
  8
0
  6
Continuous
 62
     7
370
    15
100
AcDbLine
 10
371.2644152684
 20
342.0894017202
 30
0.0
 11
371.2644152684
 21
342.5894017202
 31
0.0
  0
LINE
  5
318
330
1F
100
AcDbEntity
  8
0
  6
Continuous
 62
     7
370
    15
100
AcDbLine
 10
371.2644152684
 20
344.5894017202
 30
0.0
 11
371.2644152684
 21
345.0894017202
 31
0.0
  0
LINE
  5
319
330
1F
100
AcDbEntity
  8
0
  6
Continuous
 62
     7
370
    15
100
AcDbLine
 10
363.2644152684
 20
345.0894017202
 30
0.0
 11
363.2644152684
 21
344.5894017202
 31
0.0
  0
LINE
  5
31A
330
1F
100
AcDbEntity
  8
0
  6
Continuous
 62
     7
370
    15
100
AcDbLine
 10
363.2644152684
 20
342.5894017202
 30
0.0
 11
363.2644152684
 21
342.0894017202
 31
0.0
  0
LINE
  5
31B
330
1F
100
AcDbEntity
  8
0
  6
Continuous
 62
     7
370
    15
100
AcDbLine
 10
504.2644152684
 20
348.6894017202
 30
0.0
 11
504.2644152684
 21
349.7462559697
 31
0.0
  0
LINE
  5
31C
330
1F
100
AcDbEntity
  8
0
  6
Continuous
 62
     7
370
    15
100
AcDbLine
 10
490.2644152684
 20
349.7462559697
 30
0.0
 11
490.2644152684
 21
348.6894017202
 31
0.0
  0
LINE
  5
31D
330
1F
100
AcDbEntity
  8
0
  6
Continuous
 62
     7
370
    15
100
AcDbLine
 10
897.0870454147
 20
-1464.9105982798
 30
0.0
 11
897.0870454147
 21
-1459.9105982806
 31
0.0
  0
LINE
  5
31E
330
1F
100
AcDbEntity
  8
0
  6
Continuous
 62
     7
370
    15
100
AcDbLine
 10
175.6177431469
 20
-1462.4105982798
 30
0.0
 11
175.6177431469
 21
-1464.4105982798
 31
0.0
  0
LINE
  5
31F
330
1F
100
AcDbEntity
  8
0
  6
Continuous
 62
     7
370
    15
100
AcDbLine
 10
341.1488792025
 20
-1456.6206991028
 30
0.0
 11
341.1488792025
 21
336.7995025417
 31
0.0
  0
LINE
  5
320
330
1F
100
AcDbEntity
  8
0
  6
Continuous
 62
     7
370
    15
100
AcDbLine
 10
490.2644152684
 20
-1468.5105982798
 30
0.0
 11
490.2644152684
 21
-1469.5674525293
 31
0.0
  0
LINE
  5
321
330
1F
100
AcDbEntity
  8
0
  6
Continuous
 62
     7
370
    15
100
AcDbLine
 10
504.2644152684
 20
-1469.5674525293
 30
0.0
 11
504.2644152684
 21
-1468.5105982798
 31
0.0
  0
LINE
  5
322
330
1F
100
AcDbEntity
  8
0
  6
Continuous
 62
     7
370
    15
100
AcDbLine
 10
810.2644152684
 20
348.6894017202
 30
0.0
 11
810.2644152684
 21
349.7462559697
 31
0.0
  0
LINE
  5
323
330
1F
100
AcDbEntity
  8
0
  6
Continuous
 62
     7
370
    15
100
AcDbLine
 10
796.2644152684
 20
349.7462559697
 30
0.0
 11
796.2644152684
 21
348.6894017202
 31
0.0
  0
LINE
  5
324
330
1F
100
AcDbEntity
  8
0
  6
Continuous
 62
     7
370
    15
100
AcDbLine
 10
851.2644152684
 20
349.7462559697
 30
0.0
 11
851.2644152684
 21
348.6894017202
 31
0.0
  0
LINE
  5
325
330
1F
100
AcDbEntity
  8
0
  6
Continuous
 62
     7
370
    15
100
AcDbLine
 10
744.2644152684
 20
348.6894017202
 30
0.0
 11
744.2644152684
 21
349.7462559697
 31
0.0
  0
LINE
  5
326
330
1F
100
AcDbEntity
  8
0
  6
Continuous
 62
     7
370
    15
100
AcDbLine
 10
730.2644152684
 20
349.7462559697
 30
0.0
 11
730.2644152684
 21
348.6894017202
 31
0.0
  0
LINE
  5
327
330
1F
100
AcDbEntity
  8
0
  6
Continuous
 62
     7
370
    15
100
AcDbLine
 10
860.2644152684
 20
-1468.5105982798
 30
0.0
 11
860.2644152684
 21
-1469.5674525293
 31
0.0
  0
LINE
  5
328
330
1F
100
AcDbEntity
  8
0
  6
Continuous
 62
     7
370
    15
100
AcDbLine
 10
874.2644152684
 20
-1469.5674525293
 30
0.0
 11
874.2644152684
 21
-1468.5105982798
 31
0.0
  0
LINE
  5
329
330
1F
100
AcDbEntity
  8
0
  6
Continuous
 62
     7
370
    15
100
AcDbLine
 10
851.2644152684
 20
-1468.5105982798
 30
0.0
 11
851.2644152684
 21
-1469.5674525293
 31
0.0
  0
LINE
  5
32A
330
1F
100
AcDbEntity
  8
0
  6
Continuous
 62
     7
370
    15
100
AcDbLine
 10
874.2644152684
 20
348.6894017202
 30
0.0
 11
874.2644152684
 21
349.7462559697
 31
0.0
  0
LINE
  5
32B
330
1F
100
AcDbEntity
  8
0
  6
Continuous
 62
     7
370
    15
100
AcDbLine
 10
860.2644152684
 20
349.7462559697
 30
0.0
 11
860.2644152684
 21
348.6894017202
 31
0.0
  0
LINE
  5
32C
330
1F
100
AcDbEntity
  8
0
  6
Continuous
 62
     7
370
    15
100
AcDbLine
 10
251.1728442391
 20
-1459.6090614229
 30
0.0
 11
251.1728442391
 21
339.7878648618
 31
0.0
  0
LINE
  5
32D
330
1F
100
AcDbEntity
  8
0
  6
Continuous
 62
     7
370
    15
100
AcDbLine
 10
505.2644152684
 20
-1468.5105982798
 30
0.0
 11
505.2644152684
 21
-1466.9105982798
 31
0.0
  0
LINE
  5
32E
330
1F
100
AcDbEntity
  8
0
  6
Continuous
 62
     7
370
    15
100
AcDbLine
 10
489.2644152684
 20
-1466.9105982798
 30
0.0
 11
489.2644152684
 21
-1468.5105982798
 31
0.0
  0
LINE
  5
32F
330
1F
100
AcDbEntity
  8
0
  6
Continuous
 62
     7
370
    15
100
AcDbLine
 10
795.2644152684
 20
348.6894017202
 30
0.0
 11
795.2644152684
 21
347.0894017202
 31
0.0
  0
LINE
  5
330
330
1F
100
AcDbEntity
  8
0
  6
Continuous
 62
     7
370
    15
100
AcDbLine
 10
811.2644152684
 20
347.0894017202
 30
0.0
 11
811.2644152684
 21
348.6894017202
 31
0.0
  0
LINE
  5
331
330
1F
100
AcDbEntity
  8
0
  6
Continuous
 62
     7
370
    15
100
AcDbLine
 10
850.2644152684
 20
348.6894017202
 30
0.0
 11
850.2644152684
 21
347.0894017202
 31
0.0
  0
LINE
  5
332
330
1F
100
AcDbEntity
  8
0
  6
Continuous
 62
     7
370
    15
100
AcDbLine
 10
729.2644152684
 20
348.6894017202
 30
0.0
 11
729.2644152684
 21
347.0894017202
 31
0.0
  0
LINE
  5
333
330
1F
100
AcDbEntity
  8
0
  6
Continuous
 62
     7
370
    15
100
AcDbLine
 10
745.2644152684
 20
347.0894017202
 30
0.0
 11
745.2644152684
 21
348.6894017202
 31
0.0
  0
LINE
  5
334
330
1F
100
AcDbEntity
  8
0
  6
Continuous
 62
     7
370
    15
100
AcDbLine
 10
875.2644152684
 20
-1468.5105982798
 30
0.0
 11
875.2644152684
 21
-1466.9105982798
 31
0.0
  0
LINE
  5
335
330
1F
100
AcDbEntity
  8
0
  6
Continuous
 62
     7
370
    15
100
AcDbLine
 10
859.2644152684
 20
-1466.9105982798
 30
0.0
 11
859.2644152684
 21
-1468.5105982798
 31
0.0
  0
LINE
  5
336
330
1F
100
AcDbEntity
  8
0
  6
Continuous
 62
     7
370
    15
100
AcDbLine
 10
850.2644152684
 20
-1466.9105982798
 30
0.0
 11
850.2644152684
 21
-1468.5105982798
 31
0.0
  0
LINE
  5
337
330
1F
100
AcDbEntity
  8
0
  6
Continuous
 62
     7
370
    15
100
AcDbLine
 10
859.2644152684
 20
348.6894017202
 30
0.0
 11
859.2644152684
 21
347.0894017202
 31
0.0
  0
LINE
  5
338
330
1F
100
AcDbEntity
  8
0
  6
Continuous
 62
     7
370
    15
100
AcDbLine
 10
875.2644152684
 20
347.0894017202
 30
0.0
 11
875.2644152684
 21
348.6894017202
 31
0.0
  0
LINE
  5
339
330
1F
100
AcDbEntity
  8
0
  6
Continuous
 62
     7
370
    15
100
AcDbLine
 10
317.2074676913
 20
-1456.6206991028
 30
0.0
 11
317.2074676913
 21
336.7995025417
 31
0.0
  0
LINE
  5
33A
330
1F
100
AcDbEntity
  8
0
  6
Continuous
 62
     7
370
    15
100
AcDbLine
 10
605.2644152684
 20
-1471.9105982798
 30
0.0
 11
605.2644152684
 21
-1484.9105982798
 31
0.0
  0
LINE
  5
33B
330
1F
100
AcDbEntity
  8
0
  6
Continuous
 62
     7
370
    15
100
AcDbLine
 10
629.2644152684
 20
-1484.9105982798
 30
0.0
 11
629.2644152684
 21
-1471.9105982798
 31
0.0
  0
LINE
  5
33C
330
1F
100
AcDbEntity
  8
0
  6
Continuous
 62
     7
370
    15
100
AcDbLine
 10
605.2644152684
 20
-1484.9105982798
 30
0.0
 11
606.2644152684
 21
-1485.9105982798
 31
0.0
  0
LINE
  5
33D
330
1F
100
AcDbEntity
  8
0
  6
Continuous
 62
     7
370
    15
100
AcDbLine
 10
628.2644152684
 20
-1485.9105982798
 30
0.0
 11
629.2644152684
 21
-1484.9105982798
 31
0.0
  0
LINE
  5
33E
330
1F
100
AcDbEntity
  8
0
  6
Continuous
 62
     7
370
    15
100
AcDbLine
 10
629.2644152684
 20
365.0894017202
 30
0.0
 11
628.2644152684
 21
366.0894017202
 31
0.0
  0
LINE
  5
33F
330
1F
100
AcDbEntity
  8
0
  6
Continuous
 62
     7
370
    15
100
AcDbLine
 10
606.2644152684
 20
366.0894017202
 30
0.0
 11
605.2644152684
 21
365.0894017202
 31
0.0
  0
LINE
  5
340
330
1F
100
AcDbEntity
  8
0
  6
Continuous
 62
     7
370
    15
100
AcDbLine
 10
629.2644152684
 20
352.0894017202
 30
0.0
 11
629.2644152684
 21
365.0894017202
 31
0.0
  0
LINE
  5
341
330
1F
100
AcDbEntity
  8
0
  6
Continuous
 62
     7
370
    15
100
AcDbLine
 10
605.2644152684
 20
365.0894017202
 30
0.0
 11
605.2644152684
 21
352.0894017202
 31
0.0
  0
LINE
  5
342
330
1F
100
AcDbEntity
  8
0
  6
Continuous
 62
     7
370
    15
100
AcDbLine
 10
897.0870454147
 20
340.0894017194
 30
0.0
 11
897.0870454147
 21
345.0894017202
 31
0.0
  0
LINE
  5
343
330
1F
100
AcDbEntity
  8
0
  6
Continuous
 62
     7
370
    15
100
AcDbLine
 10
293.2660561802
 20
-1456.6206991028
 30
0.0
 11
293.2660561802
 21
336.7995025417
 31
0.0
  0
LINE
  5
344
330
1F
100
AcDbEntity
  8
0
  6
Continuous
 62
     7
370
    15
100
AcDbLine
 10
920.0870454147
 20
345.0894017202
 30
0.0
 11
920.0870454147
 21
347.0894017202
 31
0.0
  0
LINE
  5
345
330
1F
100
AcDbEntity
  8
0
  6
Continuous
 62
     7
370
    15
100
AcDbLine
 10
264.8093155557
 20
347.0894017202
 30
0.0
 11
264.8093155557
 21
345.0894017202
 31
0.0
  0
LINE
  5
346
330
1F
100
AcDbEntity
  8
0
  6
Continuous
 62
     7
370
    15
100
AcDbLine
 10
389.0317022248
 20
-1456.6206991028
 30
0.0
 11
389.0317022248
 21
336.7995025417
 31
0.0
  0
LINE
  5
347
330
1F
100
AcDbEntity
  8
0
  6
Continuous
 62
     7
370
    15
100
AcDbLine
 10
811.2644152684
 20
-1468.5105982798
 30
0.0
 11
811.2644152684
 21
-1466.9105982798
 31
0.0
  0
LINE
  5
348
330
1F
100
AcDbEntity
  8
0
  6
Continuous
 62
     7
370
    15
100
AcDbLine
 10
795.2644152684
 20
-1466.9105982798
 30
0.0
 11
795.2644152684
 21
-1468.5105982798
 31
0.0
  0
LINE
  5
349
330
1F
100
AcDbEntity
  8
0
  6
Continuous
 62
     7
370
    15
100
AcDbLine
 10
745.2644152684
 20
-1468.5105982798
 30
0.0
 11
745.2644152684
 21
-1466.9105982798
 31
0.0
  0
LINE
  5
34A
330
1F
100
AcDbEntity
  8
0
  6
Continuous
 62
     7
370
    15
100
AcDbLine
 10
729.2644152684
 20
-1466.9105982798
 30
0.0
 11
729.2644152684
 21
-1468.5105982798
 31
0.0
  0
LINE
  5
34B
330
1F
100
AcDbEntity
  8
0
  6
Continuous
 62
     7
370
    15
100
AcDbLine
 10
350.468034333
 20
-1466.9105982798
 30
0.0
 11
350.468034333
 21
-1468.5105982798
 31
0.0
  0
LINE
  5
34C
330
1F
100
AcDbEntity
  8
0
  6
Continuous
 62
     7
370
    15
100
AcDbLine
 10
375.2644152684
 20
-1468.5105982798
 30
0.0
 11
375.2644152684
 21
-1466.9105982798
 31
0.0
  0
LINE
  5
34D
330
1F
100
AcDbEntity
  8
0
  6
Continuous
 62
     7
370
    15
100
AcDbLine
 10
359.2644152684
 20
-1466.9105982798
 30
0.0
 11
359.2644152684
 21
-1468.5105982798
 31
0.0
  0
LINE
  5
34E
330
1F
100
AcDbEntity
  8
0
  6
Continuous
 62
     7
370
    15
100
AcDbLine
 10
340.0101883642
 20
-1468.5105982798
 30
0.0
 11
340.0101883642
 21
-1466.9105982798
 31
0.0
  0
LINE
  5
34F
330
1F
100
AcDbEntity
  8
0
  6
Continuous
 62
     7
370
    15
100
AcDbLine
 10
324.0101883642
 20
-1466.9105982798
 30
0.0
 11
324.0101883642
 21
-1468.5105982798
 31
0.0
  0
LINE
  5
350
330
1F
100
AcDbEntity
  8
0
  6
Continuous
 62
     7
370
    15
100
AcDbLine
 10
324.0101883642
 20
348.6894017202
 30
0.0
 11
324.0101883642
 21
347.0894017202
 31
0.0
  0
LINE
  5
351
330
1F
100
AcDbEntity
  8
0
  6
Continuous
 62
     7
370
    15
100
AcDbLine
 10
340.0101883642
 20
347.0894017202
 30
0.0
 11
340.0101883642
 21
348.6894017202
 31
0.0
  0
LINE
  5
352
330
1F
100
AcDbEntity
  8
0
  6
Continuous
 62
     7
370
    15
100
AcDbLine
 10
350.4680343329
 20
348.6894017202
 30
0.0
 11
350.4680343329
 21
347.0894017202
 31
0.0
  0
LINE
  5
353
330
1F
100
AcDbEntity
  8
0
  6
Continuous
 62
     7
370
    15
100
AcDbLine
 10
359.2644152684
 20
348.6894017202
 30
0.0
 11
359.2644152684
 21
347.0894017202
 31
0.0
  0
LINE
  5
354
330
1F
100
AcDbEntity
  8
0
  6
Continuous
 62
     7
370
    15
100
AcDbLine
 10
375.2644152684
 20
347.0894017202
 30
0.0
 11
375.2644152684
 21
348.6894017202
 31
0.0
  0
LINE
  5
355
330
1F
100
AcDbEntity
  8
0
  6
Continuous
 62
     7
370
    15
100
AcDbLine
 10
489.2644152684
 20
348.6894017202
 30
0.0
 11
489.2644152684
 21
347.0894017202
 31
0.0
  0
LINE
  5
356
330
1F
100
AcDbEntity
  8
0
  6
Continuous
 62
     7
370
    15
100
AcDbLine
 10
505.2644152684
 20
347.0894017202
 30
0.0
 11
505.2644152684
 21
348.6894017202
 31
0.0
  0
LINE
  5
357
330
1F
100
AcDbEntity
  8
0
  6
Continuous
 62
     7
370
    15
100
AcDbLine
 10
441.1537726527
 20
-1459.0063585665
 30
0.0
 11
441.1537726527
 21
339.1851620053
 31
0.0
  0
LINE
  5
358
330
1F
100
AcDbEntity
  8
0
  6
Continuous
 62
     7
370
    15
100
AcDbLine
 10
365.0902907137
 20
-1456.6206991028
 30
0.0
 11
365.0902907137
 21
336.7995025417
 31
0.0
  0
LINE
  5
359
330
1F
100
AcDbEntity
  8
0
  6
Continuous
 62
     7
370
    15
100
AcDbLine
 10
920.0870454147
 20
-1466.9105982798
 30
0.0
 11
920.0870454147
 21
-1464.9105982798
 31
0.0
  0
LINE
  5
35A
330
1F
100
AcDbEntity
  8
0
  6
Continuous
 62
     7
370
    15
100
AcDbLine
 10
264.8093155557
 20
-1464.9105982798
 30
0.0
 11
264.8093155557
 21
-1466.9105982798
 31
0.0
  0
LINE
  5
35B
330
1F
100
AcDbEntity
  8
0
  6
Continuous
 62
     7
370
    15
100
AcDbLine
 10
175.6177431469
 20
344.5894017202
 30
0.0
 11
175.6177431469
 21
342.5894017202
 31
0.0
  0
LINE
  5
35C
330
1F
100
AcDbEntity
  8
0
  6
Continuous
 62
     7
370
    15
100
AcDbLine
 10
724.0020646974
 20
340.0894017194
 30
0.0
 11
786.2973849847
 21
340.0894017194
 31
0.0
  0
LINE
  5
35D
330
1F
100
AcDbEntity
  8
0
  6
Continuous
 62
     7
370
    15
100
AcDbLine
 10
724.0020646974
 20
-1459.9105982806
 30
0.0
 11
786.2973849847
 21
-1459.9105982806
 31
0.0
  0
LINE
  5
35E
330
1F
100
AcDbEntity
  8
0
  6
Continuous
 62
     7
370
    15
100
AcDbLine
 10
786.2973849847
 20
-1459.9105982806
 30
0.0
 11
786.2973849847
 21
340.0894017194
 31
0.0
  0
LINE
  5
35F
330
1F
100
AcDbEntity
  8
0
  6
Continuous
 62
     7
370
    15
100
AcDbLine
 10
587.2644083101
 20
340.0894017194
 30
0.0
 11
647.2644090918
 21
340.0894017194
 31
0.0
  0
LINE
  5
360
330
1F
100
AcDbEntity
  8
0
  6
Continuous
 62
     7
370
    15
100
AcDbLine
 10
587.2644083101
 20
-1459.9105982806
 30
0.0
 11
647.2644090918
 21
-1459.9105982806
 31
0.0
  0
LINE
  5
361
330
1F
100
AcDbEntity
  8
0
  6
Continuous
 62
     7
370
    15
100
AcDbLine
 10
587.2644083101
 20
340.0894017194
 30
0.0
 11
587.2644083101
 21
-1459.9105982806
 31
0.0
  0
LINE
  5
362
330
1F
100
AcDbEntity
  8
0
  6
Continuous
 62
     7
370
    15
100
AcDbLine
 10
647.2644083101
 20
-1459.9105982806
 30
0.0
 11
647.2644083101
 21
340.0894017194
 31
0.0
  0
LINE
  5
363
330
1F
100
AcDbEntity
  8
0
  6
Continuous
 62
     7
370
    15
100
AcDbLine
 10
655.398016076
 20
-1459.9105982806
 30
0.0
 11
716.5829488208
 21
-1459.9105982806
 31
0.0
  0
LINE
  5
364
330
1F
100
AcDbEntity
  8
0
  6
Continuous
 62
     7
370
    15
100
AcDbLine
 10
655.398016076
 20
340.0894017194
 30
0.0
 11
716.5829488208
 21
340.0894017194
 31
0.0
  0
LINE
  5
365
330
1F
100
AcDbEntity
  8
0
  6
Continuous
 62
     7
370
    15
100
AcDbLine
 10
716.5829488208
 20
-1459.9105982806
 30
0.0
 11
716.5829488208
 21
340.0894017194
 31
0.0
  0
LINE
  5
366
330
1F
100
AcDbEntity
  8
0
  6
Continuous
 62
     7
370
    15
100
AcDbLine
 10
791.2825777634
 20
340.0894017194
 30
0.0
 11
791.2825777634
 21
-1459.9105982806
 31
0.0
  0
LINE
  5
367
330
1F
100
AcDbEntity
  8
0
  6
Continuous
 62
     7
370
    15
100
AcDbLine
 10
791.2825777634
 20
-1459.9105982806
 30
0.0
 11
933.575520071
 21
-1459.9105982806
 31
0.0
  0
LINE
  5
368
330
1F
100
AcDbEntity
  8
0
  6
Continuous
 62
     7
370
    15
100
AcDbLine
 10
791.2825777634
 20
340.0894017194
 30
0.0
 11
933.575520071
 21
340.0894017194
 31
0.0
  0
LINE
  5
369
330
1F
100
AcDbEntity
  8
0
  6
Continuous
 62
     7
370
    15
100
AcDbLine
 10
579.1308144607
 20
-1459.9105982806
 30
0.0
 11
517.9458817159
 21
-1459.9105982806
 31
0.0
  0
LINE
  5
36A
330
1F
100
AcDbEntity
  8
0
  6
Continuous
 62
     7
370
    15
100
AcDbLine
 10
579.1308144607
 20
340.0894017194
 30
0.0
 11
517.9458817159
 21
340.0894017194
 31
0.0
  0
LINE
  5
36B
330
1F
100
AcDbEntity
  8
0
  6
Continuous
 62
     7
370
    15
100
AcDbLine
 10
517.9458817159
 20
340.0894017194
 30
0.0
 11
517.9458817159
 21
-1459.9105982806
 31
0.0
  0
LINE
  5
36C
330
1F
100
AcDbEntity
  8
0
  6
Continuous
 62
     7
370
    15
100
AcDbLine
 10
510.5267658394
 20
340.0894017194
 30
0.0
 11
448.2314455521
 21
340.0894017194
 31
0.0
  0
LINE
  5
36D
330
1F
100
AcDbEntity
  8
0
  6
Continuous
 62
     7
370
    15
100
AcDbLine
 10
510.5267658394
 20
-1459.9105982806
 30
0.0
 11
448.2314455521
 21
-1459.9105982806
 31
0.0
  0
LINE
  5
36E
330
1F
100
AcDbEntity
  8
0
  6
Continuous
 62
     7
370
    15
100
AcDbLine
 10
448.2314455521
 20
340.0894017194
 30
0.0
 11
448.2314455521
 21
-1459.9105982806
 31
0.0
  0
LINE
  5
36F
330
1F
100
AcDbEntity
  8
0
  6
Continuous
 62
     7
370
    15
100
AcDbLine
 10
796.2644152684
 20
-1469.5674525293
 30
0.0
 11
810.2644152684
 21
-1469.5674525293
 31
0.0
  0
LINE
  5
370
330
1F
100
AcDbEntity
  8
0
  6
Continuous
 62
     7
370
    15
100
AcDbLine
 10
730.2644152684
 20
-1469.5674525293
 30
0.0
 11
744.2644152684
 21
-1469.5674525293
 31
0.0
  0
LINE
  5
371
330
1F
100
AcDbEntity
  8
0
  6
Continuous
 62
     7
370
    15
100
AcDbLine
 10
351.468034333
 20
-1469.5674525293
 30
0.0
 11
374.2644152684
 21
-1469.5674525293
 31
0.0
  0
LINE
  5
372
330
1F
100
AcDbEntity
  8
0
  6
Continuous
 62
     7
370
    15
100
AcDbLine
 10
325.0101883642
 20
-1469.5674525293
 30
0.0
 11
339.0101883642
 21
-1469.5674525293
 31
0.0
  0
LINE
  5
373
330
1F
100
AcDbEntity
  8
0
  6
Continuous
 62
     7
370
    15
100
AcDbLine
 10
334.7176890012
 20
352.6138762886
 30
0.0
 11
333.7666247978
 21
352.6138762886
 31
0.0
  0
LINE
  5
374
330
1F
100
AcDbEntity
  8
0
  6
Continuous
 62
     7
370
    15
100
AcDbLine
 10
333.1159556038
 20
352.6138762886
 30
0.0
 11
333.4166247978
 21
352.6138762886
 31
0.0
  0
LINE
  5
375
330
1F
100
AcDbEntity
  8
0
  6
Continuous
 62
     7
370
    15
100
AcDbLine
 10
330.2537519307
 20
352.6138762886
 30
0.0
 11
330.5544211246
 21
352.6138762886
 31
0.0
  0
LINE
  5
376
330
1F
100
AcDbEntity
  8
0
  6
Continuous
 62
     7
370
    15
100
AcDbLine
 10
329.1479846911
 20
352.6138762886
 30
0.0
 11
329.3025867725
 21
352.6138762886
 31
0.0
  0
LINE
  5
377
330
1F
100
AcDbEntity
  8
0
  6
Continuous
 62
     7
370
    15
100
AcDbLine
 10
339.0101883406
 20
349.7462559697
 30
0.0
 11
325.0101885159
 21
349.7462559697
 31
0.0
  0
LINE
  5
378
330
1F
100
AcDbEntity
  8
0
  6
Continuous
 62
     7
370
    15
100
AcDbLine
 10
361.17553497
 20
352.6138762886
 30
0.0
 11
360.2244707665
 21
352.6138762886
 31
0.0
  0
LINE
  5
379
330
1F
100
AcDbEntity
  8
0
  6
Continuous
 62
     7
370
    15
100
AcDbLine
 10
359.5738015725
 20
352.6138762886
 30
0.0
 11
359.8744707665
 21
352.6138762886
 31
0.0
  0
LINE
  5
37A
330
1F
100
AcDbEntity
  8
0
  6
Continuous
 62
     7
370
    15
100
AcDbLine
 10
356.7115978994
 20
352.6138762886
 30
0.0
 11
357.0122670934
 21
352.6138762886
 31
0.0
  0
LINE
  5
37B
330
1F
100
AcDbEntity
  8
0
  6
Continuous
 62
     7
370
    15
100
AcDbLine
 10
355.6058306598
 20
352.6138762886
 30
0.0
 11
355.7604327413
 21
352.6138762886
 31
0.0
  0
LINE
  5
37C
330
1F
100
AcDbEntity
  8
0
  6
Continuous
 62
     7
370
    15
100
AcDbLine
 10
360.2644152684
 20
349.7462559697
 30
0.0
 11
351.4680344846
 21
349.7462559697
 31
0.0
  0
LINE
  5
37D
330
1F
100
AcDbEntity
  8
0
  6
Continuous
 62
     7
370
    15
100
AcDbLine
 10
369.9719159054
 20
352.6138762886
 30
0.0
 11
369.0208517019
 21
352.6138762886
 31
0.0
  0
LINE
  5
37E
330
1F
100
AcDbEntity
  8
0
  6
Continuous
 62
     7
370
    15
100
AcDbLine
 10
368.370182508
 20
352.6138762886
 30
0.0
 11
368.6708517019
 21
352.6138762886
 31
0.0
  0
LINE
  5
37F
330
1F
100
AcDbEntity
  8
0
  6
Continuous
 62
     7
370
    15
100
AcDbLine
 10
365.5079788348
 20
352.6138762886
 30
0.0
 11
365.8086480288
 21
352.6138762886
 31
0.0
  0
LINE
  5
380
330
1F
100
AcDbEntity
  8
0
  6
Continuous
 62
     7
370
    15
100
AcDbLine
 10
364.4022115952
 20
352.6138762886
 30
0.0
 11
364.5568136767
 21
352.6138762886
 31
0.0
  0
LINE
  5
381
330
1F
100
AcDbEntity
  8
0
  6
Continuous
 62
     7
370
    15
100
AcDbLine
 10
374.2644152447
 20
349.7462559697
 30
0.0
 11
360.2644154201
 21
349.7462559697
 31
0.0
  0
LINE
  5
382
330
1F
100
AcDbEntity
  8
0
  6
Continuous
 62
     7
370
    15
100
AcDbLine
 10
499.9719159054
 20
352.6138762886
 30
0.0
 11
499.0208517019
 21
352.6138762886
 31
0.0
  0
LINE
  5
383
330
1F
100
AcDbEntity
  8
0
  6
Continuous
 62
     7
370
    15
100
AcDbLine
 10
498.370182508
 20
352.6138762886
 30
0.0
 11
498.6708517019
 21
352.6138762886
 31
0.0
  0
LINE
  5
384
330
1F
100
AcDbEntity
  8
0
  6
Continuous
 62
     7
370
    15
100
AcDbLine
 10
495.5079788348
 20
352.6138762886
 30
0.0
 11
495.8086480288
 21
352.6138762886
 31
0.0
  0
LINE
  5
385
330
1F
100
AcDbEntity
  8
0
  6
Continuous
 62
     7
370
    15
100
AcDbLine
 10
494.4022115952
 20
352.6138762886
 30
0.0
 11
494.5568136767
 21
352.6138762886
 31
0.0
  0
LINE
  5
386
330
1F
100
AcDbEntity
  8
0
  6
Continuous
 62
     7
370
    15
100
AcDbLine
 10
504.2644152447
 20
349.7462559697
 30
0.0
 11
490.2644154201
 21
349.7462559697
 31
0.0
  0
LINE
  5
387
330
1F
100
AcDbEntity
  8
0
  6
Continuous
 62
     7
370
    15
100
AcDbLine
 10
448.2314455521
 20
-1404.9105982798
 30
0.0
 11
441.1537726527
 21
-1404.9105982798
 31
0.0
  0
LINE
  5
388
330
1F
100
AcDbEntity
  8
0
  6
Continuous
 62
     7
370
    15
100
AcDbLine
 10
351.0628718208
 20
-1461.9105982798
 30
0.0
 11
372.2256293176
 21
-1461.9105982798
 31
0.0
  0
LINE
  5
389
330
1F
100
AcDbEntity
  8
0
  6
Continuous
 62
     7
370
    15
100
AcDbLine
 10
415.4775378483
 20
-1461.9105982798
 30
0.0
 11
465.4194199323
 21
-1461.9105982798
 31
0.0
  0
LINE
  5
38A
330
1F
100
AcDbEntity
  8
0
  6
Continuous
 62
     7
370
    15
100
AcDbLine
 10
791.2825777634
 20
-1364.9105982798
 30
0.0
 11
786.2973849847
 21
-1364.9105982798
 31
0.0
  0
LINE
  5
38B
330
1F
100
AcDbEntity
  8
0
  6
Continuous
 62
     7
370
    15
100
AcDbLine
 10
465.4194199323
 20
-1464.9105982798
 30
0.0
 11
465.4194199323
 21
-1461.9105982798
 31
0.0
  0
LINE
  5
38C
330
1F
100
AcDbEntity
  8
0
  6
Continuous
 62
     7
370
    15
100
AcDbLine
 10
510.5389455959
 20
-1364.9105982798
 30
0.0
 11
517.9458817159
 21
-1364.9105982798
 31
0.0
  0
LINE
  5
38D
330
1F
100
AcDbEntity
  8
0
  6
Continuous
 62
     7
370
    15
100
AcDbLine
 10
579.1338603296
 20
-1364.9105982798
 30
0.0
 11
587.2644083101
 21
-1364.9105982798
 31
0.0
  0
LINE
  5
38E
330
1F
100
AcDbEntity
  8
0
  6
Continuous
 62
     7
370
    15
100
AcDbLine
 10
647.2644090968
 20
-1364.9105982798
 30
0.0
 11
655.3949702072
 21
-1364.9105982798
 31
0.0
  0
LINE
  5
38F
330
1F
100
AcDbEntity
  8
0
  6
Continuous
 62
     7
370
    15
100
AcDbLine
 10
716.5829488208
 20
-1364.9105982798
 30
0.0
 11
723.9898849409
 21
-1364.9105982798
 31
0.0
  0
LINE
  5
390
330
1F
100
AcDbEntity
  8
0
  6
Continuous
 62
     7
370
    15
100
AcDbLine
 10
465.2700397106
 20
-1461.9105982798
 30
0.0
 11
465.2700397106
 21
-1464.9105982798
 31
0.0
  0
LINE
  5
391
330
1F
100
AcDbEntity
  8
0
  6
Continuous
 62
     7
370
    15
100
AcDbLine
 10
337.6221238994
 20
-1464.9105982798
 30
0.0
 11
337.6221238994
 21
-1464.4105982798
 31
0.0
  0
LINE
  5
392
330
1F
100
AcDbEntity
  8
0
  6
Continuous
 62
     7
370
    15
100
AcDbLine
 10
335.625640153
 20
-1461.9105982798
 30
0.0
 11
335.625640153
 21
-1462.4105982798
 31
0.0
  0
LINE
  5
393
330
1F
100
AcDbEntity
  8
0
  6
Continuous
 62
     7
370
    15
100
AcDbLine
 10
335.625640153
 20
-1464.4105982798
 30
0.0
 11
335.625640153
 21
-1464.9105982798
 31
0.0
  0
LINE
  5
394
330
1F
100
AcDbEntity
  8
0
  6
Continuous
 62
     7
370
    15
100
AcDbLine
 10
281.311447408
 20
-1464.9105982798
 30
0.0
 11
281.311447408
 21
-1464.4105982798
 31
0.0
  0
LINE
  5
395
330
1F
100
AcDbEntity
  8
0
  6
Continuous
 62
     7
370
    15
100
AcDbLine
 10
281.311447408
 20
-1462.4105982798
 30
0.0
 11
281.311447408
 21
-1459.9105982806
 31
0.0
  0
LINE
  5
396
330
1F
100
AcDbEntity
  8
0
  6
Continuous
 62
     7
370
    15
100
AcDbLine
 10
337.043496435
 20
-1461.9105982798
 30
0.0
 11
335.625640153
 21
-1461.9105982798
 31
0.0
  0
LINE
  5
397
330
1F
100
AcDbEntity
  8
0
  6
Continuous
 62
     7
370
    15
100
AcDbLine
 10
185.2774359294
 20
-1462.4105982798
 30
0.0
 11
185.2774359294
 21
-1459.9105982806
 31
0.0
  0
LINE
  5
398
330
1F
100
AcDbEntity
  8
0
  6
Continuous
 62
     7
370
    15
100
AcDbLine
 10
183.9093554405
 20
-1462.4105982798
 30
0.0
 11
183.9093554405
 21
-1459.9105982806
 31
0.0
  0
LINE
  5
399
330
1F
100
AcDbEntity
  8
0
  6
Continuous
 62
     7
370
    15
100
AcDbLine
 10
230.1019732051
 20
-1459.9105982806
 30
0.0
 11
230.1019732051
 21
-1462.4105982798
 31
0.0
  0
LINE
  5
39A
330
1F
100
AcDbEntity
  8
0
  6
Continuous
 62
     7
370
    15
100
AcDbLine
 10
286.272745637
 20
-1462.4105982798
 30
0.0
 11
286.272745637
 21
-1459.9105982806
 31
0.0
  0
LINE
  5
39B
330
1F
100
AcDbEntity
  8
0
  6
Continuous
 62
     7
370
    15
100
AcDbLine
 10
248.650527548
 20
-1459.9105982806
 30
0.0
 11
248.650527548
 21
-1462.4105982798
 31
0.0
  0
LINE
  5
39C
330
1F
100
AcDbEntity
  8
0
  6
Continuous
 62
     7
370
    15
100
AcDbLine
 10
238.3899226147
 20
-1462.4105982798
 30
0.0
 11
238.3899226147
 21
-1459.9105982806
 31
0.0
  0
LINE
  5
39D
330
1F
100
AcDbEntity
  8
0
  6
Continuous
 62
     7
370
    15
100
AcDbLine
 10
351.0628718208
 20
-1459.9105982806
 30
0.0
 11
351.0628718208
 21
-1462.4105982798
 31
0.0
  0
LINE
  5
39E
330
1F
100
AcDbEntity
  8
0
  6
Continuous
 62
     7
370
    15
100
AcDbLine
 10
340.8022668874
 20
-1462.4105982798
 30
0.0
 11
340.8022668874
 21
-1459.9105982806
 31
0.0
  0
LINE
  5
39F
330
1F
100
AcDbEntity
  8
0
  6
Continuous
 62
     7
370
    15
100
AcDbLine
 10
303.1800487985
 20
-1459.9105982806
 30
0.0
 11
303.1800487985
 21
-1462.4105982798
 31
0.0
  0
LINE
  5
3A0
330
1F
100
AcDbEntity
  8
0
  6
Continuous
 62
     7
370
    15
100
AcDbLine
 10
234.6311521623
 20
-1462.4105982798
 30
0.0
 11
234.6311521623
 21
-1459.9105982806
 31
0.0
  0
LINE
  5
3A1
330
1F
100
AcDbEntity
  8
0
  6
Continuous
 62
     7
370
    15
100
AcDbLine
 10
282.5139751846
 20
-1462.4105982798
 30
0.0
 11
282.5139751846
 21
-1459.9105982806
 31
0.0
  0
LINE
  5
3A2
330
1F
100
AcDbEntity
  8
0
  6
Continuous
 62
     7
370
    15
100
AcDbLine
 10
337.043496435
 20
-1462.4105982798
 30
0.0
 11
337.043496435
 21
-1459.9105982806
 31
0.0
  0
LINE
  5
3A3
330
1F
100
AcDbEntity
  8
0
  6
Continuous
 62
     7
370
    15
100
AcDbLine
 10
374.5199349893
 20
-1462.4105982798
 30
0.0
 11
374.5199349893
 21
-1459.9105982806
 31
0.0
  0
LINE
  5
3A4
330
1F
100
AcDbEntity
  8
0
  6
Continuous
 62
     7
370
    15
100
AcDbLine
 10
372.2256293176
 20
-1462.4105982798
 30
0.0
 11
372.2256293176
 21
-1459.9105982806
 31
0.0
  0
LINE
  5
3A5
330
1F
100
AcDbEntity
  8
0
  6
Continuous
 62
     7
370
    15
100
AcDbLine
 10
415.4775378483
 20
-1459.9105982806
 30
0.0
 11
415.4775378483
 21
-1462.4105982798
 31
0.0
  0
LINE
  5
3A6
330
1F
100
AcDbEntity
  8
0
  6
Continuous
 62
     7
370
    15
100
AcDbLine
 10
448.2314455521
 20
-1400.9105982798
 30
0.0
 11
441.1537726527
 21
-1400.9105982798
 31
0.0
  0
LINE
  5
3A7
330
1F
100
AcDbEntity
  8
0
  6
Continuous
 62
     7
370
    15
100
AcDbLine
 10
175.6177431469
 20
-1464.4105982798
 30
0.0
 11
446.6057948979
 21
-1464.4105982798
 31
0.0
  0
LINE
  5
3A8
330
1F
100
AcDbEntity
  8
0
  6
Continuous
 62
     7
370
    15
100
AcDbLine
 10
446.6057948979
 20
-1462.4105982798
 30
0.0
 11
175.6177431469
 21
-1462.4105982798
 31
0.0
  0
LINE
  5
3A9
330
1F
100
AcDbEntity
  8
0
  6
Continuous
 62
     7
370
    15
100
AcDbLine
 10
446.6057948979
 20
-1462.4105982798
 30
0.0
 11
446.6057948979
 21
-1464.4105982798
 31
0.0
  0
LINE
  5
3AA
330
1F
100
AcDbEntity
  8
0
  6
Continuous
 62
     7
370
    15
100
AcDbLine
 10
274.2737170214
 20
-1461.9105982798
 30
0.0
 11
274.2737170214
 21
-1459.9105982806
 31
0.0
  0
LINE
  5
3AB
330
1F
100
AcDbEntity
  8
0
  6
Continuous
 62
     7
370
    15
100
AcDbLine
 10
267.8218115706
 20
-1461.9105982798
 30
0.0
 11
274.2737170214
 21
-1461.9105982798
 31
0.0
  0
LINE
  5
3AC
330
1F
100
AcDbEntity
  8
0
  6
Continuous
 62
     7
370
    15
100
AcDbLine
 10
269.7704537121
 20
-1459.9105982806
 30
0.0
 11
269.7704537121
 21
-1461.9105982798
 31
0.0
  0
LINE
  5
3AD
330
1F
100
AcDbEntity
  8
0
  6
Continuous
 62
     7
370
    15
100
AcDbLine
 10
267.8218115706
 20
-1459.9105982806
 30
0.0
 11
267.8218115706
 21
-1461.9105982798
 31
0.0
  0
LINE
  5
3AE
330
1F
100
AcDbEntity
  8
0
  6
Continuous
 62
     7
370
    15
100
AcDbLine
 10
510.5389455959
 20
-529.9105982798
 30
0.0
 11
517.9458817159
 21
-529.9105982798
 31
0.0
  0
LINE
  5
3AF
330
1F
100
AcDbEntity
  8
0
  6
Continuous
 62
     7
370
    15
100
AcDbLine
 10
579.1338603296
 20
-529.9105982798
 30
0.0
 11
587.2644083101
 21
-529.9105982798
 31
0.0
  0
LINE
  5
3B0
330
1F
100
AcDbEntity
  8
0
  6
Continuous
 62
     7
370
    15
100
AcDbLine
 10
647.2644090968
 20
-529.9105982798
 30
0.0
 11
655.3949702072
 21
-529.9105982798
 31
0.0
  0
LINE
  5
3B1
330
1F
100
AcDbEntity
  8
0
  6
Continuous
 62
     7
370
    15
100
AcDbLine
 10
716.5829488208
 20
-529.9105982798
 30
0.0
 11
723.9898849409
 21
-529.9105982798
 31
0.0
  0
LINE
  5
3B2
330
1F
100
AcDbEntity
  8
0
  6
Continuous
 62
     7
370
    15
100
AcDbLine
 10
723.9898849409
 20
-589.9105982798
 30
0.0
 11
716.5829488208
 21
-589.9105982798
 31
0.0
  0
LINE
  5
3B3
330
1F
100
AcDbEntity
  8
0
  6
Continuous
 62
     7
370
    15
100
AcDbLine
 10
655.3949702072
 20
-589.9105982798
 30
0.0
 11
647.2644090968
 21
-589.9105982798
 31
0.0
  0
LINE
  5
3B4
330
1F
100
AcDbEntity
  8
0
  6
Continuous
 62
     7
370
    15
100
AcDbLine
 10
587.2644083101
 20
-589.9105982798
 30
0.0
 11
579.1338603296
 21
-589.9105982798
 31
0.0
  0
LINE
  5
3B5
330
1F
100
AcDbEntity
  8
0
  6
Continuous
 62
     7
370
    15
100
AcDbLine
 10
517.9458817159
 20
-589.9105982798
 30
0.0
 11
510.5389455959
 21
-589.9105982798
 31
0.0
  0
LINE
  5
3B6
330
1F
100
AcDbEntity
  8
0
  6
Continuous
 62
     7
370
    15
100
AcDbLine
 10
490.2644152684
 20
-1469.5674525293
 30
0.0
 11
504.2644152684
 21
-1469.5674525293
 31
0.0
  0
LINE
  5
3B7
330
1F
100
AcDbEntity
  8
0
  6
Continuous
 62
     7
370
    15
100
AcDbLine
 10
805.9719159054
 20
352.6138762886
 30
0.0
 11
805.0208517019
 21
352.6138762886
 31
0.0
  0
LINE
  5
3B8
330
1F
100
AcDbEntity
  8
0
  6
Continuous
 62
     7
370
    15
100
AcDbLine
 10
804.370182508
 20
352.6138762886
 30
0.0
 11
804.6708517019
 21
352.6138762886
 31
0.0
  0
LINE
  5
3B9
330
1F
100
AcDbEntity
  8
0
  6
Continuous
 62
     7
370
    15
100
AcDbLine
 10
801.5079788348
 20
352.6138762886
 30
0.0
 11
801.8086480288
 21
352.6138762886
 31
0.0
  0
LINE
  5
3BA
330
1F
100
AcDbEntity
  8
0
  6
Continuous
 62
     7
370
    15
100
AcDbLine
 10
800.4022115952
 20
352.6138762886
 30
0.0
 11
800.5568136767
 21
352.6138762886
 31
0.0
  0
LINE
  5
3BB
330
1F
100
AcDbEntity
  8
0
  6
Continuous
 62
     7
370
    15
100
AcDbLine
 10
810.2644152447
 20
349.7462559697
 30
0.0
 11
796.2644154201
 21
349.7462559697
 31
0.0
  0
LINE
  5
3BC
330
1F
100
AcDbEntity
  8
0
  6
Continuous
 62
     7
370
    15
100
AcDbLine
 10
860.9719159054
 20
352.6138762886
 30
0.0
 11
860.0208517019
 21
352.6138762886
 31
0.0
  0
LINE
  5
3BD
330
1F
100
AcDbEntity
  8
0
  6
Continuous
 62
     7
370
    15
100
AcDbLine
 10
859.370182508
 20
352.6138762886
 30
0.0
 11
859.6708517019
 21
352.6138762886
 31
0.0
  0
LINE
  5
3BE
330
1F
100
AcDbEntity
  8
0
  6
Continuous
 62
     7
370
    15
100
AcDbLine
 10
856.5079788348
 20
352.6138762886
 30
0.0
 11
856.8086480288
 21
352.6138762886
 31
0.0
  0
LINE
  5
3BF
330
1F
100
AcDbEntity
  8
0
  6
Continuous
 62
     7
370
    15
100
AcDbLine
 10
855.4022115952
 20
352.6138762886
 30
0.0
 11
855.5568136767
 21
352.6138762886
 31
0.0
  0
LINE
  5
3C0
330
1F
100
AcDbEntity
  8
0
  6
Continuous
 62
     7
370
    15
100
AcDbLine
 10
860.2644152684
 20
349.7462559697
 30
0.0
 11
851.2644154201
 21
349.7462559697
 31
0.0
  0
LINE
  5
3C1
330
1F
100
AcDbEntity
  8
0
  6
Continuous
 62
     7
370
    15
100
AcDbLine
 10
739.9719159054
 20
352.6138762886
 30
0.0
 11
739.0208517019
 21
352.6138762886
 31
0.0
  0
LINE
  5
3C2
330
1F
100
AcDbEntity
  8
0
  6
Continuous
 62
     7
370
    15
100
AcDbLine
 10
738.370182508
 20
352.6138762886
 30
0.0
 11
738.6708517019
 21
352.6138762886
 31
0.0
  0
LINE
  5
3C3
330
1F
100
AcDbEntity
  8
0
  6
Continuous
 62
     7
370
    15
100
AcDbLine
 10
735.5079788348
 20
352.6138762886
 30
0.0
 11
735.8086480288
 21
352.6138762886
 31
0.0
  0
LINE
  5
3C4
330
1F
100
AcDbEntity
  8
0
  6
Continuous
 62
     7
370
    15
100
AcDbLine
 10
734.4022115952
 20
352.6138762886
 30
0.0
 11
734.5568136767
 21
352.6138762886
 31
0.0
  0
LINE
  5
3C5
330
1F
100
AcDbEntity
  8
0
  6
Continuous
 62
     7
370
    15
100
AcDbLine
 10
744.2644152447
 20
349.7462559697
 30
0.0
 11
730.2644154201
 21
349.7462559697
 31
0.0
  0
LINE
  5
3C6
330
1F
100
AcDbEntity
  8
0
  6
Continuous
 62
     7
370
    15
100
AcDbLine
 10
851.2644152684
 20
-1469.5674525293
 30
0.0
 11
874.2644152684
 21
-1469.5674525293
 31
0.0
  0
LINE
  5
3C7
330
1F
100
AcDbEntity
  8
0
  6
Continuous
 62
     7
370
    15
100
AcDbLine
 10
869.9719159054
 20
352.6138762886
 30
0.0
 11
869.0208517019
 21
352.6138762886
 31
0.0
  0
LINE
  5
3C8
330
1F
100
AcDbEntity
  8
0
  6
Continuous
 62
     7
370
    15
100
AcDbLine
 10
868.370182508
 20
352.6138762886
 30
0.0
 11
868.6708517019
 21
352.6138762886
 31
0.0
  0
LINE
  5
3C9
330
1F
100
AcDbEntity
  8
0
  6
Continuous
 62
     7
370
    15
100
AcDbLine
 10
865.5079788348
 20
352.6138762886
 30
0.0
 11
865.8086480288
 21
352.6138762886
 31
0.0
  0
LINE
  5
3CA
330
1F
100
AcDbEntity
  8
0
  6
Continuous
 62
     7
370
    15
100
AcDbLine
 10
864.4022115952
 20
352.6138762886
 30
0.0
 11
864.5568136767
 21
352.6138762886
 31
0.0
  0
LINE
  5
3CB
330
1F
100
AcDbEntity
  8
0
  6
Continuous
 62
     7
370
    15
100
AcDbLine
 10
874.2644152447
 20
349.7462559697
 30
0.0
 11
860.2644154201
 21
349.7462559697
 31
0.0
  0
LINE
  5
3CC
330
1F
100
AcDbEntity
  8
0
  6
Continuous
 62
     7
370
    15
100
AcDbLine
 10
182.5190453959
 20
340.0894017194
 30
0.0
 11
182.5190453959
 21
-1459.9105982806
 31
0.0
  0
LINE
  5
3CD
330
1F
100
AcDbEntity
  8
0
  6
Continuous
 62
     7
370
    15
100
AcDbLine
 10
489.2644152684
 20
-1468.5105982798
 30
0.0
 11
505.2644152684
 21
-1468.5105982798
 31
0.0
  0
LINE
  5
3CE
330
1F
100
AcDbEntity
  8
0
  6
Continuous
 62
     7
370
    15
100
AcDbLine
 10
811.2644152684
 20
348.6894017202
 30
0.0
 11
795.2644152684
 21
348.6894017202
 31
0.0
  0
LINE
  5
3CF
330
1F
100
AcDbEntity
  8
0
  6
Continuous
 62
     7
370
    15
100
AcDbLine
 10
875.2644152684
 20
348.6894017202
 30
0.0
 11
850.2644152684
 21
348.6894017202
 31
0.0
  0
LINE
  5
3D0
330
1F
100
AcDbEntity
  8
0
  6
Continuous
 62
     7
370
    15
100
AcDbLine
 10
745.2644152684
 20
348.6894017202
 30
0.0
 11
729.2644152684
 21
348.6894017202
 31
0.0
  0
LINE
  5
3D1
330
1F
100
AcDbEntity
  8
0
  6
Continuous
 62
     7
370
    15
100
AcDbLine
 10
850.2644152684
 20
-1468.5105982798
 30
0.0
 11
875.2644152684
 21
-1468.5105982798
 31
0.0
  0
LINE
  5
3D2
330
1F
100
AcDbEntity
  8
0
  6
Continuous
 62
     7
370
    15
100
AcDbLine
 10
633.7644152684
 20
-1470.9105982798
 30
0.0
 11
633.7644152684
 21
-1466.9105982798
 31
0.0
  0
LINE
  5
3D3
330
1F
100
AcDbEntity
  8
0
  6
Continuous
 62
     7
370
    15
100
AcDbLine
 10
633.7644152684
 20
-1470.9105982798
 30
0.0
 11
600.7644152684
 21
-1470.9105982798
 31
0.0
  0
LINE
  5
3D4
330
1F
100
AcDbEntity
  8
0
  6
Continuous
 62
     7
370
    15
100
AcDbLine
 10
600.7644152684
 20
-1466.9105982798
 30
0.0
 11
600.7644152684
 21
-1470.9105982798
 31
0.0
  0
LINE
  5
3D5
330
1F
100
AcDbEntity
  8
0
  6
Continuous
 62
     7
370
    15
100
AcDbLine
 10
605.2644152684
 20
-1484.9105982798
 30
0.0
 11
629.2644152684
 21
-1484.9105982798
 31
0.0
  0
LINE
  5
3D6
330
1F
100
AcDbEntity
  8
0
  6
Continuous
 62
     7
370
    15
100
AcDbLine
 10
606.2644152684
 20
-1485.9105982798
 30
0.0
 11
628.2644152684
 21
-1485.9105982798
 31
0.0
  0
LINE
  5
3D7
330
1F
100
AcDbEntity
  8
0
  6
Continuous
 62
     7
370
    15
100
AcDbLine
 10
600.7644152684
 20
351.0894017202
 30
0.0
 11
600.7644152684
 21
347.0894017202
 31
0.0
  0
LINE
  5
3D8
330
1F
100
AcDbEntity
  8
0
  6
Continuous
 62
     7
370
    15
100
AcDbLine
 10
633.7644152684
 20
347.0894017202
 30
0.0
 11
633.7644152684
 21
351.0894017202
 31
0.0
  0
LINE
  5
3D9
330
1F
100
AcDbEntity
  8
0
  6
Continuous
 62
     7
370
    15
100
AcDbLine
 10
600.7644152684
 20
351.0894017202
 30
0.0
 11
633.7644152684
 21
351.0894017202
 31
0.0
  0
LINE
  5
3DA
330
1F
100
AcDbEntity
  8
0
  6
Continuous
 62
     7
370
    15
100
AcDbLine
 10
628.2644152684
 20
366.0894017202
 30
0.0
 11
606.2644152684
 21
366.0894017202
 31
0.0
  0
LINE
  5
3DB
330
1F
100
AcDbEntity
  8
0
  6
Continuous
 62
     7
370
    15
100
AcDbLine
 10
629.2644152684
 20
365.0894017202
 30
0.0
 11
605.2644152684
 21
365.0894017202
 31
0.0
  0
LINE
  5
3DC
330
1F
100
AcDbEntity
  8
0
  6
Continuous
 62
     7
370
    15
100
AcDbLine
 10
441.1537726527
 20
285.0894017202
 30
0.0
 11
448.2314455521
 21
285.0894017202
 31
0.0
  0
LINE
  5
3DD
330
1F
100
AcDbEntity
  8
0
  6
Continuous
 62
     7
370
    15
100
AcDbLine
 10
465.4194199323
 20
342.0894017202
 30
0.0
 11
415.4775378483
 21
342.0894017202
 31
0.0
  0
LINE
  5
3DE
330
1F
100
AcDbEntity
  8
0
  6
Continuous
 62
     7
370
    15
100
AcDbLine
 10
372.2256293176
 20
342.0894017202
 30
0.0
 11
351.0628718208
 21
342.0894017202
 31
0.0
  0
LINE
  5
3DF
330
1F
100
AcDbEntity
  8
0
  6
Continuous
 62
     7
370
    15
100
AcDbLine
 10
786.2973849847
 20
245.0894017202
 30
0.0
 11
791.2825777634
 21
245.0894017202
 31
0.0
  0
LINE
  5
3E0
330
1F
100
AcDbEntity
  8
0
  6
Continuous
 62
     7
370
    15
100
AcDbLine
 10
465.4194199323
 20
342.0894017202
 30
0.0
 11
465.4194199323
 21
345.0894017202
 31
0.0
  0
LINE
  5
3E1
330
1F
100
AcDbEntity
  8
0
  6
Continuous
 62
     7
370
    15
100
AcDbLine
 10
723.9898849409
 20
245.0894017202
 30
0.0
 11
716.5829488208
 21
245.0894017202
 31
0.0
  0
LINE
  5
3E2
330
1F
100
AcDbEntity
  8
0
  6
Continuous
 62
     7
370
    15
100
AcDbLine
 10
655.3949702072
 20
245.0894017202
 30
0.0
 11
647.2644090968
 21
245.0894017202
 31
0.0
  0
LINE
  5
3E3
330
1F
100
AcDbEntity
  8
0
  6
Continuous
 62
     7
370
    15
100
AcDbLine
 10
587.2644083101
 20
245.0894017202
 30
0.0
 11
579.1338603296
 21
245.0894017202
 31
0.0
  0
LINE
  5
3E4
330
1F
100
AcDbEntity
  8
0
  6
Continuous
 62
     7
370
    15
100
AcDbLine
 10
517.9458817159
 20
245.0894017202
 30
0.0
 11
510.5389455959
 21
245.0894017202
 31
0.0
  0
LINE
  5
3E5
330
1F
100
AcDbEntity
  8
0
  6
Continuous
 62
     7
370
    15
100
AcDbLine
 10
465.2700397106
 20
345.0894017202
 30
0.0
 11
465.2700397106
 21
342.0894017202
 31
0.0
  0
LINE
  5
3E6
330
1F
100
AcDbEntity
  8
0
  6
Continuous
 62
     7
370
    15
100
AcDbLine
 10
337.6221238994
 20
344.5894017202
 30
0.0
 11
337.6221238994
 21
345.0894017202
 31
0.0
  0
LINE
  5
3E7
330
1F
100
AcDbEntity
  8
0
  6
Continuous
 62
     7
370
    15
100
AcDbLine
 10
281.311447408
 20
340.0894017194
 30
0.0
 11
281.311447408
 21
342.5894017202
 31
0.0
  0
LINE
  5
3E8
330
1F
100
AcDbEntity
  8
0
  6
Continuous
 62
     7
370
    15
100
AcDbLine
 10
281.311447408
 20
344.5894017202
 30
0.0
 11
281.311447408
 21
345.0894017202
 31
0.0
  0
LINE
  5
3E9
330
1F
100
AcDbEntity
  8
0
  6
Continuous
 62
     7
370
    15
100
AcDbLine
 10
335.625640153
 20
345.0894017202
 30
0.0
 11
335.625640153
 21
344.5894017202
 31
0.0
  0
LINE
  5
3EA
330
1F
100
AcDbEntity
  8
0
  6
Continuous
 62
     7
370
    15
100
AcDbLine
 10
335.625640153
 20
342.5894017202
 30
0.0
 11
335.625640153
 21
342.0894017202
 31
0.0
  0
LINE
  5
3EB
330
1F
100
AcDbEntity
  8
0
  6
Continuous
 62
     7
370
    15
100
AcDbLine
 10
335.625640153
 20
342.0894017202
 30
0.0
 11
337.043496435
 21
342.0894017202
 31
0.0
  0
LINE
  5
3EC
330
1F
100
AcDbEntity
  8
0
  6
Continuous
 62
     7
370
    15
100
AcDbLine
 10
185.2774359294
 20
342.5894017202
 30
0.0
 11
185.2774359294
 21
340.0894017194
 31
0.0
  0
LINE
  5
3ED
330
1F
100
AcDbEntity
  8
0
  6
Continuous
 62
     7
370
    15
100
AcDbLine
 10
230.1019732051
 20
340.0894017194
 30
0.0
 11
230.1019732051
 21
342.5894017202
 31
0.0
  0
LINE
  5
3EE
330
1F
100
AcDbEntity
  8
0
  6
Continuous
 62
     7
370
    15
100
AcDbLine
 10
183.9093554405
 20
340.0894017194
 30
0.0
 11
183.9093554405
 21
342.5894017202
 31
0.0
  0
LINE
  5
3EF
330
1F
100
AcDbEntity
  8
0
  6
Continuous
 62
     7
370
    15
100
AcDbLine
 10
234.6311521623
 20
340.0894017194
 30
0.0
 11
234.6311521623
 21
342.5894017202
 31
0.0
  0
LINE
  5
3F0
330
1F
100
AcDbEntity
  8
0
  6
Continuous
 62
     7
370
    15
100
AcDbLine
 10
238.3899226147
 20
342.5894017202
 30
0.0
 11
238.3899226147
 21
340.0894017194
 31
0.0
  0
LINE
  5
3F1
330
1F
100
AcDbEntity
  8
0
  6
Continuous
 62
     7
370
    15
100
AcDbLine
 10
303.1800487985
 20
340.0894017194
 30
0.0
 11
303.1800487985
 21
342.5894017202
 31
0.0
  0
LINE
  5
3F2
330
1F
100
AcDbEntity
  8
0
  6
Continuous
 62
     7
370
    15
100
AcDbLine
 10
340.8022668874
 20
342.5894017202
 30
0.0
 11
340.8022668874
 21
340.0894017194
 31
0.0
  0
LINE
  5
3F3
330
1F
100
AcDbEntity
  8
0
  6
Continuous
 62
     7
370
    15
100
AcDbLine
 10
351.0628718208
 20
340.0894017194
 30
0.0
 11
351.0628718208
 21
342.5894017202
 31
0.0
  0
LINE
  5
3F4
330
1F
100
AcDbEntity
  8
0
  6
Continuous
 62
     7
370
    15
100
AcDbLine
 10
248.650527548
 20
340.0894017194
 30
0.0
 11
248.650527548
 21
342.5894017202
 31
0.0
  0
LINE
  5
3F5
330
1F
100
AcDbEntity
  8
0
  6
Continuous
 62
     7
370
    15
100
AcDbLine
 10
286.272745637
 20
342.5894017202
 30
0.0
 11
286.272745637
 21
340.0894017194
 31
0.0
  0
LINE
  5
3F6
330
1F
100
AcDbEntity
  8
0
  6
Continuous
 62
     7
370
    15
100
AcDbLine
 10
282.5139751846
 20
340.0894017194
 30
0.0
 11
282.5139751846
 21
342.5894017202
 31
0.0
  0
LINE
  5
3F7
330
1F
100
AcDbEntity
  8
0
  6
Continuous
 62
     7
370
    15
100
AcDbLine
 10
337.043496435
 20
340.0894017194
 30
0.0
 11
337.043496435
 21
342.5894017202
 31
0.0
  0
LINE
  5
3F8
330
1F
100
AcDbEntity
  8
0
  6
Continuous
 62
     7
370
    15
100
AcDbLine
 10
374.5199349893
 20
342.5894017202
 30
0.0
 11
374.5199349893
 21
340.0894017194
 31
0.0
  0
LINE
  5
3F9
330
1F
100
AcDbEntity
  8
0
  6
Continuous
 62
     7
370
    15
100
AcDbLine
 10
415.4775378483
 20
340.0894017194
 30
0.0
 11
415.4775378483
 21
342.5894017202
 31
0.0
  0
LINE
  5
3FA
330
1F
100
AcDbEntity
  8
0
  6
Continuous
 62
     7
370
    15
100
AcDbLine
 10
372.2256293176
 20
340.0894017194
 30
0.0
 11
372.2256293176
 21
342.5894017202
 31
0.0
  0
LINE
  5
3FB
330
1F
100
AcDbEntity
  8
0
  6
Continuous
 62
     7
370
    15
100
AcDbLine
 10
441.1537726527
 20
281.0894017202
 30
0.0
 11
448.2314455521
 21
281.0894017202
 31
0.0
  0
LINE
  5
3FC
330
1F
100
AcDbEntity
  8
0
  6
Continuous
 62
     7
370
    15
100
AcDbLine
 10
920.0870454147
 20
345.0894017202
 30
0.0
 11
264.8093155557
 21
345.0894017202
 31
0.0
  0
LINE
  5
3FD
330
1F
100
AcDbEntity
  8
0
  6
Continuous
 62
     7
370
    15
100
AcDbLine
 10
264.8093155557
 20
347.0894017202
 30
0.0
 11
920.0870454147
 21
347.0894017202
 31
0.0
  0
LINE
  5
3FE
330
1F
100
AcDbEntity
  8
0
  6
Continuous
 62
     7
370
    15
100
AcDbLine
 10
314.4417851221
 20
347.0894017202
 30
0.0
 11
314.4417851221
 21
345.0894017202
 31
0.0
  0
LINE
  5
3FF
330
1F
100
AcDbEntity
  8
0
  6
Continuous
 62
     7
370
    15
100
AcDbLine
 10
795.2644152684
 20
-1468.5105982798
 30
0.0
 11
811.2644152684
 21
-1468.5105982798
 31
0.0
  0
LINE
  5
400
330
1F
100
AcDbEntity
  8
0
  6
Continuous
 62
     7
370
    15
100
AcDbLine
 10
729.2644152684
 20
-1468.5105982798
 30
0.0
 11
745.2644152684
 21
-1468.5105982798
 31
0.0
  0
LINE
  5
401
330
1F
100
AcDbEntity
  8
0
  6
Continuous
 62
     7
370
    15
100
AcDbLine
 10
350.468034333
 20
-1468.5105982798
 30
0.0
 11
375.2644152684
 21
-1468.5105982798
 31
0.0
  0
LINE
  5
402
330
1F
100
AcDbEntity
  8
0
  6
Continuous
 62
     7
370
    15
100
AcDbLine
 10
324.0101883642
 20
-1468.5105982798
 30
0.0
 11
340.0101883642
 21
-1468.5105982798
 31
0.0
  0
LINE
  5
403
330
1F
100
AcDbEntity
  8
0
  6
Continuous
 62
     7
370
    15
100
AcDbLine
 10
340.0101883642
 20
348.6894017202
 30
0.0
 11
324.0101883642
 21
348.6894017202
 31
0.0
  0
LINE
  5
404
330
1F
100
AcDbEntity
  8
0
  6
Continuous
 62
     7
370
    15
100
AcDbLine
 10
375.2644152684
 20
348.6894017202
 30
0.0
 11
350.4680343329
 21
348.6894017202
 31
0.0
  0
LINE
  5
405
330
1F
100
AcDbEntity
  8
0
  6
Continuous
 62
     7
370
    15
100
AcDbLine
 10
505.2644152684
 20
348.6894017202
 30
0.0
 11
489.2644152684
 21
348.6894017202
 31
0.0
  0
LINE
  5
406
330
1F
100
AcDbEntity
  8
0
  6
Continuous
 62
     7
370
    15
100
AcDbLine
 10
440.2495329386
 20
-1459.9105982806
 30
0.0
 11
182.5190453959
 21
-1459.9105982806
 31
0.0
  0
LINE
  5
407
330
1F
100
AcDbEntity
  8
0
  6
Continuous
 62
     7
370
    15
100
AcDbLine
 10
440.2495329386
 20
340.0894017194
 30
0.0
 11
182.5190453959
 21
340.0894017194
 31
0.0
  0
LINE
  5
408
330
1F
100
AcDbEntity
  8
0
  6
Continuous
 62
     7
370
    15
100
AcDbLine
 10
920.0870454147
 20
-1464.9105982798
 30
0.0
 11
264.8093155557
 21
-1464.9105982798
 31
0.0
  0
LINE
  5
409
330
1F
100
AcDbEntity
  8
0
  6
Continuous
 62
     7
370
    15
100
AcDbLine
 10
920.0870454147
 20
-1466.9105982798
 30
0.0
 11
264.8093155557
 21
-1466.9105982798
 31
0.0
  0
LINE
  5
40A
330
1F
100
AcDbEntity
  8
0
  6
Continuous
 62
     7
370
    15
100
AcDbLine
 10
314.4417851221
 20
-1464.9105982798
 30
0.0
 11
314.4417851221
 21
-1466.9105982798
 31
0.0
  0
LINE
  5
40B
330
1F
100
AcDbEntity
  8
0
  6
Continuous
 62
     7
370
    15
100
AcDbLine
 10
446.6057948979
 20
344.5894017202
 30
0.0
 11
175.6177431469
 21
344.5894017202
 31
0.0
  0
LINE
  5
40C
330
1F
100
AcDbEntity
  8
0
  6
Continuous
 62
     7
370
    15
100
AcDbLine
 10
175.6177431469
 20
342.5894017202
 30
0.0
 11
446.6057948979
 21
342.5894017202
 31
0.0
  0
LINE
  5
40D
330
1F
100
AcDbEntity
  8
0
  6
Continuous
 62
     7
370
    15
100
AcDbLine
 10
446.6057948979
 20
344.5894017202
 30
0.0
 11
446.6057948979
 21
342.5894017202
 31
0.0
  0
LINE
  5
40E
330
1F
100
AcDbEntity
  8
0
  6
Continuous
 62
     7
370
    15
100
AcDbLine
 10
274.2737170214
 20
342.0894017202
 30
0.0
 11
274.2737170214
 21
340.0894017194
 31
0.0
  0
LINE
  5
40F
330
1F
100
AcDbEntity
  8
0
  6
Continuous
 62
     7
370
    15
100
AcDbLine
 10
269.7704537121
 20
340.0894017194
 30
0.0
 11
269.7704537121
 21
342.0894017202
 31
0.0
  0
LINE
  5
410
330
1F
100
AcDbEntity
  8
0
  6
Continuous
 62
     7
370
    15
100
AcDbLine
 10
267.8218115706
 20
342.0894017202
 30
0.0
 11
274.2737170214
 21
342.0894017202
 31
0.0
  0
LINE
  5
411
330
1F
100
AcDbEntity
  8
0
  6
Continuous
 62
     7
370
    15
100
AcDbLine
 10
267.8218115706
 20
340.0894017194
 30
0.0
 11
267.8218115706
 21
342.0894017202
 31
0.0
  0
LINE
  5
412
330
1F
100
AcDbEntity
  8
0
  6
PHANTOM
 62
     8
370
     0
100
AcDbLine
 10
783.8559076189
 20
-1459.9105982806
 30
0.0
 11
783.8559076189
 21
340.0894017194
 31
0.0
  0
LINE
  5
413
330
1F
100
AcDbEntity
  8
0
  6
PHANTOM
 62
     8
370
     0
100
AcDbLine
 10
778.5193048946
 20
335.0894017194
 30
0.0
 11
778.5193048946
 21
-1454.9105982806
 31
0.0
  0
LINE
  5
414
330
1F
100
AcDbEntity
  8
0
  6
PHANTOM
 62
     8
370
     0
100
AcDbLine
 10
728.64110246
 20
335.0894017194
 30
0.0
 11
778.5193048946
 21
335.0894017194
 31
0.0
  0
LINE
  5
415
330
1F
100
AcDbEntity
  8
0
  6
PHANTOM
 62
     8
370
     0
100
AcDbLine
 10
778.5193048946
 20
-1454.9105982806
 30
0.0
 11
728.64110246
 21
-1454.9105982806
 31
0.0
  0
LINE
  5
416
330
1F
100
AcDbEntity
  8
0
  6
PHANTOM
 62
     8
370
     0
100
AcDbLine
 10
728.64110246
 20
-1454.9105982806
 30
0.0
 11
728.64110246
 21
335.0894017194
 31
0.0
  0
LINE
  5
417
330
1F
100
AcDbEntity
  8
0
  6
PHANTOM
 62
     8
370
     0
100
AcDbLine
 10
642.2644081978
 20
-1454.9105982806
 30
0.0
 11
592.2644081978
 21
-1454.9105982806
 31
0.0
  0
LINE
  5
418
330
1F
100
AcDbEntity
  8
0
  6
PHANTOM
 62
     8
370
     0
100
AcDbLine
 10
592.2644081978
 20
-1454.9105982806
 30
0.0
 11
592.2644081978
 21
335.0894017194
 31
0.0
  0
LINE
  5
419
330
1F
100
AcDbEntity
  8
0
  6
PHANTOM
 62
     8
370
     0
100
AcDbLine
 10
592.2644081978
 20
335.0894017194
 30
0.0
 11
642.2644081978
 21
335.0894017194
 31
0.0
  0
LINE
  5
41A
330
1F
100
AcDbEntity
  8
0
  6
PHANTOM
 62
     8
370
     0
100
AcDbLine
 10
642.2644081978
 20
335.0894017194
 30
0.0
 11
642.2644081978
 21
-1454.9105982806
 31
0.0
  0
LINE
  5
41B
330
1F
100
AcDbEntity
  8
0
  6
PHANTOM
 62
     8
370
     0
100
AcDbLine
 10
710.1900139231
 20
-1454.9105982806
 30
0.0
 11
660.2204726114
 21
-1454.9105982806
 31
0.0
  0
LINE
  5
41C
330
1F
100
AcDbEntity
  8
0
  6
PHANTOM
 62
     8
370
     0
100
AcDbLine
 10
715.3614656501
 20
-1459.9105982806
 30
0.0
 11
715.3614656501
 21
340.0894017194
 31
0.0
  0
LINE
  5
41D
330
1F
100
AcDbEntity
  8
0
  6
PHANTOM
 62
     8
370
     0
100
AcDbLine
 10
710.1900139231
 20
335.0894017194
 30
0.0
 11
710.1900139231
 21
-1454.9105982806
 31
0.0
  0
LINE
  5
41E
330
1F
100
AcDbEntity
  8
0
  6
PHANTOM
 62
     8
370
     0
100
AcDbLine
 10
660.2204726114
 20
335.0894017194
 30
0.0
 11
710.1900139231
 21
335.0894017194
 31
0.0
  0
LINE
  5
41F
330
1F
100
AcDbEntity
  8
0
  6
PHANTOM
 62
     8
370
     0
100
AcDbLine
 10
660.2204726114
 20
-1454.9105982806
 30
0.0
 11
660.2204726114
 21
335.0894017194
 31
0.0
  0
LINE
  5
420
330
1F
100
AcDbEntity
  8
0
  6
PHANTOM
 62
     8
370
     0
100
AcDbLine
 10
808.7163814787
 20
335.0894017194
 30
0.0
 11
856.1325645956
 21
335.0894017194
 31
0.0
  0
LINE
  5
421
330
1F
100
AcDbEntity
  8
0
  6
PHANTOM
 62
     8
370
     0
100
AcDbLine
 10
856.1325645956
 20
-1454.9105982806
 30
0.0
 11
808.7163814787
 21
-1454.9105982806
 31
0.0
  0
LINE
  5
422
330
1F
100
AcDbEntity
  8
0
  6
PHANTOM
 62
     8
370
     0
100
AcDbLine
 10
802.3882399916
 20
340.0894017194
 30
0.0
 11
802.3882399916
 21
-1459.9105982806
 31
0.0
  0
LINE
  5
423
330
1F
100
AcDbEntity
  8
0
  6
PHANTOM
 62
     8
370
     0
100
AcDbLine
 10
808.7163814787
 20
-1454.9105982806
 30
0.0
 11
808.7163814787
 21
335.0894017194
 31
0.0
  0
LINE
  5
424
330
1F
100
AcDbEntity
  8
0
  6
PHANTOM
 62
     8
370
     0
100
AcDbLine
 10
856.1325645956
 20
335.0894017194
 30
0.0
 11
856.1325645956
 21
-1454.9105982806
 31
0.0
  0
LINE
  5
425
330
1F
100
AcDbEntity
  8
0
  6
PHANTOM
 62
     8
370
     0
100
AcDbLine
 10
917.214367302
 20
-1454.9105982806
 30
0.0
 11
885.0749859568
 21
-1454.9105982806
 31
0.0
  0
LINE
  5
426
330
1F
100
AcDbEntity
  8
0
  6
PHANTOM
 62
     8
370
     0
100
AcDbLine
 10
878.0308256789
 20
340.0894017194
 30
0.0
 11
878.0308256789
 21
-1459.9105982806
 31
0.0
  0
LINE
  5
427
330
1F
100
AcDbEntity
  8
0
  6
PHANTOM
 62
     8
370
     0
100
AcDbLine
 10
885.0749859568
 20
-1454.9105982806
 30
0.0
 11
885.0749859568
 21
335.0894017194
 31
0.0
  0
LINE
  5
428
330
1F
100
AcDbEntity
  8
0
  6
PHANTOM
 62
     8
370
     0
100
AcDbLine
 10
885.0749859568
 20
335.0894017194
 30
0.0
 11
917.214367302
 21
335.0894017194
 31
0.0
  0
LINE
  5
429
330
1F
100
AcDbEntity
  8
0
  6
PHANTOM
 62
     8
370
     0
100
AcDbLine
 10
917.214367302
 20
335.0894017194
 30
0.0
 11
917.214367302
 21
-1454.9105982806
 31
0.0
  0
LINE
  5
42A
330
1F
100
AcDbEntity
  8
0
  6
PHANTOM
 62
     8
370
     0
100
AcDbLine
 10
937.830994783
 20
-1454.9105982806
 30
0.0
 11
930.8723386222
 21
-1454.9105982806
 31
0.0
  0
LINE
  5
42B
330
1F
100
AcDbEntity
  8
0
  6
PHANTOM
 62
     8
370
     0
100
AcDbLine
 10
925.225132678
 20
340.0894017194
 30
0.0
 11
925.225132678
 21
-1459.9105982806
 31
0.0
  0
LINE
  5
42C
330
1F
100
AcDbEntity
  8
0
  6
PHANTOM
 62
     8
370
     0
100
AcDbLine
 10
930.8723386222
 20
-1454.9105982806
 30
0.0
 11
930.8723386222
 21
335.0894017194
 31
0.0
  0
LINE
  5
42D
330
1F
100
AcDbEntity
  8
0
  6
PHANTOM
 62
     8
370
     0
100
AcDbLine
 10
930.8723386222
 20
335.0894017194
 30
0.0
 11
937.830994783
 21
335.0894017194
 31
0.0
  0
LINE
  5
42E
330
1F
100
AcDbEntity
  8
0
  6
PHANTOM
 62
     8
370
     0
100
AcDbLine
 10
937.830994783
 20
335.0894017194
 30
0.0
 11
937.830994783
 21
-1454.9105982806
 31
0.0
  0
LINE
  5
42F
330
1F
100
AcDbEntity
  8
0
  6
PHANTOM
 62
     8
370
     0
100
AcDbLine
 10
574.3083579254
 20
-1454.9105982806
 30
0.0
 11
524.3388166136
 21
-1454.9105982806
 31
0.0
  0
LINE
  5
430
330
1F
100
AcDbEntity
  8
0
  6
PHANTOM
 62
     8
370
     0
100
AcDbLine
 10
519.1673648867
 20
340.0894017194
 30
0.0
 11
519.1673648866
 21
-1459.9105982806
 31
0.0
  0
LINE
  5
431
330
1F
100
AcDbEntity
  8
0
  6
PHANTOM
 62
     8
370
     0
100
AcDbLine
 10
524.3388166136
 20
-1454.9105982806
 30
0.0
 11
524.3388166137
 21
335.0894017194
 31
0.0
  0
LINE
  5
432
330
1F
100
AcDbEntity
  8
0
  6
PHANTOM
 62
     8
370
     0
100
AcDbLine
 10
524.3388166137
 20
335.0894017194
 30
0.0
 11
574.3083579254
 21
335.0894017194
 31
0.0
  0
LINE
  5
433
330
1F
100
AcDbEntity
  8
0
  6
PHANTOM
 62
     8
370
     0
100
AcDbLine
 10
574.3083579254
 20
335.0894017194
 30
0.0
 11
574.3083579254
 21
-1454.9105982806
 31
0.0
  0
LINE
  5
434
330
1F
100
AcDbEntity
  8
0
  6
PHANTOM
 62
     8
370
     0
100
AcDbLine
 10
456.0095256421
 20
335.0894017194
 30
0.0
 11
505.8877280767
 21
335.0894017194
 31
0.0
  0
LINE
  5
435
330
1F
100
AcDbEntity
  8
0
  6
PHANTOM
 62
     8
370
     0
100
AcDbLine
 10
450.6729229178
 20
340.0894017194
 30
0.0
 11
450.6729229178
 21
-1459.9105982806
 31
0.0
  0
LINE
  5
436
330
1F
100
AcDbEntity
  8
0
  6
PHANTOM
 62
     8
370
     0
100
AcDbLine
 10
456.0095256421
 20
-1454.9105982806
 30
0.0
 11
456.0095256421
 21
335.0894017194
 31
0.0
  0
LINE
  5
437
330
1F
100
AcDbEntity
  8
0
  6
PHANTOM
 62
     8
370
     0
100
AcDbLine
 10
505.8877280767
 20
-1454.9105982806
 30
0.0
 11
456.0095256421
 21
-1454.9105982806
 31
0.0
  0
LINE
  5
438
330
1F
100
AcDbEntity
  8
0
  6
PHANTOM
 62
     8
370
     0
100
AcDbLine
 10
505.8877280767
 20
335.0894017194
 30
0.0
 11
505.8877280767
 21
-1454.9105982806
 31
0.0
  0
LINE
  5
439
330
1F
100
AcDbEntity
  8
0
  6
PHANTOM
 62
     8
370
     0
100
AcDbLine
 10
455.1387322526
 20
-1461.9105982798
 30
0.0
 11
455.1387322526
 21
-1459.9105982806
 31
0.0
  0
LINE
  5
43A
330
1F
100
AcDbEntity
  8
0
  6
PHANTOM
 62
     8
370
     0
100
AcDbLine
 10
894.4196599264
 20
-1459.9105982806
 30
0.0
 11
894.4196599264
 21
-1464.9105982798
 31
0.0
  0
LINE
  5
43B
330
1F
100
AcDbEntity
  8
0
  6
PHANTOM
 62
     8
370
     0
100
AcDbLine
 10
779.3900982841
 20
-1459.9105982806
 30
0.0
 11
779.3900982841
 21
-1464.9105982798
 31
0.0
  0
LINE
  5
43C
330
1F
100
AcDbEntity
  8
0
  6
PHANTOM
 62
     8
370
     0
100
AcDbLine
 10
195.7480469843
 20
-1462.4105982798
 30
0.0
 11
195.7480469843
 21
-1464.4105982798
 31
0.0
  0
LINE
  5
43D
330
1F
100
AcDbEntity
  8
0
  6
PHANTOM
 62
     8
370
     0
100
AcDbLine
 10
199.5880464231
 20
-1462.4105982798
 30
0.0
 11
199.5880464231
 21
-1464.4105982798
 31
0.0
  0
LINE
  5
43E
330
1F
100
AcDbEntity
  8
0
  6
PHANTOM
 62
     8
370
     0
100
AcDbLine
 10
259.3552870135
 20
-1462.4105982798
 30
0.0
 11
259.3552870135
 21
-1464.4105982798
 31
0.0
  0
LINE
  5
43F
330
1F
100
AcDbEntity
  8
0
  6
PHANTOM
 62
     8
370
     0
100
AcDbLine
 10
368.1715668848
 20
-1464.4105982798
 30
0.0
 11
368.1715668848
 21
-1462.4105982798
 31
0.0
  0
LINE
  5
440
330
1F
100
AcDbEntity
  8
0
  6
PHANTOM
 62
     8
370
     0
100
AcDbLine
 10
441.7082175406
 20
-1462.4105982798
 30
0.0
 11
441.7082175406
 21
-1464.4105982798
 31
0.0
  0
LINE
  5
441
330
1F
100
AcDbEntity
  8
0
  6
PHANTOM
 62
     8
370
     0
100
AcDbLine
 10
317.337770158
 20
340.0894017194
 30
0.0
 11
317.337770158
 21
-1459.9105982806
 31
0.0
  0
LINE
  5
442
330
1F
100
AcDbEntity
  8
0
  6
PHANTOM
 62
     8
370
     0
100
AcDbLine
 10
323.7463340457
 20
-1454.9105982806
 30
0.0
 11
323.7463340457
 21
335.0894017194
 31
0.0
  0
LINE
  5
443
330
1F
100
AcDbEntity
  8
0
  6
PHANTOM
 62
     8
370
     0
100
AcDbLine
 10
323.7463340457
 20
335.0894017194
 30
0.0
 11
340.847342268
 21
335.0894017194
 31
0.0
  0
LINE
  5
444
330
1F
100
AcDbEntity
  8
0
  6
PHANTOM
 62
     8
370
     0
100
AcDbLine
 10
340.847342268
 20
-1454.9105982806
 30
0.0
 11
323.7463340457
 21
-1454.9105982806
 31
0.0
  0
LINE
  5
445
330
1F
100
AcDbEntity
  8
0
  6
PHANTOM
 62
     8
370
     0
100
AcDbLine
 10
340.847342268
 20
335.0894017194
 30
0.0
 11
340.847342268
 21
-1454.9105982806
 31
0.0
  0
LINE
  5
446
330
1F
100
AcDbEntity
  8
0
  6
PHANTOM
 62
     8
370
     0
100
AcDbLine
 10
247.8829448502
 20
-1454.9105982806
 30
0.0
 11
200.8983134265
 21
-1454.9105982806
 31
0.0
  0
LINE
  5
447
330
1F
100
AcDbEntity
  8
0
  6
PHANTOM
 62
     8
370
     0
100
AcDbLine
 10
194.4897496731
 20
340.0894017194
 30
0.0
 11
194.4897496731
 21
-1459.9105982806
 31
0.0
  0
LINE
  5
448
330
1F
100
AcDbEntity
  8
0
  6
PHANTOM
 62
     8
370
     0
100
AcDbLine
 10
200.8983134265
 20
-1454.9105982806
 30
0.0
 11
200.8983134265
 21
335.0894017194
 31
0.0
  0
LINE
  5
449
330
1F
100
AcDbEntity
  8
0
  6
PHANTOM
 62
     8
370
     0
100
AcDbLine
 10
200.8983134265
 20
335.0894017194
 30
0.0
 11
247.8829448502
 21
335.0894017194
 31
0.0
  0
LINE
  5
44A
330
1F
100
AcDbEntity
  8
0
  6
PHANTOM
 62
     8
370
     0
100
AcDbLine
 10
247.8829448502
 20
335.0894017194
 30
0.0
 11
247.8829448502
 21
-1454.9105982806
 31
0.0
  0
LINE
  5
44B
330
1F
100
AcDbEntity
  8
0
  6
PHANTOM
 62
     8
370
     0
100
AcDbLine
 10
299.8049225346
 20
335.0894017194
 30
0.0
 11
316.9059307568
 21
335.0894017194
 31
0.0
  0
LINE
  5
44C
330
1F
100
AcDbEntity
  8
0
  6
PHANTOM
 62
     8
370
     0
100
AcDbLine
 10
316.9059307568
 20
-1454.9105982806
 30
0.0
 11
299.8049225346
 21
-1454.9105982806
 31
0.0
  0
LINE
  5
44D
330
1F
100
AcDbEntity
  8
0
  6
PHANTOM
 62
     8
370
     0
100
AcDbLine
 10
293.3963586469
 20
340.0894017194
 30
0.0
 11
293.3963586469
 21
-1459.9105982806
 31
0.0
  0
LINE
  5
44E
330
1F
100
AcDbEntity
  8
0
  6
PHANTOM
 62
     8
370
     0
100
AcDbLine
 10
299.8049225346
 20
-1454.9105982806
 30
0.0
 11
299.8049225346
 21
335.0894017194
 31
0.0
  0
LINE
  5
44F
330
1F
100
AcDbEntity
  8
0
  6
PHANTOM
 62
     8
370
     0
100
AcDbLine
 10
316.9059307568
 20
335.0894017194
 30
0.0
 11
316.9059307568
 21
-1454.9105982806
 31
0.0
  0
LINE
  5
450
330
1F
100
AcDbEntity
  8
0
  6
PHANTOM
 62
     8
370
     0
100
AcDbLine
 10
630.7644152684
 20
-1466.9105982798
 30
0.0
 11
630.7644152684
 21
-1470.9105982798
 31
0.0
  0
LINE
  5
451
330
1F
100
AcDbEntity
  8
0
  6
PHANTOM
 62
     8
370
     0
100
AcDbLine
 10
603.7644152684
 20
-1470.9105982798
 30
0.0
 11
603.7644152684
 21
-1466.9105982798
 31
0.0
  0
LINE
  5
452
330
1F
100
AcDbEntity
  8
0
  6
PHANTOM
 62
     8
370
     0
100
AcDbLine
 10
629.2644152684
 20
-1471.9105982798
 30
0.0
 11
605.2644152684
 21
-1471.9105982798
 31
0.0
  0
LINE
  5
453
330
1F
100
AcDbEntity
  8
0
  6
PHANTOM
 62
     8
370
     0
100
AcDbLine
 10
603.7644152684
 20
347.0894017202
 30
0.0
 11
603.7644152684
 21
351.0894017202
 31
0.0
  0
LINE
  5
454
330
1F
100
AcDbEntity
  8
0
  6
PHANTOM
 62
     8
370
     0
100
AcDbLine
 10
630.7644152684
 20
351.0894017202
 30
0.0
 11
630.7644152684
 21
347.0894017202
 31
0.0
  0
LINE
  5
455
330
1F
100
AcDbEntity
  8
0
  6
PHANTOM
 62
     8
370
     0
100
AcDbLine
 10
605.2644152684
 20
352.0894017202
 30
0.0
 11
629.2644152684
 21
352.0894017202
 31
0.0
  0
LINE
  5
456
330
1F
100
AcDbEntity
  8
0
  6
PHANTOM
 62
     8
370
     0
100
AcDbLine
 10
455.1387322526
 20
340.0894017194
 30
0.0
 11
455.1387322526
 21
342.0894017202
 31
0.0
  0
LINE
  5
457
330
1F
100
AcDbEntity
  8
0
  6
PHANTOM
 62
     8
370
     0
100
AcDbLine
 10
779.3900982841
 20
345.0894017202
 30
0.0
 11
779.3900982841
 21
340.0894017194
 31
0.0
  0
LINE
  5
458
330
1F
100
AcDbEntity
  8
0
  6
PHANTOM
 62
     8
370
     0
100
AcDbLine
 10
894.4196599264
 20
345.0894017202
 30
0.0
 11
894.4196599264
 21
340.0894017194
 31
0.0
  0
LINE
  5
459
330
1F
100
AcDbEntity
  8
0
  6
PHANTOM
 62
     8
370
     0
100
AcDbLine
 10
292.9645192457
 20
-1454.9105982806
 30
0.0
 11
275.8635110234
 21
-1454.9105982806
 31
0.0
  0
LINE
  5
45A
330
1F
100
AcDbEntity
  8
0
  6
PHANTOM
 62
     8
370
     0
100
AcDbLine
 10
269.4549471357
 20
340.0894017194
 30
0.0
 11
269.4549471357
 21
-1459.9105982806
 31
0.0
  0
LINE
  5
45B
330
1F
100
AcDbEntity
  8
0
  6
PHANTOM
 62
     8
370
     0
100
AcDbLine
 10
275.8635110234
 20
-1454.9105982806
 30
0.0
 11
275.8635110234
 21
335.0894017194
 31
0.0
  0
LINE
  5
45C
330
1F
100
AcDbEntity
  8
0
  6
PHANTOM
 62
     8
370
     0
100
AcDbLine
 10
275.8635110234
 20
335.0894017194
 30
0.0
 11
292.9645192457
 21
335.0894017194
 31
0.0
  0
LINE
  5
45D
330
1F
100
AcDbEntity
  8
0
  6
PHANTOM
 62
     8
370
     0
100
AcDbLine
 10
292.9645192457
 20
335.0894017194
 30
0.0
 11
292.9645192457
 21
-1454.9105982806
 31
0.0
  0
LINE
  5
45E
330
1F
100
AcDbEntity
  8
0
  6
PHANTOM
 62
     8
370
     0
100
AcDbLine
 10
456.9729136148
 20
345.0894017202
 30
0.0
 11
456.9729136148
 21
347.0894017202
 31
0.0
  0
LINE
  5
45F
330
1F
100
AcDbEntity
  8
0
  6
PHANTOM
 62
     8
370
     0
100
AcDbLine
 10
317.2173714326
 20
345.0894017202
 30
0.0
 11
317.2173714326
 21
347.0894017202
 31
0.0
  0
LINE
  5
460
330
1F
100
AcDbEntity
  8
0
  6
PHANTOM
 62
     8
370
     0
100
AcDbLine
 10
917.3114591041
 20
345.0894017202
 30
0.0
 11
917.3114591041
 21
347.0894017202
 31
0.0
  0
LINE
  5
461
330
1F
100
AcDbEntity
  8
0
  6
PHANTOM
 62
     8
370
     0
100
AcDbLine
 10
777.5559169219
 20
347.0894017202
 30
0.0
 11
777.5559169219
 21
345.0894017202
 31
0.0
  0
LINE
  5
462
330
1F
100
AcDbEntity
  8
0
  6
PHANTOM
 62
     8
370
     0
100
AcDbLine
 10
265.7730528288
 20
345.0894017202
 30
0.0
 11
265.7730528288
 21
347.0894017202
 31
0.0
  0
LINE
  5
463
330
1F
100
AcDbEntity
  8
0
  6
PHANTOM
 62
     8
370
     0
100
AcDbLine
 10
365.2205931803
 20
340.0894017194
 30
0.0
 11
365.2205931803
 21
-1459.9105982806
 31
0.0
  0
LINE
  5
464
330
1F
100
AcDbEntity
  8
0
  6
PHANTOM
 62
     8
370
     0
100
AcDbLine
 10
371.6291570681
 20
-1454.9105982806
 30
0.0
 11
371.6291570681
 21
335.0894017194
 31
0.0
  0
LINE
  5
465
330
1F
100
AcDbEntity
  8
0
  6
PHANTOM
 62
     8
370
     0
100
AcDbLine
 10
371.6291570681
 20
335.0894017194
 30
0.0
 11
388.7301652903
 21
335.0894017194
 31
0.0
  0
LINE
  5
466
330
1F
100
AcDbEntity
  8
0
  6
PHANTOM
 62
     8
370
     0
100
AcDbLine
 10
388.7301652903
 20
-1454.9105982806
 30
0.0
 11
371.6291570681
 21
-1454.9105982806
 31
0.0
  0
LINE
  5
467
330
1F
100
AcDbEntity
  8
0
  6
PHANTOM
 62
     8
370
     0
100
AcDbLine
 10
388.7301652903
 20
335.0894017194
 30
0.0
 11
388.7301652903
 21
-1454.9105982806
 31
0.0
  0
LINE
  5
468
330
1F
100
AcDbEntity
  8
0
  6
PHANTOM
 62
     8
370
     0
100
AcDbLine
 10
439.0216547424
 20
-1454.9105982806
 30
0.0
 11
398.0640518834
 21
-1454.9105982806
 31
0.0
  0
LINE
  5
469
330
1F
100
AcDbEntity
  8
0
  6
PHANTOM
 62
     8
370
     0
100
AcDbLine
 10
391.1004095078
 20
340.0894017194
 30
0.0
 11
391.1004095078
 21
-1459.9105982806
 31
0.0
  0
LINE
  5
46A
330
1F
100
AcDbEntity
  8
0
  6
PHANTOM
 62
     8
370
     0
100
AcDbLine
 10
398.0640518834
 20
-1454.9105982806
 30
0.0
 11
398.0640518834
 21
335.0894017194
 31
0.0
  0
LINE
  5
46B
330
1F
100
AcDbEntity
  8
0
  6
PHANTOM
 62
     8
370
     0
100
AcDbLine
 10
398.0640518834
 20
335.0894017194
 30
0.0
 11
439.0216547424
 21
335.0894017194
 31
0.0
  0
LINE
  5
46C
330
1F
100
AcDbEntity
  8
0
  6
PHANTOM
 62
     8
370
     0
100
AcDbLine
 10
439.0216547424
 20
335.0894017194
 30
0.0
 11
439.0216547424
 21
-1454.9105982806
 31
0.0
  0
LINE
  5
46D
330
1F
100
AcDbEntity
  8
0
  6
PHANTOM
 62
     8
370
     0
100
AcDbLine
 10
347.6877455569
 20
335.0894017194
 30
0.0
 11
364.7887537792
 21
335.0894017194
 31
0.0
  0
LINE
  5
46E
330
1F
100
AcDbEntity
  8
0
  6
PHANTOM
 62
     8
370
     0
100
AcDbLine
 10
341.2791816692
 20
340.0894017194
 30
0.0
 11
341.2791816692
 21
-1459.9105982806
 31
0.0
  0
LINE
  5
46F
330
1F
100
AcDbEntity
  8
0
  6
PHANTOM
 62
     8
370
     0
100
AcDbLine
 10
347.6877455569
 20
-1454.9105982806
 30
0.0
 11
347.6877455569
 21
335.0894017194
 31
0.0
  0
LINE
  5
470
330
1F
100
AcDbEntity
  8
0
  6
PHANTOM
 62
     8
370
     0
100
AcDbLine
 10
364.7887537792
 20
-1454.9105982806
 30
0.0
 11
347.6877455569
 21
-1454.9105982806
 31
0.0
  0
LINE
  5
471
330
1F
100
AcDbEntity
  8
0
  6
PHANTOM
 62
     8
370
     0
100
AcDbLine
 10
364.7887537792
 20
335.0894017194
 30
0.0
 11
364.7887537792
 21
-1454.9105982806
 31
0.0
  0
LINE
  5
472
330
1F
100
AcDbEntity
  8
0
  6
PHANTOM
 62
     8
370
     0
100
AcDbLine
 10
456.9729136148
 20
-1466.9105982798
 30
0.0
 11
456.9729136148
 21
-1464.9105982798
 31
0.0
  0
LINE
  5
473
330
1F
100
AcDbEntity
  8
0
  6
PHANTOM
 62
     8
370
     0
100
AcDbLine
 10
317.2173714326
 20
-1466.9105982798
 30
0.0
 11
317.2173714326
 21
-1464.9105982798
 31
0.0
  0
LINE
  5
474
330
1F
100
AcDbEntity
  8
0
  6
PHANTOM
 62
     8
370
     0
100
AcDbLine
 10
917.3114591041
 20
-1466.9105982798
 30
0.0
 11
917.3114591041
 21
-1464.9105982798
 31
0.0
  0
LINE
  5
475
330
1F
100
AcDbEntity
  8
0
  6
PHANTOM
 62
     8
370
     0
100
AcDbLine
 10
777.5559169219
 20
-1464.9105982798
 30
0.0
 11
777.5559169219
 21
-1466.9105982798
 31
0.0
  0
LINE
  5
476
330
1F
100
AcDbEntity
  8
0
  6
PHANTOM
 62
     8
370
     0
100
AcDbLine
 10
265.7730528288
 20
-1466.9105982798
 30
0.0
 11
265.7730528288
 21
-1464.9105982798
 31
0.0
  0
LINE
  5
477
330
1F
100
AcDbEntity
  8
0
  6
PHANTOM
 62
     8
370
     0
100
AcDbLine
 10
195.7480469843
 20
344.5894017202
 30
0.0
 11
195.7480469843
 21
342.5894017202
 31
0.0
  0
LINE
  5
478
330
1F
100
AcDbEntity
  8
0
  6
PHANTOM
 62
     8
370
     0
100
AcDbLine
 10
199.5880464231
 20
344.5894017202
 30
0.0
 11
199.5880464231
 21
342.5894017202
 31
0.0
  0
LINE
  5
479
330
1F
100
AcDbEntity
  8
0
  6
PHANTOM
 62
     8
370
     0
100
AcDbLine
 10
259.3552870135
 20
344.5894017202
 30
0.0
 11
259.3552870135
 21
342.5894017202
 31
0.0
  0
LINE
  5
47A
330
1F
100
AcDbEntity
  8
0
  6
PHANTOM
 62
     8
370
     0
100
AcDbLine
 10
368.1715668848
 20
342.5894017202
 30
0.0
 11
368.1715668848
 21
344.5894017202
 31
0.0
  0
LINE
  5
47B
330
1F
100
AcDbEntity
  8
0
  6
PHANTOM
 62
     8
370
     0
100
AcDbLine
 10
441.7082175406
 20
344.5894017202
 30
0.0
 11
441.7082175406
 21
342.5894017202
 31
0.0
  0
ARC
  5
47C
330
1F
100
AcDbEntity
  8
0
  6
Continuous
 62
     7
370
    15
100
AcDbCircle
 10
803.2644152684
 20
-1463.9105982798
 30
0.0
 40
9.000000000000151
100
AcDbArc
 50
286.3112717124
 51
321.057558731
  0
ARC
  5
47D
330
1F
100
AcDbEntity
  8
0
  6
Continuous
 62
     7
370
    15
100
AcDbCircle
 10
803.2644152684
 20
-1463.9105982798
 30
0.0
 40
8.999999999996309
100
AcDbArc
 50
218.942441269
 51
253.6998500095
  0
ARC
  5
47E
330
1F
100
AcDbEntity
  8
0
  6
Continuous
 62
     7
370
    15
100
AcDbCircle
 10
737.2644152684
 20
-1463.9105982798
 30
0.0
 40
8.999999999998124
100
AcDbArc
 50
286.3112717124
 51
321.057558731
  0
ARC
  5
47F
330
1F
100
AcDbEntity
  8
0
  6
Continuous
 62
     7
370
    15
100
AcDbCircle
 10
737.2644152684
 20
-1463.9105982798
 30
0.0
 40
8.99999999999634
100
AcDbArc
 50
218.942441269
 51
253.6998500095
  0
ARC
  5
480
330
1F
100
AcDbEntity
  8
0
  6
Continuous
 62
     7
370
    15
100
AcDbCircle
 10
358.468034333
 20
-1463.9105982798
 30
0.0
 40
8.999999999980934
100
AcDbArc
 50
286.3112717123
 51
299.254372865
  0
ARC
  5
481
330
1F
100
AcDbEntity
  8
0
  6
Continuous
 62
     7
370
    15
100
AcDbCircle
 10
358.468034333
 20
-1463.9105982798
 30
0.0
 40
8.999999999996874
100
AcDbArc
 50
218.942441269
 51
253.6998500095
  0
ARC
  5
482
330
1F
100
AcDbEntity
  8
0
  6
Continuous
 62
     7
370
    15
100
AcDbCircle
 10
367.2644152684
 20
-1463.9105982798
 30
0.0
 40
8.999999999999368
100
AcDbArc
 50
286.3112717124
 51
321.057558731
  0
ARC
  5
483
330
1F
100
AcDbEntity
  8
0
  6
Continuous
 62
     7
370
    15
100
AcDbCircle
 10
367.2644152684
 20
-1463.9105982798
 30
0.0
 40
8.999999999996888
100
AcDbArc
 50
218.942441269
 51
253.6998500095
  0
ARC
  5
484
330
1F
100
AcDbEntity
  8
0
  6
Continuous
 62
     7
370
    15
100
AcDbCircle
 10
332.0101883642
 20
-1463.9105982798
 30
0.0
 40
8.9999999999996
100
AcDbArc
 50
286.3112717124
 51
321.057558731
  0
ARC
  5
485
330
1F
100
AcDbEntity
  8
0
  6
Continuous
 62
     7
370
    15
100
AcDbCircle
 10
332.0101883642
 20
-1463.9105982798
 30
0.0
 40
8.999999999997968
100
AcDbArc
 50
218.942441269
 51
253.6998500095
  0
ARC
  5
486
330
1F
100
AcDbEntity
  8
0
  6
Continuous
 62
     7
370
    15
100
AcDbCircle
 10
497.2644152684
 20
-1463.9105982798
 30
0.0
 40
9.000000000000338
100
AcDbArc
 50
286.3112717124
 51
321.057558731
  0
ARC
  5
487
330
1F
100
AcDbEntity
  8
0
  6
Continuous
 62
     7
370
    15
100
AcDbCircle
 10
497.2644152684
 20
-1463.9105982798
 30
0.0
 40
8.999999999998
100
AcDbArc
 50
218.942441269
 51
253.6998500095
  0
ARC
  5
488
330
1F
100
AcDbEntity
  8
0
  6
Continuous
 62
     7
370
    15
100
AcDbCircle
 10
867.2644152684
 20
-1463.9105982798
 30
0.0
 40
8.999999999998069
100
AcDbArc
 50
286.3112717124
 51
321.057558731
  0
ARC
  5
489
330
1F
100
AcDbEntity
  8
0
  6
Continuous
 62
     7
370
    15
100
AcDbCircle
 10
867.2644152684
 20
-1463.9105982798
 30
0.0
 40
8.99999999999612
100
AcDbArc
 50
218.942441269
 51
253.6998500095
  0
ARC
  5
48A
330
1F
100
AcDbEntity
  8
0
  6
Continuous
 62
     7
370
    15
100
AcDbCircle
 10
858.2644152684
 20
-1463.9105982798
 30
0.0
 40
8.99999999997217
100
AcDbArc
 50
286.3112717123
 51
300.0
  0
ARC
  5
48B
330
1F
100
AcDbEntity
  8
0
  6
Continuous
 62
     7
370
    15
100
AcDbCircle
 10
858.2644152684
 20
-1463.9105982798
 30
0.0
 40
8.99999999999634
100
AcDbArc
 50
218.942441269
 51
253.6998500095
  0
ARC
  5
48C
330
1F
100
AcDbEntity
  8
0
  6
Continuous
 62
     7
370
    15
100
AcDbCircle
 10
630.2644152684
 20
-1471.9105982798
 30
0.0
 40
1.0
100
AcDbArc
 50
90.0
 51
180.0
  0
ARC
  5
48D
330
1F
100
AcDbEntity
  8
0
  6
Continuous
 62
     7
370
    15
100
AcDbCircle
 10
604.2644152684
 20
-1471.9105982798
 30
0.0
 40
1.000000000000227
100
AcDbArc
 50
0.0
 51
90.0
  0
ARC
  5
48E
330
1F
100
AcDbEntity
  8
0
  6
Continuous
 62
     7
370
    15
100
AcDbCircle
 10
604.2644152684
 20
352.0894017202
 30
0.0
 40
1.000000000000171
100
AcDbArc
 50
270.0
 51
0.0
  0
ARC
  5
48F
330
1F
100
AcDbEntity
  8
0
  6
Continuous
 62
     7
370
    15
100
AcDbCircle
 10
630.2644152684
 20
352.0894017202
 30
0.0
 40
1.000000000000284
100
AcDbArc
 50
180.0
 51
270.0
  0
ARC
  5
490
330
1F
100
AcDbEntity
  8
0
  6
Continuous
 62
     7
370
    15
100
AcDbCircle
 10
818.8634129913
 20
-1417.1984357088
 30
0.0
 40
55.22548563804711
100
AcDbArc
 50
223.0688001346
 51
230.6614588758
  0
ARC
  5
491
330
1F
100
AcDbEntity
  8
0
  6
Continuous
 62
     7
370
    15
100
AcDbCircle
 10
820.3745032111
 20
295.7644215109
 30
0.0
 40
57.43092977231893
100
AcDbArc
 50
129.4845280801
 51
136.7852129095
  0
ARC
  5
492
330
1F
100
AcDbEntity
  8
0
  6
Continuous
 62
     7
370
    15
100
AcDbCircle
 10
758.8125987177
 20
367.7348109547
 30
0.0
 40
44.45269317556703
100
AcDbArc
 50
218.4554754686
 51
227.2553094074
  0
ARC
  5
493
330
1F
100
AcDbEntity
  8
0
  6
Continuous
 62
     7
370
    15
100
AcDbCircle
 10
758.8125987177
 20
-1487.5560075158
 30
0.0
 40
44.45269317555677
100
AcDbArc
 50
132.7446905926
 51
141.5445245314
  0
ARC
  5
494
330
1F
100
AcDbEntity
  8
0
  6
Continuous
 62
     7
370
    15
100
AcDbCircle
 10
726.0893973242
 20
-1523.2662122757
 30
0.0
 40
94.92736806355362
100
AcDbArc
 50
133.938640393
 51
138.1324064066
  0
ARC
  5
495
330
1F
100
AcDbEntity
  8
0
  6
Continuous
 62
     7
370
    15
100
AcDbCircle
 10
787.7640363381
 20
-1379.8509271395
 30
0.0
 40
107.9429626490501
100
AcDbArc
 50
224.0562458134
 51
227.8751461624
  0
ARC
  5
496
330
1F
100
AcDbEntity
  8
0
  6
Continuous
 62
     7
370
    15
100
AcDbCircle
 10
787.7640363381
 20
260.0297305784
 30
0.0
 40
107.9429626489907
100
AcDbArc
 50
132.1248538376
 51
135.9437541866
  0
ARC
  5
497
330
1F
100
AcDbEntity
  8
0
  6
Continuous
 62
     7
370
    15
100
AcDbCircle
 10
729.0748221878
 20
406.3244320435
 30
0.0
 40
99.07245328985711
100
AcDbArc
 50
221.9553616927
 51
225.9735915076
  0
ARC
  5
498
330
1F
100
AcDbEntity
  8
0
  6
Continuous
 62
     7
370
    15
100
AcDbCircle
 10
876.1321175372
 20
-1449.7736179844
 30
0.0
 40
10.31326631736974
100
AcDbArc
 50
280.6088673862
 51
330.1259929756
  0
ARC
  5
499
330
1F
100
AcDbEntity
  8
0
  6
Continuous
 62
     7
370
    15
100
AcDbCircle
 10
876.1062223786
 20
329.9159394936
 30
0.0
 40
10.35390899726708
100
AcDbArc
 50
29.9776875627
 51
79.2874520754
  0
ARC
  5
49A
330
1F
100
AcDbEntity
  8
0
  6
Continuous
 62
     7
370
    15
100
AcDbCircle
 10
925.0654828354
 20
-1454.041189675
 30
0.0
 40
5.871579468225202
100
AcDbArc
 50
271.5580798519
 51
351.4848654113
  0
ARC
  5
49B
330
1F
100
AcDbEntity
  8
0
  6
Continuous
 62
     7
370
    15
100
AcDbCircle
 10
933.6413904353
 20
-1455.655753712
 30
0.0
 40
4.25535441619981
100
AcDbArc
 50
269.113059869
 51
10.0850638605
  0
ARC
  5
49C
330
1F
100
AcDbEntity
  8
0
  6
Continuous
 62
     7
370
    15
100
AcDbCircle
 10
925.0614647633
 20
334.2154549377
 30
0.0
 40
5.876226508674192
100
AcDbArc
 50
8.5530949199
 51
88.4039598169
  0
ARC
  5
49D
330
1F
100
AcDbEntity
  8
0
  6
Continuous
 62
     7
370
    15
100
AcDbCircle
 10
933.6457696672
 20
335.838284293
 30
0.0
 40
4.251697823088537
100
AcDbArc
 50
349.8551512908
 51
90.9467249796
  0
ARC
  5
49E
330
1F
100
AcDbEntity
  8
0
  6
Continuous
 62
     7
370
    15
100
AcDbCircle
 10
933.1249466449
 20
335.3039444617
 30
0.0
 40
4.884700920548835
100
AcDbArc
 50
359.9199307206
 51
18.4035703685
  0
ARC
  5
49F
330
1F
100
AcDbEntity
  8
0
  6
Continuous
 62
     7
370
    15
100
AcDbCircle
 10
933.1249466483
 20
-1455.1251410233
 30
0.0
 40
4.884700917086016
100
AcDbArc
 50
341.5964285312
 51
0.080069284
  0
ARC
  5
4A0
330
1F
100
AcDbEntity
  8
0
  6
Continuous
 62
     7
370
    15
100
AcDbCircle
 10
505.454008349
 20
-1526.1456286046
 30
0.0
 40
99.07245328974501
100
AcDbArc
 50
41.9553616927
 51
45.9735915076
  0
ARC
  5
4A1
330
1F
100
AcDbEntity
  8
0
  6
Continuous
 62
     7
370
    15
100
AcDbCircle
 10
446.7647941987
 20
-1379.8509271395
 30
0.0
 40
107.9429626489601
100
AcDbArc
 50
312.1248538376
 51
315.9437541866
  0
ARC
  5
4A2
330
1F
100
AcDbEntity
  8
0
  6
Continuous
 62
     7
370
    15
100
AcDbCircle
 10
446.7647941986
 20
260.0297305783
 30
0.0
 40
107.9429626490796
100
AcDbArc
 50
44.0562458134
 51
47.8751461624
  0
ARC
  5
4A3
330
1F
100
AcDbEntity
  8
0
  6
Continuous
 62
     7
370
    15
100
AcDbCircle
 10
511.3331108153
 20
400.6540888213
 30
0.0
 40
90.90990013932011
100
AcDbArc
 50
313.8459312755
 51
318.2251155242
  0
ARC
  5
4A4
330
1F
100
AcDbEntity
  8
0
  6
Continuous
 62
     7
370
    15
100
AcDbCircle
 10
475.7162318191
 20
367.7348109546
 30
0.0
 40
44.45269317553654
100
AcDbArc
 50
312.7446905926
 51
321.5445245314
  0
ARC
  5
4A5
330
1F
100
AcDbEntity
  8
0
  6
Continuous
 62
     7
370
    15
100
AcDbCircle
 10
414.1543273256
 20
295.7644215109
 30
0.0
 40
57.43092977235018
100
AcDbArc
 50
43.2147870905
 51
50.5154719199
  0
ARC
  5
4A6
330
1F
100
AcDbEntity
  8
0
  6
Continuous
 62
     7
370
    15
100
AcDbCircle
 10
414.1543273256
 20
-1415.585618072
 30
0.0
 40
57.43092977239083
100
AcDbArc
 50
309.4845280801
 51
316.7852129095
  0
ARC
  5
4A7
330
1F
100
AcDbEntity
  8
0
  6
Continuous
 62
     7
370
    15
100
AcDbCircle
 10
475.7162318191
 20
-1487.5560075158
 30
0.0
 40
44.45269317552464
100
AcDbArc
 50
38.4554754686
 51
47.2553094074
  0
ARC
  5
4A8
330
1F
100
AcDbEntity
  8
0
  6
Continuous
 62
     7
370
    15
100
AcDbCircle
 10
316.7337482194
 20
332.7082499726
 30
0.0
 40
7.405824978541045
100
AcDbArc
 50
18.7551254369
 51
85.3217376299
  0
ARC
  5
4A9
330
1F
100
AcDbEntity
  8
0
  6
Continuous
 62
     7
370
    15
100
AcDbCircle
 10
316.7337482194
 20
-1452.5294465337
 30
0.0
 40
7.405824978541459
100
AcDbArc
 50
274.6782623701
 51
341.2448745631
  0
ARC
  5
4AA
330
1F
100
AcDbEntity
  8
0
  6
Continuous
 62
     7
370
    15
100
AcDbCircle
 10
337.8405761229
 20
336.6853713247
 30
0.0
 40
3.404080144792453
100
AcDbArc
 50
332.0409624895
 51
89.6902331925
  0
ARC
  5
4AB
330
1F
100
AcDbEntity
  8
0
  6
Continuous
 62
     7
370
    15
100
AcDbCircle
 10
337.8405761229
 20
-1456.5065678858
 30
0.0
 40
3.404080144792952
100
AcDbArc
 50
270.3097668075
 51
27.9590375105
  0
ARC
  5
4AC
330
1F
100
AcDbEntity
  8
0
  6
Continuous
 62
     7
370
    15
100
AcDbCircle
 10
313.8991646117
 20
336.6853713247
 30
0.0
 40
3.404080144792454
100
AcDbArc
 50
332.0409624895
 51
89.6902331925
  0
ARC
  5
4AD
330
1F
100
AcDbEntity
  8
0
  6
Continuous
 62
     7
370
    15
100
AcDbCircle
 10
292.7923367083
 20
332.7082499726
 30
0.0
 40
7.405824978540918
100
AcDbArc
 50
18.7551254369
 51
85.3217376299
  0
ARC
  5
4AE
330
1F
100
AcDbEntity
  8
0
  6
Continuous
 62
     7
370
    15
100
AcDbCircle
 10
313.8991646117
 20
-1456.5065678858
 30
0.0
 40
3.404080144792682
100
AcDbArc
 50
270.3097668075
 51
27.9590375105
  0
ARC
  5
4AF
330
1F
100
AcDbEntity
  8
0
  6
Continuous
 62
     7
370
    15
100
AcDbCircle
 10
292.7923367083
 20
-1452.5294465337
 30
0.0
 40
7.405824978541459
100
AcDbArc
 50
274.6782623701
 51
341.2448745631
  0
ARC
  5
4B0
330
1F
100
AcDbEntity
  8
0
  6
Continuous
 62
     7
370
    15
100
AcDbCircle
 10
289.9577531006
 20
-1456.5065678858
 30
0.0
 40
3.404080144792684
100
AcDbArc
 50
270.3097668075
 51
27.9590375105
  0
ARC
  5
4B1
330
1F
100
AcDbEntity
  8
0
  6
Continuous
 62
     7
370
    15
100
AcDbCircle
 10
268.8509251971
 20
-1452.5294465337
 30
0.0
 40
7.40582497854126
100
AcDbArc
 50
274.6782623701
 51
341.2448745631
  0
ARC
  5
4B2
330
1F
100
AcDbEntity
  8
0
  6
Continuous
 62
     7
370
    15
100
AcDbCircle
 10
268.8509251971
 20
332.7082499726
 30
0.0
 40
7.405824978541321
100
AcDbArc
 50
18.7551254369
 51
85.3217376299
  0
ARC
  5
4B3
330
1F
100
AcDbEntity
  8
0
  6
Continuous
 62
     7
370
    15
100
AcDbCircle
 10
289.9577531006
 20
336.6853713247
 30
0.0
 40
3.404080144792577
100
AcDbArc
 50
332.0409624895
 51
89.6902331925
  0
ARC
  5
4B4
330
1F
100
AcDbEntity
  8
0
  6
Continuous
 62
     7
370
    15
100
AcDbCircle
 10
364.6165712418
 20
332.7082499726
 30
0.0
 40
7.405824978541045
100
AcDbArc
 50
18.7551254369
 51
85.3217376299
  0
ARC
  5
4B5
330
1F
100
AcDbEntity
  8
0
  6
Continuous
 62
     7
370
    15
100
AcDbCircle
 10
364.6165712418
 20
-1452.5294465337
 30
0.0
 40
7.405824978541514
100
AcDbArc
 50
274.6782623701
 51
341.2448745631
  0
ARC
  5
4B6
330
1F
100
AcDbEntity
  8
0
  6
Continuous
 62
     7
370
    15
100
AcDbCircle
 10
385.7233991452
 20
336.6853713247
 30
0.0
 40
3.404080144792581
100
AcDbArc
 50
332.0409624895
 51
89.6902331925
  0
ARC
  5
4B7
330
1F
100
AcDbEntity
  8
0
  6
Continuous
 62
     7
370
    15
100
AcDbCircle
 10
385.7233991452
 20
-1456.5065678858
 30
0.0
 40
3.404080144792952
100
AcDbArc
 50
270.3097668075
 51
27.9590375105
  0
ARC
  5
4B8
330
1F
100
AcDbEntity
  8
0
  6
Continuous
 62
     7
370
    15
100
AcDbCircle
 10
361.7819876341
 20
336.6853713247
 30
0.0
 40
3.40408014479253
100
AcDbArc
 50
332.0409624895
 51
89.6902331925
  0
ARC
  5
4B9
330
1F
100
AcDbEntity
  8
0
  6
Continuous
 62
     7
370
    15
100
AcDbCircle
 10
340.6751597306
 20
332.7082499726
 30
0.0
 40
7.405824978540918
100
AcDbArc
 50
18.7551254369
 51
85.3217376299
  0
ARC
  5
4BA
330
1F
100
AcDbEntity
  8
0
  6
Continuous
 62
     7
370
    15
100
AcDbCircle
 10
340.6751597306
 20
-1452.5294465337
 30
0.0
 40
7.405824978541459
100
AcDbArc
 50
274.6782623701
 51
341.2448745631
  0
ARC
  5
4BB
330
1F
100
AcDbEntity
  8
0
  6
Continuous
 62
     7
370
    15
100
AcDbCircle
 10
361.7819876341
 20
-1456.5065678858
 30
0.0
 40
3.404080144792683
100
AcDbArc
 50
270.3097668075
 51
27.9590375105
  0
ENDSEC
  0
SECTION
  2
OBJECTS
  0
DICTIONARY
  5
C
330
0
100
AcDbDictionary
281
     1
  3
ACAD_GROUP
350
D
  3
ACAD_LAYOUT
350
1A
  3
ACAD_MLINESTYLE
350
17
  3
ACAD_PLOTSETTINGS
350
19
  3
ACAD_PLOTSTYLENAME
350
E
  3
ACAD_SCALELIST
350
47
  0
DICTIONARY
  5
D
102
{ACAD_REACTORS
330
C
102
}
330
C
100
AcDbDictionary
281
     1
  0
DICTIONARY
  5
1A
102
{ACAD_REACTORS
330
C
102
}
330
C
100
AcDbDictionary
281
     1
  3
Layout1
350
1E
  3
Layout2
350
26
  3
Model
350
22
  0
DICTIONARY
  5
17
102
{ACAD_REACTORS
330
C
102
}
330
C
100
AcDbDictionary
281
     1
  3
Standard
350
18
  0
DICTIONARY
  5
19
102
{ACAD_REACTORS
330
C
102
}
330
C
100
AcDbDictionary
281
     1
  0
ACDBDICTIONARYWDFLT
  5
E
102
{ACAD_REACTORS
330
C
102
}
330
C
100
AcDbDictionary
281
     1
  3
Normal
350
F
100
AcDbDictionaryWithDefault
340
F
  0
DICTIONARY
  5
47
102
{ACAD_REACTORS
330
C
102
}
330
C
100
AcDbDictionary
281
     1
  3
A0
350
48
  3
A1
350
49
  3
A2
350
4A
  3
A3
350
4B
  3
A4
350
4C
  3
A5
350
4D
  3
A6
350
4E
  3
A7
350
4F
  3
A8
350
50
  3
A9
350
51
  3
B0
350
52
  3
B1
350
53
  3
B2
350
54
  3
B3
350
55
  3
B4
350
56
  3
B5
350
57
  3
B6
350
58
  3
B7
350
59
  3
B8
350
5A
  3
B9
350
5B
  3
C0
350
5C
  3
C1
350
5D
  3
C2
350
5E
  3
C3
350
5F
  3
C4
350
60
  3
C5
350
61
  3
C6
350
62
  3
C7
350
63
  3
C8
350
64
  3
C9
350
65
  3
D0
350
66
  3
D1
350
67
  3
D2
350
68
  0
LAYOUT
  5
1E
102
{ACAD_REACTORS
330
1A
102
}
330
1A
100
AcDbPlotSettings
  1

  2
none_device
  4

  6

 40
0.0
 41
0.0
 42
0.0
 43
0.0
 44
0.0
 45
0.0
 46
0.0
 47
0.0
 48
0.0
 49
0.0
140
0.0
141
0.0
142
1.0
143
1.0
 70
   688
 72
     1
 73
     0
 74
     5
  7

 75
    16
147
1.0
148
0.0
149
0.0
100
AcDbLayout
  1
Layout1
 70
     1
 71
     1
 10
0.0
 20
0.0
 11
420.0
 21
297.0
 12
0.0
 22
0.0
 32
0.0
 14
1.0000000000E+20
 24
1.0000000000E+20
 34
1.0000000000E+20
 15
-1.0000000000E+20
 25
-1.0000000000E+20
 35
-1.0000000000E+20
146
0.0
 13
0.0
 23
0.0
 33
0.0
 16
1.0
 26
0.0
 36
0.0
 17
0.0
 27
1.0
 37
0.0
 76
     0
330
1B
  0
LAYOUT
  5
26
102
{ACAD_REACTORS
330
1A
102
}
330
1A
100
AcDbPlotSettings
  1

  2
none_device
  4

  6

 40
0.0
 41
0.0
 42
0.0
 43
0.0
 44
0.0
 45
0.0
 46
0.0
 47
0.0
 48
0.0
 49
0.0
140
0.0
141
0.0
142
1.0
143
1.0
 70
   688
 72
     1
 73
     0
 74
     5
  7

 75
    16
147
1.0
148
0.0
149
0.0
100
AcDbLayout
  1
Layout2
 70
     1
 71
     2
 10
0.0
 20
0.0
 11
0.0
 21
0.0
 12
0.0
 22
0.0
 32
0.0
 14
0.0
 24
0.0
 34
0.0
 15
0.0
 25
0.0
 35
0.0
146
0.0
 13
0.0
 23
0.0
 33
0.0
 16
1.0
 26
0.0
 36
0.0
 17
0.0
 27
1.0
 37
0.0
 76
     0
330
23
  0
LAYOUT
  5
22
102
{ACAD_REACTORS
330
1A
102
}
330
1A
100
AcDbPlotSettings
  1

  2
none_device
  4
ANSI_A_(11.00_x_8.50_Inches)
  6

 40
6.35
 41
19.05
 42
6.35000508
 43
19.05000254
 44
279.4
 45
215.9
 46
69.087623778
 47
153.5197887877
 48
0.0
 49
0.0
140
0.0
141
0.0
142
0.0045437365
143
1.0
 70
  1696
 72
     0
 73
     0
 74
     0
  7

 75
     0
147
0.0179189148
148
-1300.4909072572
149
0.0
100
AcDbLayout
  1
Model
 70
     1
 71
     0
 10
0.0
 20
0.0
 11
420.0
 21
297.0
 12
0.0
 22
0.0
 32
0.0
 14
175.6177431469
 24
-1485.9105982798
 34
0.0
 15
938.0096475654
 25
366.0894017202
 35
0.0
146
0.0
 13
0.0
 23
0.0
 33
0.0
 16
1.0
 26
0.0
 36
0.0
 17
0.0
 27
1.0
 37
0.0
 76
     0
330
1F
331
29
  0
MLINESTYLE
  5
18
102
{ACAD_REACTORS
330
17
102
}
330
17
100
AcDbMlineStyle
  2
Standard
 70
     0
  3

 62
   256
 51
90.0
 52
90.0
 71
     2
 49
0.5
 62
   256
  6
BYLAYER
 49
-0.5
 62
   256
  6
BYLAYER
  0
ACDBPLACEHOLDER
  5
F
102
{ACAD_REACTORS
330
E
102
}
330
E
  0
SCALE
  5
48
102
{ACAD_REACTORS
330
47
102
}
330
47
100
AcDbScale
 70
     0
300
1:1
140
1.0
141
1.0
290
     1
  0
SCALE
  5
49
102
{ACAD_REACTORS
330
47
102
}
330
47
100
AcDbScale
 70
     0
300
1:2
140
1.0
141
2.0
290
     0
  0
SCALE
  5
4A
102
{ACAD_REACTORS
330
47
102
}
330
47
100
AcDbScale
 70
     0
300
1:4
140
1.0
141
4.0
290
     0
  0
SCALE
  5
4B
102
{ACAD_REACTORS
330
47
102
}
330
47
100
AcDbScale
 70
     0
300
1:5
140
1.0
141
5.0
290
     0
  0
SCALE
  5
4C
102
{ACAD_REACTORS
330
47
102
}
330
47
100
AcDbScale
 70
     0
300
1:8
140
1.0
141
8.0
290
     0
  0
SCALE
  5
4D
102
{ACAD_REACTORS
330
47
102
}
330
47
100
AcDbScale
 70
     0
300
1:10
140
1.0
141
10.0
290
     0
  0
SCALE
  5
4E
102
{ACAD_REACTORS
330
47
102
}
330
47
100
AcDbScale
 70
     0
300
1:16
140
1.0
141
16.0
290
     0
  0
SCALE
  5
4F
102
{ACAD_REACTORS
330
47
102
}
330
47
100
AcDbScale
 70
     0
300
1:20
140
1.0
141
20.0
290
     0
  0
SCALE
  5
50
102
{ACAD_REACTORS
330
47
102
}
330
47
100
AcDbScale
 70
     0
300
1:30
140
1.0
141
30.0
290
     0
  0
SCALE
  5
51
102
{ACAD_REACTORS
330
47
102
}
330
47
100
AcDbScale
 70
     0
300
1:40
140
1.0
141
40.0
290
     0
  0
SCALE
  5
52
102
{ACAD_REACTORS
330
47
102
}
330
47
100
AcDbScale
 70
     0
300
1:50
140
1.0
141
50.0
290
     0
  0
SCALE
  5
53
102
{ACAD_REACTORS
330
47
102
}
330
47
100
AcDbScale
 70
     0
300
1:100
140
1.0
141
100.0
290
     0
  0
SCALE
  5
54
102
{ACAD_REACTORS
330
47
102
}
330
47
100
AcDbScale
 70
     0
300
2:1
140
2.0
141
1.0
290
     0
  0
SCALE
  5
55
102
{ACAD_REACTORS
330
47
102
}
330
47
100
AcDbScale
 70
     0
300
4:1
140
4.0
141
1.0
290
     0
  0
SCALE
  5
56
102
{ACAD_REACTORS
330
47
102
}
330
47
100
AcDbScale
 70
     0
300
8:1
140
8.0
141
1.0
290
     0
  0
SCALE
  5
57
102
{ACAD_REACTORS
330
47
102
}
330
47
100
AcDbScale
 70
     0
300
10:1
140
10.0
141
1.0
290
     0
  0
SCALE
  5
58
102
{ACAD_REACTORS
330
47
102
}
330
47
100
AcDbScale
 70
     0
300
100:1
140
100.0
141
1.0
290
     0
  0
SCALE
  5
59
102
{ACAD_REACTORS
330
47
102
}
330
47
100
AcDbScale
 70
     0
300
1/128" = 1'-0"
140
0.0078125
141
12.0
290
     0
  0
SCALE
  5
5A
102
{ACAD_REACTORS
330
47
102
}
330
47
100
AcDbScale
 70
     0
300
1/64" = 1'-0"
140
0.015625
141
12.0
290
     0
  0
SCALE
  5
5B
102
{ACAD_REACTORS
330
47
102
}
330
47
100
AcDbScale
 70
     0
300
1/32" = 1'-0"
140
0.03125
141
12.0
290
     0
  0
SCALE
  5
5C
102
{ACAD_REACTORS
330
47
102
}
330
47
100
AcDbScale
 70
     0
300
1/16" = 1'-0"
140
0.0625
141
12.0
290
     0
  0
SCALE
  5
5D
102
{ACAD_REACTORS
330
47
102
}
330
47
100
AcDbScale
 70
     0
300
3/32" = 1'-0"
140
0.09375
141
12.0
290
     0
  0
SCALE
  5
5E
102
{ACAD_REACTORS
330
47
102
}
330
47
100
AcDbScale
 70
     0
300
1/8" = 1'-0"
140
0.125
141
12.0
290
     0
  0
SCALE
  5
5F
102
{ACAD_REACTORS
330
47
102
}
330
47
100
AcDbScale
 70
     0
300
3/16" = 1'-0"
140
0.1875
141
12.0
290
     0
  0
SCALE
  5
60
102
{ACAD_REACTORS
330
47
102
}
330
47
100
AcDbScale
 70
     0
300
1/4" = 1'-0"
140
0.25
141
12.0
290
     0
  0
SCALE
  5
61
102
{ACAD_REACTORS
330
47
102
}
330
47
100
AcDbScale
 70
     0
300
3/8" = 1'-0"
140
0.375
141
12.0
290
     0
  0
SCALE
  5
62
102
{ACAD_REACTORS
330
47
102
}
330
47
100
AcDbScale
 70
     0
300
1/2" = 1'-0"
140
0.5
141
12.0
290
     0
  0
SCALE
  5
63
102
{ACAD_REACTORS
330
47
102
}
330
47
100
AcDbScale
 70
     0
300
3/4" = 1'-0"
140
0.75
141
12.0
290
     0
  0
SCALE
  5
64
102
{ACAD_REACTORS
330
47
102
}
330
47
100
AcDbScale
 70
     0
300
1" = 1'-0"
140
1.0
141
12.0
290
     0
  0
SCALE
  5
65
102
{ACAD_REACTORS
330
47
102
}
330
47
100
AcDbScale
 70
     0
300
1-1/2" = 1'-0"
140
1.5
141
12.0
290
     0
  0
SCALE
  5
66
102
{ACAD_REACTORS
330
47
102
}
330
47
100
AcDbScale
 70
     0
300
3" = 1'-0"
140
3.0
141
12.0
290
     0
  0
SCALE
  5
67
102
{ACAD_REACTORS
330
47
102
}
330
47
100
AcDbScale
 70
     0
300
6" = 1'-0"
140
6.0
141
12.0
290
     0
  0
SCALE
  5
68
102
{ACAD_REACTORS
330
47
102
}
330
47
100
AcDbScale
 70
     0
300
1'-0" = 1'-0"
140
12.0
141
12.0
290
     0
  0
ENDSEC
  0
EOF
