  0
SECTION
  2
HEADER
  9
$ACADVER
  1
AC1015
  9
$ACADMAINTVER
 70
     6
  9
$DWGCODEPAGE
  3
ANSI_1251
  9
$INSBASE
 10
0.0
 20
0.0
 30
0.0
  9
$EXTMIN
 10
0.0
 20
0.0
 30
0.0
  9
$EXTMAX
 10
420.0
 20
297.0
 30
0.0
  9
$LIMMIN
 10
0.0
 20
0.0
  9
$LIMMAX
 10
420.0
 20
297.0
  9
$ORTHOMODE
 70
     0
  9
$REGENMODE
 70
     1
  9
$FILLMODE
 70
     1
  9
$QTEXTMODE
 70
     0
  9
$MIRRTEXT
 70
     1
  9
$LTSCALE
 40
1.0
  9
$ATTMODE
 70
     1
  9
$TEXTSIZE
 40
3.0
  9
$TRACEWID
 40
1.0
  9
$TEXTSTYLE
  7
Standard
  9
$CLAYER
  8
0
  9
$CELTYPE
  6
ByLayer
  9
$CECOLOR
 62
   256
  9
$CELTSCALE
 40
1.0
  9
$DISPSILH
 70
     0
  9
$DIMSCALE
 40
1.0
  9
$DIMASZ
 40
3.0
  9
$DIMEXO
 40
0.0
  9
$DIMDLI
 40
3.75
  9
$DIMRND
 40
0.0
  9
$DIMDLE
 40
0.0
  9
$DIMEXE
 40
1.0
  9
$DIMTP
 40
0.0
  9
$DIMTM
 40
0.0
  9
$DIMTXT
 40
3.0
  9
$DIMCEN
 40
2.5
  9
$DIMTSZ
 40
0.0
  9
$DIMTOL
 70
     0
  9
$DIMLIM
 70
     0
  9
$DIMTIH
 70
     1
  9
$DIMTOH
 70
     1
  9
$DIMSE1
 70
     0
  9
$DIMSE2
 70
     0
  9
$DIMTAD
 70
     1
  9
$DIMZIN
 70
     0
  9
$DIMBLK
  1

  9
$DIMASO
 70
     1
  9
$DIMSHO
 70
     1
  9
$DIMPOST
  1

  9
$DIMAPOST
  1

  9
$DIMALT
 70
     0
  9
$DIMALTD
 70
     3
  9
$DIMALTF
 40
0.0393700787
  9
$DIMLFAC
 40
1.0
  9
$DIMTOFL
 70
     1
  9
$DIMTVP
 40
0.0
  9
$DIMTIX
 70
     0
  9
$DIMSOXD
 70
     0
  9
$DIMSAH
 70
     0
  9
$DIMBLK1
  1

  9
$DIMBLK2
  1

  9
$DIMSTYLE
  2
ISO-25
  9
$DIMCLRD
 70
     0
  9
$DIMCLRE
 70
     0
  9
$DIMCLRT
 70
     0
  9
$DIMTFAC
 40
1.0
  9
$DIMGAP
 40
1.524
  9
$DIMJUST
 70
     0
  9
$DIMSD1
 70
     0
  9
$DIMSD2
 70
     0
  9
$DIMTOLJ
 70
     0
  9
$DIMTZIN
 70
     0
  9
$DIMALTZ
 70
     0
  9
$DIMALTTZ
 70
     0
  9
$DIMUPT
 70
     0
  9
$DIMDEC
 70
     2
  9
$DIMTDEC
 70
     2
  9
$DIMALTU
 70
     2
  9
$DIMALTTD
 70
     3
  9
$DIMTXSTY
  7
Standard
  9
$DIMAUNIT
 70
     0
  9
$DIMADEC
 70
     2
  9
$DIMALTRND
 40
0.0
  9
$DIMAZIN
 70
     0
  9
$DIMDSEP
 70
    44
  9
$DIMATFIT
 70
     3
  9
$DIMFRAC
 70
     0
  9
$DIMLDRBLK
  1

  9
$DIMLUNIT
 70
     2
  9
$DIMLWD
 70
    -2
  9
$DIMLWE
 70
    -2
  9
$DIMTMOVE
 70
     0
  9
$LUNITS
 70
     2
  9
$LUPREC
 70
     2
  9
$SKETCHINC
 40
1.0
  9
$FILLETRAD
 40
10.0
  9
$AUNITS
 70
     1
  9
$AUPREC
 70
     2
  9
$MENU
  1
.
  9
$ELEVATION
 40
0.0
  9
$PELEVATION
 40
0.0
  9
$THICKNESS
 40
0.0
  9
$LIMCHECK
 70
     0
  9
$CHAMFERA
 40
0.0
  9
$CHAMFERB
 40
0.0
  9
$CHAMFERC
 40
0.0
  9
$CHAMFERD
 40
0.0
  9
$SKPOLY
 70
     0
  9
$TDCREATE
 40
2459664.37616493
  9
$TDUCREATE
 40
2459664.25116493
  9
$TDUPDATE
 40
2459664.376165185
  9
$TDUUPDATE
 40
2459664.251165185
  9
$TDINDWG
 40
0.0000000116
  9
$TDUSRTIMER
 40
0.0000000116
  9
$USRTIMER
 70
     1
  9
$ANGBASE
 50
0.0
  9
$ANGDIR
 70
     0
  9
$PDMODE
 70
     0
  9
$PDSIZE
 40
-1.0
  9
$PLINEWID
 40
0.0
  9
$SPLFRAME
 70
     0
  9
$SPLINETYPE
 70
     6
  9
$SPLINESEGS
 70
     8
  9
$HANDSEED
  5
1E3
  9
$SURFTAB1
 70
     6
  9
$SURFTAB2
 70
     6
  9
$SURFTYPE
 70
     6
  9
$SURFU
 70
     6
  9
$SURFV
 70
     6
  9
$UCSBASE
  2

  9
$UCSNAME
  2

  9
$UCSORG
 10
0.0
 20
0.0
 30
0.0
  9
$UCSXDIR
 10
1.0
 20
0.0
 30
0.0
  9
$UCSYDIR
 10
0.0
 20
1.0
 30
0.0
  9
$UCSORTHOREF
  2

  9
$UCSORTHOVIEW
 70
     0
  9
$UCSORGTOP
 10
0.0
 20
0.0
 30
0.0
  9
$UCSORGBOTTOM
 10
0.0
 20
0.0
 30
0.0
  9
$UCSORGLEFT
 10
0.0
 20
0.0
 30
0.0
  9
$UCSORGRIGHT
 10
0.0
 20
0.0
 30
0.0
  9
$UCSORGFRONT
 10
0.0
 20
0.0
 30
0.0
  9
$UCSORGBACK
 10
0.0
 20
0.0
 30
0.0
  9
$PUCSBASE
  2

  9
$PUCSNAME
  2

  9
$PUCSORG
 10
0.0
 20
0.0
 30
0.0
  9
$PUCSXDIR
 10
1.0
 20
0.0
 30
0.0
  9
$PUCSYDIR
 10
0.0
 20
1.0
 30
0.0
  9
$PUCSORTHOREF
  2

  9
$PUCSORTHOVIEW
 70
     0
  9
$PUCSORGTOP
 10
0.0
 20
0.0
 30
0.0
  9
$PUCSORGBOTTOM
 10
0.0
 20
0.0
 30
0.0
  9
$PUCSORGLEFT
 10
0.0
 20
0.0
 30
0.0
  9
$PUCSORGRIGHT
 10
0.0
 20
0.0
 30
0.0
  9
$PUCSORGFRONT
 10
0.0
 20
0.0
 30
0.0
  9
$PUCSORGBACK
 10
0.0
 20
0.0
 30
0.0
  9
$USERI1
 70
     0
  9
$USERI2
 70
     0
  9
$USERI3
 70
     0
  9
$USERI4
 70
     0
  9
$USERI5
 70
     0
  9
$USERR1
 40
0.0
  9
$USERR2
 40
0.0
  9
$USERR3
 40
0.0
  9
$USERR4
 40
0.0
  9
$USERR5
 40
0.0
  9
$WORLDVIEW
 70
     1
  9
$SHADEDGE
 70
     3
  9
$SHADEDIF
 70
    70
  9
$TILEMODE
 70
     1
  9
$MAXACTVP
 70
    64
  9
$PINSBASE
 10
0.0
 20
0.0
 30
0.0
  9
$PLIMCHECK
 70
     0
  9
$PEXTMIN
 10
1.0000000000E+20
 20
1.0000000000E+20
 30
1.0000000000E+20
  9
$PEXTMAX
 10
-1.0000000000E+20
 20
-1.0000000000E+20
 30
-1.0000000000E+20
  9
$PLIMMIN
 10
0.0
 20
0.0
  9
$PLIMMAX
 10
420.0
 20
297.0
  9
$UNITMODE
 70
     0
  9
$VISRETAIN
 70
     1
  9
$PLINEGEN
 70
     0
  9
$PSLTSCALE
 70
     1
  9
$TREEDEPTH
 70
  3020
  9
$CMLSTYLE
  2
Standard
  9
$CMLJUST
 70
     0
  9
$CMLSCALE
 40
20.0
  9
$PROXYGRAPHICS
 70
     1
  9
$MEASUREMENT
 70
     1
  9
$CELWEIGHT
370
    -1
  9
$ENDCAPS
280
     0
  9
$JOINSTYLE
280
     0
  9
$LWDISPLAY
290
     1
  9
$INSUNITS
 70
     4
  9
$HYPERLINKBASE
  1

  9
$STYLESHEET
  1

  9
$XEDIT
290
     1
  9
$CEPSNTYPE
380
     0
  9
$PSTYLEMODE
290
     1
  9
$FINGERPRINTGUID
  2
{FBA18E5F-0683-44EB-A46F-8419595BC65D}
  9
$VERSIONGUID
  2
{FAEB1C32-E019-11D5-929B-00C0DF256EC4}
  9
$EXTNAMES
290
     1
  9
$PSVPSCALE
 40
0.0
  9
$OLESTARTUP
290
     0
  0
ENDSEC
  0
SECTION
  2
CLASSES
  0
CLASS
  1
ACDBDICTIONARYWDFLT
  2
AcDbDictionaryWithDefault
  3
ObjectDBX Classes
 90
        0
280
     0
281
     0
  0
CLASS
  1
VISUALSTYLE
  2
AcDbVisualStyle
  3
ObjectDBX Classes
 90
     4095
280
     0
281
     0
  0
CLASS
  1
MATERIAL
  2
AcDbMaterial
  3
ObjectDBX Classes
 90
     1153
280
     0
281
     0
  0
CLASS
  1
SCALE
  2
AcDbScale
  3
ObjectDBX Classes
 90
     1153
280
     0
281
     0
  0
CLASS
  1
SUN
  2
AcDbSun
  3
SCENEOE
 90
     1153
280
     0
281
     0
  0
CLASS
  1
ACDBPLACEHOLDER
  2
AcDbPlaceHolder
  3
ObjectDBX Classes
 90
        0
280
     0
281
     0
  0
CLASS
  1
LAYOUT
  2
AcDbLayout
  3
ObjectDBX Classes
 90
        0
280
     0
281
     0
  0
ENDSEC
  0
SECTION
  2
TABLES
  0
TABLE
  2
VPORT
  5
8
330
0
100
AcDbSymbolTable
 70
     1
  0
VPORT
  5
29
330
8
100
AcDbSymbolTableRecord
100
AcDbViewportTableRecord
  2
*Active
 70
     0
 10
0.0
 20
0.0
 11
1.0
 21
1.0
 12
210.0
 22
148.5
 13
0.0
 23
0.0
 14
10.0
 24
10.0
 15
10.0
 25
10.0
 16
0.0
 26
0.0
 36
1.0
 17
0.0
 27
0.0
 37
0.0
 40
297.0
 41
1.4141414141
 42
50.0
 43
0.0
 44
0.0
 50
0.0
 51
0.0
 71
     0
 72
  2000
 73
     1
 74
     3
 75
     0
 76
     0
 77
     0
 78
     0
281
     0
 65
     1
110
0.0
120
0.0
130
0.0
111
1.0
121
0.0
131
0.0
112
0.0
122
1.0
132
0.0
 79
     0
146
0.0
  0
ENDTAB
  0
TABLE
  2
LTYPE
  5
5
330
0
100
AcDbSymbolTable
 70
     6
  0
LTYPE
  5
14
330
5
100
AcDbSymbolTableRecord
100
AcDbLinetypeTableRecord
  2
ByBlock
 70
     0
  3

 72
    65
 73
     0
 40
0.0
  0
LTYPE
  5
15
330
5
100
AcDbSymbolTableRecord
100
AcDbLinetypeTableRecord
  2
ByLayer
 70
     0
  3

 72
    65
 73
     0
 40
0.0
  0
LTYPE
  5
16
330
5
100
AcDbSymbolTableRecord
100
AcDbLinetypeTableRecord
  2
Continuous
 70
     0
  3
Solid line
 72
    65
 73
     0
 40
0.0
  0
LTYPE
  5
6A
330
5
100
AcDbSymbolTableRecord
100
AcDbLinetypeTableRecord
  2
HIDDEN
 70
     0
  3
Hidden __ __ __ __ __ __ __ __ __ __ __ __ __ __
 72
    65
 73
     2
 40
1.905
 49
1.27
 74
     0
 49
-0.635
 74
     0
  0
LTYPE
  5
6B
330
5
100
AcDbSymbolTableRecord
100
AcDbLinetypeTableRecord
  2
PHANTOM
 70
     0
  3
Phantom ______  __  __  ______  __  __  ______
 72
    65
 73
     6
 40
12.7
 49
6.35
 74
     0
 49
-1.27
 74
     0
 49
1.27
 74
     0
 49
-1.27
 74
     0
 49
1.27
 74
     0
 49
-1.27
 74
     0
  0
LTYPE
  5
6C
330
5
100
AcDbSymbolTableRecord
100
AcDbLinetypeTableRecord
  2
CENTER
 70
     0
  3
Center ____ _ ____ _ ____ _ ____ _ ____ _ ____
 72
    65
 73
     4
 40
10.16
 49
6.35
 74
     0
 49
-1.27
 74
     0
 49
1.27
 74
     0
 49
-1.27
 74
     0
  0
LTYPE
  5
6D
330
5
100
AcDbSymbolTableRecord
100
AcDbLinetypeTableRecord
  2
CENTERX2
 70
     0
  3
Center (2x) ________  __  ________  __  _____
 72
    65
 73
     4
 40
20.32
 49
12.7
 74
     0
 49
-2.54
 74
     0
 49
2.54
 74
     0
 49
-2.54
 74
     0
  0
LTYPE
  5
6E
330
5
100
AcDbSymbolTableRecord
100
AcDbLinetypeTableRecord
  2
DOT2
 70
     0
  3
Dot (.5x) ........................................
 72
    65
 73
     2
 40
0.635
 49
0.0
 74
     0
 49
-0.635
 74
     0
  0
ENDTAB
  0
TABLE
  2
LAYER
  5
2
330
0
100
AcDbSymbolTable
 70
     5
  0
LAYER
  5
10
330
2
100
AcDbSymbolTableRecord
100
AcDbLayerTableRecord
  2
0
 70
     0
 62
     7
  6
Continuous
370
    -3
390
F
  0
LAYER
  5
6F
330
2
100
AcDbSymbolTableRecord
100
AcDbLayerTableRecord
  2
К
 70
     0
 62
     1
  6
Continuous
370
    -3
390
F
  0
LAYER
  5
70
330
2
100
AcDbSymbolTableRecord
100
AcDbLayerTableRecord
  2
С
 70
     0
 62
     5
  6
Continuous
370
    -3
390
F
  0
LAYER
  5
71
330
2
100
AcDbSymbolTableRecord
100
AcDbLayerTableRecord
  2
Р
 70
     0
 62
    42
  6
Continuous
370
    -3
390
F
  0
LAYER
  5
72
330
2
100
AcDbSymbolTableRecord
100
AcDbLayerTableRecord
  2
FORMAT
 70
     0
 62
     7
  6
Continuous
370
    -3
390
F
  0
ENDTAB
  0
TABLE
  2
STYLE
  5
3
330
0
100
AcDbSymbolTable
 70
     1
  0
STYLE
  5
11
330
3
100
AcDbSymbolTableRecord
100
AcDbTextStyleTableRecord
  2
Standard
 70
     0
 40
0.0
 41
1.0
 50
0.0
 71
     0
 42
3.0
  3
txt
  4

  0
ENDTAB
  0
TABLE
  2
VIEW
  5
6
330
0
100
AcDbSymbolTable
 70
     0
  0
ENDTAB
  0
TABLE
  2
UCS
  5
7
330
0
100
AcDbSymbolTable
 70
     0
  0
ENDTAB
  0
TABLE
  2
APPID
  5
9
330
0
100
AcDbSymbolTable
 70
     1
  0
APPID
  5
12
330
9
100
AcDbSymbolTableRecord
100
AcDbRegAppTableRecord
  2
ACAD
 70
     0
  0
ENDTAB
  0
TABLE
  2
DIMSTYLE
  5
A
330
0
100
AcDbSymbolTable
 70
     1
100
AcDbDimStyleTable
  0
DIMSTYLE
105
27
330
A
100
AcDbSymbolTableRecord
100
AcDbDimStyleTableRecord
  2
ISO-25
 70
     0
 41
2.5
 42
0.625
 43
3.75
 44
1.25
 73
     0
 74
     0
 77
     1
 78
     8
140
2.5
141
2.5
143
0.0393700787
147
0.625
171
     3
172
     1
178
     0
271
     2
272
     2
274
     3
278
    44
283
     0
284
     8
340
11
  0
ENDTAB
  0
TABLE
  2
BLOCK_RECORD
  5
1
330
0
100
AcDbSymbolTable
 70
     1
  0
BLOCK_RECORD
  5
1F
330
1
100
AcDbSymbolTableRecord
100
AcDbBlockTableRecord
  2
*Model_Space
340
22
  0
BLOCK_RECORD
  5
1B
330
1
100
AcDbSymbolTableRecord
100
AcDbBlockTableRecord
  2
*Paper_Space
340
1E
  0
BLOCK_RECORD
  5
23
330
1
100
AcDbSymbolTableRecord
100
AcDbBlockTableRecord
  2
*Paper_Space0
340
26
  0
ENDTAB
  0
ENDSEC
  0
SECTION
  2
BLOCKS
  0
BLOCK
  5
20
330
1F
100
AcDbEntity
  8
0
100
AcDbBlockBegin
  2
*Model_Space
 70
     0
 10
0.0
 20
0.0
 30
0.0
  3
*Model_Space
  1
*Model_Space
  0
ENDBLK
  5
21
330
1F
100
AcDbEntity
  8
0
100
AcDbBlockEnd
  0
BLOCK
  5
1C
330
1B
100
AcDbEntity
 67
     1
  8
0
100
AcDbBlockBegin
  2
*Paper_Space
 70
     0
 10
0.0
 20
0.0
 30
0.0
  3
*Paper_Space
  1
*Paper_Space
  0
ENDBLK
  5
1D
330
1B
100
AcDbEntity
 67
     1
  8
0
100
AcDbBlockEnd
  0
BLOCK
  5
24
330
23
100
AcDbEntity
  8
0
100
AcDbBlockBegin
  2
*Paper_Space0
 70
     0
 10
0.0
 20
0.0
 30
0.0
  3
*Paper_Space0
  1
*Paper_Space0
  0
ENDBLK
  5
25
330
23
100
AcDbEntity
  8
0
100
AcDbBlockEnd
  0
ENDSEC
  0
SECTION
  2
ENTITIES
  0
LINE
  5
73
330
1F
100
AcDbEntity
  8
0
  6
Continuous
 62
     7
370
    15
100
AcDbLine
 10
259.4041564517
 20
295.2074914257
 30
0.0
 11
259.5274355791
 21
294.9324914257
 31
0.0
  0
LINE
  5
74
330
1F
100
AcDbEntity
  8
0
  6
Continuous
 62
     7
370
    15
100
AcDbLine
 10
429.503005379
 20
314.1805379926
 30
0.0
 11
429.3797262515
 21
314.4555379926
 31
0.0
  0
LINE
  5
75
330
1F
100
AcDbEntity
  8
0
  6
Continuous
 62
     7
370
    15
100
AcDbLine
 10
259.5274355791
 20
5.6831844209
 30
0.0
 11
259.4041564517
 21
5.4081844209
 31
0.0
  0
LINE
  5
76
330
1F
100
AcDbEntity
  8
0
  6
Continuous
 62
     7
370
    15
100
AcDbLine
 10
429.3797262515
 20
-13.839862146
 30
0.0
 11
429.503005379
 21
-13.564862146
 31
0.0
  0
LINE
  5
77
330
1F
100
AcDbEntity
  8
0
  6
Continuous
 62
     7
370
    15
100
AcDbLine
 10
346.5054454633
 20
308.3578379233
 30
0.0
 11
346.5054454633
 21
307.8078379233
 31
0.0
  0
LINE
  5
78
330
1F
100
AcDbEntity
  8
0
  6
Continuous
 62
     7
370
    15
100
AcDbLine
 10
346.5054454633
 20
-7.1921620767
 30
0.0
 11
346.5054454633
 21
-7.7421620767
 31
0.0
  0
ARC
  5
79
330
1F
100
AcDbEntity
  8
0
  6
Continuous
 62
     7
370
    15
100
AcDbCircle
 10
71.2416718452
 20
308.0322228088
 30
0.0
 40
10.99490178266086
100
AcDbArc
 50
88.9121202896
 51
167.7511024666
  0
ARC
  5
7A
330
1F
100
AcDbEntity
  8
0
  6
Continuous
 62
     7
370
    15
100
AcDbCircle
 10
71.3649509726
 20
307.7572228088
 30
0.0
 40
10.99490178266127
100
AcDbArc
 50
88.9121202896
 51
167.7511024666
  0
LINE
  5
7B
330
1F
100
AcDbEntity
  8
0
  6
Continuous
 62
     7
370
    15
100
AcDbLine
 10
421.6720478037
 20
318.7501427687
 30
0.0
 11
71.5736995401
 21
318.7501427687
 31
0.0
  0
ARC
  5
7C
330
1F
100
AcDbEntity
  8
0
  6
Continuous
 62
     7
370
    15
100
AcDbCircle
 10
422.3239547484
 20
311.0096459946
 30
0.0
 40
7.767900165078871
100
AcDbArc
 50
353.1999475658
 51
94.8141068255
  0
LINE
  5
7D
330
1F
100
AcDbEntity
  8
0
  6
Continuous
 62
     7
370
    15
100
AcDbLine
 10
429.9315567724
 20
309.3828379233
 30
0.0
 11
430.037210841
 21
310.0898887309
 31
0.0
  0
LINE
  5
7E
330
1F
100
AcDbEntity
  8
0
  6
Continuous
 62
     7
370
    15
100
AcDbLine
 10
60.6203460517
 20
310.0898887309
 30
0.0
 11
60.5146919831
 21
309.3828379233
 31
0.0
  0
LINE
  5
7F
330
1F
100
AcDbEntity
  8
0
  6
Continuous
 62
     7
370
    15
100
AcDbLine
 10
421.5487686762
 20
319.0251427687
 30
0.0
 11
71.4504204127
 21
319.0251427687
 31
0.0
  0
LINE
  5
80
330
1F
100
AcDbEntity
  8
0
  6
Continuous
 62
     7
370
    15
100
AcDbLine
 10
60.4970669243
 20
310.3648887309
 30
0.0
 11
60.3914128557
 21
309.6578379233
 31
0.0
  0
LWPOLYLINE
  5
81
330
1F
100
AcDbEntity
  8
0
  6
Continuous
 62
     7
370
    15
100
AcDbPolyline
 90
        9
 70
   128
 43
0.0
 10
60.5146919831
 20
309.3828379233
 10
60.4761337092
 20
309.1598769938
 10
60.4303730925
 20
308.9582690219
 10
60.3781931097
 20
308.7814635757
 10
60.3204865748
 20
308.6324858455
 10
60.2582408627
 20
308.5138848816
 10
60.1925210147
 20
308.4276899794
 10
60.1244515157
 20
308.3753759575
 10
60.0551970536
 20
308.3578379233
  0
LINE
  5
82
330
1F
100
AcDbEntity
  8
0
  6
Continuous
 62
     7
370
    15
100
AcDbLine
 10
60.0551970536
 20
308.3578379233
 30
0.0
 11
60.0551970536
 21
308.9078379233
 31
0.0
  0
LWPOLYLINE
  5
83
330
1F
100
AcDbEntity
  8
0
  6
Continuous
 62
     7
370
    15
100
AcDbPolyline
 90
        9
 70
   128
 43
0.0
 10
60.3914128557
 20
309.6578379233
 10
60.3631994845
 20
309.4946957798
 10
60.3297161064
 20
309.3471777515
 10
60.2915356312
 20
309.2178079129
 10
60.2493113374
 20
309.1087998176
 10
60.2037656944
 20
309.0220186245
 10
60.1556780008
 20
308.9589491839
 10
60.1058710503
 20
308.9206706312
 10
60.0551970536
 20
308.9078379233
  0
LWPOLYLINE
  5
84
330
1F
100
AcDbEntity
  8
0
  6
Continuous
 62
     7
370
    15
100
AcDbPolyline
 90
        9
 70
   128
 43
0.0
 10
429.4720618429
 20
308.3578379233
 10
429.541316305
 20
308.3753759575
 10
429.6093858041
 20
308.4276899794
 10
429.6751056521
 20
308.5138848817
 10
429.7373513642
 20
308.6324858455
 10
429.795057899
 20
308.7814635757
 10
429.8472378818
 20
308.9582690219
 10
429.8929984986
 20
309.1598769938
 10
429.9315567724
 20
309.3828379233
  0
LINE
  5
85
330
1F
100
AcDbEntity
  8
0
  6
Continuous
 62
     7
370
    15
100
AcDbLine
 10
429.4720618429
 20
308.3578379233
 30
0.0
 11
60.0551970536
 21
308.3578379233
 31
0.0
  0
ARC
  5
86
330
1F
100
AcDbEntity
  8
0
  6
Continuous
 62
     7
370
    15
100
AcDbCircle
 10
263.067777134
 20
307.3412102799
 30
0.0
 40
3.869490173857826
100
AcDbArc
 50
164.7679413122
 51
171.9536638527
  0
LWPOLYLINE
  5
87
330
1F
100
AcDbEntity
  8
0
  6
Continuous
 62
     7
370
    15
100
AcDbPolyline
 90
        9
 70
   128
 43
0.0
 10
259.3596604712
 20
307.6078379233
 10
259.3878738423
 20
307.7709800668
 10
259.4213572205
 20
307.9184980951
 10
259.4595376957
 20
308.0478679337
 10
259.5017619895
 20
308.156876029
 10
259.5473076325
 20
308.2436572221
 10
259.5953953261
 20
308.3067266627
 10
259.6452022766
 20
308.3450052154
 10
259.6958762733
 20
308.3578379233
  0
LWPOLYLINE
  5
88
330
1F
100
AcDbEntity
  8
0
  6
Continuous
 62
     7
370
    15
100
AcDbPolyline
 90
        9
 70
   128
 43
0.0
 10
333.1062390713
 20
308.3578379233
 10
333.0555650746
 20
308.3450052154
 10
333.0057581241
 20
308.3067266627
 10
332.9576704304
 20
308.2436572221
 10
332.9121247874
 20
308.156876029
 10
332.8699004936
 20
308.0478679337
 10
332.8317200184
 20
307.9184980951
 10
332.7982366403
 20
307.7709800668
 10
332.7700232692
 20
307.6078379233
  0
LWPOLYLINE
  5
89
330
1F
100
AcDbEntity
  8
0
  6
Continuous
 62
     7
370
    15
100
AcDbPolyline
 90
       12
 70
   128
 43
0.0
 10
273.6231592147
 20
286.7072028287
 10
271.1724884574
 20
286.865870847
 10
268.819125574
 20
287.3386448786
 10
266.6109782463
 20
288.1159006075
 10
264.5929979862
 20
289.1818153486
 10
262.8062650523
 20
290.5146901516
 10
261.2871521747
 20
292.0873915291
 10
260.0665841108
 20
293.8679038165
 10
259.1694081065
 20
295.8199809181
 10
258.6138880781
 20
297.9038841734
 10
258.4113328114
 20
300.0771913218
 10
258.5658657474
 20
302.2956600968
  0
LINE
  5
8A
330
1F
100
AcDbEntity
  8
0
  6
Continuous
 62
     7
370
    15
100
AcDbLine
 10
258.5658657474
 20
302.2956600968
 30
0.0
 11
259.3596604712
 21
307.6078379233
 31
0.0
  0
LINE
  5
8B
330
1F
100
AcDbEntity
  8
0
  6
Continuous
 62
     7
370
    15
100
AcDbLine
 10
332.7700232692
 20
307.6078379233
 30
0.0
 11
331.9762285454
 21
302.2956600968
 31
0.0
  0
LWPOLYLINE
  5
8C
330
1F
100
AcDbEntity
  8
0
  6
Continuous
 62
     7
370
    15
100
AcDbPolyline
 90
       12
 70
   128
 43
0.0
 10
331.9762285454
 20
302.2956600968
 10
331.4677532515
 20
300.0771913218
 10
330.6156866906
 20
297.9038841734
 10
329.4373744804
 20
295.8199809181
 10
327.9568036598
 20
293.8679038165
 10
326.204114381
 20
292.0873915291
 10
324.2149863433
 20
290.5146901516
 10
322.0299124575
 20
289.1818153486
 10
319.6933745266
 20
288.1159006075
 10
317.2529377249
 20
287.3386448786
 10
314.758282308
 20
286.865870847
 10
312.2601922662
 20
286.7072028287
  0
LINE
  5
8D
330
1F
100
AcDbEntity
  8
0
  6
Continuous
 62
     7
370
    15
100
AcDbLine
 10
312.2601922662
 20
286.7072028287
 30
0.0
 11
273.6231592147
 21
286.7072028287
 31
0.0
  0
LINE
  5
8E
330
1F
100
AcDbEntity
  8
0
  6
Continuous
 62
     7
370
    15
100
AcDbLine
 10
258.44258662
 20
302.5706600968
 30
0.0
 11
259.2363813438
 21
307.8828379233
 31
0.0
  0
ARC
  5
8F
330
1F
100
AcDbEntity
  8
0
  6
Continuous
 62
     7
370
    15
100
AcDbCircle
 10
271.3979399895
 20
300.5181527558
 30
0.0
 40
13.11693437182217
100
AcDbArc
 50
170.9974936152
 51
203.8830196768
  0
ARC
  5
90
330
1F
100
AcDbEntity
  8
0
  6
Continuous
 62
     7
370
    15
100
AcDbCircle
 10
421.9772702157
 20
310.7646877291
 30
0.0
 40
8.271561583548275
100
AcDbArc
 50
26.5007552296
 51
92.9694905917
  0
ARC
  5
91
330
1F
100
AcDbEntity
  8
0
  6
Continuous
 62
     7
370
    15
100
AcDbCircle
 10
71.2416718452
 20
-7.4165469622
 30
0.0
 40
10.99490178266103
100
AcDbArc
 50
192.2488975334
 51
271.0878797104
  0
ARC
  5
92
330
1F
100
AcDbEntity
  8
0
  6
Continuous
 62
     7
370
    15
100
AcDbCircle
 10
71.3649509726
 20
-7.1415469622
 30
0.0
 40
10.9949017826611
100
AcDbArc
 50
192.2488975334
 51
271.0878797104
  0
LINE
  5
93
330
1F
100
AcDbEntity
  8
0
  6
Continuous
 62
     7
370
    15
100
AcDbLine
 10
429.9315567724
 20
-8.7671620767
 30
0.0
 11
430.037210841
 21
-9.4742128843
 31
0.0
  0
ARC
  5
94
330
1F
100
AcDbEntity
  8
0
  6
Continuous
 62
     7
370
    15
100
AcDbCircle
 10
422.3239547484
 20
-10.393970148
 30
0.0
 40
7.767900165078849
100
AcDbArc
 50
265.1858931745
 51
6.8000524342
  0
LINE
  5
95
330
1F
100
AcDbEntity
  8
0
  6
Continuous
 62
     7
370
    15
100
AcDbLine
 10
421.6720478037
 20
-18.1344669221
 30
0.0
 11
71.5736995401
 21
-18.1344669221
 31
0.0
  0
LINE
  5
96
330
1F
100
AcDbEntity
  8
0
  6
Continuous
 62
     7
370
    15
100
AcDbLine
 10
60.6203460517
 20
-9.4742128843
 30
0.0
 11
60.5146919831
 21
-8.7671620767
 31
0.0
  0
LINE
  5
97
330
1F
100
AcDbEntity
  8
0
  6
Continuous
 62
     7
370
    15
100
AcDbLine
 10
421.5487686762
 20
-18.4094669221
 30
0.0
 11
71.4504204127
 21
-18.4094669221
 31
0.0
  0
LINE
  5
98
330
1F
100
AcDbEntity
  8
0
  6
Continuous
 62
     7
370
    15
100
AcDbLine
 10
60.4970669243
 20
-9.7492128843
 30
0.0
 11
60.3914128557
 21
-9.0421620767
 31
0.0
  0
LWPOLYLINE
  5
99
330
1F
100
AcDbEntity
  8
0
  6
Continuous
 62
     7
370
    15
100
AcDbPolyline
 90
        9
 70
   128
 43
0.0
 10
429.4720618429
 20
-7.7421620767
 10
429.541316305
 20
-7.7597001109
 10
429.6093858041
 20
-7.8120141328
 10
429.6751056521
 20
-7.8982090351
 10
429.7373513642
 20
-8.0168099989
 10
429.795057899
 20
-8.1657877291
 10
429.8472378818
 20
-8.3425931753
 10
429.8929984986
 20
-8.5442011472
 10
429.9315567724
 20
-8.7671620767
  0
LWPOLYLINE
  5
9A
330
1F
100
AcDbEntity
  8
0
  6
Continuous
 62
     7
370
    15
100
AcDbPolyline
 90
        9
 70
   128
 43
0.0
 10
60.5146919831
 20
-8.7671620767
 10
60.4761337092
 20
-8.5442011472
 10
60.4303730925
 20
-8.3425931753
 10
60.3781931097
 20
-8.1657877291
 10
60.3204865748
 20
-8.0168099989
 10
60.2582408627
 20
-7.8982090351
 10
60.1925210147
 20
-7.8120141328
 10
60.1244515157
 20
-7.7597001109
 10
60.0551970536
 20
-7.7421620767
  0
LINE
  5
9B
330
1F
100
AcDbEntity
  8
0
  6
Continuous
 62
     7
370
    15
100
AcDbLine
 10
429.4720618429
 20
-7.7421620767
 30
0.0
 11
60.0551970536
 21
-7.7421620767
 31
0.0
  0
LINE
  5
9C
330
1F
100
AcDbEntity
  8
0
  6
Continuous
 62
     7
370
    15
100
AcDbLine
 10
60.0551970536
 20
-7.7421620767
 30
0.0
 11
60.0551970536
 21
-8.2921620767
 31
0.0
  0
LWPOLYLINE
  5
9D
330
1F
100
AcDbEntity
  8
0
  6
Continuous
 62
     7
370
    15
100
AcDbPolyline
 90
        9
 70
   128
 43
0.0
 10
60.3914128557
 20
-9.0421620767
 10
60.3631994845
 20
-8.8790199332
 10
60.3297161064
 20
-8.7315019049
 10
60.2915356312
 20
-8.6021320663
 10
60.2493113374
 20
-8.493123971
 10
60.2037656944
 20
-8.4063427779
 10
60.1556780008
 20
-8.3432733373
 10
60.1058710503
 20
-8.3049947846
 10
60.0551970536
 20
-8.2921620767
  0
ARC
  5
9E
330
1F
100
AcDbEntity
  8
0
  6
Continuous
 62
     7
370
    15
100
AcDbCircle
 10
263.0677771341
 20
-6.7255344333
 30
0.0
 40
3.869490173888134
100
AcDbArc
 50
188.0463361473
 51
195.2320586877
  0
LWPOLYLINE
  5
9F
330
1F
100
AcDbEntity
  8
0
  6
Continuous
 62
     7
370
    15
100
AcDbPolyline
 90
        9
 70
   128
 43
0.0
 10
259.3596604712
 20
-6.9921620767
 10
259.3878738423
 20
-7.1553042202
 10
259.4213572205
 20
-7.3028222485
 10
259.4595376957
 20
-7.4321920871
 10
259.5017619895
 20
-7.5412001824
 10
259.5473076325
 20
-7.6279813755
 10
259.5953953261
 20
-7.6910508161
 10
259.6452022766
 20
-7.7293293688
 10
259.6958762733
 20
-7.7421620767
  0
LWPOLYLINE
  5
A0
330
1F
100
AcDbEntity
  8
0
  6
Continuous
 62
     7
370
    15
100
AcDbPolyline
 90
        9
 70
   128
 43
0.0
 10
333.1062390713
 20
-7.7421620767
 10
333.0555650746
 20
-7.7293293688
 10
333.0057581241
 20
-7.6910508161
 10
332.9576704304
 20
-7.6279813755
 10
332.9121247874
 20
-7.5412001824
 10
332.8699004936
 20
-7.4321920871
 10
332.8317200184
 20
-7.3028222485
 10
332.7982366403
 20
-7.1553042202
 10
332.7700232692
 20
-6.9921620767
  0
LWPOLYLINE
  5
A1
330
1F
100
AcDbEntity
  8
0
  6
Continuous
 62
     7
370
    15
100
AcDbPolyline
 90
       12
 70
   128
 43
0.0
 10
331.9762285454
 20
-1.6799842502
 10
331.4677532515
 20
0.5384845248
 10
330.6156866906
 20
2.7117916732
 10
329.4373744804
 20
4.7956949285
 10
327.9568036598
 20
6.7477720301
 10
326.204114381
 20
8.5282843175
 10
324.2149863433
 20
10.100985695
 10
322.0299124575
 20
11.433860498
 10
319.6933745266
 20
12.4997752391
 10
317.2529377249
 20
13.277030968
 10
314.758282308
 20
13.7498049996
 10
312.2601922662
 20
13.9084730179
  0
LINE
  5
A2
330
1F
100
AcDbEntity
  8
0
  6
Continuous
 62
     7
370
    15
100
AcDbLine
 10
332.7700232692
 20
-6.9921620767
 30
0.0
 11
331.9762285454
 21
-1.6799842502
 31
0.0
  0
LINE
  5
A3
330
1F
100
AcDbEntity
  8
0
  6
Continuous
 62
     7
370
    15
100
AcDbLine
 10
258.5658657474
 20
-1.6799842502
 30
0.0
 11
259.3596604712
 21
-6.9921620767
 31
0.0
  0
LWPOLYLINE
  5
A4
330
1F
100
AcDbEntity
  8
0
  6
Continuous
 62
     7
370
    15
100
AcDbPolyline
 90
       12
 70
   128
 43
0.0
 10
273.6231592147
 20
13.9084730179
 10
271.1724884574
 20
13.7498049996
 10
268.819125574
 20
13.277030968
 10
266.6109782463
 20
12.4997752391
 10
264.5929979862
 20
11.433860498
 10
262.8062650523
 20
10.100985695
 10
261.2871521747
 20
8.5282843175
 10
260.0665841108
 20
6.7477720301
 10
259.1694081065
 20
4.7956949285
 10
258.6138880781
 20
2.7117916732
 10
258.4113328114
 20
0.5384845248
 10
258.5658657474
 20
-1.6799842502
  0
LINE
  5
A5
330
1F
100
AcDbEntity
  8
0
  6
Continuous
 62
     7
370
    15
100
AcDbLine
 10
312.2601922662
 20
13.9084730179
 30
0.0
 11
273.6231592147
 21
13.9084730179
 31
0.0
  0
LINE
  5
A6
330
1F
100
AcDbEntity
  8
0
  6
Continuous
 62
     7
370
    15
100
AcDbLine
 10
258.44258662
 20
-1.9549842502
 30
0.0
 11
259.2363813438
 21
-7.2671620767
 31
0.0
  0
ARC
  5
A7
330
1F
100
AcDbEntity
  8
0
  6
Continuous
 62
     7
370
    15
100
AcDbCircle
 10
271.3979399895
 20
0.0975230908
 30
0.0
 40
13.1169343718225
100
AcDbArc
 50
156.1169803232
 51
189.0025063848
  0
ARC
  5
A8
330
1F
100
AcDbEntity
  8
0
  6
Continuous
 62
     7
370
    15
100
AcDbCircle
 10
421.9772702157
 20
-10.1490118825
 30
0.0
 40
8.271561583548344
100
AcDbArc
 50
267.0305094083
 51
333.4992447704
  0
LINE
  5
A9
330
1F
100
AcDbEntity
  8
0
  6
Continuous
 62
     7
370
    15
100
AcDbLine
 10
412.4331647967
 20
307.8078379233
 30
0.0
 11
406.2150308061
 21
307.8078379233
 31
0.0
  0
LINE
  5
AA
330
1F
100
AcDbEntity
  8
0
  6
Continuous
 62
     7
370
    15
100
AcDbLine
 10
406.2150308061
 20
-7.1921620767
 30
0.0
 11
412.4331647967
 21
-7.1921620767
 31
0.0
  0
LINE
  5
AB
330
1F
100
AcDbEntity
  8
0
  6
Continuous
 62
     7
370
    15
100
AcDbLine
 10
428.4456098258
 20
307.8078379233
 30
0.0
 11
428.4456098258
 21
308.3578379233
 31
0.0
  0
LINE
  5
AC
330
1F
100
AcDbEntity
  8
0
  6
Continuous
 62
     7
370
    15
100
AcDbLine
 10
428.4456098258
 20
307.8078379233
 30
0.0
 11
412.4331647967
 21
307.8078379233
 31
0.0
  0
LINE
  5
AD
330
1F
100
AcDbEntity
  8
0
  6
Continuous
 62
     7
370
    15
100
AcDbLine
 10
428.4456098258
 20
-7.1921620767
 30
0.0
 11
428.4456098258
 21
-7.7421620767
 31
0.0
  0
LINE
  5
AE
330
1F
100
AcDbEntity
  8
0
  6
Continuous
 62
     7
370
    15
100
AcDbLine
 10
412.4331647967
 20
-7.1921620767
 30
0.0
 11
428.4456098258
 21
-7.1921620767
 31
0.0
  0
LINE
  5
AF
330
1F
100
AcDbEntity
  8
0
  6
Continuous
 62
     7
370
    15
100
AcDbLine
 10
406.2150308061
 20
307.8078379233
 30
0.0
 11
346.5814066982
 21
307.8078379233
 31
0.0
  0
LINE
  5
B0
330
1F
100
AcDbEntity
  8
0
  6
Continuous
 62
     7
370
    15
100
AcDbLine
 10
346.5814066982
 20
-7.1921620767
 30
0.0
 11
406.2150308061
 21
-7.1921620767
 31
0.0
  0
SPLINE
  5
B1
330
1F
100
AcDbEntity
  8
0
  6
Continuous
 62
     7
370
    15
100
AcDbSpline
210
0.0
220
0.0
230
1.0
 70
     8
 71
     3
 72
    11
 73
     7
 74
     0
 42
0.000000001
 43
0.00000001
 40
0.0
 40
0.0
 40
0.0
 40
0.0
 40
0.2499999999999978
 40
0.5000000000000003
 40
0.7499999999999987
 40
1.0
 40
1.0
 40
1.0
 40
1.0
 10
430.441677348967
 20
306.3078379232991
 30
0.0
 10
430.4132298005275
 20
306.5764638631019
 30
0.0
 10
430.3563347036487
 20
307.1137157427076
 30
0.0
 10
429.8951729594491
 20
307.7913328637563
 30
0.0
 10
429.2335474576868
 20
308.2653937506572
 30
0.0
 10
428.7082557030777
 20
308.3270231990851
 30
0.0
 10
428.4456098257732
 20
308.3578379232991
 30
0.0
  0
LINE
  5
B2
330
1F
100
AcDbEntity
  8
0
  6
Continuous
 62
     7
370
    15
100
AcDbLine
 10
429.9000330848
 20
306.3078379233
 30
0.0
 11
430.441677349
 21
306.3078379233
 31
0.0
  0
SPLINE
  5
B3
330
1F
100
AcDbEntity
  8
0
  6
Continuous
 62
     7
370
    15
100
AcDbSpline
210
0.0
220
0.0
230
1.0
 70
     8
 71
     3
 72
    11
 73
     7
 74
     0
 42
0.000000001
 43
0.00000001
 40
0.0
 40
0.0
 40
0.0
 40
0.0
 40
0.2499999999999982
 40
0.5000000000000041
 40
0.7500000000000013
 40
1.0
 40
1.0
 40
1.0
 40
1.0
 10
429.9000330848103
 20
306.3078379232991
 30
0.0
 10
429.8797273015524
 20
306.5043934890085
 30
0.0
 10
429.8391157350365
 20
306.8975046204272
 30
0.0
 10
429.5032088007155
 20
307.3933220260726
 30
0.0
 10
429.0206210681778
 20
307.7401958457563
 30
0.0
 10
428.6372802399081
 20
307.7852905641182
 30
0.0
 10
428.4456098257733
 20
307.8078379232991
 30
0.0
  0
SPLINE
  5
B4
330
1F
100
AcDbEntity
  8
0
  6
Continuous
 62
     7
370
    15
100
AcDbSpline
210
0.0
220
0.0
230
1.0
 70
     8
 71
     3
 72
    11
 73
     7
 74
     0
 42
0.000000001
 43
0.00000001
 40
0.0
 40
0.0
 40
0.0
 40
0.0
 40
0.2500000000000009
 40
0.500000000000002
 40
0.7499999999999947
 40
1.0
 40
1.0
 40
1.0
 40
1.0
 10
367.835291631179
 20
307.8078379232991
 30
0.0
 10
368.0326884335464
 20
307.7852905641181
 30
0.0
 10
368.4274820382814
 20
307.740195845756
 30
0.0
 10
368.9272489355167
 20
307.3933220260724
 30
0.0
 10
369.2803350345355
 20
306.8975046204271
 30
0.0
 10
369.3323993775167
 20
306.5043934890084
 30
0.0
 10
369.3584315490073
 20
306.3078379232991
 30
0.0
  0
LINE
  5
B5
330
1F
100
AcDbEntity
  8
0
  6
Continuous
 62
     7
370
    15
100
AcDbLine
 10
429.9000330848
 20
-5.6921620767
 30
0.0
 11
430.441677349
 21
-5.6921620767
 31
0.0
  0
SPLINE
  5
B6
330
1F
100
AcDbEntity
  8
0
  6
Continuous
 62
     7
370
    15
100
AcDbSpline
210
0.0
220
0.0
230
1.0
 70
     8
 71
     3
 72
    11
 73
     7
 74
     0
 42
0.000000001
 43
0.00000001
 40
0.0
 40
0.0
 40
0.0
 40
0.0
 40
0.2500000000000024
 40
0.5000000000000052
 40
0.7499999999999956
 40
1.0
 40
1.0
 40
1.0
 40
1.0
 10
428.4456098257731
 20
-7.74216207670092
 30
0.0
 10
428.7082557030776
 20
-7.711347352486964
 30
0.0
 10
429.2335474576868
 20
-7.649717904059078
 30
0.0
 10
429.895172959449
 20
-7.175657017158111
 30
0.0
 10
430.3563347036487
 20
-6.49803989610942
 30
0.0
 10
430.4132298005275
 20
-5.960788016503765
 30
0.0
 10
430.4416773489669
 20
-5.692162076700924
 30
0.0
  0
SPLINE
  5
B7
330
1F
100
AcDbEntity
  8
0
  6
Continuous
 62
     7
370
    15
100
AcDbSpline
210
0.0
220
0.0
230
1.0
 70
     8
 71
     3
 72
    11
 73
     7
 74
     0
 42
0.000000001
 43
0.00000001
 40
0.0
 40
0.0
 40
0.0
 40
0.0
 40
0.2500000000000027
 40
0.4999999999999983
 40
0.7500000000000022
 40
1.0
 40
1.0
 40
1.0
 40
1.0
 10
428.4456098257733
 20
-7.192162076700925
 30
0.0
 10
428.637280239908
 20
-7.169614717519979
 30
0.0
 10
429.0206210681777
 20
-7.124519999158058
 30
0.0
 10
429.5032088007154
 20
-6.777646179474489
 30
0.0
 10
429.8391157350364
 20
-6.281828773829185
 30
0.0
 10
429.8797273015524
 20
-5.888717642410334
 30
0.0
 10
429.9000330848102
 20
-5.692162076700924
 30
0.0
  0
SPLINE
  5
B8
330
1F
100
AcDbEntity
  8
0
  6
Continuous
 62
     7
370
    15
100
AcDbSpline
210
0.0
220
0.0
230
1.0
 70
     8
 71
     3
 72
    11
 73
     7
 74
     0
 42
0.000000001
 43
0.00000001
 40
0.0
 40
0.0
 40
0.0
 40
0.0
 40
0.2500000000000063
 40
0.4999999999999972
 40
0.7499999999999961
 40
1.0
 40
1.0
 40
1.0
 40
1.0
 10
369.3584315490073
 20
-5.692162076700924
 30
0.0
 10
369.3323993775167
 20
-5.888717642410252
 30
0.0
 10
369.2803350345355
 20
-6.281828773828907
 30
0.0
 10
368.9272489355167
 20
-6.777646179474211
 30
0.0
 10
368.4274820382813
 20
-7.124519999157891
 30
0.0
 10
368.0326884335464
 20
-7.169614717519868
 30
0.0
 10
367.835291631179
 20
-7.192162076700925
 30
0.0
  0
LINE
  5
B9
330
1F
100
AcDbEntity
  8
0
  6
Continuous
 62
     7
370
    15
100
AcDbLine
 10
429.9000330848
 20
-5.6921620767
 30
0.0
 11
429.9000330848
 21
306.3078379233
 31
0.0
  0
LINE
  5
BA
330
1F
100
AcDbEntity
  8
0
  6
Continuous
 62
     7
370
    15
100
AcDbLine
 10
369.358431549
 20
-5.6921620767
 30
0.0
 11
366.171151881
 21
-5.6921620767
 31
0.0
  0
LWPOLYLINE
  5
BB
330
1F
100
AcDbEntity
  8
0
  6
Continuous
 62
     7
370
    15
100
AcDbPolyline
 90
        9
 70
   128
 43
0.0
 10
365.3029109927
 20
-0.6921620767
 10
365.3195939979
 20
-1.6676136868
 10
365.369001895
 20
-2.6055792385
 10
365.4492359662
 20
-3.4700132418
 10
365.5572128612
 20
-4.2276959826
 10
365.6887830884
 20
-4.8495101382
 10
365.8388904778
 20
-5.3115597393
 10
366.0017664866
 20
-5.5960884787
 10
366.171151881
 20
-5.6921620767
  0
LINE
  5
BC
330
1F
100
AcDbEntity
  8
0
  6
Continuous
 62
     7
370
    15
100
AcDbLine
 10
365.3029109927
 20
-0.6921620767
 30
0.0
 11
365.3029109927
 21
301.3078379233
 31
0.0
  0
LWPOLYLINE
  5
BD
330
1F
100
AcDbEntity
  8
0
  6
Continuous
 62
     7
370
    15
100
AcDbPolyline
 90
        9
 70
   128
 43
0.0
 10
366.171151881
 20
306.3078379233
 10
366.0017664866
 20
306.2117643253
 10
365.8388904778
 20
305.9272355859
 10
365.6887830884
 20
305.4651859848
 10
365.5572128612
 20
304.8433718292
 10
365.4492359662
 20
304.0856890884
 10
365.369001895
 20
303.2212550851
 10
365.3195939979
 20
302.2832895334
 10
365.3029109927
 20
301.3078379233
  0
LINE
  5
BE
330
1F
100
AcDbEntity
  8
0
  6
Continuous
 62
     7
370
    15
100
AcDbLine
 10
369.358431549
 20
306.3078379233
 30
0.0
 11
366.171151881
 21
306.3078379233
 31
0.0
  0
ELLIPSE
  5
BF
330
1F
100
AcDbEntity
  8
0
  6
Continuous
 62
     7
370
    15
100
AcDbEllipse
 10
366.8037160707
 20
240.3078379233
 30
0.0
 11
0.0
 21
3.100000000000023
 31
0.0
210
0.0
220
0.0
230
1.0
 40
0.1737540239
 41
0.0
 42
6.283185307179586
  0
ELLIPSE
  5
C0
330
1F
100
AcDbEntity
  8
0
  6
Continuous
 62
     7
370
    15
100
AcDbEllipse
 10
366.8037160707
 20
60.3078379233
 30
0.0
 11
0.0
 21
3.100000000000009
 31
0.0
210
0.0
220
0.0
230
1.0
 40
0.1737540239
 41
0.0
 42
6.283185307179586
  0
LINE
  5
C1
330
1F
100
AcDbEntity
  8
0
  6
Continuous
 62
     7
370
    15
100
AcDbLine
 10
430.441677349
 20
-5.6921620767
 30
0.0
 11
430.441677349
 21
306.3078379233
 31
0.0
  0
LINE
  5
C2
330
1F
100
AcDbEntity
  8
0
  6
Continuous
 62
     7
370
    15
100
AcDbLine
 10
346.5814066982
 20
307.8078379233
 30
0.0
 11
346.5054454633
 21
307.8078379233
 31
0.0
  0
LINE
  5
C3
330
1F
100
AcDbEntity
  8
0
  6
Continuous
 62
     7
370
    15
100
AcDbLine
 10
346.5054454633
 20
-7.1921620767
 30
0.0
 11
346.5814066982
 21
-7.1921620767
 31
0.0
  0
ELLIPSE
  5
C4
330
1F
100
AcDbEntity
  8
0
  6
Continuous
 62
     7
370
    15
100
AcDbEllipse
 10
367.3486954952
 20
240.3078379233
 30
0.0
 11
0.0
 21
3.100000000000023
 31
0.0
210
0.0
220
0.0
230
1.0
 40
0.1737540239
 41
0.5304099777536008
 42
1.570796326794897
  0
ELLIPSE
  5
C5
330
1F
100
AcDbEntity
  8
0
  6
Continuous
 62
     7
370
    15
100
AcDbEllipse
 10
367.3486954952
 20
240.3078379233
 30
0.0
 11
0.0
 21
3.100000000000023
 31
0.0
210
0.0
220
0.0
230
1.0
 40
0.1737540239
 41
1.570796326794878
 42
2.611182675836093
  0
ELLIPSE
  5
C6
330
1F
100
AcDbEntity
  8
0
  6
Continuous
 62
     7
370
    15
100
AcDbEllipse
 10
367.3486954952
 20
60.3078379233
 30
0.0
 11
0.0
 21
3.100000000000009
 31
0.0
210
0.0
220
0.0
230
1.0
 40
0.1737540239
 41
0.530409977710674
 42
1.570796326794897
  0
ELLIPSE
  5
C7
330
1F
100
AcDbEntity
  8
0
  6
Continuous
 62
     7
370
    15
100
AcDbEllipse
 10
367.3486954952
 20
60.3078379233
 30
0.0
 11
0.0
 21
3.100000000000009
 31
0.0
210
0.0
220
0.0
230
1.0
 40
0.1737540239
 41
1.570796326794878
 42
2.611182675884669
  0
SPLINE
  5
C8
330
1F
100
AcDbEntity
  8
0
  6
Continuous
 62
     7
370
    15
100
AcDbSpline
210
0.0
220
0.0
230
1.0
 70
     8
 71
     3
 72
    11
 73
     7
 74
     0
 42
0.000000001
 43
0.00000001
 40
0.0
 40
0.0
 40
0.0
 40
0.0
 40
0.2499999999999935
 40
0.5000000000000133
 40
0.7499999999999979
 40
1.0
 40
1.0
 40
1.0
 40
1.0
 10
96.78714180508594
 20
307.8078379232991
 30
0.0
 10
96.58644484516573
 20
307.7852905641181
 30
0.0
 10
96.18505092532529
 20
307.740195845756
 30
0.0
 10
95.67624728776677
 20
307.3933220260724
 30
0.0
 10
95.31549523545266
 20
306.8975046204271
 30
0.0
 10
95.26003351075448
 20
306.5043934890084
 30
0.0
 10
95.2323026484053
 20
306.3078379232991
 30
0.0
  0
LINE
  5
C9
330
1F
100
AcDbEntity
  8
0
  6
Continuous
 62
     7
370
    15
100
AcDbLine
 10
94.6855965156
 20
306.3078379233
 30
0.0
 11
95.2323026484
 21
306.3078379233
 31
0.0
  0
SPLINE
  5
CA
330
1F
100
AcDbEntity
  8
0
  6
Continuous
 62
     7
370
    15
100
AcDbSpline
210
0.0
220
0.0
230
1.0
 70
     8
 71
     3
 72
    12
 73
     8
 74
     0
 42
0.000000001
 43
0.00000001
 40
0.0
 40
0.0
 40
0.0
 40
0.0
 40
0.2182062499473481
 40
0.436421639760693
 40
0.6546370571536342
 40
0.8728523703461566
 40
1.0
 40
1.0
 40
1.0
 40
1.0
 10
96.78714180508582
 20
308.3578379232991
 30
0.0
 10
96.54965542124003
 20
308.3344212567619
 30
0.0
 10
96.07467270610778
 20
308.2875869428484
 30
0.0
 10
95.44268915543388
 20
307.922781548506
 30
0.0
 10
94.96734703772589
 20
307.3874080062101
 30
0.0
 10
94.72554940881459
 20
306.8132375920709
 30
0.0
 10
94.69634741933089
 20
306.4438356631425
 30
0.0
 10
94.68559651561951
 20
306.3078379232991
 30
0.0
  0
LINE
  5
CB
330
1F
100
AcDbEntity
  8
0
  6
Continuous
 62
     7
370
    15
100
AcDbLine
 10
96.7871418051
 20
307.8078379233
 30
0.0
 11
96.7871418051
 21
308.3578379233
 31
0.0
  0
SPLINE
  5
CC
330
1F
100
AcDbEntity
  8
0
  6
Continuous
 62
     7
370
    15
100
AcDbSpline
210
0.0
220
0.0
230
1.0
 70
     8
 71
     3
 72
    17
 73
    13
 74
     0
 42
0.000000001
 43
0.00000001
 40
0.0
 40
0.0
 40
0.0
 40
0.0
 40
0.1075761224599802
 40
0.2182716147246783
 40
0.3258521444610414
 40
0.4365524378136166
 40
0.5441329800352043
 40
0.654833288089489
 40
0.7624137790063553
 40
0.8731140330015887
 40
0.93625197302968
 40
1.0
 40
1.0
 40
1.0
 40
1.0
 10
94.68559651561928
 20
-5.692162076700924
 30
0.0
 10
94.69350778124877
 20
-5.807636225988206
 30
0.0
 10
94.70955971437282
 20
-6.041932912348807
 30
0.0
 10
94.80825719546863
 20
-6.381646850677186
 30
0.0
 10
94.9603666440834
 20
-6.704150789754282
 30
0.0
 10
95.16430910059407
 20
-6.994206386139734
 30
0.0
 10
95.41653947426768
 20
-7.248560264181137
 30
0.0
 10
95.70575019710556
 20
-7.455128284241663
 30
0.0
 10
96.02873334072106
 20
-7.611864902973414
 30
0.0
 10
96.32403040496514
 20
-7.696887493975457
 30
0.0
 10
96.57982225535297
 20
-7.736234009686233
 30
0.0
 10
96.71781412657135
 20
-7.74017973048835
 30
0.0
 10
96.78714180508621
 20
-7.74216207670092
 30
0.0
  0
LINE
  5
CD
330
1F
100
AcDbEntity
  8
0
  6
Continuous
 62
     7
370
    15
100
AcDbLine
 10
94.6855965156
 20
-5.6921620767
 30
0.0
 11
95.2323026484
 21
-5.6921620767
 31
0.0
  0
SPLINE
  5
CE
330
1F
100
AcDbEntity
  8
0
  6
Continuous
 62
     7
370
    15
100
AcDbSpline
210
0.0
220
0.0
230
1.0
 70
     8
 71
     3
 72
    11
 73
     7
 74
     0
 42
0.000000001
 43
0.00000001
 40
0.0
 40
0.0
 40
0.0
 40
0.0
 40
0.2499999999999964
 40
0.4999999999999814
 40
0.7500000000000021
 40
1.0
 40
1.0
 40
1.0
 40
1.0
 10
95.23230264840535
 20
-5.692162076700924
 30
0.0
 10
95.26003351075448
 20
-5.888717642410252
 30
0.0
 10
95.31549523545277
 20
-6.281828773828907
 30
0.0
 10
95.67624728776677
 20
-6.777646179474239
 30
0.0
 10
96.18505092532517
 20
-7.124519999157947
 30
0.0
 10
96.58644484516563
 20
-7.169614717519951
 30
0.0
 10
96.78714180508594
 20
-7.192162076700925
 30
0.0
  0
LINE
  5
CF
330
1F
100
AcDbEntity
  8
0
  6
Continuous
 62
     7
370
    15
100
AcDbLine
 10
96.7871418051
 20
-7.1921620767
 30
0.0
 11
96.7871418051
 21
-7.7421620767
 31
0.0
  0
LINE
  5
D0
330
1F
100
AcDbEntity
  8
0
  6
Continuous
 62
     7
370
    15
100
AcDbLine
 10
95.2323026484
 20
-5.6921620767
 30
0.0
 11
95.2323026484
 21
306.3078379233
 31
0.0
  0
LINE
  5
D1
330
1F
100
AcDbEntity
  8
0
  6
Continuous
 62
     7
370
    15
100
AcDbLine
 10
94.6855965156
 20
-5.6921620767
 30
0.0
 11
94.6855965156
 21
306.3078379233
 31
0.0
  0
LINE
  5
D2
330
1F
100
AcDbEntity
  8
0
  6
Continuous
 62
     7
370
    15
100
AcDbLine
 10
96.7871418051
 20
307.8078379233
 30
0.0
 11
116.2372681472
 21
307.8078379233
 31
0.0
  0
LINE
  5
D3
330
1F
100
AcDbEntity
  8
0
  6
Continuous
 62
     7
370
    15
100
AcDbLine
 10
116.2372681472
 20
-7.1921620767
 30
0.0
 11
96.7871418051
 21
-7.1921620767
 31
0.0
  0
LINE
  5
D4
330
1F
100
AcDbEntity
  8
0
  6
Continuous
 62
     7
370
    15
100
AcDbLine
 10
119.9132286743
 20
307.8078379233
 30
0.0
 11
116.2372681472
 21
307.8078379233
 31
0.0
  0
LINE
  5
D5
330
1F
100
AcDbEntity
  8
0
  6
Continuous
 62
     7
370
    15
100
AcDbLine
 10
116.2372681472
 20
-7.1921620767
 30
0.0
 11
119.9132286743
 21
-7.1921620767
 31
0.0
  0
LINE
  5
D6
330
1F
100
AcDbEntity
  8
0
  6
Continuous
 62
     7
370
    15
100
AcDbLine
 10
119.9132286743
 20
307.8078379233
 30
0.0
 11
135.2961507275
 21
307.8078379233
 31
0.0
  0
LINE
  5
D7
330
1F
100
AcDbEntity
  8
0
  6
Continuous
 62
     7
370
    15
100
AcDbLine
 10
135.2961507275
 20
-7.1921620767
 30
0.0
 11
119.9132286743
 21
-7.1921620767
 31
0.0
  0
LINE
  5
D8
330
1F
100
AcDbEntity
  8
0
  6
Continuous
 62
     7
370
    15
100
AcDbLine
 10
216.5094869224
 20
307.8078379233
 30
0.0
 11
259.2251741504
 21
307.8078379233
 31
0.0
  0
LINE
  5
D9
330
1F
100
AcDbEntity
  8
0
  6
Continuous
 62
     7
370
    15
100
AcDbLine
 10
332.8057970898
 20
307.8078379233
 30
0.0
 11
343.7985878535
 21
307.8078379233
 31
0.0
  0
LINE
  5
DA
330
1F
100
AcDbEntity
  8
0
  6
Continuous
 62
     7
370
    15
100
AcDbLine
 10
346.5054454633
 20
307.8078379233
 30
0.0
 11
343.7985878535
 21
307.8078379233
 31
0.0
  0
LINE
  5
DB
330
1F
100
AcDbEntity
  8
0
  6
Continuous
 62
     7
370
    15
100
AcDbLine
 10
343.7985878535
 20
-7.1921620767
 30
0.0
 11
332.8057970898
 21
-7.1921620767
 31
0.0
  0
LINE
  5
DC
330
1F
100
AcDbEntity
  8
0
  6
Continuous
 62
     7
370
    15
100
AcDbLine
 10
259.2251741504
 20
-7.1921620767
 30
0.0
 11
216.5094869224
 21
-7.1921620767
 31
0.0
  0
LINE
  5
DD
330
1F
100
AcDbEntity
  8
0
  6
Continuous
 62
     7
370
    15
100
AcDbLine
 10
343.7985878535
 20
-7.1921620767
 30
0.0
 11
346.5814066982
 21
-7.1921620767
 31
0.0
  0
LWPOLYLINE
  5
DE
330
1F
100
AcDbEntity
  8
0
  6
Continuous
 62
     7
370
    15
100
AcDbPolyline
 90
        9
 70
   128
 43
0.0
 10
349.5041674118
 20
-5.6921620767
 10
349.6399240372
 20
-5.5960884787
 10
349.7704636116
 20
-5.3115597393
 10
349.8907695724
 20
-4.8495101382
 10
349.996218629
 20
-4.2276959826
 10
350.0827584333
 20
-3.4700132418
 10
350.147063309
 20
-2.6055792385
 10
350.186662056
 20
-1.6676136868
 10
350.2000329166
 20
-0.6921620767
  0
LINE
  5
DF
330
1F
100
AcDbEntity
  8
0
  6
Continuous
 62
     7
370
    15
100
AcDbLine
 10
347.1078902219
 20
-5.6921620767
 30
0.0
 11
349.5041674118
 21
-5.6921620767
 31
0.0
  0
LINE
  5
E0
330
1F
100
AcDbEntity
  8
0
  6
Continuous
 62
     7
370
    15
100
AcDbLine
 10
347.1078902219
 20
306.3078379233
 30
0.0
 11
349.5041674118
 21
306.3078379233
 31
0.0
  0
LWPOLYLINE
  5
E1
330
1F
100
AcDbEntity
  8
0
  6
Continuous
 62
     7
370
    15
100
AcDbPolyline
 90
        9
 70
   128
 43
0.0
 10
350.2000329166
 20
301.3078379233
 10
350.186662056
 20
302.2832895334
 10
350.147063309
 20
303.2212550851
 10
350.0827584333
 20
304.0856890884
 10
349.996218629
 20
304.8433718292
 10
349.8907695724
 20
305.4651859848
 10
349.7704636116
 20
305.9272355859
 10
349.6399240372
 20
306.2117643253
 10
349.5041674118
 20
306.3078379233
  0
LINE
  5
E2
330
1F
100
AcDbEntity
  8
0
  6
Continuous
 62
     7
370
    15
100
AcDbLine
 10
350.2000329166
 20
-0.6921620767
 30
0.0
 11
350.2000329166
 21
301.3078379233
 31
0.0
  0
LWPOLYLINE
  5
E3
330
1F
100
AcDbEntity
  8
0
  6
Continuous
 62
     7
370
    15
100
AcDbPolyline
 90
       19
 70
   128
 43
0.0
 10
348.376865294
 20
240.3078379233
 10
348.4028841054
 20
239.247575479
 10
348.477802287
 20
238.3151963333
 10
348.5925836005
 20
237.6231591716
 10
348.7333837253
 20
237.254933889
 10
348.8832200886
 20
237.254933889
 10
349.0240202135
 20
237.6231591716
 10
349.1388015269
 20
238.3151963333
 10
349.2137197085
 20
239.247575479
 10
349.2397385199
 20
240.3078379233
 10
349.2137197085
 20
241.3681003676
 10
349.1388015269
 20
242.3004795133
 10
349.0240202135
 20
242.992516675
 10
348.8832200886
 20
243.3607419576
 10
348.7333837253
 20
243.3607419576
 10
348.5925836005
 20
242.992516675
 10
348.477802287
 20
242.3004795133
 10
348.4028841054
 20
241.3681003676
 10
348.376865294
 20
240.3078379233
  0
LWPOLYLINE
  5
E4
330
1F
100
AcDbEntity
  8
0
  6
Continuous
 62
     7
370
    15
100
AcDbPolyline
 90
       19
 70
   128
 43
0.0
 10
349.2397385199
 20
60.3078379233
 10
349.2137197085
 20
61.3681003676
 10
349.1388015269
 20
62.3004795133
 10
349.0240202135
 20
62.992516675
 10
348.8832200886
 20
63.3607419576
 10
348.7333837253
 20
63.3607419576
 10
348.5925836005
 20
62.992516675
 10
348.477802287
 20
62.3004795133
 10
348.4028841054
 20
61.3681003676
 10
348.376865294
 20
60.3078379233
 10
348.4028841054
 20
59.247575479
 10
348.477802287
 20
58.3151963333
 10
348.5925836005
 20
57.6231591716
 10
348.7333837253
 20
57.254933889
 10
348.8832200886
 20
57.254933889
 10
349.0240202135
 20
57.6231591716
 10
349.1388015269
 20
58.3151963333
 10
349.2137197085
 20
59.247575479
 10
349.2397385199
 20
60.3078379233
  0
LINE
  5
E5
330
1F
100
AcDbEntity
  8
0
  6
Continuous
 62
     7
370
    15
100
AcDbLine
 10
349.5041674118
 20
306.3078379233
 30
0.0
 11
350.0488148496
 21
306.3078379233
 31
0.0
  0
LWPOLYLINE
  5
E6
330
1F
100
AcDbEntity
  8
0
  6
Continuous
 62
     7
370
    15
100
AcDbPolyline
 90
        9
 70
   128
 43
0.0
 10
350.0488148496
 20
306.3078379233
 10
350.184571475
 20
306.2117643253
 10
350.3151110494
 20
305.9272355859
 10
350.4354170102
 20
305.4651859848
 10
350.5408660668
 20
304.8433718292
 10
350.6274058711
 20
304.0856890884
 10
350.6917107468
 20
303.2212550851
 10
350.7313094938
 20
302.2832895334
 10
350.7446803544
 20
301.3078379233
  0
LINE
  5
E7
330
1F
100
AcDbEntity
  8
0
  6
Continuous
 62
     7
370
    15
100
AcDbLine
 10
350.7446803544
 20
-0.6921620767
 30
0.0
 11
350.7446803544
 21
301.3078379233
 31
0.0
  0
LWPOLYLINE
  5
E8
330
1F
100
AcDbEntity
  8
0
  6
Continuous
 62
     7
370
    15
100
AcDbPolyline
 90
        9
 70
   128
 43
0.0
 10
350.7446803544
 20
-0.6921620767
 10
350.7313094938
 20
-1.6676136868
 10
350.6917107468
 20
-2.6055792385
 10
350.6274058711
 20
-3.4700132418
 10
350.5408660668
 20
-4.2276959826
 10
350.4354170102
 20
-4.8495101382
 10
350.3151110494
 20
-5.3115597393
 10
350.184571475
 20
-5.5960884787
 10
350.0488148496
 20
-5.6921620767
  0
LINE
  5
E9
330
1F
100
AcDbEntity
  8
0
  6
Continuous
 62
     7
370
    15
100
AcDbLine
 10
350.0488148496
 20
-5.6921620767
 30
0.0
 11
349.5041674118
 21
-5.6921620767
 31
0.0
  0
ARC
  5
EA
330
1F
100
AcDbEntity
  8
0
  6
Continuous
 62
     7
370
    15
100
AcDbCircle
 10
363.7719699027
 20
240.0830975317
 30
0.0
 40
14.85215763547611
100
AcDbArc
 50
179.1329766563
 51
188.4391083116
  0
ARC
  5
EB
330
1F
100
AcDbEntity
  8
0
  6
Continuous
 62
     7
370
    15
100
AcDbCircle
 10
363.7719699027
 20
240.5325783149
 30
0.0
 40
14.85215763547491
100
AcDbArc
 50
171.5608916884
 51
180.8670233437
  0
ARC
  5
EC
330
1F
100
AcDbEntity
  8
0
  6
Continuous
 62
     7
370
    15
100
AcDbCircle
 10
363.7719699027
 20
60.0830975317
 30
0.0
 40
14.85215763547236
100
AcDbArc
 50
179.1329766563
 51
188.4391083116
  0
ARC
  5
ED
330
1F
100
AcDbEntity
  8
0
  6
Continuous
 62
     7
370
    15
100
AcDbCircle
 10
363.7719699027
 20
60.5325783149
 30
0.0
 40
14.85215763547378
100
AcDbArc
 50
171.5608916884
 51
180.8670233437
  0
SPLINE
  5
EE
330
1F
100
AcDbEntity
  8
0
  6
Continuous
 62
     7
370
    15
100
AcDbSpline
210
0.0
220
0.0
230
1.0
 70
     8
 71
     3
 72
    11
 73
     7
 74
     0
 42
0.000000001
 43
0.00000001
 40
0.0
 40
0.0
 40
0.0
 40
0.0
 40
0.2500000000000047
 40
0.4999999999999985
 40
0.7500000000000021
 40
1.0
 40
1.0
 40
1.0
 40
1.0
 10
345.6224881188112
 20
306.3078379232991
 30
0.0
 10
345.6445289913997
 20
306.5043934890084
 30
0.0
 10
345.6886107365768
 20
306.8975046204272
 30
0.0
 10
345.7547333543426
 20
307.3933220260725
 30
0.0
 10
345.8208559721082
 20
307.7401958457562
 30
0.0
 10
345.8649377172853
 20
307.7852905641181
 30
0.0
 10
345.8869785898739
 20
307.8078379232991
 30
0.0
  0
SPLINE
  5
EF
330
1F
100
AcDbEntity
  8
0
  6
Continuous
 62
     7
370
    15
100
AcDbSpline
210
0.0
220
0.0
230
1.0
 70
     8
 71
     3
 72
    11
 73
     7
 74
     0
 42
0.000000001
 43
0.00000001
 40
0.0
 40
0.0
 40
0.0
 40
0.0
 40
0.2499999999999995
 40
0.4999999999999998
 40
0.7500000000000051
 40
1.0
 40
1.0
 40
1.0
 40
1.0
 10
345.8869785898739
 20
-7.192162076700925
 30
0.0
 10
345.8649377172853
 20
-7.169614717519924
 30
0.0
 10
345.8208559721082
 20
-7.124519999157947
 30
0.0
 10
345.7547333543426
 20
-6.777646179474351
 30
0.0
 10
345.6886107365768
 20
-6.281828773829074
 30
0.0
 10
345.6445289913997
 20
-5.888717642410307
 30
0.0
 10
345.6224881188112
 20
-5.692162076700924
 30
0.0
  0
LINE
  5
F0
330
1F
100
AcDbEntity
  8
0
  6
Continuous
 62
     7
370
    15
100
AcDbLine
 10
345.6224881188
 20
-5.6921620767
 30
0.0
 11
347.1078902219
 21
-5.6921620767
 31
0.0
  0
LINE
  5
F1
330
1F
100
AcDbEntity
  8
0
  6
Continuous
 62
     7
370
    15
100
AcDbLine
 10
345.6224881188
 20
306.3078379233
 30
0.0
 11
347.1078902219
 21
306.3078379233
 31
0.0
  0
LINE
  5
F2
330
1F
100
AcDbEntity
  8
0
  6
Continuous
 62
     7
370
    15
100
AcDbLine
 10
433.0565375233
 20
322.3078379233
 30
0.0
 11
433.0565375233
 21
325.3078379233
 31
0.0
  0
LINE
  5
F3
330
1F
100
AcDbEntity
  8
0
  6
Continuous
 62
     7
370
    15
100
AcDbLine
 10
433.0565375233
 20
322.3078379233
 30
0.0
 11
400.0896103185
 21
322.3078379233
 31
0.0
  0
LINE
  5
F4
330
1F
100
AcDbEntity
  8
0
  6
Continuous
 62
     7
370
    15
100
AcDbLine
 10
433.0565375233
 20
325.3078379233
 30
0.0
 11
400.0896103185
 21
325.3078379233
 31
0.0
  0
LINE
  5
F5
330
1F
100
AcDbEntity
  8
0
  6
Continuous
 62
     7
370
    15
100
AcDbLine
 10
400.0896103185
 20
-21.6921620767
 30
0.0
 11
433.0565375233
 21
-21.6921620767
 31
0.0
  0
LINE
  5
F6
330
1F
100
AcDbEntity
  8
0
  6
Continuous
 62
     7
370
    15
100
AcDbLine
 10
433.0565375233
 20
-21.6921620767
 30
0.0
 11
433.0565375233
 21
-24.6921620767
 31
0.0
  0
LINE
  5
F7
330
1F
100
AcDbEntity
  8
0
  6
Continuous
 62
     7
370
    15
100
AcDbLine
 10
400.0896103185
 20
-24.6921620767
 30
0.0
 11
433.0565375233
 21
-24.6921620767
 31
0.0
  0
SPLINE
  5
F8
330
1F
100
AcDbEntity
  8
0
  6
Continuous
 62
     7
370
    15
100
AcDbSpline
210
0.0
220
0.0
230
1.0
 70
     8
 71
     3
 72
    14
 73
    10
 74
     0
 42
0.000000001
 43
0.00000001
 40
0.0
 40
0.0
 40
0.0
 40
0.0
 40
0.25
 40
0.25
 40
0.5
 40
0.5
 40
0.75
 40
0.75
 40
1.0
 40
1.0
 40
1.0
 40
1.0
 10
433.0565375233326
 20
325.3078379232991
 30
0.0
 10
433.826205662101
 20
325.3078379232991
 30
0.0
 10
434.595569474948
 20
325.1516739833089
 30
0.0
 10
436.0171525349449
 20
324.5505562534245
 30
0.0
 10
436.6688094611148
 20
324.1058389776881
 30
0.0
 10
437.7550597284269
 20
322.9951182431485
 30
0.0
 10
438.1892226877237
 20
322.3295518055244
 30
0.0
 10
438.7736119650929
 20
320.8783252294547
 30
0.0
 10
438.9236053621891
 20
320.0932360866965
 30
0.0
 10
438.9198073004422
 20
319.3078379232991
 30
0.0
  0
LINE
  5
F9
330
1F
100
AcDbEntity
  8
0
  6
Continuous
 62
     7
370
    15
100
AcDbLine
 10
435.9653840414
 20
319.3078379233
 30
0.0
 11
438.9198073004
 21
319.3078379233
 31
0.0
  0
SPLINE
  5
FA
330
1F
100
AcDbEntity
  8
0
  6
Continuous
 62
     7
370
    15
100
AcDbSpline
210
0.0
220
0.0
230
1.0
 70
     8
 71
     3
 72
    14
 73
    10
 74
     0
 42
0.000000001
 43
0.00000001
 40
0.0
 40
0.0
 40
0.0
 40
0.0
 40
0.25
 40
0.25
 40
0.5
 40
0.5
 40
0.75
 40
0.75
 40
1.0
 40
1.0
 40
1.0
 40
1.0
 10
433.0565375233325
 20
322.3078379232991
 30
0.0
 10
433.4395413904707
 20
322.3078379232991
 30
0.0
 10
433.8222554373932
 20
322.229755953304
 30
0.0
 10
434.5292489056447
 20
321.9291970883618
 30
0.0
 10
434.8531783378562
 20
321.7068384504935
 30
0.0
 10
435.3925054097652
 20
321.1514780832238
 30
0.0
 10
435.6076878585402
 20
320.8186948644117
 30
0.0
 10
435.8960844354779
 20
320.093081576377
 30
0.0
 10
435.969182785815
 20
319.7006075886115
 30
0.0
 10
435.9653840414056
 20
319.3078379232991
 30
0.0
  0
SPLINE
  5
FB
330
1F
100
AcDbEntity
  8
0
  6
Continuous
 62
     7
370
    15
100
AcDbSpline
210
0.0
220
0.0
230
1.0
 70
     8
 71
     3
 72
    10
 73
     6
 74
     0
 42
0.000000001
 43
0.00000001
 40
0.0
 40
0.0
 40
0.0
 40
0.0
 40
0.5
 40
0.5
 40
1.0
 40
1.0
 40
1.0
 40
1.0
 10
369.5804190551618
 20
319.3078379232991
 30
0.0
 10
369.5803937318902
 20
319.4524635926822
 30
0.0
 10
369.5634099982421
 20
319.5919561054622
 30
0.0
 10
369.5006538997213
 20
319.8559732547192
 30
0.0
 10
369.4571713312124
 20
319.9714966523047
 30
0.0
 10
369.4069985350583
 20
320.0707550379886
 30
0.0
  0
SPLINE
  5
FC
330
1F
100
AcDbEntity
  8
0
  6
Continuous
 62
     7
370
    15
100
AcDbSpline
210
0.0
220
0.0
230
1.0
 70
     8
 71
     3
 72
    10
 73
     6
 74
     0
 42
0.000000001
 43
0.00000001
 40
0.0
 40
0.0
 40
0.0
 40
0.0
 40
0.5
 40
0.5
 40
1.0
 40
1.0
 40
1.0
 40
1.0
 10
369.4069985350583
 20
320.0707550379886
 30
0.0
 10
369.2318030112386
 20
320.4171018094671
 30
0.0
 10
368.9949333009234
 20
320.7468463132494
 30
0.0
 10
368.416845836788
 20
321.3317304975648
 30
0.0
 10
368.0757628351565
 20
321.5866871825763
 30
0.0
 10
367.6986711278102
 20
321.788144804184
 30
0.0
  0
SPLINE
  5
FD
330
1F
100
AcDbEntity
  8
0
  6
Continuous
 62
     7
370
    15
100
AcDbSpline
210
0.0
220
0.0
230
1.0
 70
     8
 71
     3
 72
     8
 73
     4
 74
     0
 42
0.000000001
 43
0.00000001
 40
0.0000002463136958
 40
0.0000002463136958
 40
0.0000002463136958
 40
0.0000002463136958
 40
1.0
 40
1.0
 40
1.0
 40
1.0
 10
367.6986707497621
 20
321.7881450525377
 30
0.0
 10
367.1858222136958
 20
322.1250543023329
 30
0.0
 10
366.576245934144
 20
322.3078379232992
 30
0.0
 10
365.961224591264
 20
322.3078379232991
 30
0.0
  0
LINE
  5
FE
330
1F
100
AcDbEntity
  8
0
  6
Continuous
 62
     7
370
    15
100
AcDbLine
 10
435.9653840414
 20
-18.6921620767
 30
0.0
 11
438.9198073004
 21
-18.6921620767
 31
0.0
  0
SPLINE
  5
FF
330
1F
100
AcDbEntity
  8
0
  6
Continuous
 62
     7
370
    15
100
AcDbSpline
210
0.0
220
0.0
230
1.0
 70
     8
 71
     3
 72
    14
 73
    10
 74
     0
 42
0.000000001
 43
0.00000001
 40
0.0
 40
0.0
 40
0.0
 40
0.0
 40
0.25
 40
0.25
 40
0.5
 40
0.5
 40
0.75
 40
0.75
 40
1.0
 40
1.0
 40
1.0
 40
1.0
 10
438.9198073004422
 20
-18.69216207670094
 30
0.0
 10
438.9236053621891
 20
-19.47756024009839
 30
0.0
 10
438.7736119650929
 20
-20.2626493828566
 30
0.0
 10
438.1892226877235
 20
-21.71387595892632
 30
0.0
 10
437.7550597284268
 20
-22.3794423965504
 30
0.0
 10
436.6688094611146
 20
-23.49016313108998
 30
0.0
 10
436.0171525349447
 20
-23.93488040682645
 30
0.0
 10
434.5955694749478
 20
-24.53599813671087
 30
0.0
 10
433.8262056621007
 20
-24.69216207670089
 30
0.0
 10
433.0565375233323
 20
-24.69216207670094
 30
0.0
  0
SPLINE
  5
100
330
1F
100
AcDbEntity
  8
0
  6
Continuous
 62
     7
370
    15
100
AcDbSpline
210
0.0
220
0.0
230
1.0
 70
     8
 71
     3
 72
    14
 73
    10
 74
     0
 42
0.000000001
 43
0.00000001
 40
0.0
 40
0.0
 40
0.0
 40
0.0
 40
0.25
 40
0.25
 40
0.5
 40
0.5
 40
0.75
 40
0.75
 40
1.0
 40
1.0
 40
1.0
 40
1.0
 10
435.9653840414056
 20
-18.69216207670094
 30
0.0
 10
435.969182785815
 20
-19.08493174201331
 30
0.0
 10
435.8960844354779
 20
-19.47740572977877
 30
0.0
 10
435.6076878585401
 20
-20.2030190178136
 30
0.0
 10
435.3925054097652
 20
-20.53580223662568
 30
0.0
 10
434.8531783378561
 20
-21.09116260389546
 30
0.0
 10
434.5292489056446
 20
-21.3135212417637
 30
0.0
 10
433.822255437393
 20
-21.61408010670587
 30
0.0
 10
433.4395413904705
 20
-21.69216207670094
 30
0.0
 10
433.0565375233323
 20
-21.69216207670094
 30
0.0
  0
SPLINE
  5
101
330
1F
100
AcDbEntity
  8
0
  6
Continuous
 62
     7
370
    15
100
AcDbSpline
210
0.0
220
0.0
230
1.0
 70
     8
 71
     3
 72
     8
 73
     4
 74
     0
 42
0.000000001
 43
0.00000001
 40
0.0
 40
0.0
 40
0.0
 40
0.0
 40
1.0
 40
1.0
 40
1.0
 40
1.0
 10
365.9612245912645
 20
-21.69216207670094
 30
0.0
 10
366.5762460868485
 20
-21.69216207670094
 30
0.0
 10
367.1858225132356
 20
-21.50937836390035
 30
0.0
 10
367.6986711278105
 20
-21.17246895758556
 30
0.0
  0
SPLINE
  5
102
330
1F
100
AcDbEntity
  8
0
  6
Continuous
 62
     7
370
    15
100
AcDbSpline
210
0.0
220
0.0
230
1.0
 70
     8
 71
     3
 72
    10
 73
     6
 74
     0
 42
0.000000001
 43
0.00000001
 40
0.00000020547128
 40
0.00000020547128
 40
0.00000020547128
 40
0.00000020547128
 40
0.50000010273564
 40
0.50000010273564
 40
1.0
 40
1.0
 40
1.0
 40
1.0
 10
367.6986715926794
 20
-21.17246870923375
 30
0.0
 10
368.0757631933345
 20
-20.97101108545538
 30
0.0
 10
368.4168460955399
 20
-20.71605442582017
 30
0.0
 10
368.9949333985127
 20
-20.13117033126652
 30
0.0
 10
369.2318030472425
 20
-19.80142589169215
 30
0.0
 10
369.4069985350583
 20
-19.45507919139039
 30
0.0
  0
SPLINE
  5
103
330
1F
100
AcDbEntity
  8
0
  6
Continuous
 62
     7
370
    15
100
AcDbSpline
210
0.0
220
0.0
230
1.0
 70
     8
 71
     3
 72
    10
 73
     6
 74
     0
 42
0.000000001
 43
0.00000001
 40
0.0
 40
0.0
 40
0.0
 40
0.0
 40
0.5
 40
0.5
 40
1.0
 40
1.0
 40
1.0
 40
1.0
 10
369.4069985350583
 20
-19.45507919139039
 30
0.0
 10
369.4570218765991
 20
-19.35611647636429
 30
0.0
 10
369.5006360937109
 20
-19.24025731573811
 30
0.0
 10
369.5634278042524
 20
-18.97632035124688
 30
0.0
 10
369.580393652345
 20
-18.83724204214496
 30
0.0
 10
369.5804190551618
 20
-18.69216207670094
 30
0.0
  0
LINE
  5
104
330
1F
100
AcDbEntity
  8
0
  6
Continuous
 62
     7
370
    15
100
AcDbLine
 10
438.9198073004
 20
-18.6921620767
 30
0.0
 11
438.9198073004
 21
319.3078379233
 31
0.0
  0
LINE
  5
105
330
1F
100
AcDbEntity
  8
0
  6
Continuous
 62
     7
370
    15
100
AcDbLine
 10
435.9653840414
 20
-18.6921620767
 30
0.0
 11
435.9653840414
 21
319.3078379233
 31
0.0
  0
LINE
  5
106
330
1F
100
AcDbEntity
  8
0
  6
Continuous
 62
     7
370
    15
100
AcDbLine
 10
369.5804190552
 20
319.3078379233
 30
0.0
 11
369.5757514461
 21
319.0251427687
 31
0.0
  0
LINE
  5
107
330
1F
100
AcDbEntity
  8
0
  6
Continuous
 62
     7
370
    15
100
AcDbLine
 10
369.5757514461
 20
-18.4094669221
 30
0.0
 11
369.5804190552
 21
-18.6921620767
 31
0.0
  0
SPLINE
  5
108
330
1F
100
AcDbEntity
  8
0
  6
Continuous
 62
     7
370
    15
100
AcDbSpline
210
0.0
220
0.0
230
1.0
 70
    24
 71
     3
 72
     8
 73
     4
 74
     0
 42
0.000000001
 43
0.00000001
 40
0.0
 40
0.0
 40
0.0
 40
0.0
 40
1.0
 40
1.0
 40
1.0
 40
1.0
 10
366.3655235296247
 20
321.6007311421125
 30
0.0
 10
366.6916745524631
 20
321.6007311421125
 30
0.0
 10
367.0177643766462
 20
321.6007311421125
 30
0.0
 10
367.3267215548038
 20
321.6007311421125
 30
0.0
  0
SPLINE
  5
109
330
1F
100
AcDbEntity
  8
0
  6
Continuous
 62
     7
370
    15
100
AcDbSpline
210
0.0
220
0.0
230
1.0
 70
     8
 71
     3
 72
     9
 73
     5
 74
     0
 42
0.000000001
 43
0.00000001
 40
0.0
 40
0.0
 40
0.0
 40
0.0
 40
0.651026592196306
 40
1.0
 40
1.0
 40
1.0
 40
1.0
 10
367.3267218992702
 20
321.6007306421126
 30
0.0
 10
367.7106403080613
 20
321.0418052439372
 30
0.0
 10
368.3003526383916
 20
320.1832759536208
 30
0.0
 10
368.6389188707575
 20
319.3247466614865
 30
0.0
 10
368.7570694826335
 20
319.0251427687112
 30
0.0
  0
SPLINE
  5
10A
330
1F
100
AcDbEntity
  8
0
  6
Continuous
 62
     7
370
    15
100
AcDbSpline
210
0.0
220
0.0
230
1.0
 70
     8
 71
     3
 72
     9
 73
     5
 74
     0
 42
0.000000001
 43
0.00000001
 40
0.0
 40
0.0
 40
0.0
 40
0.0
 40
0.3489733403773612
 40
1.0
 40
1.0
 40
1.0
 40
1.0
 10
368.7570694826324
 20
-18.40946692211573
 30
0.0
 10
368.6389188698544
 20
-18.70907081481635
 30
0.0
 10
368.3003525694883
 20
-19.56760027261592
 30
0.0
 10
367.7106400963373
 20
-20.42612973041555
 30
0.0
 10
367.3267215548039
 20
-20.98505529551439
 30
0.0
  0
SPLINE
  5
10B
330
1F
100
AcDbEntity
  8
0
  6
Continuous
 62
     7
370
    15
100
AcDbSpline
210
0.0
220
0.0
230
1.0
 70
    24
 71
     3
 72
     8
 73
     4
 74
     0
 42
0.000000001
 43
0.00000001
 40
0.0
 40
0.0
 40
0.0
 40
0.0
 40
1.0
 40
1.0
 40
1.0
 40
1.0
 10
367.3267212103346
 20
-20.98505529551436
 30
0.0
 10
367.0177641343334
 20
-20.98505529551436
 30
0.0
 10
366.69167443125
 20
-20.98505529551436
 30
0.0
 10
366.3655235296247
 20
-20.98505529551436
 30
0.0
  0
LINE
  5
10C
330
1F
100
AcDbEntity
  8
0
  6
Continuous
 62
     7
370
    15
100
AcDbLine
 10
368.2879202689
 20
321.6007311421
 30
0.0
 11
367.3267218993
 21
321.6007311421
 31
0.0
  0
LINE
  5
10D
330
1F
100
AcDbEntity
  8
0
  6
Continuous
 62
     7
370
    15
100
AcDbLine
 10
368.287918891
 20
-20.9850552955
 30
0.0
 11
367.3267212103
 21
-20.9850552955
 31
0.0
  0
LINE
  5
10E
330
1F
100
AcDbEntity
  8
0
  6
Continuous
 62
     7
370
    15
100
AcDbLine
 10
346.4001213167
 20
-20.9850552955
 30
0.0
 11
346.4001213167
 21
-18.4094669221
 31
0.0
  0
LINE
  5
10F
330
1F
100
AcDbEntity
  8
0
  6
Continuous
 62
     7
370
    15
100
AcDbLine
 10
346.4001213167
 20
-7.1921620767
 30
0.0
 11
346.4001213167
 21
-5.6921620767
 31
0.0
  0
LINE
  5
110
330
1F
100
AcDbEntity
  8
0
  6
Continuous
 62
     7
370
    15
100
AcDbLine
 10
346.4001213167
 20
306.3078379233
 30
0.0
 11
346.4001213167
 21
307.8078379233
 31
0.0
  0
LINE
  5
111
330
1F
100
AcDbEntity
  8
0
  6
Continuous
 62
     7
370
    15
100
AcDbLine
 10
346.4001213167
 20
319.0251427687
 30
0.0
 11
346.4001213167
 21
321.6007311421
 31
0.0
  0
LINE
  5
112
330
1F
100
AcDbEntity
  8
0
  6
Continuous
 62
     7
370
    15
100
AcDbLine
 10
366.3655235296
 20
-20.9850552955
 30
0.0
 11
346.4001213167
 21
-20.9850552955
 31
0.0
  0
LINE
  5
113
330
1F
100
AcDbEntity
  8
0
  6
Continuous
 62
     7
370
    15
100
AcDbLine
 10
366.3655235296
 20
321.6007311421
 30
0.0
 11
346.4001213167
 21
321.6007311421
 31
0.0
  0
SPLINE
  5
114
330
1F
100
AcDbEntity
  8
0
  6
Continuous
 62
     7
370
    15
100
AcDbSpline
210
0.0
220
0.0
230
1.0
 70
     8
 71
     3
 72
    14
 73
    10
 74
     0
 42
0.000000001
 43
0.00000001
 40
0.0
 40
0.0
 40
0.0
 40
0.0
 40
0.25
 40
0.25
 40
0.5
 40
0.5
 40
0.75
 40
0.75
 40
1.0
 40
1.0
 40
1.0
 40
1.0
 10
44.59111131507296
 20
322.4738458623493
 30
0.0
 10
44.7577747178913
 20
322.9049180641037
 30
0.0
 10
44.91021282407201
 20
323.3018072219227
 30
0.0
 10
45.19196488840857
 20
324.0019113724206
 30
0.0
 10
45.32129194511273
 20
324.3050781473365
 30
0.0
 10
45.56364825454099
 20
324.7983093309097
 30
0.0
 10
45.67669331908883
 20
324.9883397696152
 30
0.0
 10
45.89435565408548
 20
325.2431128392099
 30
0.0
 10
45.99899043708803
 20
325.3078379232991
 30
0.0
 10
46.10361617417616
 20
325.3078379232991
 30
0.0
  0
LINE
  5
115
330
1F
100
AcDbEntity
  8
0
  6
Continuous
 62
     7
370
    15
100
AcDbLine
 10
44.6583838927
 20
322.4738458623
 30
0.0
 11
44.5911113151
 21
322.4738458623
 31
0.0
  0
SPLINE
  5
116
330
1F
100
AcDbEntity
  8
0
  6
Continuous
 62
     7
370
    15
100
AcDbSpline
210
0.0
220
0.0
230
1.0
 70
     8
 71
     3
 72
     8
 73
     4
 74
     0
 42
0.000000001
 43
0.00000001
 40
0.0000001856551597
 40
0.0000001856551597
 40
0.0000001856551597
 40
0.0000001856551597
 40
0.999997807010416
 40
0.999997807010416
 40
0.999997807010416
 40
0.999997807010416
 10
44.65838431633725
 20
322.4738457035417
 30
0.0
 10
44.55490117872316
 20
322.1824045433759
 30
0.0
 10
44.45079665890497
 20
321.8883732410794
 30
0.0
 10
44.34724842188862
 20
321.5990433427287
 30
0.0
  0
SPLINE
  5
117
330
1F
100
AcDbEntity
  8
0
  6
Continuous
 62
     7
370
    15
100
AcDbSpline
210
0.0
220
0.0
230
1.0
 70
     8
 71
     3
 72
     8
 73
     4
 74
     0
 42
0.000000001
 43
0.00000001
 40
0.0
 40
0.0
 40
0.0
 40
0.0
 40
1.0
 40
1.0
 40
1.0
 40
1.0
 10
43.87723153198428
 20
320.8336761753282
 30
0.0
 10
44.0383838514016
 20
321.0941910295968
 30
0.0
 10
44.19498875421282
 20
321.3500843389496
 30
0.0
 10
44.34724774820906
 20
321.5990414297598
 30
0.0
  0
SPLINE
  5
118
330
1F
100
AcDbEntity
  8
0
  6
Continuous
 62
     7
370
    15
100
AcDbSpline
210
0.0
220
0.0
230
1.0
 70
     8
 71
     3
 72
    15
 73
    11
 74
     0
 42
0.000000001
 43
0.00000001
 40
0.0
 40
0.0
 40
0.0
 40
0.0
 40
0.1058594002675407
 40
0.2104259732160152
 40
0.314002817697282
 40
0.4169017792706241
 40
0.5194408887947605
 40
0.6858747511871709
 40
0.8454501591975597
 40
1.0
 40
1.0
 40
1.0
 40
1.0
 10
43.50402985547461
 20
319.3377291004408
 30
0.0
 10
43.50515968758447
 20
319.3940916744673
 30
0.0
 10
43.50740555352259
 20
319.5061284842596
 30
0.0
 10
43.5200474471327
 20
319.6725841445564
 30
0.0
 10
43.53956779042803
 20
319.8361665883107
 30
0.0
 10
43.56669011068473
 20
319.9967459295399
 30
0.0
 10
43.60837308390644
 20
320.1869664396928
 30
0.0
 10
43.6707789650386
 20
320.4002710565651
 30
0.0
 10
43.76078618738335
 20
320.6294579877854
 30
0.0
 10
43.83883096081795
 20
320.7663306886807
 30
0.0
 10
43.87722904360622
 20
320.8336721526779
 30
0.0
  0
SPLINE
  5
119
330
1F
100
AcDbEntity
  8
0
  6
Continuous
 62
     7
370
    15
100
AcDbSpline
210
0.0
220
0.0
230
1.0
 70
     8
 71
     3
 72
     8
 73
     4
 74
     0
 42
0.000000001
 43
0.00000001
 40
0.0
 40
0.0
 40
0.0
 40
0.0
 40
1.0
 40
1.0
 40
1.0
 40
1.0
 10
43.50402984562721
 20
319.3377278394545
 30
0.0
 10
43.50013606874018
 20
319.3277646164875
 30
0.0
 10
43.49623586878973
 20
319.3178012698906
 30
0.0
 10
43.49232924569571
 20
319.3078379232933
 30
0.0
  0
SPLINE
  5
11A
330
1F
100
AcDbEntity
  8
0
  6
Continuous
 62
     7
370
    15
100
AcDbSpline
210
0.0
220
0.0
230
1.0
 70
     8
 71
     3
 72
    16
 73
    12
 74
     0
 42
0.000000001
 43
0.00000001
 40
0.0
 40
0.0
 40
0.0
 40
0.0
 40
0.0766391459055431
 40
0.1543426298632499
 40
0.2333657049835103
 40
0.3139510838563566
 40
0.3963276686305369
 40
0.4807097835504749
 40
0.6515981988073077
 40
0.8241969215682949
 40
1.0
 40
1.0
 40
1.0
 40
1.0
 10
6.44250574322372
 20
320.833672152678
 30
0.0
 10
6.466924499749588
 20
320.8000971091025
 30
0.0
 10
6.516101132078483
 20
320.7324807433145
 30
0.0
 10
6.582434823422107
 20
320.6248458524843
 30
0.0
 10
6.643783915781992
 20
320.5119497823158
 30
0.0
 10
6.699500600726465
 20
320.3933489652711
 30
0.0
 10
6.749645453867775
 20
320.2691452209213
 30
0.0
 10
6.808966964309798
 20
320.0961336669554
 30
0.0
 10
6.866634425565871
 20
319.8712415412473
 30
0.0
 10
6.910041435020636
 20
319.5923293331475
 30
0.0
 10
6.915283885113005
 20
319.4032480722365
 30
0.0
 10
6.917929218350522
 20
319.307837923299
 30
0.0
  0
SPLINE
  5
11B
330
1F
100
AcDbEntity
  8
0
  6
Continuous
 62
     7
370
    15
100
AcDbSpline
210
0.0
220
0.0
230
1.0
 70
     8
 71
     3
 72
    10
 73
     6
 74
     0
 42
0.000000001
 43
0.00000001
 40
0.0
 40
0.0
 40
0.0
 40
0.0
 40
0.5
 40
0.5
 40
1.0
 40
1.0
 40
1.0
 40
1.0
 10
2.824483679004036
 20
324.3537696093961
 30
0.0
 10
3.478713874684153
 20
323.9523202671924
 30
0.0
 10
4.113402002343919
 20
323.4339397976181
 30
0.0
 10
5.324550958011737
 20
322.2332198096348
 30
0.0
 10
5.900940997604715
 20
321.5512568973265
 30
0.0
 10
6.44250574322372
 20
320.833672152678
 30
0.0
  0
SPLINE
  5
11C
330
1F
100
AcDbEntity
  8
0
  6
Continuous
 62
     7
370
    15
100
AcDbSpline
210
0.0
220
0.0
230
1.0
 70
     8
 71
     3
 72
     8
 73
     4
 74
     0
 42
0.000000001
 43
0.00000001
 40
0.0
 40
0.0
 40
0.0
 40
0.0
 40
1.0
 40
1.0
 40
1.0
 40
1.0
 10
2.824483037740105
 20
324.3537700028891
 30
0.0
 10
2.62621844787228
 20
324.8466013863633
 30
0.0
 10
2.398556433362703
 20
325.1616890973478
 30
0.0
 10
2.164395852478101
 20
325.2673407656812
 30
0.0
  0
SPLINE
  5
11D
330
1F
100
AcDbEntity
  8
0
  6
Continuous
 62
     7
370
    15
100
AcDbSpline
210
0.0
220
0.0
230
1.0
 70
     8
 71
     3
 72
     8
 73
     4
 74
     0
 42
0.000000001
 43
0.00000001
 40
0.0
 40
0.0
 40
0.0
 40
0.0
 40
1.0
 40
1.0
 40
1.0
 40
1.0
 10
1.984274555722781
 20
325.3078379232991
 30
0.0
 10
2.044450435218642
 20
325.3078379232991
 30
0.0
 10
2.104626131661652
 20
325.2943084589464
 30
0.0
 10
2.164395852478046
 20
325.2673407656812
 30
0.0
  0
LINE
  5
11E
330
1F
100
AcDbEntity
  8
0
  6
Continuous
 62
     7
370
    15
100
AcDbLine
 10
46.1036161742
 20
325.3078379233
 30
0.0
 11
1.9842745557
 21
325.3078379233
 31
0.0
  0
SPLINE
  5
11F
330
1F
100
AcDbEntity
  8
0
  6
Continuous
 62
     7
370
    15
100
AcDbSpline
210
0.0
220
0.0
230
1.0
 70
     8
 71
     3
 72
    10
 73
     6
 74
     0
 42
0.000000001
 43
0.00000001
 40
0.0000001633634563
 40
0.0000001633634563
 40
0.0000001633634563
 40
0.0000001633634563
 40
0.5000000816817282
 40
0.5000000816817282
 40
1.0
 40
1.0
 40
1.0
 40
1.0
 10
2.404379358844882
 20
321.8308037663476
 30
0.0
 10
2.97788716089617
 20
321.6300691132492
 30
0.0
 10
3.541566890923914
 20
321.3708888604585
 30
0.0
 10
4.639869739166885
 20
320.770528866467
 30
0.0
 10
5.174403226576002
 20
320.4295652529837
 30
0.0
 10
5.691575502181995
 20
320.0707550379885
 30
0.0
  0
LINE
  5
120
330
1F
100
AcDbEntity
  8
0
  6
Continuous
 62
     7
370
    15
100
AcDbLine
 10
2.824483196
 20
324.3537696094
 30
0.0
 11
2.4043788759
 21
321.8308037663
 31
0.0
  0
SPLINE
  5
121
330
1F
100
AcDbEntity
  8
0
  6
Continuous
 62
     7
370
    15
100
AcDbSpline
210
0.0
220
0.0
230
1.0
 70
     8
 71
     3
 72
     8
 73
     4
 74
     0
 42
0.000000001
 43
0.00000001
 40
0.0
 40
0.0
 40
0.0
 40
0.0
 40
0.9999578120443406
 40
0.9999578120443406
 40
0.9999578120443406
 40
0.9999578120443406
 10
43.49232924569682
 20
-18.69216207669525
 30
0.0
 10
43.4962357039784
 20
-18.70212500295942
 30
0.0
 10
43.5001357396583
 20
-18.71208792922299
 30
0.0
 10
43.50402935281675
 20
-18.72205073187258
 30
0.0
  0
SPLINE
  5
122
330
1F
100
AcDbEntity
  8
0
  6
Continuous
 62
     7
370
    15
100
AcDbSpline
210
0.0
220
0.0
230
1.0
 70
     8
 71
     3
 72
    15
 73
    11
 74
     0
 42
0.000000001
 43
0.00000001
 40
0.0
 40
0.0
 40
0.0
 40
0.0
 40
0.092126723748123
 40
0.1858530018453879
 40
0.2815996262975817
 40
0.3797614046295565
 40
0.4807048039634526
 40
0.6515074631180773
 40
0.8241233161986448
 40
1.0
 40
1.0
 40
1.0
 40
1.0
 10
43.87722904360722
 20
-20.21799630608009
 30
0.0
 10
43.85381951891967
 20
-20.17828180748957
 30
0.0
 10
43.80659402062845
 20
-20.09816326555575
 30
0.0
 10
43.74541078620023
 20
-19.96933274670248
 30
0.0
 10
43.6904725787193
 20
-19.83314880755088
 30
0.0
 10
43.64242311359348
 20
-19.68898241724751
 30
0.0
 10
43.5916816516154
 20
-19.5035694320547
 30
0.0
 10
43.54562877934651
 20
-19.27470388042804
 30
0.0
 10
43.51186781590469
 20
-19.00129666248446
 30
0.0
 10
43.506658749396
 20
-18.8157123842872
 30
0.0
 10
43.50402984562826
 20
-18.72205199285656
 30
0.0
  0
SPLINE
  5
123
330
1F
100
AcDbEntity
  8
0
  6
Continuous
 62
     7
370
    15
100
AcDbSpline
210
0.0
220
0.0
230
1.0
 70
     8
 71
     3
 72
     8
 73
     4
 74
     0
 42
0.000000001
 43
0.00000001
 40
0.0
 40
0.0
 40
0.0
 40
0.0
 40
1.0
 40
1.0
 40
1.0
 40
1.0
 10
44.34724657014724
 20
-20.98336365692355
 30
0.0
 10
44.19498716277134
 20
-20.73440589106665
 30
0.0
 10
44.03838182360184
 20
-20.47851187683261
 30
0.0
 10
43.87722904360733
 20
-20.21799630608007
 30
0.0
  0
SPLINE
  5
124
330
1F
100
AcDbEntity
  8
0
  6
Continuous
 62
     7
370
    15
100
AcDbSpline
210
0.0
220
0.0
230
1.0
 70
     8
 71
     3
 72
     8
 73
     4
 74
     0
 42
0.000000001
 43
0.00000001
 40
0.0
 40
0.0
 40
0.0
 40
0.0
 40
1.0
 40
1.0
 40
1.0
 40
1.0
 10
44.34724773974566
 20
-20.98336559011485
 30
0.0
 10
44.45079622172085
 20
-21.27269616015739
 30
0.0
 10
44.55490099199174
 20
-21.56672817130681
 30
0.0
 10
44.65838437682043
 20
-21.8581700272811
 30
0.0
  0
LINE
  5
125
330
1F
100
AcDbEntity
  8
0
  6
Continuous
 62
     7
370
    15
100
AcDbLine
 10
44.591111798
 20
-21.8581700158
 30
0.0
 11
44.6583843787
 21
-21.8581700158
 31
0.0
  0
SPLINE
  5
126
330
1F
100
AcDbEntity
  8
0
  6
Continuous
 62
     7
370
    15
100
AcDbSpline
210
0.0
220
0.0
230
1.0
 70
     8
 71
     3
 72
    14
 73
    10
 74
     0
 42
0.000000001
 43
0.00000001
 40
0.0
 40
0.0
 40
0.0
 40
0.0
 40
0.25
 40
0.25
 40
0.5
 40
0.5
 40
0.75
 40
0.75
 40
1.0
 40
1.0
 40
1.0
 40
1.0
 10
46.10361617417699
 20
-24.69216207670094
 30
0.0
 10
45.99899044044623
 20
-24.69216207670102
 30
0.0
 10
45.8943556608025
 20
-24.62743699678765
 30
0.0
 10
45.67669333332755
 20
-24.37266394336765
 30
0.0
 10
45.56364827294504
 20
-24.18263351665775
 30
0.0
 10
45.32129197337262
 20
-23.68940236335668
 30
0.0
 10
45.19196492236119
 20
-23.38623560671099
 30
0.0
 10
44.91021287149208
 20
-22.68613149662785
 30
0.0
 10
44.7577747730876
 20
-22.28924236094446
 30
0.0
 10
44.59111137925101
 20
-21.85817018174385
 30
0.0
  0
LINE
  5
127
330
1F
100
AcDbEntity
  8
0
  6
Continuous
 62
     7
370
    15
100
AcDbLine
 10
1.9842745557
 20
-24.6921620767
 30
0.0
 11
46.1036161742
 21
-24.6921620767
 31
0.0
  0
SPLINE
  5
128
330
1F
100
AcDbEntity
  8
0
  6
Continuous
 62
     7
370
    15
100
AcDbSpline
210
0.0
220
0.0
230
1.0
 70
     8
 71
     3
 72
     8
 73
     4
 74
     0
 42
0.000000001
 43
0.00000001
 40
0.0
 40
0.0
 40
0.0
 40
0.0
 40
1.0
 40
1.0
 40
1.0
 40
1.0
 10
2.16439585247849
 20
-24.6516649190833
 30
0.0
 10
2.104626131662041
 20
-24.67863261234834
 30
0.0
 10
2.044450435219086
 20
-24.692162076701
 30
0.0
 10
1.984274555723226
 20
-24.69216207670094
 30
0.0
  0
SPLINE
  5
129
330
1F
100
AcDbEntity
  8
0
  6
Continuous
 62
     7
370
    15
100
AcDbSpline
210
0.0
220
0.0
230
1.0
 70
     8
 71
     3
 72
     8
 73
     4
 74
     0
 42
0.000000001
 43
0.00000001
 40
0.0
 40
0.0
 40
0.0
 40
0.0
 40
1.0
 40
1.0
 40
1.0
 40
1.0
 10
2.16439585247849
 20
-24.6516649190833
 30
0.0
 10
2.398556371042165
 20
-24.54601327886882
 30
0.0
 10
2.6262183268769
 20
-24.23092570924259
 30
0.0
 10
2.824482879438622
 20
-23.73809454978682
 30
0.0
  0
SPLINE
  5
12A
330
1F
100
AcDbEntity
  8
0
  6
Continuous
 62
     7
370
    15
100
AcDbSpline
210
0.0
220
0.0
230
1.0
 70
     8
 71
     3
 72
    10
 73
     6
 74
     0
 42
0.000000001
 43
0.00000001
 40
0.0
 40
0.0
 40
0.0
 40
0.0
 40
0.5
 40
0.5
 40
1.0
 40
1.0
 40
1.0
 40
1.0
 10
6.442502755014762
 20
-20.21800026551909
 30
0.0
 10
5.900938292231789
 20
-20.93558433873799
 30
0.0
 10
5.324548594985906
 20
-21.61754654278242
 30
0.0
 10
4.113400430400732
 20
-22.8182652723595
 30
0.0
 10
3.478712751248198
 20
-23.33664519332198
 30
0.0
 10
2.824483037740993
 20
-23.73809415629066
 30
0.0
  0
SPLINE
  5
12B
330
1F
100
AcDbEntity
  8
0
  6
Continuous
 62
     7
370
    15
100
AcDbSpline
210
0.0
220
0.0
230
1.0
 70
     8
 71
     3
 72
    15
 73
    11
 74
     0
 42
0.000000001
 43
0.00000001
 40
0.0
 40
0.0
 40
0.0
 40
0.0
 40
0.105818001754356
 40
0.2103554216001793
 40
0.313925320189541
 40
0.4168495874592494
 40
0.5194561900979142
 40
0.6859748766388367
 40
0.8455254082880765
 40
1.0
 40
1.0
 40
1.0
 40
1.0
 10
6.917929218349967
 20
-18.69216207670102
 30
0.0
 10
6.916969137714641
 20
-18.74957009622952
 30
0.0
 10
6.915060595089923
 20
-18.8636913983799
 30
0.0
 10
6.899412379679809
 20
-19.03337578111186
 30
0.0
 10
6.874437057082988
 20
-19.2002265346862
 30
0.0
 10
6.839273082825032
 20
-19.36411453149364
 30
0.0
 10
6.785000044960049
 20
-19.55832626269227
 30
0.0
 10
6.703883263198512
 20
-19.77608950088672
 30
0.0
 10
6.588160112072111
 20
-20.00994587116983
 30
0.0
 10
6.490531170849217
 20
-20.14939753226164
 30
0.0
 10
6.442505743223387
 20
-20.21799630607993
 30
0.0
  0
SPLINE
  5
12C
330
1F
100
AcDbEntity
  8
0
  6
Continuous
 62
     7
370
    15
100
AcDbSpline
210
0.0
220
0.0
230
1.0
 70
     8
 71
     3
 72
    10
 73
     6
 74
     0
 42
0.000000001
 43
0.00000001
 40
0.00000091962162
 40
0.00000091962162
 40
0.00000091962162
 40
0.00000091962162
 40
0.50000045981081
 40
0.50000045981081
 40
1.0
 40
1.0
 40
1.0
 40
1.0
 10
5.69157264870615
 20
-19.45508117111003
 30
0.0
 10
5.174400700927534
 20
-19.8138910503195
 30
0.0
 10
4.639867570912809
 20
-20.15485430974165
 30
0.0
 10
3.541565490841142
 20
-20.75521367453023
 30
0.0
 10
2.977886171275506
 20
-21.01439365305424
 30
0.0
 10
2.404378796732415
 20
-21.21512811649581
 30
0.0
  0
LINE
  5
12D
330
1F
100
AcDbEntity
  8
0
  6
Continuous
 62
     7
370
    15
100
AcDbLine
 10
2.8244828794
 20
-23.7380945498
 30
0.0
 11
2.4043787176
 21
-21.2151283132
 31
0.0
  0
SPLINE
  5
12E
330
1F
100
AcDbEntity
  8
0
  6
Continuous
 62
     7
370
    15
100
AcDbSpline
210
0.0
220
0.0
230
1.0
 70
     8
 71
     3
 72
    15
 73
    11
 74
     0
 42
0.000000001
 43
0.00000001
 40
0.0
 40
0.0
 40
0.0
 40
0.0
 40
0.105818001730682
 40
0.2103554215646926
 40
0.3139253201540166
 40
0.4168495874353471
 40
0.5194561900969629
 40
0.6859748766107815
 40
0.845525408259991
 40
1.0
 40
1.0
 40
1.0
 40
1.0
 10
5.469040478916526
 20
317.8078379232991
 30
0.0
 10
5.413465466231032
 20
317.8087044045685
 30
0.0
 10
5.302987995188996
 20
317.8104268811768
 30
0.0
 10
5.137129608020402
 20
317.8246022510127
 30
0.0
 10
4.972913146764041
 20
317.847299970399
 30
0.0
 10
4.810406231070901
 20
317.8793528532157
 30
0.0
 10
4.616457334691043
 20
317.9289614951101
 30
0.0
 10
4.396923009280379
 20
318.0034243474029
 30
0.0
 10
4.158700888129335
 20
318.1104604518979
 30
0.0
 10
4.014888094667962
 20
318.2020990708695
 30
0.0
 10
3.944144001592958
 20
318.2471777515192
 30
0.0
  0
SPLINE
  5
12F
330
1F
100
AcDbEntity
  8
0
  6
Continuous
 62
     7
370
    15
100
AcDbSpline
210
0.0
220
0.0
230
1.0
 70
     8
 71
     3
 72
    14
 73
    10
 74
     0
 42
0.000000001
 43
0.00000001
 40
0.0000005194157099
 40
0.0000005194157099
 40
0.0000005194157099
 40
0.0000005194157099
 40
0.2500003895617824
 40
0.2500003895617824
 40
0.5000002597078549
 40
0.5000002597078549
 40
0.7500001298539274
 40
0.7500001298539274
 40
1.0
 40
1.0
 40
1.0
 40
1.0
 10
3.930133057952173
 20
318.247180566168
 30
0.0
 10
3.601710114104178
 20
318.6987670360735
 30
0.0
 10
3.273116583764252
 20
319.1503258764349
 30
0.0
 10
2.650406159110136
 20
320.0534711867018
 30
0.0
 10
2.356419428482609
 20
320.5050438418352
 30
0.0
 10
1.834386778208102
 20
321.4081891521021
 30
0.0
 10
1.606441555178945
 20
321.8597618072355
 30
0.0
 10
1.240887493737935
 20
322.7629071175024
 30
0.0
 10
1.103351768649924
 20
323.2144659578639
 30
0.0
 10
1.018348729433821
 20
323.6660524277693
 30
0.0
  0
SPLINE
  5
130
330
1F
100
AcDbEntity
  8
0
  6
Continuous
 62
     7
370
    15
100
AcDbSpline
210
0.0
220
0.0
230
1.0
 70
     8
 71
     3
 72
    14
 73
    10
 74
     0
 42
0.000000001
 43
0.00000001
 40
0.0
 40
0.0
 40
0.0
 40
0.0
 40
0.25
 40
0.25
 40
0.5
 40
0.5
 40
0.75
 40
0.75
 40
1.0
 40
1.0
 40
1.0
 40
1.0
 10
3.9441399076032
 20
318.2471805661679
 30
0.0
 10
3.287314113902124
 20
318.6987532213014
 30
0.0
 10
2.630106959227413
 20
319.1503258764349
 30
0.0
 10
1.384686109919014
 20
320.0534711867018
 30
0.0
 10
0.7967126486640719
 20
320.5050438418352
 30
0.0
 10
-0.2473526518848301
 20
321.4081891521021
 30
0.0
 10
-0.7032430979431459
 20
321.8597618072355
 30
0.0
 10
-1.434351220825275
 20
322.7629071175024
 30
0.0
 10
-1.709427871766395
 20
323.2144797726359
 30
0.0
 10
-1.879428749433393
 20
323.6660524277693
 30
0.0
  0
LINE
  5
131
330
1F
100
AcDbEntity
  8
0
  6
Continuous
 62
     7
370
    15
100
AcDbLine
 10
-1.8794287494
 20
323.6660524278
 30
0.0
 11
1.0183487294
 21
323.6660524278
 31
0.0
  0
SPLINE
  5
132
330
1F
100
AcDbEntity
  8
0
  6
Continuous
 62
     7
370
    15
100
AcDbSpline
210
0.0
220
0.0
230
1.0
 70
     8
 71
     3
 72
    16
 73
    12
 74
     0
 42
0.000000001
 43
0.00000001
 40
0.0
 40
0.0
 40
0.0
 40
0.0
 40
0.0766391459075054
 40
0.1543426298663776
 40
0.2333657049869925
 40
0.3139510838594556
 40
0.3963276686324818
 40
0.4807097835505747
 40
0.6515981988108285
 40
0.8241969215718046
 40
1.0
 40
1.0
 40
1.0
 40
1.0
 10
3.944144001591404
 20
-17.63150190492122
 30
0.0
 10
3.97881454947599
 20
-17.60854029674438
 30
0.0
 10
4.048637137868044
 20
-17.56229819748809
 30
0.0
 10
4.159124894572791
 20
-17.5003749587915
 30
0.0
 10
4.274468554330141
 20
-17.44337817812031
 30
0.0
 10
4.395002430393729
 20
-17.39188105512288
 30
0.0
 10
4.520547449304496
 20
-17.34573730639574
 30
0.0
 10
4.694449176051524
 20
-17.29134792111745
 30
0.0
 10
4.918479109823931
 20
-17.23868690051927
 30
0.0
 10
5.193227590670007
 20
-17.1992770072916
 30
0.0
 10
5.376540853847506
 20
-17.19454821759589
 30
0.0
 10
5.469040478916471
 20
-17.19216207670071
 30
0.0
  0
SPLINE
  5
133
330
1F
100
AcDbEntity
  8
0
  6
Continuous
 62
     7
370
    15
100
AcDbSpline
210
0.0
220
0.0
230
1.0
 70
     8
 71
     3
 72
    14
 73
    10
 74
     0
 42
0.000000001
 43
0.00000001
 40
0.0
 40
0.0
 40
0.0
 40
0.0
 40
0.25
 40
0.25
 40
0.5
 40
0.5
 40
0.75
 40
0.75
 40
1.0
 40
1.0
 40
1.0
 40
1.0
 10
-1.879428749433337
 20
-23.05037658117012
 30
0.0
 10
-1.709427783465306
 20
-22.59880369148268
 30
0.0
 10
-1.434350934165968
 20
-22.14723080179534
 30
0.0
 10
-0.7032422453549236
 20
-21.24408502242045
 30
0.0
 10
-0.2473514321273129
 20
-20.79251213273306
 30
0.0
 10
0.7967146827311533
 20
-19.88936635335825
 30
0.0
 10
1.38468859055188
 20
-19.43779346367086
 30
0.0
 10
2.630110300616467
 20
-18.53464768429603
 30
0.0
 10
3.287317868817391
 20
-18.08307479460863
 30
0.0
 10
3.94414400159146
 20
-17.63150190492122
 30
0.0
  0
SPLINE
  5
134
330
1F
100
AcDbEntity
  8
0
  6
Continuous
 62
     7
370
    15
100
AcDbSpline
210
0.0
220
0.0
230
1.0
 70
     8
 71
     3
 72
    14
 73
    10
 74
     0
 42
0.000000001
 43
0.00000001
 40
0.0
 40
0.0
 40
0.0
 40
0.0
 40
0.25
 40
0.25
 40
0.5
 40
0.5
 40
0.75
 40
0.75
 40
1.0
 40
1.0
 40
1.0
 40
1.0
 10
1.018348729433877
 20
-23.05037658117012
 30
0.0
 10
1.103351812807268
 20
-22.59878987667485
 30
0.0
 10
1.240887637067672
 20
-22.14723080179531
 30
0.0
 10
1.606441981473111
 20
-21.24408502242048
 30
0.0
 10
1.834387388086861
 20
-20.79251213273309
 30
0.0
 10
2.356420445516122
 20
-19.88936635335825
 30
0.0
 10
2.650407399426541
 20
-19.43779346367086
 30
0.0
 10
3.273118254458724
 20
-18.53464768429603
 30
0.0
 10
3.601711991535778
 20
-18.08308860941657
 30
0.0
 10
3.930135104946303
 20
-17.63150190492122
 30
0.0
  0
LINE
  5
135
330
1F
100
AcDbEntity
  8
0
  6
Continuous
 62
     7
370
    15
100
AcDbLine
 10
-1.8794287494
 20
-23.0503765812
 30
0.0
 11
1.0183487294
 21
-23.0503765812
 31
0.0
  0
ARC
  5
136
330
1F
100
AcDbEntity
  8
0
  6
Continuous
 62
     7
370
    15
100
AcDbCircle
 10
4.6493034969
 20
319.2923086201
 30
0.0
 40
1.492249392226771
100
AcDbArc
 50
283.9126797458
 51
0.5962673525
  0
ARC
  5
137
330
1F
100
AcDbEntity
  8
0
  6
Continuous
 62
     7
370
    15
100
AcDbCircle
 10
5.4430340961
 20
319.2827176865
 30
0.0
 40
1.47510902914725
100
AcDbArc
 50
271.0101851092
 51
0.9757604995
  0
SPLINE
  5
138
330
1F
100
AcDbEntity
  8
0
  6
Continuous
 62
     7
370
    15
100
AcDbSpline
210
0.0
220
0.0
230
1.0
 70
     8
 71
     3
 72
     8
 73
     4
 74
     0
 42
0.000000001
 43
0.00000001
 40
0.3681153597810824
 40
0.3681153597810824
 40
0.3681153597810824
 40
0.3681153597810824
 40
0.8911131686542552
 40
0.8911131686542552
 40
0.8911131686542552
 40
0.8911131686542552
 10
43.49232924569704
 20
319.3078379232961
 30
0.0
 10
42.38758646653992
 20
317.3688446416045
 30
0.0
 10
42.51512007032201
 20
317.0347158766285
 30
0.0
 10
43.87493005704338
 20
318.305451628368
 30
0.0
  0
ARC
  5
139
330
1F
100
AcDbEntity
  8
0
  6
Continuous
 62
     7
370
    15
100
AcDbCircle
 10
44.9581996574
 20
319.2357158897
 30
0.0
 40
1.427888168936778
100
AcDbArc
 50
220.6545329953
 51
269.7834071879
  0
ARC
  5
13A
330
1F
100
AcDbEntity
  8
0
  6
Continuous
 62
     7
370
    15
100
AcDbCircle
 10
44.9581996574
 20
-18.6200400431
 30
0.0
 40
1.427888168936472
100
AcDbArc
 50
90.2165928121
 51
139.3454670047
  0
SPLINE
  5
13B
330
1F
100
AcDbEntity
  8
0
  6
Continuous
 62
     7
370
    15
100
AcDbSpline
210
0.0
220
0.0
230
1.0
 70
     8
 71
     3
 72
     8
 73
     4
 74
     0
 42
0.000000001
 43
0.00000001
 40
0.1088868313457487
 40
0.1088868313457487
 40
0.1088868313457487
 40
0.1088868313457487
 40
0.631884640218985
 40
0.631884640218985
 40
0.631884640218985
 40
0.631884640218985
 10
43.87493005704371
 20
-17.68977578176989
 30
0.0
 10
42.51512007032213
 20
-16.41904003003014
 30
0.0
 10
42.38758646654009
 20
-16.75316879500638
 30
0.0
 10
43.4923292456976
 20
-18.69216207669852
 30
0.0
  0
ARC
  5
13C
330
1F
100
AcDbEntity
  8
0
  6
Continuous
 62
     7
370
    15
100
AcDbCircle
 10
5.4430340961
 20
-18.6670418399
 30
0.0
 40
1.475109029147147
100
AcDbArc
 50
359.0242395005
 51
88.9898148908
  0
ARC
  5
13D
330
1F
100
AcDbEntity
  8
0
  6
Continuous
 62
     7
370
    15
100
AcDbCircle
 10
4.656214175
 20
-18.6711012026
 30
0.0
 40
1.485407221547402
100
AcDbArc
 50
359.1876034971
 51
75.7148983502
  0
SPLINE
  5
13E
330
1F
100
AcDbEntity
  8
0
  6
Continuous
 62
     7
370
    15
100
AcDbSpline
210
0.0
220
0.0
230
1.0
 70
     8
 71
     3
 72
    10
 73
     6
 74
     0
 42
0.000000001
 43
0.00000001
 40
0.0
 40
0.0
 40
0.0
 40
0.0
 40
0.5
 40
0.5
 40
1.0
 40
1.0
 40
1.0
 40
1.0
 10
5.691575502181995
 20
320.0707550379885
 30
0.0
 10
5.83385806185352
 20
319.972040473744
 30
0.0
 10
5.945356217300218
 20
319.8561872313352
 30
0.0
 10
6.101996051953634
 20
319.591742128846
 30
0.0
 10
6.141472083043026
 20
319.4526604441556
 30
0.0
 10
6.141472083043026
 20
319.307837923299
 30
0.0
  0
SPLINE
  5
13F
330
1F
100
AcDbEntity
  8
0
  6
Continuous
 62
     7
370
    15
100
AcDbSpline
210
0.0
220
0.0
230
1.0
 70
     8
 71
     3
 72
    10
 73
     6
 74
     0
 42
0.000000001
 43
0.00000001
 40
0.0
 40
0.0
 40
0.0
 40
0.0
 40
0.5
 40
0.5
 40
1.0
 40
1.0
 40
1.0
 40
1.0
 10
6.14147208304236
 20
-18.69216207670096
 30
0.0
 10
6.14147208304236
 20
-18.836530387319
 30
0.0
 10
6.101867449891635
 20
-18.9760261126152
 30
0.0
 10
5.945484819360885
 20
-19.24055155436979
 30
0.0
 10
5.834283850806171
 20
-19.3560692179891
 30
0.0
 10
5.691575502181551
 20
-19.45507919139042
 30
0.0
  0
SPLINE
  5
140
330
1F
100
AcDbEntity
  8
0
  6
Continuous
 62
     7
370
    15
100
AcDbSpline
210
0.0
220
0.0
230
1.0
 70
     8
 71
     3
 72
     8
 73
     4
 74
     0
 42
0.000000001
 43
0.00000001
 40
0.0
 40
0.0
 40
0.0
 40
0.0
 40
1.0
 40
1.0
 40
1.0
 40
1.0
 10
2.404378796731471
 20
321.8308039630941
 30
0.0
 10
2.305246501797559
 20
322.0772196548312
 30
0.0
 10
2.191415494542742
 20
322.2347635103234
 30
0.0
 10
2.074335204100469
 20
322.2875893444902
 30
0.0
  0
SPLINE
  5
141
330
1F
100
AcDbEntity
  8
0
  6
Continuous
 62
     7
370
    15
100
AcDbSpline
210
0.0
220
0.0
230
1.0
 70
     8
 71
     3
 72
     8
 73
     4
 74
     0
 42
0.000000001
 43
0.00000001
 40
0.0
 40
0.0
 40
0.0
 40
0.0
 40
1.0
 40
1.0
 40
1.0
 40
1.0
 10
2.074335204101136
 20
-21.67191349789213
 30
0.0
 10
2.191415463382945
 20
-21.61908767778489
 30
0.0
 10
2.305246441300285
 20
-21.46154389297178
 30
0.0
 10
2.404378717581118
 20
-21.2151283132439
 30
0.0
  0
SPLINE
  5
142
330
1F
100
AcDbEntity
  8
0
  6
Continuous
 62
     7
370
    15
100
AcDbSpline
210
0.0
220
0.0
230
1.0
 70
     8
 71
     3
 72
     9
 73
     5
 74
     0
 42
0.000000001
 43
0.00000001
 40
0.0
 40
0.0
 40
0.0
 40
0.0
 40
0.4747884304921349
 40
1.0
 40
1.0
 40
1.0
 40
1.0
 10
44.04037967919442
 20
320.9905841856704
 30
0.0
 10
44.38876845659948
 20
321.3509183507466
 30
0.0
 10
45.12254534548429
 20
322.1098546304339
 30
0.0
 10
45.76578124029759
 20
322.2396617318376
 30
0.0
 10
46.10361617417622
 20
322.3078379232991
 30
0.0
  0
SPLINE
  5
143
330
1F
100
AcDbEntity
  8
0
  6
Continuous
 62
     7
370
    15
100
AcDbSpline
210
0.0
220
0.0
230
1.0
 70
     8
 71
     3
 72
     8
 73
     4
 74
     0
 42
0.000000001
 43
0.00000001
 40
0.0
 40
0.0
 40
0.0
 40
0.0
 40
1.0
 40
1.0
 40
1.0
 40
1.0
 10
1.984274555722837
 20
322.3078379232991
 30
0.0
 10
2.014362495470739
 20
322.3078379232991
 30
0.0
 10
2.044450343692189
 20
322.3010731911227
 30
0.0
 10
2.074335204100413
 20
322.2875893444902
 30
0.0
  0
SPLINE
  5
144
330
1F
100
AcDbEntity
  8
0
  6
Continuous
 62
     7
370
    15
100
AcDbSpline
210
0.0
220
0.0
230
1.0
 70
     8
 71
     3
 72
     9
 73
     5
 74
     0
 42
0.000000001
 43
0.00000001
 40
0.0
 40
0.0
 40
0.0
 40
0.0
 40
0.5252117598579771
 40
1.0
 40
1.0
 40
1.0
 40
1.0
 10
46.10361617417705
 20
-21.69216207670097
 30
0.0
 10
45.7657812420679
 20
-21.62398590238715
 30
0.0
 10
45.12254558374892
 20
-21.49417888067787
 30
0.0
 10
44.38876897774177
 20
-20.73524295021898
 30
0.0
 10
44.04038047431827
 20
-20.37490909541584
 30
0.0
  0
SPLINE
  5
145
330
1F
100
AcDbEntity
  8
0
  6
Continuous
 62
     7
370
    15
100
AcDbSpline
210
0.0
220
0.0
230
1.0
 70
     8
 71
     3
 72
     8
 73
     4
 74
     0
 42
0.000000001
 43
0.00000001
 40
0.0
 40
0.0
 40
0.0
 40
0.0
 40
1.0
 40
1.0
 40
1.0
 40
1.0
 10
2.074335204101136
 20
-21.67191349789213
 30
0.0
 10
2.044450343692911
 20
-21.68539734452465
 30
0.0
 10
2.01436249547135
 20
-21.69216207670097
 30
0.0
 10
1.984274555723392
 20
-21.69216207670094
 30
0.0
  0
LINE
  5
146
330
1F
100
AcDbEntity
  8
0
  6
Continuous
 62
     7
370
    15
100
AcDbLine
 10
-10.6792762829
 20
-24.6921620767
 30
0.0
 11
-10.6792762829
 21
325.3078379233
 31
0.0
  0
LINE
  5
147
330
1F
100
AcDbEntity
  8
0
  6
Continuous
 62
     7
370
    15
100
AcDbLine
 10
-2.2261428783
 20
325.3078379233
 30
0.0
 11
-10.6792762829
 21
325.3078379233
 31
0.0
  0
ARC
  5
148
330
1F
100
AcDbEntity
  8
0
  6
Continuous
 62
     7
370
    15
100
AcDbCircle
 10
1.620670378
 20
325.5157924205
 30
0.0
 40
3.852430051453523
100
AcDbArc
 50
183.0943349627
 51
193.5814106519
  0
LINE
  5
149
330
1F
100
AcDbEntity
  8
0
  6
Continuous
 62
     7
370
    15
100
AcDbLine
 10
-2.1240350972
 20
324.6111387822
 30
0.0
 11
-1.8794287494
 21
323.6660524278
 31
0.0
  0
LINE
  5
14A
330
1F
100
AcDbEntity
  8
0
  6
Continuous
 62
     7
370
    15
100
AcDbLine
 10
-1.8794287494
 20
-23.0503765812
 30
0.0
 11
-2.1240350972
 21
-23.9954629356
 31
0.0
  0
ARC
  5
14B
330
1F
100
AcDbEntity
  8
0
  6
Continuous
 62
     7
370
    15
100
AcDbCircle
 10
1.620670378
 20
-24.9001165739
 30
0.0
 40
3.85243005146406
100
AcDbArc
 50
166.4185893481
 51
176.9056650373
  0
LINE
  5
14C
330
1F
100
AcDbEntity
  8
0
  6
Continuous
 62
     7
370
    15
100
AcDbLine
 10
-2.2261428783
 20
-24.6921620767
 30
0.0
 11
-10.6792762829
 21
-24.6921620767
 31
0.0
  0
LINE
  5
14D
330
1F
100
AcDbEntity
  8
0
  6
Continuous
 62
     7
370
    15
100
AcDbLine
 10
0.7737423816
 20
324.6111387822
 30
0.0
 11
1.0183487294
 21
323.6660524278
 31
0.0
  0
LINE
  5
14E
330
1F
100
AcDbEntity
  8
0
  6
Continuous
 62
     7
370
    15
100
AcDbLine
 10
1.0183487294
 20
-23.0503765812
 30
0.0
 11
0.7737423816
 21
-23.9954629356
 31
0.0
  0
ARC
  5
14F
330
1F
100
AcDbEntity
  8
0
  6
Continuous
 62
     7
370
    15
100
AcDbCircle
 10
4.5184478569
 20
325.5157924205
 30
0.0
 40
3.852430051463865
100
AcDbArc
 50
183.0943349627
 51
193.5814106519
  0
ARC
  5
150
330
1F
100
AcDbEntity
  8
0
  6
Continuous
 62
     7
370
    15
100
AcDbCircle
 10
4.5184478569
 20
-24.9001165739
 30
0.0
 40
3.852430051464049
100
AcDbArc
 50
166.4185893481
 51
176.9056650373
  0
LINE
  5
151
330
1F
100
AcDbEntity
  8
0
  6
Continuous
 62
     7
370
    15
100
AcDbLine
 10
1.9842745557
 20
322.3078379233
 30
0.0
 11
1.425398224
 21
322.3078379233
 31
0.0
  0
LINE
  5
152
330
1F
100
AcDbEntity
  8
0
  6
Continuous
 62
     7
370
    15
100
AcDbLine
 10
1.9842745557
 20
-21.6921620767
 30
0.0
 11
1.425398224
 21
-21.6921620767
 31
0.0
  0
LINE
  5
153
330
1F
100
AcDbEntity
  8
0
  6
Continuous
 62
     7
370
    15
100
AcDbLine
 10
43.874930057
 20
318.3054516284
 30
0.0
 11
43.0984729217
 21
318.3054516284
 31
0.0
  0
LINE
  5
154
330
1F
100
AcDbEntity
  8
0
  6
Continuous
 62
     7
370
    15
100
AcDbLine
 10
43.874930057
 20
-17.6897757818
 30
0.0
 11
43.0984729217
 21
-17.6897757818
 31
0.0
  0
SPLINE
  5
155
330
1F
100
AcDbEntity
  8
0
  6
Continuous
 62
     7
370
    15
100
AcDbSpline
210
0.0
220
0.0
230
1.0
 70
     8
 71
     3
 72
    16
 73
    12
 74
     0
 42
0.000000001
 43
0.00000001
 40
0.0
 40
0.0
 40
0.0
 40
0.0
 40
0.0766391459075217
 40
0.1543426298664289
 40
0.2333657049870501
 40
0.3139510838595152
 40
0.3963276686324818
 40
0.4807097835505749
 40
0.6515981988110636
 40
0.8241969215720526
 40
1.0
 40
1.0
 40
1.0
 40
1.0
 10
46.37559078523793
 20
318.2471777515193
 30
0.0
 10
46.34539932970408
 20
318.2242161433425
 30
0.0
 10
46.28459713010488
 20
318.1779740440862
 30
0.0
 10
46.18715024508133
 20
318.1160508053896
 30
0.0
 10
46.08439544511297
 20
318.0590540247186
 30
0.0
 10
45.97581013677257
 20
318.0075569017212
 30
0.0
 10
45.86141194690788
 20
317.9614131529941
 30
0.0
 10
45.70108101720952
 20
317.9070237677158
 30
0.0
 10
45.49065272627881
 20
317.8543627471176
 30
0.0
 10
45.22658419698314
 20
317.8149528538902
 30
0.0
 10
45.04462051380207
 20
317.8102240641942
 30
0.0
 10
44.95280188497711
 20
317.807837923299
 30
0.0
  0
SPLINE
  5
156
330
1F
100
AcDbEntity
  8
0
  6
Continuous
 62
     7
370
    15
100
AcDbSpline
210
0.0
220
0.0
230
1.0
 70
     8
 71
     3
 72
    10
 73
     6
 74
     0
 42
0.000000001
 43
0.00000001
 40
0.0
 40
0.0
 40
0.0
 40
0.0
 40
0.5
 40
0.5
 40
1.0
 40
1.0
 40
1.0
 40
1.0
 10
49.03804333907755
 20
321.146233320202
 30
0.0
 10
48.79767112062669
 20
320.6630573920881
 30
0.0
 10
48.44014475866828
 20
320.1798814639745
 30
0.0
 10
47.534129191913
 20
319.2135296077469
 30
0.0
 10
46.98586888413323
 20
318.7303536796331
 30
0.0
 10
46.37559078523798
 20
318.2471777515192
 30
0.0
  0
SPLINE
  5
157
330
1F
100
AcDbEntity
  8
0
  6
Continuous
 62
     7
370
    15
100
AcDbSpline
210
0.0
220
0.0
230
1.0
 70
     8
 71
     3
 72
    10
 73
     6
 74
     0
 42
0.000000001
 43
0.00000001
 40
0.0
 40
0.0
 40
0.0
 40
0.0
 40
0.5
 40
0.5
 40
1.0
 40
1.0
 40
1.0
 40
1.0
 10
46.37559434029539
 20
-17.63150471956984
 30
0.0
 10
46.98587160884857
 20
-18.11468017857554
 30
0.0
 10
47.5341311345033
 20
-18.5978556375812
 30
0.0
 10
48.44014545498734
 20
-19.56420655559249
 30
0.0
 10
48.7976713540004
 20
-20.0473820145981
 30
0.0
 10
49.03804333907755
 20
-20.53055747360374
 30
0.0
  0
SPLINE
  5
158
330
1F
100
AcDbEntity
  8
0
  6
Continuous
 62
     7
370
    15
100
AcDbSpline
210
0.0
220
0.0
230
1.0
 70
     8
 71
     3
 72
    15
 73
    11
 74
     0
 42
0.000000001
 43
0.00000001
 40
0.0
 40
0.0
 40
0.0
 40
0.0
 40
0.1058180017306973
 40
0.2103554215647201
 40
0.3139253201541048
 40
0.4168495874353717
 40
0.5194561900969659
 40
0.6859748766107777
 40
0.8455254082599852
 40
1.0
 40
1.0
 40
1.0
 40
1.0
 10
44.95280188497705
 20
-17.19216207670094
 30
0.0
 10
45.00813064966405
 20
-17.19302855797037
 30
0.0
 10
45.11811860473827
 20
-17.1947510345786
 30
0.0
 10
45.28006527273001
 20
-17.20892640441426
 30
0.0
 10
45.4381797154996
 20
-17.23162412380072
 30
0.0
 10
45.59228009731328
 20
-17.26367700661746
 30
0.0
 10
45.7735194548132
 20
-17.31328564851164
 30
0.0
 10
45.97467140098407
 20
-17.38774850080468
 30
0.0
 10
46.18822509522899
 20
-17.49478460529958
 30
0.0
 10
46.31381222372458
 20
-17.58642322427131
 30
0.0
 10
46.37559078523826
 20
-17.63150190492113
 30
0.0
  0
SPLINE
  5
159
330
1F
100
AcDbEntity
  8
0
  6
Continuous
 62
     7
370
    15
100
AcDbSpline
210
0.0
220
0.0
230
1.0
 70
     8
 71
     3
 72
    10
 73
     6
 74
     0
 42
0.000000001
 43
0.00000001
 40
0.0
 40
0.0
 40
0.0
 40
0.0
 40
0.4661915939175887
 40
0.9041277368272852
 40
1.0
 40
1.0
 40
1.0
 40
1.0
 10
44.88773919980002
 20
318.2471777515192
 30
0.0
 10
44.8414779324933
 20
318.1832072145057
 30
0.0
 10
44.75175925146505
 20
318.0591433368889
 30
0.0
 10
44.62430749512894
 20
317.9436968289273
 30
0.0
 10
44.54152740677167
 20
317.9085347205977
 30
0.0
 10
44.52666006049902
 20
317.9022195879302
 30
0.0
  0
SPLINE
  5
15A
330
1F
100
AcDbEntity
  8
0
  6
Continuous
 62
     7
370
    15
100
AcDbSpline
210
0.0
220
0.0
230
1.0
 70
     8
 71
     3
 72
    10
 73
     6
 74
     0
 42
0.000000001
 43
0.00000001
 40
0.0
 40
0.0
 40
0.0
 40
0.0
 40
0.110001939019766
 40
0.540646127075415
 40
1.0
 40
1.0
 40
1.0
 40
1.0
 10
44.5193432790402
 20
-17.28328452271732
 30
0.0
 10
44.53669953441988
 20
-17.2905960361239
 30
0.0
 10
44.62200341483466
 20
-17.3265312336445
 30
0.0
 10
44.75183415980952
 20
-17.44320586512868
 30
0.0
 10
44.84147365194644
 20
-17.56740112219593
 30
0.0
 10
44.88773919980019
 20
-17.63150190492111
 30
0.0
  0
LINE
  5
15B
330
1F
100
AcDbEntity
  8
0
  6
Continuous
 62
     7
370
    15
100
AcDbLine
 10
44.1879180761
 20
-20.7290116497
 30
0.0
 11
43.9988223153
 21
-20.2751660462
 31
0.0
  0
LINE
  5
15C
330
1F
100
AcDbEntity
  8
0
  6
Continuous
 62
     7
370
    15
100
AcDbLine
 10
44.1813137804
 20
321.3288377876
 30
0.0
 11
43.9988218353
 21
320.8908418928
 31
0.0
  0
SPLINE
  5
15D
330
1F
100
AcDbEntity
  8
0
  6
Continuous
 62
     7
370
    15
100
AcDbSpline
210
0.0
220
0.0
230
1.0
 70
     8
 71
     3
 72
    10
 73
     6
 74
     0
 42
0.000000001
 43
0.00000001
 40
0.0
 40
0.0
 40
0.0
 40
0.0
 40
0.5
 40
0.5
 40
1.0
 40
1.0
 40
1.0
 40
1.0
 10
46.2189654767198
 20
321.146233320202
 30
0.0
 10
46.09877455255781
 20
320.6630380349308
 30
0.0
 10
45.92001618651512
 20
320.1798814639744
 30
0.0
 10
45.46700840313747
 20
319.2135296077469
 30
0.0
 10
45.19289047383138
 20
318.7303730367904
 30
0.0
 10
44.88773919979997
 20
318.2471777515192
 30
0.0
  0
LINE
  5
15E
330
1F
100
AcDbEntity
  8
0
  6
Continuous
 62
     7
370
    15
100
AcDbLine
 10
49.0380433391
 20
321.1462333202
 30
0.0
 11
46.2189654767
 21
321.1462333202
 31
0.0
  0
SPLINE
  5
15F
330
1F
100
AcDbEntity
  8
0
  6
Continuous
 62
     7
370
    15
100
AcDbSpline
210
0.0
220
0.0
230
1.0
 70
     8
 71
     3
 72
    10
 73
     6
 74
     0
 42
0.000000001
 43
0.00000001
 40
0.0000009708846691
 40
0.0000009708846691
 40
0.0000009708846691
 40
0.0000009708846691
 40
0.5000004854423346
 40
0.5000004854423346
 40
1.0
 40
1.0
 40
1.0
 40
1.0
 10
44.8877409773287
 20
-17.63150471956981
 30
0.0
 10
45.19289183612516
 20
-18.11469953563921
 30
0.0
 10
45.46700937443268
 20
-18.59785563758115
 30
0.0
 10
45.92001653467467
 20
-19.56420655559249
 30
0.0
 10
46.09877466926801
 20
-20.04736265753449
 30
0.0
 10
46.2189654767198
 20
-20.53055747360377
 30
0.0
  0
LINE
  5
160
330
1F
100
AcDbEntity
  8
0
  6
Continuous
 62
     7
370
    15
100
AcDbLine
 10
49.0380433391
 20
-20.5305574736
 30
0.0
 11
46.2189654767
 21
-20.5305574736
 31
0.0
  0
LINE
  5
161
330
1F
100
AcDbEntity
  8
0
  6
Continuous
 62
     7
370
    15
100
AcDbLine
 10
46.1036161742
 20
325.3078379233
 30
0.0
 11
46.1036161742
 21
322.3078379233
 31
0.0
  0
LINE
  5
162
330
1F
100
AcDbEntity
  8
0
  6
Continuous
 62
     7
370
    15
100
AcDbLine
 10
46.1036161742
 20
-24.6921620767
 30
0.0
 11
46.1036161742
 21
-21.6921620767
 31
0.0
  0
LINE
  5
163
330
1F
100
AcDbEntity
  8
0
  6
Continuous
 62
     7
370
    15
100
AcDbLine
 10
46.2189654767
 20
321.1462333202
 30
0.0
 11
46.3744128869
 21
321.6007311421
 31
0.0
  0
LINE
  5
164
330
1F
100
AcDbEntity
  8
0
  6
Continuous
 62
     7
370
    15
100
AcDbLine
 10
49.1934907493
 20
321.6007311421
 30
0.0
 11
46.3744128869
 21
321.6007311421
 31
0.0
  0
LINE
  5
165
330
1F
100
AcDbEntity
  8
0
  6
Continuous
 62
     7
370
    15
100
AcDbLine
 10
49.0380433391
 20
321.1462333202
 30
0.0
 11
49.1934907493
 21
321.6007311421
 31
0.0
  0
LINE
  5
166
330
1F
100
AcDbEntity
  8
0
  6
Continuous
 62
     7
370
    15
100
AcDbLine
 10
49.1934907493
 20
321.6007311421
 30
0.0
 11
65.6263752016
 21
321.6007311421
 31
0.0
  0
LINE
  5
167
330
1F
100
AcDbEntity
  8
0
  6
Continuous
 62
     7
370
    15
100
AcDbLine
 10
65.6263752016
 20
318.3078379233
 30
0.0
 11
65.6263752016
 21
321.6007311421
 31
0.0
  0
LINE
  5
168
330
1F
100
AcDbEntity
  8
0
  6
Continuous
 62
     7
370
    15
100
AcDbLine
 10
65.9683953449
 20
318.3078379233
 30
0.0
 11
65.6263752016
 21
318.3078379233
 31
0.0
  0
LINE
  5
169
330
1F
100
AcDbEntity
  8
0
  6
Continuous
 62
     7
370
    15
100
AcDbLine
 10
65.9683953449
 20
319.3078379233
 30
0.0
 11
65.9683953449
 21
318.3078379233
 31
0.0
  0
LINE
  5
16A
330
1F
100
AcDbEntity
  8
0
  6
Continuous
 62
     7
370
    15
100
AcDbLine
 10
224.0132870821
 20
319.3078379233
 30
0.0
 11
224.0224804773
 21
319.0251427687
 31
0.0
  0
LINE
  5
16B
330
1F
100
AcDbEntity
  8
0
  6
Continuous
 62
     7
370
    15
100
AcDbLine
 10
224.0224804773
 20
-18.4094669221
 30
0.0
 11
224.0132870821
 21
-18.6921620767
 31
0.0
  0
LINE
  5
16C
330
1F
100
AcDbEntity
  8
0
  6
Continuous
 62
     7
370
    15
100
AcDbLine
 10
65.9683953449
 20
-17.6921620767
 30
0.0
 11
65.9683953449
 21
-18.6921620767
 31
0.0
  0
LINE
  5
16D
330
1F
100
AcDbEntity
  8
0
  6
Continuous
 62
     7
370
    15
100
AcDbLine
 10
65.6263752016
 20
-17.6921620767
 30
0.0
 11
65.9683953449
 21
-17.6921620767
 31
0.0
  0
LINE
  5
16E
330
1F
100
AcDbEntity
  8
0
  6
Continuous
 62
     7
370
    15
100
AcDbLine
 10
65.6263752016
 20
-20.9850552955
 30
0.0
 11
65.6263752016
 21
-17.6921620767
 31
0.0
  0
LINE
  5
16F
330
1F
100
AcDbEntity
  8
0
  6
Continuous
 62
     7
370
    15
100
AcDbLine
 10
49.1934907493
 20
-20.9850552955
 30
0.0
 11
65.6263752016
 21
-20.9850552955
 31
0.0
  0
LINE
  5
170
330
1F
100
AcDbEntity
  8
0
  6
Continuous
 62
     7
370
    15
100
AcDbLine
 10
49.1934907493
 20
-20.9850552955
 30
0.0
 11
49.0380433391
 21
-20.5305574736
 31
0.0
  0
LINE
  5
171
330
1F
100
AcDbEntity
  8
0
  6
Continuous
 62
     7
370
    15
100
AcDbLine
 10
46.3744128869
 20
-20.9850552955
 30
0.0
 11
46.2189654767
 21
-20.5305574736
 31
0.0
  0
LINE
  5
172
330
1F
100
AcDbEntity
  8
0
  6
Continuous
 62
     7
370
    15
100
AcDbLine
 10
49.1934907493
 20
-20.9850552955
 30
0.0
 11
46.3744128869
 21
-20.9850552955
 31
0.0
  0
LINE
  5
173
330
1F
100
AcDbEntity
  8
0
  6
Continuous
 62
     7
370
    15
100
AcDbLine
 10
50.2172210424
 20
-24.6921620767
 30
0.0
 11
50.2172210424
 21
-21.6921620767
 31
0.0
  0
LINE
  5
174
330
1F
100
AcDbEntity
  8
0
  6
Continuous
 62
     7
370
    15
100
AcDbLine
 10
50.2172210424
 20
-21.6921620767
 30
0.0
 11
400.0901203271
 21
-21.6921620767
 31
0.0
  0
LINE
  5
175
330
1F
100
AcDbEntity
  8
0
  6
Continuous
 62
     7
370
    15
100
AcDbLine
 10
400.0901203271
 20
-21.6921620767
 30
0.0
 11
400.0901203271
 21
-24.6921620767
 31
0.0
  0
LINE
  5
176
330
1F
100
AcDbEntity
  8
0
  6
Continuous
 62
     7
370
    15
100
AcDbLine
 10
50.2172210424
 20
-24.6921620767
 30
0.0
 11
400.0901203271
 21
-24.6921620767
 31
0.0
  0
LINE
  5
177
330
1F
100
AcDbEntity
  8
0
  6
Continuous
 62
     7
370
    15
100
AcDbLine
 10
50.2172210424
 20
325.3078379233
 30
0.0
 11
50.2172210424
 21
322.3078379233
 31
0.0
  0
LINE
  5
178
330
1F
100
AcDbEntity
  8
0
  6
Continuous
 62
     7
370
    15
100
AcDbLine
 10
400.0901203271
 20
325.3078379233
 30
0.0
 11
50.2172210424
 21
325.3078379233
 31
0.0
  0
LINE
  5
179
330
1F
100
AcDbEntity
  8
0
  6
Continuous
 62
     7
370
    15
100
AcDbLine
 10
400.0901203271
 20
322.3078379233
 30
0.0
 11
400.0901203271
 21
325.3078379233
 31
0.0
  0
LINE
  5
17A
330
1F
100
AcDbEntity
  8
0
  6
Continuous
 62
     7
370
    15
100
AcDbLine
 10
400.0901203271
 20
322.3078379233
 30
0.0
 11
50.2172210424
 21
322.3078379233
 31
0.0
  0
LINE
  5
17B
330
1F
100
AcDbEntity
  8
0
  6
Continuous
 62
     7
370
    15
100
AcDbLine
 10
46.1036161742
 20
322.3078379233
 30
0.0
 11
50.2172210424
 21
322.3078379233
 31
0.0
  0
LINE
  5
17C
330
1F
100
AcDbEntity
  8
0
  6
Continuous
 62
     7
370
    15
100
AcDbLine
 10
46.1036161742
 20
-21.6921620767
 30
0.0
 11
50.2172210424
 21
-21.6921620767
 31
0.0
  0
ARC
  5
17D
330
1F
100
AcDbEntity
  8
0
  6
Continuous
 62
     7
370
    15
100
AcDbCircle
 10
68.8808370711
 20
319.3955712571
 30
0.0
 40
2.913762849982761
100
AcDbArc
 50
91.8362067977
 51
181.7254354149
  0
LWPOLYLINE
  5
17E
330
1F
100
AcDbEntity
  8
0
  6
Continuous
 62
     7
370
    15
100
AcDbPolyline
 90
        3
 70
   128
 43
0.0
 10
63.9046871192
 20
322.3078379233
 10
63.5784965321
 20
321.6039385175
 10
63.5772491357
 20
321.6007311421
  0
SPLINE
  5
17F
330
1F
100
AcDbEntity
  8
0
  6
Continuous
 62
     7
370
    15
100
AcDbSpline
210
0.0
220
0.0
230
1.0
 70
     8
 71
     3
 72
    10
 73
     6
 74
     0
 42
0.000000001
 43
0.00000001
 40
0.0
 40
0.0
 40
0.0
 40
0.0
 40
0.5
 40
0.5
 40
1.0
 40
1.0
 40
1.0
 40
1.0
 10
228.1799400414421
 20
322.3078379232991
 30
0.0
 10
227.773813237215
 20
322.3078379232991
 30
0.0
 10
227.3678760580353
 20
322.2402877221982
 30
0.0
 10
226.6011057148641
 20
321.9789364239368
 30
0.0
 10
226.2405408236313
 20
321.7852390757225
 30
0.0
 10
225.9222144914907
 20
321.5411301808396
 30
0.0
  0
SPLINE
  5
180
330
1F
100
AcDbEntity
  8
0
  6
Continuous
 62
     7
370
    15
100
AcDbSpline
210
0.0
220
0.0
230
1.0
 70
     8
 71
     3
 72
     8
 73
     4
 74
     0
 42
0.000000001
 43
0.00000001
 40
0.0000003271404881
 40
0.0000003271404881
 40
0.0000003271404881
 40
0.0000003271404881
 40
1.0
 40
1.0
 40
1.0
 40
1.0
 10
225.9222138226741
 20
321.5411297990962
 30
0.0
 10
225.2400386343248
 20
321.1517615925604
 30
0.0
 10
224.6698268068505
 20
320.6347319682358
 30
0.0
 10
224.2562304818099
 20
320.0707550379885
 30
0.0
  0
SPLINE
  5
181
330
1F
100
AcDbEntity
  8
0
  6
Continuous
 62
     7
370
    15
100
AcDbSpline
210
0.0
220
0.0
230
1.0
 70
     8
 71
     3
 72
    10
 73
     6
 74
     0
 42
0.000000001
 43
0.00000001
 40
0.0
 40
0.0
 40
0.0
 40
0.0
 40
0.5
 40
0.5
 40
1.0
 40
1.0
 40
1.0
 40
1.0
 10
224.2562304818099
 20
320.0707550379885
 30
0.0
 10
224.1838374834151
 20
319.9720404737282
 30
0.0
 10
224.1230280034329
 20
319.8561872313461
 30
0.0
 10
224.0361533160404
 20
319.5917421288351
 30
0.0
 10
224.0132870820964
 20
319.4526604441446
 30
0.0
 10
224.0132870820964
 20
319.3078379232991
 30
0.0
  0
LWPOLYLINE
  5
182
330
1F
100
AcDbEntity
  8
0
  6
Continuous
 62
     7
370
    15
100
AcDbPolyline
 90
        3
 70
   128
 43
0.0
 10
63.5772491357
 20
-20.9850552955
 10
63.5784965321
 20
-20.9882626709
 10
63.9046871192
 20
-21.6921620767
  0
ARC
  5
183
330
1F
100
AcDbEntity
  8
0
  6
Continuous
 62
     7
370
    15
100
AcDbCircle
 10
68.8808370711
 20
-18.7798954105
 30
0.0
 40
2.91376284998419
100
AcDbArc
 50
178.2745645851
 51
268.1637932024
  0
SPLINE
  5
184
330
1F
100
AcDbEntity
  8
0
  6
Continuous
 62
     7
370
    15
100
AcDbSpline
210
0.0
220
0.0
230
1.0
 70
     8
 71
     3
 72
    10
 73
     6
 74
     0
 42
0.000000001
 43
0.00000001
 40
0.0
 40
0.0
 40
0.0
 40
0.0
 40
0.5
 40
0.5
 40
1.0
 40
1.0
 40
1.0
 40
1.0
 10
224.0132870820969
 20
-18.69216207670094
 30
0.0
 10
224.0132870820969
 20
-18.83653038715863
 30
0.0
 10
224.0361940808185
 20
-18.976026112665
 30
0.0
 10
224.1229872386558
 20
-19.24055155432105
 30
0.0
 10
224.1836208430741
 20
-19.35606921794203
 30
0.0
 10
224.2562304818107
 20
-19.45507919139136
 30
0.0
  0
SPLINE
  5
185
330
1F
100
AcDbEntity
  8
0
  6
Continuous
 62
     7
370
    15
100
AcDbSpline
210
0.0
220
0.0
230
1.0
 70
     8
 71
     3
 72
     8
 73
     4
 74
     0
 42
0.000000001
 43
0.00000001
 40
0.0000011712926756
 40
0.0000011712926756
 40
0.0000011712926756
 40
0.0000011712926756
 40
1.0
 40
1.0
 40
1.0
 40
1.0
 10
224.2562319336518
 20
-19.45508117111028
 30
0.0
 10
224.6698282698568
 20
-20.01905752229566
 30
0.0
 10
225.2400398114392
 20
-20.53608654036157
 30
0.0
 10
225.9222144914931
 20
-20.92545433424339
 30
0.0
  0
SPLINE
  5
186
330
1F
100
AcDbEntity
  8
0
  6
Continuous
 62
     7
370
    15
100
AcDbSpline
210
0.0
220
0.0
230
1.0
 70
     8
 71
     3
 72
    10
 73
     6
 74
     0
 42
0.000000001
 43
0.00000001
 40
0.0000002606675377
 40
0.0000002606675377
 40
0.0000002606675377
 40
0.0000002606675377
 40
0.5000001303337689
 40
0.5000001303337689
 40
1.0
 40
1.0
 40
1.0
 40
1.0
 10
225.9222149893034
 20
-20.92545471598969
 30
0.0
 10
226.2405412821473
 20
-21.16956349534579
 30
0.0
 10
226.601106102911
 20
-21.36326074612402
 30
0.0
 10
227.367876269613
 20
-21.62461191119511
 30
0.0
 10
227.7738133431297
 20
-21.69216207670158
 30
0.0
 10
228.1799400414474
 20
-21.69216207670094
 30
0.0
  0
SPLINE
  5
187
330
1F
100
AcDbEntity
  8
0
  6
Continuous
 62
     7
370
    15
100
AcDbSpline
210
0.0
220
0.0
230
1.0
 70
     8
 71
     3
 72
     9
 73
     5
 74
     0
 42
0.000000001
 43
0.00000001
 40
0.0
 40
0.0
 40
0.0
 40
0.0
 40
0.3489733421833169
 40
1.0
 40
1.0
 40
1.0
 40
1.0
 10
225.2866948210741
 20
319.0251427687111
 30
0.0
 10
225.435272400853
 20
319.3247466609972
 30
0.0
 10
225.8610286458699
 20
320.1832761131661
 30
0.0
 10
226.4856417711766
 20
321.0418055755679
 30
0.0
 10
226.8922815665734
 20
321.6007311421124
 30
0.0
  0
SPLINE
  5
188
330
1F
100
AcDbEntity
  8
0
  6
Continuous
 62
     7
370
    15
100
AcDbSpline
210
0.0
220
0.0
230
1.0
 70
    24
 71
     3
 72
     8
 73
     4
 74
     0
 42
0.000000001
 43
0.00000001
 40
0.0
 40
0.0
 40
0.0
 40
0.0
 40
1.0
 40
1.0
 40
1.0
 40
1.0
 10
226.8922819260412
 20
321.6007311421125
 30
0.0
 10
227.0421605405017
 20
321.6007311421125
 30
0.0
 10
227.1937771830167
 20
321.6007311421125
 30
0.0
 10
227.3453951594424
 20
321.6007311421125
 30
0.0
  0
SPLINE
  5
189
330
1F
100
AcDbEntity
  8
0
  6
Continuous
 62
     7
370
    15
100
AcDbSpline
210
0.0
220
0.0
230
1.0
 70
    24
 71
     3
 72
     8
 73
     4
 74
     0
 42
0.000000001
 43
0.00000001
 40
0.0
 40
0.0
 40
0.0
 40
0.0
 40
1.0
 40
1.0
 40
1.0
 40
1.0
 10
227.3453951594424
 20
-20.98505529551436
 30
0.0
 10
227.1937770618036
 20
-20.98505529551436
 30
0.0
 10
227.0421602980809
 20
-20.98505529551436
 30
0.0
 10
226.8922815665736
 20
-20.98505529551436
 30
0.0
  0
SPLINE
  5
18A
330
1F
100
AcDbEntity
  8
0
  6
Continuous
 62
     7
370
    15
100
AcDbSpline
210
0.0
220
0.0
230
1.0
 70
     8
 71
     3
 72
     9
 73
     5
 74
     0
 42
0.000000001
 43
0.00000001
 40
0.0
 40
0.0
 40
0.0
 40
0.0
 40
0.6510265921970247
 40
1.0
 40
1.0
 40
1.0
 40
1.0
 10
226.8922812071089
 20
-20.98505479551435
 30
0.0
 10
226.4856415127578
 20
-20.42612939733895
 30
0.0
 10
225.8610284797036
 20
-19.56760010702352
 30
0.0
 10
225.4352724999259
 20
-18.70907081489032
 30
0.0
 10
225.2866949847704
 20
-18.4094669221159
 30
0.0
  0
LINE
  5
18B
330
1F
100
AcDbEntity
  8
0
  6
Continuous
 62
     7
370
    15
100
AcDbLine
 10
226.4391672548
 20
-20.9850552955
 30
0.0
 11
226.8922812071
 21
-20.9850552955
 31
0.0
  0
SPLINE
  5
18C
330
1F
100
AcDbEntity
  8
0
  6
Continuous
 62
     7
370
    15
100
AcDbSpline
210
0.0
220
0.0
230
1.0
 70
     8
 71
     3
 72
     9
 73
     5
 74
     0
 42
0.000000001
 43
0.00000001
 40
0.0
 40
0.0
 40
0.0
 40
0.0
 40
0.9969317385304423
 40
1.0
 40
1.0
 40
1.0
 40
1.0
 10
226.4391672547753
 20
-20.98505479551438
 30
0.0
 10
225.5960336627296
 20
-20.42612939785871
 30
0.0
 10
224.7503051544883
 20
-19.86548379289521
 30
0.0
 10
224.1642959913635
 20
-19.30483818558784
 30
0.0
 10
224.1624979620275
 20
-19.30311797827286
 30
0.0
  0
SPLINE
  5
18D
330
1F
100
AcDbEntity
  8
0
  6
Continuous
 62
     7
370
    15
100
AcDbSpline
210
0.0
220
0.0
230
1.0
 70
     8
 71
     3
 72
     9
 73
     5
 74
     0
 42
0.000000001
 43
0.00000001
 40
0.0
 40
0.0
 40
0.0
 40
0.0
 40
0.0030577742642699
 40
1.0
 40
1.0
 40
1.0
 40
1.0
 10
224.1625164603758
 20
319.9188115163499
 30
0.0
 10
224.1643083291666
 20
319.9205258265051
 30
0.0
 10
224.7503126041537
 20
320.481165692989
 30
0.0
 10
225.596033300419
 20
321.0418055726485
 30
0.0
 10
226.4391679737044
 20
321.6007311421125
 30
0.0
  0
LINE
  5
18E
330
1F
100
AcDbEntity
  8
0
  6
Continuous
 62
     7
370
    15
100
AcDbLine
 10
226.4391686926
 20
321.6007311421
 30
0.0
 11
226.892281926
 21
321.6007311421
 31
0.0
  0
LINE
  5
18F
330
1F
100
AcDbEntity
  8
0
  6
Continuous
 62
     7
370
    15
100
AcDbLine
 10
227.3453951594
 20
321.6007311421
 30
0.0
 11
250.2447725448
 21
321.6007311421
 31
0.0
  0
LINE
  5
190
330
1F
100
AcDbEntity
  8
0
  6
Continuous
 62
     7
370
    15
100
AcDbLine
 10
250.2447725448
 20
-20.9850552955
 30
0.0
 11
250.2447725448
 21
-18.4094669221
 31
0.0
  0
LINE
  5
191
330
1F
100
AcDbEntity
  8
0
  6
Continuous
 62
     7
370
    15
100
AcDbLine
 10
250.2447725448
 20
319.0251427687
 30
0.0
 11
250.2447725448
 21
321.6007311421
 31
0.0
  0
LINE
  5
192
330
1F
100
AcDbEntity
  8
0
  6
Continuous
 62
     7
370
    15
100
AcDbLine
 10
227.3453951594
 20
-20.9850552955
 30
0.0
 11
250.2447725448
 21
-20.9850552955
 31
0.0
  0
SPLINE
  5
193
330
1F
100
AcDbEntity
  8
0
  6
Continuous
 62
     7
370
    15
100
AcDbSpline
210
0.0
220
0.0
230
1.0
 70
     8
 71
     3
 72
     9
 73
     5
 74
     0
 42
0.000000001
 43
0.00000001
 40
0.0
 40
0.0
 40
0.0
 40
0.0
 40
0.5175499105621403
 40
0.9999999999999999
 40
0.9999999999999999
 40
0.9999999999999999
 40
0.9999999999999999
 10
431.0082730285287
 20
375.3078379232979
 30
0.0
 10
431.0930647498512
 20
375.297859618308
 30
0.0
 10
431.2568976857521
 20
375.2785797289945
 30
0.0
 10
431.6007261050047
 20
375.1767934878504
 30
0.0
 10
431.7666061566244
 20
375.1276867067069
 30
0.0
  0
SPLINE
  5
194
330
1F
100
AcDbEntity
  8
0
  6
Continuous
 62
     7
370
    15
100
AcDbSpline
210
0.0
220
0.0
230
1.0
 70
     8
 71
     3
 72
     9
 73
     5
 74
     0
 42
0.000000001
 43
0.00000001
 40
0.0
 40
0.0
 40
0.0
 40
0.0
 40
0.4999995434582297
 40
1.0
 40
1.0
 40
1.0
 40
1.0
 10
431.7666101564027
 20
375.1276855750002
 30
0.0
 10
432.4858169763233
 20
374.828887863658
 30
0.0
 10
433.9242319295575
 20
374.2312918953184
 30
0.0
 10
435.1957244884281
 20
372.8127272016006
 30
0.0
 10
435.8314713483529
 20
372.1034442071076
 30
0.0
  0
SPLINE
  5
195
330
1F
100
AcDbEntity
  8
0
  6
Continuous
 62
     7
370
    15
100
AcDbSpline
210
0.0
220
0.0
230
1.0
 70
     8
 71
     3
 72
     9
 73
     5
 74
     0
 42
0.000000001
 43
0.00000001
 40
0.0
 40
0.0
 40
0.0
 40
0.0
 40
0.4999998642094101
 40
1.0
 40
1.0
 40
1.0
 40
1.0
 10
435.8314714440658
 20
372.1034435048399
 30
0.0
 10
435.8833090710033
 20
371.6585475356554
 30
0.0
 10
435.9869843530343
 20
370.7687553556354
 30
0.0
 10
436.00255287414
 20
369.7948104889131
 30
0.0
 10
436.0103371368069
 20
369.3078379232992
 30
0.0
  0
SPLINE
  5
196
330
1F
100
AcDbEntity
  8
0
  6
Continuous
 62
     7
370
    15
100
AcDbSpline
210
0.0
220
0.0
230
1.0
 70
     8
 71
     3
 72
     9
 73
     5
 74
     0
 42
0.000000001
 43
0.00000001
 40
0.0
 40
0.0
 40
0.0
 40
0.0
 40
0.5000000000000021
 40
1.0
 40
1.0
 40
1.0
 40
1.0
 10
3.25427570194134
 20
369.3078379232992
 30
0.0
 10
3.245956235688602
 20
369.8110309626211
 30
0.0
 10
3.229317303183294
 20
370.8174170412647
 30
0.0
 10
3.118880696180687
 20
371.7311335517992
 30
0.0
 10
3.063662392679328
 20
372.1879918070665
 30
0.0
  0
SPLINE
  5
197
330
1F
100
AcDbEntity
  8
0
  6
Continuous
 62
     7
370
    15
100
AcDbSpline
210
0.0
220
0.0
230
1.0
 70
     8
 71
     3
 72
     9
 73
     5
 74
     0
 42
0.000000001
 43
0.00000001
 40
0.0
 40
0.0
 40
0.0
 40
0.0
 40
0.4999999261480415
 40
1.0
 40
1.0
 40
1.0
 40
1.0
 10
3.063662785285942
 20
372.1879924450698
 30
0.0
 10
3.481285271967644
 20
372.8676669107464
 30
0.0
 10
4.31653036869975
 20
374.2270160428807
 30
0.0
 10
4.995883569033549
 20
374.8160594731646
 30
0.0
 10
5.335560219372065
 20
375.1105812318083
 30
0.0
  0
SPLINE
  5
198
330
1F
100
AcDbEntity
  8
0
  6
Continuous
 62
     7
370
    15
100
AcDbSpline
210
0.0
220
0.0
230
1.0
 70
     8
 71
     3
 72
     9
 73
     5
 74
     0
 42
0.000000001
 43
0.00000001
 40
0.0
 40
0.0
 40
0.0
 40
0.0
 40
0.4804158168807499
 40
1.0
 40
1.0
 40
1.0
 40
1.0
 10
5.335560219371899
 20
375.1105812318083
 30
0.0
 10
5.398972727007373
 20
375.1638559741608
 30
0.0
 10
5.530967772564427
 20
375.274748955783
 30
0.0
 10
5.421758406822658
 20
375.2965239702129
 30
0.0
 10
5.365014947734753
 20
375.307837923298
 30
0.0
  0
LINE
  5
199
330
1F
100
AcDbEntity
  8
0
  6
Continuous
 62
     7
370
    15
100
AcDbLine
 10
431.0082730285
 20
375.3078379233
 30
0.0
 11
5.3650149477
 21
375.3078379233
 31
0.0
  0
SPLINE
  5
19A
330
1F
100
AcDbEntity
  8
0
  6
Continuous
 62
     7
370
    15
100
AcDbSpline
210
0.0
220
0.0
230
1.0
 70
     8
 71
     3
 72
     9
 73
     5
 74
     0
 42
0.000000001
 43
0.00000001
 40
0.0
 40
0.0
 40
0.0
 40
0.0
 40
0.5000000000000021
 40
1.0
 40
1.0
 40
1.0
 40
1.0
 10
2.477818566633788
 20
369.3078379232991
 30
0.0
 10
2.473658833507447
 20
369.55943444296
 30
0.0
 10
2.465339367254821
 20
370.0626274822817
 30
0.0
 10
2.410121063753517
 20
370.5194857375489
 30
0.0
 10
2.38251191200281
 20
370.7479148651826
 30
0.0
  0
LINE
  5
19B
330
1F
100
AcDbEntity
  8
0
  6
Continuous
 62
     7
370
    15
100
AcDbLine
 10
3.0636623023
 20
372.1879924451
 30
0.0
 11
2.3825118668
 21
370.7479151842
 31
0.0
  0
LINE
  5
19C
330
1F
100
AcDbEntity
  8
0
  6
Continuous
 62
     7
370
    15
100
AcDbLine
 10
3.2542757019
 20
369.3078379233
 30
0.0
 11
3.2542757019
 21
331.3078379233
 31
0.0
  0
LINE
  5
19D
330
1F
100
AcDbEntity
  8
0
  6
Continuous
 62
     7
370
    15
100
AcDbLine
 10
2.4778185666
 20
369.3078379233
 30
0.0
 11
2.4778185666
 21
331.3078379233
 31
0.0
  0
LINE
  5
19E
330
1F
100
AcDbEntity
  8
0
  6
Continuous
 62
     7
370
    15
100
AcDbLine
 10
436.0103371368
 20
369.3078379233
 30
0.0
 11
436.0103371368
 21
331.3078379233
 31
0.0
  0
ARC
  5
19F
330
1F
100
AcDbEntity
  8
0
  6
Continuous
 62
     7
370
    15
100
AcDbCircle
 10
-1.0023017637
 20
330.6080783969
 30
0.0
 40
3.549774768693508
100
AcDbArc
 50
319.609308093
 51
11.3690545089
  0
LWPOLYLINE
  5
1A0
330
1F
100
AcDbEntity
  8
0
  6
Continuous
 62
     7
370
    15
100
AcDbPolyline
 90
        9
 70
   128
 43
0.0
 10
3.2542757019
 20
331.3078379233
 10
3.2244368897
 20
330.1372959912
 10
3.1360671417
 20
329.0117373291
 10
2.9925624579
 20
327.9744165252
 10
2.7994376427
 20
327.0651972362
 10
2.5641143745
 20
326.3190202495
 10
2.2956359946
 20
325.7645607282
 10
2.0043199764
 20
325.4231262409
 10
1.7013614313
 20
325.3078379233
  0
SPLINE
  5
1A1
330
1F
100
AcDbEntity
  8
0
  6
Continuous
 62
     7
370
    15
100
AcDbSpline
210
0.0
220
0.0
230
1.0
 70
     8
 71
     3
 72
    12
 73
     8
 74
     0
 42
0.000000001
 43
0.00000001
 40
0.0
 40
0.0
 40
0.0
 40
0.0
 40
0.2236662927232397
 40
0.4473652340298687
 40
0.6710643129072977
 40
0.8947631849462325
 40
1.0
 40
1.0
 40
1.0
 40
1.0
 10
431.8020990269399
 20
325.307837923299
 30
0.0
 10
432.1820251838666
 20
325.3798781394145
 30
0.0
 10
432.9419329555661
 20
325.5239690873605
 30
0.0
 10
434.0157673722902
 20
326.6443146876235
 30
0.0
 10
434.9615849328049
 20
328.281078326617
 30
0.0
 10
435.6100360236595
 20
329.9494155114118
 30
0.0
 10
435.9133102315985
 20
330.9785769788176
 30
0.0
 10
436.0103371368077
 20
331.3078379232991
 30
0.0
  0
LINE
  5
1A2
330
1F
100
AcDbEntity
  8
0
  6
Continuous
 62
     7
370
    15
100
AcDbLine
 10
50.2172210424
 20
325.3078379233
 30
0.0
 11
1.7013614313
 21
325.3078379233
 31
0.0
  0
SPLINE
  5
1A3
330
1F
100
AcDbEntity
  8
0
  6
Continuous
 62
     7
370
    15
100
AcDbSpline
210
0.0
220
0.0
230
1.0
 70
     8
 71
     3
 72
     9
 73
     5
 74
     0
 42
0.000000001
 43
0.00000001
 40
0.0
 40
0.0
 40
0.0
 40
0.0
 40
0.5195841831192161
 40
1.0
 40
1.0
 40
1.0
 40
1.0
 10
3.527897640647565
 20
375.3078379232991
 30
0.0
 10
3.257590969242413
 20
375.296523970214
 30
0.0
 10
2.737354441289503
 20
375.2747489557837
 30
0.0
 10
2.352604448669498
 20
375.1638559741615
 30
0.0
 10
2.167764466670135
 20
375.1105812318091
 30
0.0
  0
SPLINE
  5
1A4
330
1F
100
AcDbEntity
  8
0
  6
Continuous
 62
     7
370
    15
100
AcDbSpline
210
0.0
220
0.0
230
1.0
 70
     8
 71
     3
 72
     9
 73
     5
 74
     0
 42
0.000000001
 43
0.00000001
 40
0.0
 40
0.0
 40
0.0
 40
0.0
 40
0.4999995842651714
 40
1.0
 40
1.0
 40
1.0
 40
1.0
 10
2.167761370631433
 20
375.1105801906714
 30
0.0
 10
1.565251673921991
 20
374.8160585548147
 30
0.0
 10
0.3602312785652984
 20
374.227014793329
 30
0.0
 10
-0.2629932419164482
 20
372.8676665125729
 30
0.0
 10
-0.5746057612534272
 20
372.1879918070665
 30
0.0
  0
SPLINE
  5
1A5
330
1F
100
AcDbEntity
  8
0
  6
Continuous
 62
     7
370
    15
100
AcDbSpline
210
0.0
220
0.0
230
1.0
 70
     8
 71
     3
 72
     9
 73
     5
 74
     0
 42
0.000000001
 43
0.00000001
 40
0.0
 40
0.0
 40
0.0
 40
0.0
 40
0.4999998795852422
 40
1.0
 40
1.0
 40
1.0
 40
1.0
 10
-0.5746060984701817
 20
372.1879911690579
 30
0.0
 10
-0.7806834723639577
 20
371.7311331181058
 30
0.0
 10
-1.192838319410389
 20
370.8174167961517
 30
0.0
 10
-1.254935645497141
 20
369.8110309617059
 30
0.0
 10
-1.285984316018035
 20
369.3078379232992
 30
0.0
  0
ARC
  5
1A6
330
1F
100
AcDbEntity
  8
0
  6
Continuous
 62
     7
370
    15
100
AcDbCircle
 10
-4.779695794
 20
369.4083188705
 30
0.0
 40
5.900436116588466
100
AcDbArc
 50
91.0101851092
 51
180.9757604995
  0
LINE
  5
1A7
330
1F
100
AcDbEntity
  8
0
  6
Continuous
 62
     7
370
    15
100
AcDbLine
 10
3.5278976406
 20
375.3078379233
 30
0.0
 11
-4.8837213252
 21
375.3078379233
 31
0.0
  0
LINE
  5
1A8
330
1F
100
AcDbEntity
  8
0
  6
Continuous
 62
     7
370
    15
100
AcDbLine
 10
-0.5746060985
 20
372.1879911691
 30
0.0
 11
1.9674822716
 21
370.7479145462
 31
0.0
  0
SPLINE
  5
1A9
330
1F
100
AcDbEntity
  8
0
  6
Continuous
 62
     7
370
    15
100
AcDbSpline
210
0.0
220
0.0
230
1.0
 70
     8
 71
     3
 72
     9
 73
     5
 74
     0
 42
0.000000001
 43
0.00000001
 40
0.0
 40
0.0
 40
0.0
 40
0.0
 40
0.4999998795852256
 40
1.0
 40
1.0
 40
1.0
 40
1.0
 10
1.967482271623106
 20
370.7479145461785
 30
0.0
 10
1.864443584676218
 20
370.5194855207025
 30
0.0
 10
1.658366161152919
 20
370.0626273597255
 30
0.0
 10
1.627317498109598
 20
369.5594344425025
 30
0.0
 10
1.611793162849179
 20
369.3078379232992
 30
0.0
  0
LINE
  5
1AA
330
1F
100
AcDbEntity
  8
0
  6
Continuous
 62
     7
370
    15
100
AcDbLine
 10
-1.285984316
 20
369.3078379233
 30
0.0
 11
-1.285984316
 21
325.3078379233
 31
0.0
  0
LINE
  5
1AB
330
1F
100
AcDbEntity
  8
0
  6
Continuous
 62
     7
370
    15
100
AcDbLine
 10
-10.6792762829
 20
325.3078379233
 30
0.0
 11
-1.285984316
 21
325.3078379233
 31
0.0
  0
LINE
  5
1AC
330
1F
100
AcDbEntity
  8
0
  6
Continuous
 62
     7
370
    15
100
AcDbLine
 10
-10.6792762829
 20
369.3078379233
 30
0.0
 11
-10.6792762829
 21
325.3078379233
 31
0.0
  0
LINE
  5
1AD
330
1F
100
AcDbEntity
  8
0
  6
Continuous
 62
     7
370
    15
100
AcDbLine
 10
1.6117931628
 20
369.3078379233
 30
0.0
 11
1.6117931628
 21
325.3078379233
 31
0.0
  0
LINE
  5
1AE
330
1F
100
AcDbEntity
  8
0
  6
Continuous
 62
     7
370
    15
100
AcDbLine
 10
1.6117931628
 20
325.3078379233
 30
0.0
 11
-1.285984316
 21
325.3078379233
 31
0.0
  0
SPLINE
  5
1AF
330
1F
100
AcDbEntity
  8
0
  6
Continuous
 62
     7
370
    15
100
AcDbSpline
210
0.0
220
0.0
230
1.0
 70
     8
 71
     3
 72
     9
 73
     5
 74
     0
 42
0.000000001
 43
0.00000001
 40
0.0
 40
0.0
 40
0.0
 40
0.0
 40
0.4999995823344656
 40
1.0
 40
1.0
 40
1.0
 40
1.0
 10
2.904684627289406
 20
372.2092090569853
 30
0.0
 10
2.675759947643935
 20
372.0619482383388
 30
0.0
 10
2.21791020589715
 20
371.7674263550225
 30
0.0
 10
2.050958408606834
 20
371.0877522177137
 30
0.0
 10
1.967482440231566
 20
370.7479148651828
 30
0.0
  0
LINE
  5
1B0
330
1F
100
AcDbEntity
  8
0
  6
Continuous
 62
     7
370
    15
100
AcDbLine
 10
1.7013614313
 20
325.3078379233
 30
0.0
 11
1.6117931628
 21
325.3078379233
 31
0.0
  0
LINE
  5
1B1
330
1F
100
AcDbEntity
  8
0
  6
Continuous
 62
     7
370
    15
100
AcDbLine
 10
1.7013614313
 20
328.3078379233
 30
0.0
 11
1.6117931628
 21
328.3078379233
 31
0.0
  0
LINE
  5
1B2
330
1F
100
AcDbEntity
  8
0
  6
Continuous
 62
     7
370
    15
100
AcDbLine
 10
3.5278976406
 20
375.3078379233
 30
0.0
 11
5.3650149477
 21
375.3078379233
 31
0.0
  0
SPLINE
  5
1B3
330
1F
100
AcDbEntity
  8
0
  6
Continuous
 62
     7
370
    15
100
AcDbSpline
210
0.0
220
0.0
230
1.0
 70
     8
 71
     3
 72
     9
 73
     5
 74
     0
 42
0.000000001
 43
0.00000001
 40
0.0
 40
0.0
 40
0.0
 40
0.0
 40
0.4999999221309188
 40
1.0
 40
1.0
 40
1.0
 40
1.0
 10
438.0450172037983
 20
372.1034449093722
 30
0.0
 10
437.4799973135422
 20
372.8127276400664
 30
0.0
 10
436.3499573570398
 20
374.2312933223797
 30
0.0
 10
434.5847759889924
 20
374.8288888809093
 30
0.0
 10
433.7021851675156
 20
375.1276867067083
 30
0.0
  0
LINE
  5
1B4
330
1F
100
AcDbEntity
  8
0
  6
Continuous
 62
     7
370
    15
100
AcDbLine
 10
438.0450172906
 20
372.1034449094
 30
0.0
 11
435.9421817522
 21
370.9790362791
 31
0.0
  0
LINE
  5
1B5
330
1F
100
AcDbEntity
  8
0
  6
Continuous
 62
     7
370
    15
100
AcDbLine
 10
436.0103371368
 20
331.3078379233
 30
0.0
 11
438.7256028689
 21
331.3078379233
 31
0.0
  0
SPLINE
  5
1B6
330
1F
100
AcDbEntity
  8
0
  6
Continuous
 62
     7
370
    15
100
AcDbSpline
210
0.0
220
0.0
230
1.0
 70
     8
 71
     3
 72
    12
 73
     8
 74
     0
 42
0.000000001
 43
0.00000001
 40
0.0
 40
0.0
 40
0.0
 40
0.0
 40
0.2236662927233764
 40
0.4473652340301036
 40
0.6710643129076537
 40
0.8947631849467002
 40
1.0
 40
1.0
 40
1.0
 40
1.0
 10
438.7256028688834
 20
331.3078379232991
 30
0.0
 10
438.6190546490508
 20
330.6050848251883
 30
0.0
 10
438.4059426565349
 20
329.1994760480512
 30
0.0
 10
437.1957840710431
 20
327.3465677364028
 30
0.0
 10
435.4771106425313
 20
325.9870396606772
 30
0.0
 10
433.7459957590464
 20
325.3755691867223
 30
0.0
 10
432.6803363976654
 20
325.3242549520306
 30
0.0
 10
432.3393986352877
 20
325.307837923299
 30
0.0
  0
SPLINE
  5
1B7
330
1F
100
AcDbEntity
  8
0
  6
Continuous
 62
     7
370
    15
100
AcDbSpline
210
0.0
220
0.0
230
1.0
 70
     8
 71
     3
 72
     9
 73
     5
 74
     0
 42
0.000000001
 43
0.00000001
 40
0.0
 40
0.0
 40
0.0
 40
0.0
 40
0.5000000000000022
 40
1.0
 40
1.0
 40
1.0
 40
1.0
 10
438.7256028688832
 20
369.307837923299
 30
0.0
 10
438.6959837105173
 20
369.7948104898515
 30
0.0
 10
438.6367453937855
 20
370.7687556229563
 30
0.0
 10
438.2422602344662
 20
371.658548012392
 30
0.0
 10
438.0450176548065
 20
372.1034442071099
 30
0.0
  0
SPLINE
  5
1B8
330
1F
100
AcDbEntity
  8
0
  6
Continuous
 62
     7
370
    15
100
AcDbSpline
210
0.0
220
0.0
230
1.0
 70
     8
 71
     3
 72
     9
 73
     5
 74
     0
 42
0.000000001
 43
0.00000001
 40
0.0
 40
0.0
 40
0.0
 40
0.0
 40
0.4824500894379026
 40
1.0
 40
1.0
 40
1.0
 40
1.0
 10
433.7021851675157
 20
375.1276867067083
 30
0.0
 10
433.4674305406215
 20
375.1767934878517
 30
0.0
 10
432.9808421203196
 20
375.2785797289955
 30
0.0
 10
432.4641193335437
 20
375.2978596183092
 30
0.0
 10
432.1966895014625
 20
375.307837923299
 30
0.0
  0
LINE
  5
1B9
330
1F
100
AcDbEntity
  8
0
  6
Continuous
 62
     7
370
    15
100
AcDbLine
 10
438.7256028689
 20
331.3078379233
 30
0.0
 11
438.7256028689
 21
369.3078379233
 31
0.0
  0
LINE
  5
1BA
330
1F
100
AcDbEntity
  8
0
  6
Continuous
 62
     7
370
    15
100
AcDbLine
 10
431.0082730285
 20
375.3078379233
 30
0.0
 11
432.1966895015
 21
375.3078379233
 31
0.0
  0
SPLINE
  5
1BB
330
1F
100
AcDbEntity
  8
0
  6
Continuous
 62
     7
370
    15
100
AcDbSpline
210
0.0
220
0.0
230
1.0
 70
     8
 71
     3
 72
     9
 73
     5
 74
     0
 42
0.000000001
 43
0.00000001
 40
0.0
 40
0.0
 40
0.0
 40
0.0
 40
0.5000000000000021
 40
1.0
 40
1.0
 40
1.0
 40
1.0
 10
2.477818566633788
 20
-68.69216207670101
 30
0.0
 10
2.473658833507447
 20
-68.9437585963619
 30
0.0
 10
2.465339367254821
 20
-69.44695163568356
 30
0.0
 10
2.410121063753517
 20
-69.90380989095077
 30
0.0
 10
2.38251191200281
 20
-70.13223901858437
 30
0.0
  0
SPLINE
  5
1BC
330
1F
100
AcDbEntity
  8
0
  6
Continuous
 62
     7
370
    15
100
AcDbSpline
210
0.0
220
0.0
230
1.0
 70
     8
 71
     3
 72
     9
 73
     5
 74
     0
 42
0.000000001
 43
0.00000001
 40
0.0
 40
0.0
 40
0.0
 40
0.0
 40
0.4999999999999932
 40
0.9999999999999999
 40
0.9999999999999999
 40
0.9999999999999999
 40
0.9999999999999999
 10
3.25427570194134
 20
-68.69216207670104
 30
0.0
 10
3.245956235688658
 20
-69.19535511602284
 30
0.0
 10
3.229317303183294
 20
-70.20174119466657
 30
0.0
 10
3.118880696180631
 20
-71.11545770520108
 30
0.0
 10
3.063662392679328
 20
-71.57231596046834
 30
0.0
  0
LINE
  5
1BD
330
1F
100
AcDbEntity
  8
0
  6
Continuous
 62
     7
370
    15
100
AcDbLine
 10
3.0636623023
 20
-71.5723165985
 30
0.0
 11
2.3825118668
 21
-70.1322393376
 31
0.0
  0
SPLINE
  5
1BE
330
1F
100
AcDbEntity
  8
0
  6
Continuous
 62
     7
370
    15
100
AcDbSpline
210
0.0
220
0.0
230
1.0
 70
     8
 71
     3
 72
     9
 73
     5
 74
     0
 42
0.000000001
 43
0.00000001
 40
0.0
 40
0.0
 40
0.0
 40
0.0
 40
0.4804158168807499
 40
1.0
 40
1.0
 40
1.0
 40
1.0
 10
5.335560219371899
 20
-74.4949053852102
 30
0.0
 10
5.398972727007373
 20
-74.54818012756259
 30
0.0
 10
5.530967772564427
 20
-74.65907310918476
 30
0.0
 10
5.421758406822658
 20
-74.68084812361478
 30
0.0
 10
5.365014947734753
 20
-74.69216207669982
 30
0.0
  0
SPLINE
  5
1BF
330
1F
100
AcDbEntity
  8
0
  6
Continuous
 62
     7
370
    15
100
AcDbSpline
210
0.0
220
0.0
230
1.0
 70
     8
 71
     3
 72
     9
 73
     5
 74
     0
 42
0.000000001
 43
0.00000001
 40
0.0
 40
0.0
 40
0.0
 40
0.0
 40
0.4999999261480415
 40
1.0
 40
1.0
 40
1.0
 40
1.0
 10
3.063662785285942
 20
-71.57231659847163
 30
0.0
 10
3.481285271967644
 20
-72.2519910641482
 30
0.0
 10
4.31653036869975
 20
-73.61134019628257
 30
0.0
 10
4.995883569033549
 20
-74.20038362656636
 30
0.0
 10
5.335560219372065
 20
-74.4949053852102
 30
0.0
  0
SPLINE
  5
1C0
330
1F
100
AcDbEntity
  8
0
  6
Continuous
 62
     7
370
    15
100
AcDbSpline
210
0.0
220
0.0
230
1.0
 70
     8
 71
     3
 72
     9
 73
     5
 74
     0
 42
0.000000001
 43
0.00000001
 40
0.0
 40
0.0
 40
0.0
 40
0.0
 40
0.4999998642094101
 40
1.0
 40
1.0
 40
1.0
 40
1.0
 10
435.8314714440658
 20
-71.48776765824178
 30
0.0
 10
435.8833090710033
 20
-71.04287168905729
 30
0.0
 10
435.9869843530343
 20
-70.15307950903734
 30
0.0
 10
436.00255287414
 20
-69.17913464231488
 30
0.0
 10
436.0103371368069
 20
-68.69216207670107
 30
0.0
  0
SPLINE
  5
1C1
330
1F
100
AcDbEntity
  8
0
  6
Continuous
 62
     7
370
    15
100
AcDbSpline
210
0.0
220
0.0
230
1.0
 70
     8
 71
     3
 72
     9
 73
     5
 74
     0
 42
0.000000001
 43
0.00000001
 40
0.0
 40
0.0
 40
0.0
 40
0.0
 40
0.4999995434582313
 40
1.0
 40
1.0
 40
1.0
 40
1.0
 10
431.7666101564027
 20
-74.51200972840199
 30
0.0
 10
432.4858169763233
 20
-74.21321201705977
 30
0.0
 10
433.9242319295575
 20
-73.61561604872027
 30
0.0
 10
435.1957244884281
 20
-72.19705135500237
 30
0.0
 10
435.8314713483529
 20
-71.48776836050943
 30
0.0
  0
SPLINE
  5
1C2
330
1F
100
AcDbEntity
  8
0
  6
Continuous
 62
     7
370
    15
100
AcDbSpline
210
0.0
220
0.0
230
1.0
 70
     8
 71
     3
 72
     9
 73
     5
 74
     0
 42
0.000000001
 43
0.00000001
 40
0.0
 40
0.0
 40
0.0
 40
0.0
 40
0.5175499105621403
 40
0.9999999999999999
 40
0.9999999999999999
 40
0.9999999999999999
 40
0.9999999999999999
 10
431.0082730285287
 20
-74.6921620766997
 30
0.0
 10
431.0930647498512
 20
-74.68218377170984
 30
0.0
 10
431.2568976857521
 20
-74.6629038823963
 30
0.0
 10
431.6007261050047
 20
-74.56111764125222
 30
0.0
 10
431.7666061566244
 20
-74.51201086010877
 30
0.0
  0
LINE
  5
1C3
330
1F
100
AcDbEntity
  8
0
  6
Continuous
 62
     7
370
    15
100
AcDbLine
 10
431.0082730285
 20
-74.6921620767
 30
0.0
 11
5.3650149477
 21
-74.6921620767
 31
0.0
  0
LWPOLYLINE
  5
1C4
330
1F
100
AcDbEntity
  8
0
  6
Continuous
 62
     7
370
    15
100
AcDbPolyline
 90
        9
 70
   128
 43
0.0
 10
3.2542757019
 20
-30.6921620767
 10
3.2244368897
 20
-29.5216201446
 10
3.1360671417
 20
-28.3960614825
 10
2.9925624579
 20
-27.3587406786
 10
2.7994376427
 20
-26.4495213896
 10
2.5641143745
 20
-25.7033444029
 10
2.2956359946
 20
-25.1488848816
 10
2.0043199764
 20
-24.8074503943
 10
1.7013614313
 20
-24.6921620767
  0
LINE
  5
1C5
330
1F
100
AcDbEntity
  8
0
  6
Continuous
 62
     7
370
    15
100
AcDbLine
 10
50.2172210424
 20
-24.6921620767
 30
0.0
 11
1.7013614313
 21
-24.6921620767
 31
0.0
  0
SPLINE
  5
1C6
330
1F
100
AcDbEntity
  8
0
  6
Continuous
 62
     7
370
    15
100
AcDbSpline
210
0.0
220
0.0
230
1.0
 70
     8
 71
     3
 72
    12
 73
     8
 74
     0
 42
0.000000001
 43
0.00000001
 40
0.0
 40
0.0
 40
0.0
 40
0.0
 40
0.2236662927232397
 40
0.4473652340298687
 40
0.6710643129072977
 40
0.8947631849462325
 40
1.0
 40
1.0
 40
1.0
 40
1.0
 10
431.8020990269399
 20
-24.69216207670089
 30
0.0
 10
432.1820251838666
 20
-24.76420229281634
 30
0.0
 10
432.9419329555661
 20
-24.90829324076235
 30
0.0
 10
434.0157673722902
 20
-26.02863884102538
 30
0.0
 10
434.9615849328049
 20
-27.66540248001886
 30
0.0
 10
435.6100360236595
 20
-29.33373966481359
 30
0.0
 10
435.9133102315985
 20
-30.36290113221943
 30
0.0
 10
436.0103371368077
 20
-30.692162076701
 30
0.0
  0
LINE
  5
1C7
330
1F
100
AcDbEntity
  8
0
  6
Continuous
 62
     7
370
    15
100
AcDbLine
 10
3.2542757019
 20
-68.6921620767
 30
0.0
 11
3.2542757019
 21
-30.6921620767
 31
0.0
  0
LINE
  5
1C8
330
1F
100
AcDbEntity
  8
0
  6
Continuous
 62
     7
370
    15
100
AcDbLine
 10
436.0103371368
 20
-68.6921620767
 30
0.0
 11
436.0103371368
 21
-30.6921620767
 31
0.0
  0
ARC
  5
1C9
330
1F
100
AcDbEntity
  8
0
  6
Continuous
 62
     7
370
    15
100
AcDbCircle
 10
-1.0023017637
 20
-29.9924025503
 30
0.0
 40
3.549774768693332
100
AcDbArc
 50
348.6309454911
 51
40.390691907
  0
LINE
  5
1CA
330
1F
100
AcDbEntity
  8
0
  6
Continuous
 62
     7
370
    15
100
AcDbLine
 10
2.4778185666
 20
-68.6921620767
 30
0.0
 11
2.4778185666
 21
-30.6921620767
 31
0.0
  0
ARC
  5
1CB
330
1F
100
AcDbEntity
  8
0
  6
Continuous
 62
     7
370
    15
100
AcDbCircle
 10
-4.779695794
 20
-68.7926430239
 30
0.0
 40
5.900436116588459
100
AcDbArc
 50
179.0242395005
 51
268.9898148908
  0
SPLINE
  5
1CC
330
1F
100
AcDbEntity
  8
0
  6
Continuous
 62
     7
370
    15
100
AcDbSpline
210
0.0
220
0.0
230
1.0
 70
     8
 71
     3
 72
     9
 73
     5
 74
     0
 42
0.000000001
 43
0.00000001
 40
0.0
 40
0.0
 40
0.0
 40
0.0
 40
0.4999998795852422
 40
1.0
 40
1.0
 40
1.0
 40
1.0
 10
-0.5746060984701817
 20
-71.57231532245973
 30
0.0
 10
-0.7806834723639577
 20
-71.1154572715077
 30
0.0
 10
-1.192838319410389
 20
-70.20174094955361
 30
0.0
 10
-1.254935645497141
 20
-69.19535511510772
 30
0.0
 10
-1.285984316018035
 20
-68.6921620767011
 30
0.0
  0
SPLINE
  5
1CD
330
1F
100
AcDbEntity
  8
0
  6
Continuous
 62
     7
370
    15
100
AcDbSpline
210
0.0
220
0.0
230
1.0
 70
     8
 71
     3
 72
     9
 73
     5
 74
     0
 42
0.000000001
 43
0.00000001
 40
0.0
 40
0.0
 40
0.0
 40
0.0
 40
0.4999995842651714
 40
1.0
 40
1.0
 40
1.0
 40
1.0
 10
2.167761370631433
 20
-74.4949043440733
 30
0.0
 10
1.565251673921991
 20
-74.2003827082165
 30
0.0
 10
0.3602312785652984
 20
-73.61133894673083
 30
0.0
 10
-0.2629932419164482
 20
-72.25199066597476
 30
0.0
 10
-0.5746057612534272
 20
-71.57231596046834
 30
0.0
  0
SPLINE
  5
1CE
330
1F
100
AcDbEntity
  8
0
  6
Continuous
 62
     7
370
    15
100
AcDbSpline
210
0.0
220
0.0
230
1.0
 70
     8
 71
     3
 72
     9
 73
     5
 74
     0
 42
0.000000001
 43
0.00000001
 40
0.0
 40
0.0
 40
0.0
 40
0.0
 40
0.5195841831192161
 40
1.0
 40
1.0
 40
1.0
 40
1.0
 10
3.527897640647565
 20
-74.69216207670098
 30
0.0
 10
3.257590969242413
 20
-74.68084812361577
 30
0.0
 10
2.737354441289503
 20
-74.65907310918557
 30
0.0
 10
2.352604448669498
 20
-74.54818012756331
 30
0.0
 10
2.167764466670135
 20
-74.49490538521088
 30
0.0
  0
LINE
  5
1CF
330
1F
100
AcDbEntity
  8
0
  6
Continuous
 62
     7
370
    15
100
AcDbLine
 10
3.5278976406
 20
-74.6921620767
 30
0.0
 11
-4.8837213252
 21
-74.6921620767
 31
0.0
  0
SPLINE
  5
1D0
330
1F
100
AcDbEntity
  8
0
  6
Continuous
 62
     7
370
    15
100
AcDbSpline
210
0.0
220
0.0
230
1.0
 70
     8
 71
     3
 72
     9
 73
     5
 74
     0
 42
0.000000001
 43
0.00000001
 40
0.0
 40
0.0
 40
0.0
 40
0.0
 40
0.4999998795852256
 40
1.0
 40
1.0
 40
1.0
 40
1.0
 10
1.967482271623106
 20
-70.13223869958033
 30
0.0
 10
1.864443584676218
 20
-69.90380967410431
 30
0.0
 10
1.658366161152919
 20
-69.44695151312736
 30
0.0
 10
1.627317498109598
 20
-68.94375859590434
 30
0.0
 10
1.611793162849179
 20
-68.69216207670104
 30
0.0
  0
LINE
  5
1D1
330
1F
100
AcDbEntity
  8
0
  6
Continuous
 62
     7
370
    15
100
AcDbLine
 10
-0.5746060985
 20
-71.5723153225
 30
0.0
 11
1.9674822716
 21
-70.1322386996
 31
0.0
  0
LINE
  5
1D2
330
1F
100
AcDbEntity
  8
0
  6
Continuous
 62
     7
370
    15
100
AcDbLine
 10
1.6117931628
 20
-24.6921620767
 30
0.0
 11
-1.285984316
 21
-24.6921620767
 31
0.0
  0
LINE
  5
1D3
330
1F
100
AcDbEntity
  8
0
  6
Continuous
 62
     7
370
    15
100
AcDbLine
 10
1.6117931628
 20
-68.6921620767
 30
0.0
 11
1.6117931628
 21
-24.6921620767
 31
0.0
  0
LINE
  5
1D4
330
1F
100
AcDbEntity
  8
0
  6
Continuous
 62
     7
370
    15
100
AcDbLine
 10
-1.285984316
 20
-68.6921620767
 30
0.0
 11
-1.285984316
 21
-24.6921620767
 31
0.0
  0
LINE
  5
1D5
330
1F
100
AcDbEntity
  8
0
  6
Continuous
 62
     7
370
    15
100
AcDbLine
 10
-10.6792762829
 20
-68.6921620767
 30
0.0
 11
-10.6792762829
 21
-24.6921620767
 31
0.0
  0
LINE
  5
1D6
330
1F
100
AcDbEntity
  8
0
  6
Continuous
 62
     7
370
    15
100
AcDbLine
 10
-10.6792762829
 20
-24.6921620767
 30
0.0
 11
-1.285984316
 21
-24.6921620767
 31
0.0
  0
SPLINE
  5
1D7
330
1F
100
AcDbEntity
  8
0
  6
Continuous
 62
     7
370
    15
100
AcDbSpline
210
0.0
220
0.0
230
1.0
 70
     8
 71
     3
 72
     9
 73
     5
 74
     0
 42
0.000000001
 43
0.00000001
 40
0.0
 40
0.0
 40
0.0
 40
0.0
 40
0.4999995823344656
 40
1.0
 40
1.0
 40
1.0
 40
1.0
 10
2.904684627289406
 20
-71.59353321038711
 30
0.0
 10
2.675759947643935
 20
-71.44627239174065
 30
0.0
 10
2.21791020589715
 20
-71.15175050842431
 30
0.0
 10
2.050958408606834
 20
-70.47207637111552
 30
0.0
 10
1.967482440231566
 20
-70.13223901858467
 30
0.0
  0
LINE
  5
1D8
330
1F
100
AcDbEntity
  8
0
  6
Continuous
 62
     7
370
    15
100
AcDbLine
 10
1.7013614313
 20
-24.6921620767
 30
0.0
 11
1.6117931628
 21
-24.6921620767
 31
0.0
  0
LINE
  5
1D9
330
1F
100
AcDbEntity
  8
0
  6
Continuous
 62
     7
370
    15
100
AcDbLine
 10
1.7013614313
 20
-27.6921620767
 30
0.0
 11
1.6117931628
 21
-27.6921620767
 31
0.0
  0
LINE
  5
1DA
330
1F
100
AcDbEntity
  8
0
  6
Continuous
 62
     7
370
    15
100
AcDbLine
 10
3.5278976406
 20
-74.6921620767
 30
0.0
 11
5.3650149477
 21
-74.6921620767
 31
0.0
  0
LINE
  5
1DB
330
1F
100
AcDbEntity
  8
0
  6
Continuous
 62
     7
370
    15
100
AcDbLine
 10
438.0450172906
 20
-71.4877690628
 30
0.0
 11
435.9421817522
 21
-70.3633604325
 31
0.0
  0
SPLINE
  5
1DC
330
1F
100
AcDbEntity
  8
0
  6
Continuous
 62
     7
370
    15
100
AcDbSpline
210
0.0
220
0.0
230
1.0
 70
     8
 71
     3
 72
     9
 73
     5
 74
     0
 42
0.000000001
 43
0.00000001
 40
0.0
 40
0.0
 40
0.0
 40
0.0
 40
0.4999999221309211
 40
1.0
 40
1.0
 40
1.0
 40
1.0
 10
438.0450172037983
 20
-71.48776906277405
 30
0.0
 10
437.4799973135422
 20
-72.19705179346822
 30
0.0
 10
436.3499573570398
 20
-73.6156174757814
 30
0.0
 10
434.5847759889924
 20
-74.21321303431111
 30
0.0
 10
433.7021851675156
 20
-74.51201086011022
 30
0.0
  0
SPLINE
  5
1DD
330
1F
100
AcDbEntity
  8
0
  6
Continuous
 62
     7
370
    15
100
AcDbSpline
210
0.0
220
0.0
230
1.0
 70
     8
 71
     3
 72
    12
 73
     8
 74
     0
 42
0.000000001
 43
0.00000001
 40
0.0
 40
0.0
 40
0.0
 40
0.0
 40
0.2236662927233764
 40
0.4473652340301036
 40
0.6710643129076537
 40
0.8947631849467002
 40
1.0
 40
1.0
 40
1.0
 40
1.0
 10
438.7256028688834
 20
-30.69216207670092
 30
0.0
 10
438.6190546490508
 20
-29.98940897859015
 30
0.0
 10
438.4059426565349
 20
-28.58380020145301
 30
0.0
 10
437.1957840710431
 20
-26.73089188980471
 30
0.0
 10
435.4771106425313
 20
-25.37136381407901
 30
0.0
 10
433.7459957590464
 20
-24.75989334012413
 30
0.0
 10
432.6803363976654
 20
-24.70857910543248
 30
0.0
 10
432.3393986352877
 20
-24.69216207670089
 30
0.0
  0
LINE
  5
1DE
330
1F
100
AcDbEntity
  8
0
  6
Continuous
 62
     7
370
    15
100
AcDbLine
 10
436.0103371368
 20
-30.6921620767
 30
0.0
 11
438.7256028689
 21
-30.6921620767
 31
0.0
  0
SPLINE
  5
1DF
330
1F
100
AcDbEntity
  8
0
  6
Continuous
 62
     7
370
    15
100
AcDbSpline
210
0.0
220
0.0
230
1.0
 70
     8
 71
     3
 72
     9
 73
     5
 74
     0
 42
0.000000001
 43
0.00000001
 40
0.0
 40
0.0
 40
0.0
 40
0.0
 40
0.4824500894379026
 40
1.0
 40
1.0
 40
1.0
 40
1.0
 10
433.7021851675157
 20
-74.51201086011025
 30
0.0
 10
433.4674305406215
 20
-74.56111764125359
 30
0.0
 10
432.9808421203196
 20
-74.66290388239739
 30
0.0
 10
432.4641193335437
 20
-74.68218377171101
 30
0.0
 10
432.1966895014625
 20
-74.69216207670085
 30
0.0
  0
SPLINE
  5
1E0
330
1F
100
AcDbEntity
  8
0
  6
Continuous
 62
     7
370
    15
100
AcDbSpline
210
0.0
220
0.0
230
1.0
 70
     8
 71
     3
 72
     9
 73
     5
 74
     0
 42
0.000000001
 43
0.00000001
 40
0.0
 40
0.0
 40
0.0
 40
0.0
 40
0.5000000000000022
 40
1.0
 40
1.0
 40
1.0
 40
1.0
 10
438.7256028688832
 20
-68.6921620767009
 30
0.0
 10
438.6959837105173
 20
-69.17913464325335
 30
0.0
 10
438.6367453937855
 20
-70.15307977635821
 30
0.0
 10
438.2422602344662
 20
-71.04287216579385
 30
0.0
 10
438.0450176548065
 20
-71.4877683605118
 30
0.0
  0
LINE
  5
1E1
330
1F
100
AcDbEntity
  8
0
  6
Continuous
 62
     7
370
    15
100
AcDbLine
 10
438.7256028689
 20
-30.6921620767
 30
0.0
 11
438.7256028689
 21
-68.6921620767
 31
0.0
  0
LINE
  5
1E2
330
1F
100
AcDbEntity
  8
0
  6
Continuous
 62
     7
370
    15
100
AcDbLine
 10
431.0082730285
 20
-74.6921620767
 30
0.0
 11
432.1966895015
 21
-74.6921620767
 31
0.0
  0
ENDSEC
  0
SECTION
  2
OBJECTS
  0
DICTIONARY
  5
C
330
0
100
AcDbDictionary
281
     1
  3
ACAD_GROUP
350
D
  3
ACAD_LAYOUT
350
1A
  3
ACAD_MLINESTYLE
350
17
  3
ACAD_PLOTSETTINGS
350
19
  3
ACAD_PLOTSTYLENAME
350
E
  3
ACAD_SCALELIST
350
47
  0
DICTIONARY
  5
D
102
{ACAD_REACTORS
330
C
102
}
330
C
100
AcDbDictionary
281
     1
  0
DICTIONARY
  5
1A
102
{ACAD_REACTORS
330
C
102
}
330
C
100
AcDbDictionary
281
     1
  3
Layout1
350
1E
  3
Layout2
350
26
  3
Model
350
22
  0
DICTIONARY
  5
17
102
{ACAD_REACTORS
330
C
102
}
330
C
100
AcDbDictionary
281
     1
  3
Standard
350
18
  0
DICTIONARY
  5
19
102
{ACAD_REACTORS
330
C
102
}
330
C
100
AcDbDictionary
281
     1
  0
ACDBDICTIONARYWDFLT
  5
E
102
{ACAD_REACTORS
330
C
102
}
330
C
100
AcDbDictionary
281
     1
  3
Normal
350
F
100
AcDbDictionaryWithDefault
340
F
  0
DICTIONARY
  5
47
102
{ACAD_REACTORS
330
C
102
}
330
C
100
AcDbDictionary
281
     1
  3
A0
350
48
  3
A1
350
49
  3
A2
350
4A
  3
A3
350
4B
  3
A4
350
4C
  3
A5
350
4D
  3
A6
350
4E
  3
A7
350
4F
  3
A8
350
50
  3
A9
350
51
  3
B0
350
52
  3
B1
350
53
  3
B2
350
54
  3
B3
350
55
  3
B4
350
56
  3
B5
350
57
  3
B6
350
58
  3
B7
350
59
  3
B8
350
5A
  3
B9
350
5B
  3
C0
350
5C
  3
C1
350
5D
  3
C2
350
5E
  3
C3
350
5F
  3
C4
350
60
  3
C5
350
61
  3
C6
350
62
  3
C7
350
63
  3
C8
350
64
  3
C9
350
65
  3
D0
350
66
  3
D1
350
67
  3
D2
350
68
  0
LAYOUT
  5
1E
102
{ACAD_REACTORS
330
1A
102
}
330
1A
100
AcDbPlotSettings
  1

  2
none_device
  4

  6

 40
0.0
 41
0.0
 42
0.0
 43
0.0
 44
0.0
 45
0.0
 46
0.0
 47
0.0
 48
0.0
 49
0.0
140
0.0
141
0.0
142
1.0
143
1.0
 70
   688
 72
     1
 73
     0
 74
     5
  7

 75
    16
147
1.0
148
0.0
149
0.0
100
AcDbLayout
  1
Layout1
 70
     1
 71
     1
 10
0.0
 20
0.0
 11
420.0
 21
297.0
 12
0.0
 22
0.0
 32
0.0
 14
1.0000000000E+20
 24
1.0000000000E+20
 34
1.0000000000E+20
 15
-1.0000000000E+20
 25
-1.0000000000E+20
 35
-1.0000000000E+20
146
0.0
 13
0.0
 23
0.0
 33
0.0
 16
1.0
 26
0.0
 36
0.0
 17
0.0
 27
1.0
 37
0.0
 76
     0
330
1B
  0
LAYOUT
  5
26
102
{ACAD_REACTORS
330
1A
102
}
330
1A
100
AcDbPlotSettings
  1

  2
none_device
  4

  6

 40
0.0
 41
0.0
 42
0.0
 43
0.0
 44
0.0
 45
0.0
 46
0.0
 47
0.0
 48
0.0
 49
0.0
140
0.0
141
0.0
142
1.0
143
1.0
 70
   688
 72
     1
 73
     0
 74
     5
  7

 75
    16
147
1.0
148
0.0
149
0.0
100
AcDbLayout
  1
Layout2
 70
     1
 71
     2
 10
0.0
 20
0.0
 11
0.0
 21
0.0
 12
0.0
 22
0.0
 32
0.0
 14
0.0
 24
0.0
 34
0.0
 15
0.0
 25
0.0
 35
0.0
146
0.0
 13
0.0
 23
0.0
 33
0.0
 16
1.0
 26
0.0
 36
0.0
 17
0.0
 27
1.0
 37
0.0
 76
     0
330
23
  0
LAYOUT
  5
22
102
{ACAD_REACTORS
330
1A
102
}
330
1A
100
AcDbPlotSettings
  1

  2
none_device
  4
Letter_(8.50_x_11.00_Inches)
  6

 40
6.35
 41
6.35
 42
6.35000508
 43
6.35000508
 44
215.9
 45
279.4
 46
0.0
 47
0.0
 48
0.0
 49
0.0
140
0.0
141
0.0
142
1.0
143
1.0
 70
  1712
 72
     1
 73
     0
 74
     0
  7

 75
     0
147
1.0
148
0.0
149
0.0
100
AcDbLayout
  1
Model
 70
     1
 71
     0
 10
0.0
 20
0.0
 11
420.0
 21
297.0
 12
0.0
 22
0.0
 32
0.0
 14
0.0
 24
0.0
 34
0.0
 15
420.0
 25
297.0
 35
0.0
146
0.0
 13
0.0
 23
0.0
 33
0.0
 16
1.0
 26
0.0
 36
0.0
 17
0.0
 27
1.0
 37
0.0
 76
     0
330
1F
331
29
  0
MLINESTYLE
  5
18
102
{ACAD_REACTORS
330
17
102
}
330
17
100
AcDbMlineStyle
  2
Standard
 70
     0
  3

 62
   256
 51
90.0
 52
90.0
 71
     2
 49
0.5
 62
   256
  6
BYLAYER
 49
-0.5
 62
   256
  6
BYLAYER
  0
ACDBPLACEHOLDER
  5
F
102
{ACAD_REACTORS
330
E
102
}
330
E
  0
SCALE
  5
48
102
{ACAD_REACTORS
330
47
102
}
330
47
100
AcDbScale
 70
     0
300
1:1
140
1.0
141
1.0
290
     1
  0
SCALE
  5
49
102
{ACAD_REACTORS
330
47
102
}
330
47
100
AcDbScale
 70
     0
300
1:2
140
1.0
141
2.0
290
     0
  0
SCALE
  5
4A
102
{ACAD_REACTORS
330
47
102
}
330
47
100
AcDbScale
 70
     0
300
1:4
140
1.0
141
4.0
290
     0
  0
SCALE
  5
4B
102
{ACAD_REACTORS
330
47
102
}
330
47
100
AcDbScale
 70
     0
300
1:5
140
1.0
141
5.0
290
     0
  0
SCALE
  5
4C
102
{ACAD_REACTORS
330
47
102
}
330
47
100
AcDbScale
 70
     0
300
1:8
140
1.0
141
8.0
290
     0
  0
SCALE
  5
4D
102
{ACAD_REACTORS
330
47
102
}
330
47
100
AcDbScale
 70
     0
300
1:10
140
1.0
141
10.0
290
     0
  0
SCALE
  5
4E
102
{ACAD_REACTORS
330
47
102
}
330
47
100
AcDbScale
 70
     0
300
1:16
140
1.0
141
16.0
290
     0
  0
SCALE
  5
4F
102
{ACAD_REACTORS
330
47
102
}
330
47
100
AcDbScale
 70
     0
300
1:20
140
1.0
141
20.0
290
     0
  0
SCALE
  5
50
102
{ACAD_REACTORS
330
47
102
}
330
47
100
AcDbScale
 70
     0
300
1:30
140
1.0
141
30.0
290
     0
  0
SCALE
  5
51
102
{ACAD_REACTORS
330
47
102
}
330
47
100
AcDbScale
 70
     0
300
1:40
140
1.0
141
40.0
290
     0
  0
SCALE
  5
52
102
{ACAD_REACTORS
330
47
102
}
330
47
100
AcDbScale
 70
     0
300
1:50
140
1.0
141
50.0
290
     0
  0
SCALE
  5
53
102
{ACAD_REACTORS
330
47
102
}
330
47
100
AcDbScale
 70
     0
300
1:100
140
1.0
141
100.0
290
     0
  0
SCALE
  5
54
102
{ACAD_REACTORS
330
47
102
}
330
47
100
AcDbScale
 70
     0
300
2:1
140
2.0
141
1.0
290
     0
  0
SCALE
  5
55
102
{ACAD_REACTORS
330
47
102
}
330
47
100
AcDbScale
 70
     0
300
4:1
140
4.0
141
1.0
290
     0
  0
SCALE
  5
56
102
{ACAD_REACTORS
330
47
102
}
330
47
100
AcDbScale
 70
     0
300
8:1
140
8.0
141
1.0
290
     0
  0
SCALE
  5
57
102
{ACAD_REACTORS
330
47
102
}
330
47
100
AcDbScale
 70
     0
300
10:1
140
10.0
141
1.0
290
     0
  0
SCALE
  5
58
102
{ACAD_REACTORS
330
47
102
}
330
47
100
AcDbScale
 70
     0
300
100:1
140
100.0
141
1.0
290
     0
  0
SCALE
  5
59
102
{ACAD_REACTORS
330
47
102
}
330
47
100
AcDbScale
 70
     0
300
1/128" = 1'-0"
140
0.0078125
141
12.0
290
     0
  0
SCALE
  5
5A
102
{ACAD_REACTORS
330
47
102
}
330
47
100
AcDbScale
 70
     0
300
1/64" = 1'-0"
140
0.015625
141
12.0
290
     0
  0
SCALE
  5
5B
102
{ACAD_REACTORS
330
47
102
}
330
47
100
AcDbScale
 70
     0
300
1/32" = 1'-0"
140
0.03125
141
12.0
290
     0
  0
SCALE
  5
5C
102
{ACAD_REACTORS
330
47
102
}
330
47
100
AcDbScale
 70
     0
300
1/16" = 1'-0"
140
0.0625
141
12.0
290
     0
  0
SCALE
  5
5D
102
{ACAD_REACTORS
330
47
102
}
330
47
100
AcDbScale
 70
     0
300
3/32" = 1'-0"
140
0.09375
141
12.0
290
     0
  0
SCALE
  5
5E
102
{ACAD_REACTORS
330
47
102
}
330
47
100
AcDbScale
 70
     0
300
1/8" = 1'-0"
140
0.125
141
12.0
290
     0
  0
SCALE
  5
5F
102
{ACAD_REACTORS
330
47
102
}
330
47
100
AcDbScale
 70
     0
300
3/16" = 1'-0"
140
0.1875
141
12.0
290
     0
  0
SCALE
  5
60
102
{ACAD_REACTORS
330
47
102
}
330
47
100
AcDbScale
 70
     0
300
1/4" = 1'-0"
140
0.25
141
12.0
290
     0
  0
SCALE
  5
61
102
{ACAD_REACTORS
330
47
102
}
330
47
100
AcDbScale
 70
     0
300
3/8" = 1'-0"
140
0.375
141
12.0
290
     0
  0
SCALE
  5
62
102
{ACAD_REACTORS
330
47
102
}
330
47
100
AcDbScale
 70
     0
300
1/2" = 1'-0"
140
0.5
141
12.0
290
     0
  0
SCALE
  5
63
102
{ACAD_REACTORS
330
47
102
}
330
47
100
AcDbScale
 70
     0
300
3/4" = 1'-0"
140
0.75
141
12.0
290
     0
  0
SCALE
  5
64
102
{ACAD_REACTORS
330
47
102
}
330
47
100
AcDbScale
 70
     0
300
1" = 1'-0"
140
1.0
141
12.0
290
     0
  0
SCALE
  5
65
102
{ACAD_REACTORS
330
47
102
}
330
47
100
AcDbScale
 70
     0
300
1-1/2" = 1'-0"
140
1.5
141
12.0
290
     0
  0
SCALE
  5
66
102
{ACAD_REACTORS
330
47
102
}
330
47
100
AcDbScale
 70
     0
300
3" = 1'-0"
140
3.0
141
12.0
290
     0
  0
SCALE
  5
67
102
{ACAD_REACTORS
330
47
102
}
330
47
100
AcDbScale
 70
     0
300
6" = 1'-0"
140
6.0
141
12.0
290
     0
  0
SCALE
  5
68
102
{ACAD_REACTORS
330
47
102
}
330
47
100
AcDbScale
 70
     0
300
1'-0" = 1'-0"
140
12.0
141
12.0
290
     0
  0
ENDSEC
  0
EOF
