  0
SECTION
  2
HEADER
  9
$ACADVER
  1
AC1015
  9
$ACADMAINTVER
 70
     6
  9
$DWGCODEPAGE
  3
ANSI_1251
  9
$INSBASE
 10
0.0
 20
0.0
 30
0.0
  9
$EXTMIN
 10
-281.407078518
 20
-900.0
 30
0.0
  9
$EXTMAX
 10
298.0534485171
 20
900.0
 30
0.0
  9
$LIMMIN
 10
0.0
 20
0.0
  9
$LIMMAX
 10
420.0
 20
297.0
  9
$ORTHOMODE
 70
     0
  9
$REGENMODE
 70
     1
  9
$FILLMODE
 70
     1
  9
$QTEXTMODE
 70
     0
  9
$MIRRTEXT
 70
     1
  9
$LTSCALE
 40
1.0
  9
$ATTMODE
 70
     1
  9
$TEXTSIZE
 40
3.0
  9
$TRACEWID
 40
1.0
  9
$TEXTSTYLE
  7
Standard
  9
$CLAYER
  8
0
  9
$CELTYPE
  6
ByLayer
  9
$CECOLOR
 62
   256
  9
$CELTSCALE
 40
1.0
  9
$DISPSILH
 70
     0
  9
$DIMSCALE
 40
1.0
  9
$DIMASZ
 40
3.0
  9
$DIMEXO
 40
0.0
  9
$DIMDLI
 40
3.75
  9
$DIMRND
 40
0.0
  9
$DIMDLE
 40
0.0
  9
$DIMEXE
 40
2.0
  9
$DIMTP
 40
0.0
  9
$DIMTM
 40
0.0
  9
$DIMTXT
 40
3.0
  9
$DIMCEN
 40
2.5
  9
$DIMTSZ
 40
0.0
  9
$DIMTOL
 70
     0
  9
$DIMLIM
 70
     0
  9
$DIMTIH
 70
     1
  9
$DIMTOH
 70
     1
  9
$DIMSE1
 70
     0
  9
$DIMSE2
 70
     0
  9
$DIMTAD
 70
     1
  9
$DIMZIN
 70
     0
  9
$DIMBLK
  1

  9
$DIMASO
 70
     1
  9
$DIMSHO
 70
     1
  9
$DIMPOST
  1

  9
$DIMAPOST
  1

  9
$DIMALT
 70
     0
  9
$DIMALTD
 70
     3
  9
$DIMALTF
 40
0.0393700787
  9
$DIMLFAC
 40
1.0
  9
$DIMTOFL
 70
     1
  9
$DIMTVP
 40
0.0
  9
$DIMTIX
 70
     0
  9
$DIMSOXD
 70
     0
  9
$DIMSAH
 70
     0
  9
$DIMBLK1
  1

  9
$DIMBLK2
  1

  9
$DIMSTYLE
  2
ISO-25
  9
$DIMCLRD
 70
     0
  9
$DIMCLRE
 70
     0
  9
$DIMCLRT
 70
     0
  9
$DIMTFAC
 40
1.0
  9
$DIMGAP
 40
2.0
  9
$DIMJUST
 70
     0
  9
$DIMSD1
 70
     0
  9
$DIMSD2
 70
     0
  9
$DIMTOLJ
 70
     0
  9
$DIMTZIN
 70
     0
  9
$DIMALTZ
 70
     0
  9
$DIMALTTZ
 70
     0
  9
$DIMUPT
 70
     0
  9
$DIMDEC
 70
     2
  9
$DIMTDEC
 70
     2
  9
$DIMALTU
 70
     2
  9
$DIMALTTD
 70
     3
  9
$DIMTXSTY
  7
Standard
  9
$DIMAUNIT
 70
     0
  9
$DIMADEC
 70
     2
  9
$DIMALTRND
 40
0.0
  9
$DIMAZIN
 70
     0
  9
$DIMDSEP
 70
    44
  9
$DIMATFIT
 70
     3
  9
$DIMFRAC
 70
     0
  9
$DIMLDRBLK
  1

  9
$DIMLUNIT
 70
     2
  9
$DIMLWD
 70
    -2
  9
$DIMLWE
 70
    -2
  9
$DIMTMOVE
 70
     0
  9
$LUNITS
 70
     2
  9
$LUPREC
 70
     2
  9
$SKETCHINC
 40
1.0
  9
$FILLETRAD
 40
10.0
  9
$AUNITS
 70
     1
  9
$AUPREC
 70
     2
  9
$MENU
  1
.
  9
$ELEVATION
 40
0.0
  9
$PELEVATION
 40
0.0
  9
$THICKNESS
 40
0.0
  9
$LIMCHECK
 70
     0
  9
$CHAMFERA
 40
0.0
  9
$CHAMFERB
 40
0.0
  9
$CHAMFERC
 40
0.0
  9
$CHAMFERD
 40
0.0
  9
$SKPOLY
 70
     0
  9
$TDCREATE
 40
2459306.435718322
  9
$TDUCREATE
 40
2459306.310718322
  9
$TDUPDATE
 40
2459306.435734444
  9
$TDUUPDATE
 40
2459306.310734444
  9
$TDINDWG
 40
0.0000000116
  9
$TDUSRTIMER
 40
0.0000000116
  9
$USRTIMER
 70
     1
  9
$ANGBASE
 50
0.0
  9
$ANGDIR
 70
     0
  9
$PDMODE
 70
     0
  9
$PDSIZE
 40
-1.0
  9
$PLINEWID
 40
0.0
  9
$SPLFRAME
 70
     0
  9
$SPLINETYPE
 70
     6
  9
$SPLINESEGS
 70
     8
  9
$HANDSEED
  5
1EA
  9
$SURFTAB1
 70
     6
  9
$SURFTAB2
 70
     6
  9
$SURFTYPE
 70
     6
  9
$SURFU
 70
     6
  9
$SURFV
 70
     6
  9
$UCSBASE
  2

  9
$UCSNAME
  2

  9
$UCSORG
 10
0.0
 20
0.0
 30
0.0
  9
$UCSXDIR
 10
1.0
 20
0.0
 30
0.0
  9
$UCSYDIR
 10
0.0
 20
1.0
 30
0.0
  9
$UCSORTHOREF
  2

  9
$UCSORTHOVIEW
 70
     0
  9
$UCSORGTOP
 10
0.0
 20
0.0
 30
0.0
  9
$UCSORGBOTTOM
 10
0.0
 20
0.0
 30
0.0
  9
$UCSORGLEFT
 10
0.0
 20
0.0
 30
0.0
  9
$UCSORGRIGHT
 10
0.0
 20
0.0
 30
0.0
  9
$UCSORGFRONT
 10
0.0
 20
0.0
 30
0.0
  9
$UCSORGBACK
 10
0.0
 20
0.0
 30
0.0
  9
$PUCSBASE
  2

  9
$PUCSNAME
  2

  9
$PUCSORG
 10
0.0
 20
0.0
 30
0.0
  9
$PUCSXDIR
 10
1.0
 20
0.0
 30
0.0
  9
$PUCSYDIR
 10
0.0
 20
1.0
 30
0.0
  9
$PUCSORTHOREF
  2

  9
$PUCSORTHOVIEW
 70
     0
  9
$PUCSORGTOP
 10
0.0
 20
0.0
 30
0.0
  9
$PUCSORGBOTTOM
 10
0.0
 20
0.0
 30
0.0
  9
$PUCSORGLEFT
 10
0.0
 20
0.0
 30
0.0
  9
$PUCSORGRIGHT
 10
0.0
 20
0.0
 30
0.0
  9
$PUCSORGFRONT
 10
0.0
 20
0.0
 30
0.0
  9
$PUCSORGBACK
 10
0.0
 20
0.0
 30
0.0
  9
$USERI1
 70
     0
  9
$USERI2
 70
     0
  9
$USERI3
 70
     0
  9
$USERI4
 70
     0
  9
$USERI5
 70
     0
  9
$USERR1
 40
0.0
  9
$USERR2
 40
0.0
  9
$USERR3
 40
0.0
  9
$USERR4
 40
0.0
  9
$USERR5
 40
0.0
  9
$WORLDVIEW
 70
     1
  9
$SHADEDGE
 70
     3
  9
$SHADEDIF
 70
    70
  9
$TILEMODE
 70
     1
  9
$MAXACTVP
 70
    64
  9
$PINSBASE
 10
0.0
 20
0.0
 30
0.0
  9
$PLIMCHECK
 70
     0
  9
$PEXTMIN
 10
1.0000000000E+20
 20
1.0000000000E+20
 30
1.0000000000E+20
  9
$PEXTMAX
 10
-1.0000000000E+20
 20
-1.0000000000E+20
 30
-1.0000000000E+20
  9
$PLIMMIN
 10
0.0
 20
0.0
  9
$PLIMMAX
 10
420.0
 20
297.0
  9
$UNITMODE
 70
     0
  9
$VISRETAIN
 70
     1
  9
$PLINEGEN
 70
     0
  9
$PSLTSCALE
 70
     1
  9
$TREEDEPTH
 70
  3020
  9
$CMLSTYLE
  2
Standard
  9
$CMLJUST
 70
     0
  9
$CMLSCALE
 40
20.0
  9
$PROXYGRAPHICS
 70
     1
  9
$MEASUREMENT
 70
     1
  9
$CELWEIGHT
370
    -1
  9
$ENDCAPS
280
     0
  9
$JOINSTYLE
280
     0
  9
$LWDISPLAY
290
     1
  9
$INSUNITS
 70
     4
  9
$HYPERLINKBASE
  1

  9
$STYLESHEET
  1

  9
$XEDIT
290
     1
  9
$CEPSNTYPE
380
     0
  9
$PSTYLEMODE
290
     1
  9
$FINGERPRINTGUID
  2
{AE633C2F-BC36-4DE6-A4EF-9C347B5F010B}
  9
$VERSIONGUID
  2
{FAEB1C32-E019-11D5-929B-00C0DF256EC4}
  9
$EXTNAMES
290
     1
  9
$PSVPSCALE
 40
0.0
  9
$OLESTARTUP
290
     0
  0
ENDSEC
  0
SECTION
  2
CLASSES
  0
CLASS
  1
ACDBDICTIONARYWDFLT
  2
AcDbDictionaryWithDefault
  3
ObjectDBX Classes
 90
        0
280
     0
281
     0
  0
CLASS
  1
VISUALSTYLE
  2
AcDbVisualStyle
  3
ObjectDBX Classes
 90
     4095
280
     0
281
     0
  0
CLASS
  1
MATERIAL
  2
AcDbMaterial
  3
ObjectDBX Classes
 90
     1153
280
     0
281
     0
  0
CLASS
  1
SCALE
  2
AcDbScale
  3
ObjectDBX Classes
 90
     1153
280
     0
281
     0
  0
CLASS
  1
SUN
  2
AcDbSun
  3
SCENEOE
 90
     1153
280
     0
281
     0
  0
CLASS
  1
ACDBPLACEHOLDER
  2
AcDbPlaceHolder
  3
ObjectDBX Classes
 90
        0
280
     0
281
     0
  0
CLASS
  1
LAYOUT
  2
AcDbLayout
  3
ObjectDBX Classes
 90
        0
280
     0
281
     0
  0
ENDSEC
  0
SECTION
  2
TABLES
  0
TABLE
  2
VPORT
  5
8
330
0
100
AcDbSymbolTable
 70
     1
  0
VPORT
  5
29
330
8
100
AcDbSymbolTableRecord
100
AcDbViewportTableRecord
  2
*Active
 70
     0
 10
0.0
 20
0.0
 11
1.0
 21
1.0
 12
8.3231849995
 22
0.0
 13
0.0
 23
0.0
 14
10.0
 24
10.0
 15
10.0
 25
10.0
 16
0.0
 26
0.0
 36
1.0
 17
0.0
 27
0.0
 37
0.0
 40
1836.0
 41
0.321922515
 42
50.0
 43
0.0
 44
0.0
 50
0.0
 51
0.0
 71
     0
 72
   100
 73
     1
 74
     3
 75
     0
 76
     0
 77
     0
 78
     0
281
     0
 65
     1
110
0.0
120
0.0
130
0.0
111
1.0
121
0.0
131
0.0
112
0.0
122
1.0
132
0.0
 79
     0
146
0.0
  0
ENDTAB
  0
TABLE
  2
LTYPE
  5
5
330
0
100
AcDbSymbolTable
 70
     6
  0
LTYPE
  5
14
330
5
100
AcDbSymbolTableRecord
100
AcDbLinetypeTableRecord
  2
ByBlock
 70
     0
  3

 72
    65
 73
     0
 40
0.0
  0
LTYPE
  5
15
330
5
100
AcDbSymbolTableRecord
100
AcDbLinetypeTableRecord
  2
ByLayer
 70
     0
  3

 72
    65
 73
     0
 40
0.0
  0
LTYPE
  5
16
330
5
100
AcDbSymbolTableRecord
100
AcDbLinetypeTableRecord
  2
Continuous
 70
     0
  3
Solid line
 72
    65
 73
     0
 40
0.0
  0
LTYPE
  5
6A
330
5
100
AcDbSymbolTableRecord
100
AcDbLinetypeTableRecord
  2
HIDDEN
 70
     0
  3
Hidden __ __ __ __ __ __ __ __ __ __ __ __ __ __
 72
    65
 73
     2
 40
1.905
 49
1.27
 74
     0
 49
-0.635
 74
     0
  0
LTYPE
  5
6B
330
5
100
AcDbSymbolTableRecord
100
AcDbLinetypeTableRecord
  2
PHANTOM
 70
     0
  3
Phantom ______  __  __  ______  __  __  ______
 72
    65
 73
     6
 40
12.7
 49
6.35
 74
     0
 49
-1.27
 74
     0
 49
1.27
 74
     0
 49
-1.27
 74
     0
 49
1.27
 74
     0
 49
-1.27
 74
     0
  0
LTYPE
  5
6C
330
5
100
AcDbSymbolTableRecord
100
AcDbLinetypeTableRecord
  2
CENTER
 70
     0
  3
Center ____ _ ____ _ ____ _ ____ _ ____ _ ____
 72
    65
 73
     4
 40
10.16
 49
6.35
 74
     0
 49
-1.27
 74
     0
 49
1.27
 74
     0
 49
-1.27
 74
     0
  0
LTYPE
  5
6D
330
5
100
AcDbSymbolTableRecord
100
AcDbLinetypeTableRecord
  2
CENTERX2
 70
     0
  3
Center (2x) ________  __  ________  __  _____
 72
    65
 73
     4
 40
20.32
 49
12.7
 74
     0
 49
-2.54
 74
     0
 49
2.54
 74
     0
 49
-2.54
 74
     0
  0
LTYPE
  5
6E
330
5
100
AcDbSymbolTableRecord
100
AcDbLinetypeTableRecord
  2
DOT2
 70
     0
  3
Dot (.5x) ........................................
 72
    65
 73
     2
 40
0.635
 49
0.0
 74
     0
 49
-0.635
 74
     0
  0
ENDTAB
  0
TABLE
  2
LAYER
  5
2
330
0
100
AcDbSymbolTable
 70
     1
  0
LAYER
  5
10
330
2
100
AcDbSymbolTableRecord
100
AcDbLayerTableRecord
  2
0
 70
     0
 62
     7
  6
Continuous
370
    -3
390
F
  0
ENDTAB
  0
TABLE
  2
STYLE
  5
3
330
0
100
AcDbSymbolTable
 70
     1
  0
STYLE
  5
11
330
3
100
AcDbSymbolTableRecord
100
AcDbTextStyleTableRecord
  2
Standard
 70
     0
 40
0.0
 41
1.0
 50
0.0
 71
     0
 42
3.0
  3
txt
  4

  0
ENDTAB
  0
TABLE
  2
VIEW
  5
6
330
0
100
AcDbSymbolTable
 70
     0
  0
ENDTAB
  0
TABLE
  2
UCS
  5
7
330
0
100
AcDbSymbolTable
 70
     0
  0
ENDTAB
  0
TABLE
  2
APPID
  5
9
330
0
100
AcDbSymbolTable
 70
     1
  0
APPID
  5
12
330
9
100
AcDbSymbolTableRecord
100
AcDbRegAppTableRecord
  2
ACAD
 70
     0
  0
ENDTAB
  0
TABLE
  2
DIMSTYLE
  5
A
330
0
100
AcDbSymbolTable
 70
     1
100
AcDbDimStyleTable
  0
DIMSTYLE
105
27
330
A
100
AcDbSymbolTableRecord
100
AcDbDimStyleTableRecord
  2
ISO-25
 70
     0
 41
2.5
 42
0.625
 43
3.75
 44
1.25
 73
     0
 74
     0
 77
     1
 78
     8
140
2.5
141
2.5
143
0.0393700787
147
0.625
171
     3
172
     1
178
     0
271
     2
272
     2
274
     3
278
    44
283
     0
284
     8
340
11
  0
ENDTAB
  0
TABLE
  2
BLOCK_RECORD
  5
1
330
0
100
AcDbSymbolTable
 70
     1
  0
BLOCK_RECORD
  5
1F
330
1
100
AcDbSymbolTableRecord
100
AcDbBlockTableRecord
  2
*Model_Space
340
22
  0
BLOCK_RECORD
  5
1B
330
1
100
AcDbSymbolTableRecord
100
AcDbBlockTableRecord
  2
*Paper_Space
340
1E
  0
BLOCK_RECORD
  5
23
330
1
100
AcDbSymbolTableRecord
100
AcDbBlockTableRecord
  2
*Paper_Space0
340
26
  0
ENDTAB
  0
ENDSEC
  0
SECTION
  2
BLOCKS
  0
BLOCK
  5
20
330
1F
100
AcDbEntity
  8
0
100
AcDbBlockBegin
  2
*Model_Space
 70
     0
 10
0.0
 20
0.0
 30
0.0
  3
*Model_Space
  1
*Model_Space
  0
ENDBLK
  5
21
330
1F
100
AcDbEntity
  8
0
100
AcDbBlockEnd
  0
BLOCK
  5
1C
330
1B
100
AcDbEntity
 67
     1
  8
0
100
AcDbBlockBegin
  2
*Paper_Space
 70
     0
 10
0.0
 20
0.0
 30
0.0
  3
*Paper_Space
  1
*Paper_Space
  0
ENDBLK
  5
1D
330
1B
100
AcDbEntity
 67
     1
  8
0
100
AcDbBlockEnd
  0
BLOCK
  5
24
330
23
100
AcDbEntity
  8
0
100
AcDbBlockBegin
  2
*Paper_Space0
 70
     0
 10
0.0
 20
0.0
 30
0.0
  3
*Paper_Space0
  1
*Paper_Space0
  0
ENDBLK
  5
25
330
23
100
AcDbEntity
  8
0
100
AcDbBlockEnd
  0
ENDSEC
  0
SECTION
  2
ENTITIES
  0
SPLINE
  5
7C
330
1F
100
AcDbEntity
  8
0
  6
Continuous
 62
     7
370
    15
100
AcDbSpline
210
0.0
220
0.0
230
1.0
 70
     8
 71
     3
 72
    10
 73
     6
 74
     0
 42
0.000000001
 43
0.00000001
 40
0.0
 40
0.0
 40
0.0
 40
0.0
 40
0.3459568717863398
 40
0.6919170873799406
 40
1.0
 40
1.0
 40
1.0
 40
1.0
 10
200.0000000000022
 20
-750.0000000000015
 30
0.0
 10
200.0756548867437
 20
-749.8914035995399
 30
0.0
 10
200.2269653914603
 20
-749.6742097489903
 30
0.0
 10
200.4456480448879
 20
-748.1324581360719
 30
0.0
 10
200.5886775546251
 20
-746.5314263195476
 30
0.0
 10
200.6560507079381
 20
-745.7772703259217
 30
0.0
  0
SPLINE
  5
86
330
1F
100
AcDbEntity
  8
0
  6
Continuous
 62
     7
370
    15
100
AcDbSpline
210
0.0
220
0.0
230
1.0
 70
     8
 71
     3
 72
    11
 73
     7
 74
     0
 42
0.000000001
 43
0.00000001
 40
0.0
 40
0.0
 40
0.0
 40
0.0
 40
0.1086719663794082
 40
0.4455086723984079
 40
0.7823453524031707
 40
1.0
 40
1.0
 40
1.0
 40
1.0
 10
-200.6734164524754
 20
-745.5453660760408
 30
0.0
 10
-200.649007298991
 20
-745.8532075605679
 30
0.0
 10
-200.5489401894549
 20
-747.1152262361296
 30
0.0
 10
-200.3732804269263
 20
-748.6883495378906
 30
0.0
 10
-200.1728444739564
 20
-749.8451115950883
 30
0.0
 10
-200.0487218793793
 20
-749.9563396271302
 30
0.0
 10
-199.9999999999978
 20
-750.0000000000015
 30
0.0
  0
SPLINE
  5
8A
330
1F
100
AcDbEntity
  8
0
  6
Continuous
 62
     7
370
    15
100
AcDbSpline
210
0.0
220
0.0
230
1.0
 70
     8
 71
     3
 72
    28
 73
    24
 74
     0
 42
0.000000001
 43
0.00000001
 40
0.0
 40
0.0
 40
0.0
 40
0.0
 40
0.1250000000000207
 40
0.1250000000000207
 40
0.1875000000000207
 40
0.1875000000000207
 40
0.2500000000000208
 40
0.2500000000000208
 40
0.3750000000000166
 40
0.3750000000000166
 40
0.5000000000000124
 40
0.5000000000000124
 40
0.6250000000000084
 40
0.6250000000000084
 40
0.6875000000000063
 40
0.6875000000000063
 40
0.7500000000000042
 40
0.7500000000000042
 40
0.8750000000000001
 40
0.8750000000000001
 40
0.9375000000000001
 40
0.9375000000000001
 40
1.0
 40
1.0
 40
1.0
 40
1.0
 10
-279.0485790462645
 20
-740.5000000000015
 30
0.0
 10
-278.9070804349389
 20
-741.1272369276894
 30
0.0
 10
-278.7400829175441
 20
-741.7443099871655
 30
0.0
 10
-278.4492638765024
 20
-742.6542519890535
 30
0.0
 10
-278.34556070233
 20
-742.9549376874882
 30
0.0
 10
-278.123736428784
 20
-743.5507702752874
 30
0.0
 10
-278.0049779331358
 20
-743.84726377153
 30
0.0
 10
-277.6327075667804
 20
-744.7109591346667
 30
0.0
 10
-277.3621396145384
 20
-745.2566314105895
 30
0.0
 10
-276.7723407163068
 20
-746.287521952585
 30
0.0
 10
-276.4495764814442
 20
-746.7765167776565
 30
0.0
 10
-275.7739295279749
 20
-747.6542303408042
 30
0.0
 10
-275.4195075811471
 20
-748.0470883168947
 30
0.0
 10
-274.8594101770171
 20
-748.5662067068789
 30
0.0
 10
-274.666859548568
 20
-748.7282252986021
 30
0.0
 10
-274.2779186356597
 20
-749.0227074706684
 30
0.0
 10
-274.0814328853166
 20
-749.1554797144177
 30
0.0
 10
-273.4852734176442
 20
-749.51134589412
 30
0.0
 10
-273.0789559119169
 20
-749.6923653201501
 30
0.0
 10
-272.4523765527752
 20
-749.8765247732497
 30
0.0
 10
-272.2415077318395
 20
-749.9228779442172
 30
0.0
 10
-271.8199852349246
 20
-749.9845051940074
 30
0.0
 10
-271.6086288625731
 20
-750.0000000000015
 30
0.0
 10
-271.3963947959804
 20
-750.0000000000015
 30
0.0
  0
LWPOLYLINE
  5
8D
330
1F
100
AcDbEntity
  8
0
  6
Continuous
 62
     7
370
    15
100
AcDbPolyline
 90
       20
 70
   128
 43
0.0
 10
-266.7773236907
 20
-722.0
 10
-266.6201677631
 20
-723.0552732749
 10
-266.1657302636
 20
-723.9961913162
 10
-265.4632565465
 20
-724.7207910544
 10
-264.5888705391
 20
-725.1505508643
 10
-263.6373255328
 20
-725.2388996023
 10
-262.7117361939
 20
-724.9762633116
 10
-261.912404489
 20
-724.3911027097
 10
-261.3259504115
 20
-723.5468290274
 10
-261.0159253603
 20
-722.5349324184
 10
-261.0159253603
 20
-721.4650675816
 10
-261.3259504115
 20
-720.4531709726
 10
-261.912404489
 20
-719.6088972903
 10
-262.7117361939
 20
-719.0237366884
 10
-263.6373255328
 20
-718.7611003977
 10
-264.5888705391
 20
-718.8494491357
 10
-265.4632565465
 20
-719.2792089456
 10
-266.1657302636
 20
-720.0038086838
 10
-266.6201677631
 20
-720.9447267251
 10
-266.7773236907
 20
-722.0
  0
LWPOLYLINE
  5
8E
330
1F
100
AcDbEntity
  8
0
  6
Continuous
 62
     7
370
    15
100
AcDbPolyline
 90
       20
 70
   128
 43
0.0
 10
-266.7773236907
 20
-682.0
 10
-266.6201677631
 20
-683.0552732749
 10
-266.1657302636
 20
-683.9961913162
 10
-265.4632565465
 20
-684.7207910544
 10
-264.5888705391
 20
-685.1505508643
 10
-263.6373255328
 20
-685.2388996023
 10
-262.7117361939
 20
-684.9762633116
 10
-261.912404489
 20
-684.3911027097
 10
-261.3259504115
 20
-683.5468290274
 10
-261.0159253603
 20
-682.5349324184
 10
-261.0159253603
 20
-681.4650675816
 10
-261.3259504115
 20
-680.4531709726
 10
-261.912404489
 20
-679.6088972903
 10
-262.7117361939
 20
-679.0237366884
 10
-263.6373255328
 20
-678.7611003977
 10
-264.5888705391
 20
-678.8494491357
 10
-265.4632565465
 20
-679.2792089456
 10
-266.1657302636
 20
-680.0038086838
 10
-266.6201677631
 20
-680.9447267251
 10
-266.7773236907
 20
-682.0
  0
SPLINE
  5
95
330
1F
100
AcDbEntity
  8
0
  6
Continuous
 62
     7
370
    15
100
AcDbSpline
210
0.0
220
0.0
230
1.0
 70
     8
 71
     3
 72
    28
 73
    24
 74
     0
 42
0.000000001
 43
0.00000001
 40
0.0
 40
0.0
 40
0.0
 40
0.0
 40
0.1249999999999874
 40
0.1249999999999874
 40
0.1874999999999811
 40
0.1874999999999811
 40
0.2499999999999748
 40
0.2499999999999748
 40
0.3749999999999702
 40
0.3749999999999702
 40
0.4999999999999656
 40
0.4999999999999656
 40
0.6249999999999609
 40
0.6249999999999609
 40
0.6874999999999618
 40
0.6874999999999618
 40
0.7499999999999626
 40
0.7499999999999626
 40
0.8749999999999836
 40
0.8749999999999836
 40
0.9374999999999918
 40
0.9374999999999918
 40
1.0
 40
1.0
 40
1.0
 40
1.0
 10
-271.3963947959803
 20
-750.0000000000017
 30
0.0
 10
-272.0416344808337
 20
-750.0000000000018
 30
0.0
 10
-272.6764227169802
 20
-749.9384432469825
 30
0.0
 10
-273.6132599960861
 20
-749.7576902051945
 30
0.0
 10
-273.9229642749129
 20
-749.6826015277231
 30
0.0
 10
-274.5370708805427
 20
-749.5022047629353
 30
0.0
 10
-274.8428649572264
 20
-749.3962311482414
 30
0.0
 10
-275.7344727660164
 20
-749.0385149038099
 30
0.0
 10
-276.2988868380033
 20
-748.746719361083
 30
0.0
 10
-277.3685078163826
 20
-748.0590020667423
 30
0.0
 10
-277.8776957921793
 20
-747.6582317904247
 30
0.0
 10
-278.7965420117255
 20
-746.7810774120661
 30
0.0
 10
-279.2104532914715
 20
-746.3032942224548
 30
0.0
 10
-279.7626298717269
 20
-745.5282204442307
 30
0.0
 10
-279.9359794203494
 20
-745.2585338986781
 30
0.0
 10
-280.2533767355937
 20
-744.7084193943614
 30
0.0
 10
-280.3977390983691
 20
-744.4279008321624
 30
0.0
 10
-280.7889424879947
 20
-743.5705995037412
 30
0.0
 10
-280.9942710488021
 20
-742.9782109071737
 30
0.0
 10
-281.2168067773288
 20
-742.0583839535057
 30
0.0
 10
-281.2762222542705
 20
-741.7477981671344
 30
0.0
 10
-281.364343400823
 20
-741.1259314997376
 30
0.0
 10
-281.3933125697143
 20
-740.8136184761436
 30
0.0
 10
-281.4070785179994
 20
-740.5000000000016
 30
0.0
  0
SPLINE
  5
FC
330
1F
100
AcDbEntity
  8
0
  6
Continuous
 62
     7
370
    15
100
AcDbSpline
210
0.0
220
0.0
230
1.0
 70
     8
 71
     3
 72
    10
 73
     6
 74
     0
 42
0.000000001
 43
0.00000001
 40
0.0
 40
0.0
 40
0.0
 40
0.0
 40
0.3459568717863399
 40
0.6919170873799408
 40
1.0
 40
1.0
 40
1.0
 40
1.0
 10
-199.9999999999998
 20
750.0000000000018
 30
0.0
 10
-200.0756548867412
 20
749.8914035995401
 30
0.0
 10
-200.2269653914579
 20
749.6742097489906
 30
0.0
 10
-200.4456480448855
 20
748.1324581360724
 30
0.0
 10
-200.5886775546227
 20
746.5314263195479
 30
0.0
 10
-200.6560507079357
 20
745.7772703259221
 30
0.0
  0
SPLINE
  5
106
330
1F
100
AcDbEntity
  8
0
  6
Continuous
 62
     7
370
    15
100
AcDbSpline
210
0.0
220
0.0
230
1.0
 70
     8
 71
     3
 72
    11
 73
     7
 74
     0
 42
0.000000001
 43
0.00000001
 40
0.0
 40
0.0
 40
0.0
 40
0.0
 40
0.1086719663794034
 40
0.4455086723984049
 40
0.7823453524031696
 40
1.0
 40
1.0
 40
1.0
 40
1.0
 10
200.6734164524778
 20
745.5453660760411
 30
0.0
 10
200.6490072989934
 20
745.8532075605681
 30
0.0
 10
200.5489401894572
 20
747.11522623613
 30
0.0
 10
200.3732804269289
 20
748.6883495378914
 30
0.0
 10
200.1728444739587
 20
749.8451115950878
 30
0.0
 10
200.0487218793816
 20
749.9563396271303
 30
0.0
 10
200.0000000000002
 20
750.0000000000018
 30
0.0
  0
SPLINE
  5
10A
330
1F
100
AcDbEntity
  8
0
  6
Continuous
 62
     7
370
    15
100
AcDbSpline
210
0.0
220
0.0
230
1.0
 70
     8
 71
     3
 72
    28
 73
    24
 74
     0
 42
0.000000001
 43
0.00000001
 40
0.0
 40
0.0
 40
0.0
 40
0.0
 40
0.1250000000000026
 40
0.1250000000000026
 40
0.1875000000000034
 40
0.1875000000000034
 40
0.2500000000000042
 40
0.2500000000000042
 40
0.3750000000000058
 40
0.3750000000000058
 40
0.5000000000000074
 40
0.5000000000000074
 40
0.625000000000009
 40
0.625000000000009
 40
0.687500000000014
 40
0.687500000000014
 40
0.750000000000019
 40
0.750000000000019
 40
0.8750000000000094
 40
0.8750000000000094
 40
0.9375000000000048
 40
0.9375000000000048
 40
1.0
 40
1.0
 40
1.0
 40
1.0
 10
-271.3963947959824
 20
750.0000000000018
 30
0.0
 10
-271.820862912523
 20
750.0000000000019
 30
0.0
 10
-272.2384741413209
 20
749.9384432469824
 30
0.0
 10
-272.8582569760096
 20
749.7576902051943
 30
0.0
 10
-273.0637352124941
 20
749.6826015277233
 30
0.0
 10
-273.4729777710565
 20
749.5022047629354
 30
0.0
 10
-273.6776867492665
 20
749.3962311482413
 30
0.0
 10
-274.2782227909174
 20
749.0385149038096
 30
0.0
 10
-274.6633238173568
 20
748.746719361083
 30
0.0
 10
-275.4079407114769
 20
748.0590020667422
 30
0.0
 10
-275.7705062651179
 20
747.6582317904243
 30
0.0
 10
-276.4464054872852
 20
746.7810774120659
 30
0.0
 10
-276.7625145660574
 20
746.3032942224548
 30
0.0
 10
-277.2071411387198
 20
745.5282204442308
 30
0.0
 10
-277.351118817654
 20
745.2585338986783
 30
0.0
 10
-277.6247346414598
 20
744.7084193943615
 30
0.0
 10
-277.7545666270395
 20
744.4279008321625
 30
0.0
 10
-278.1245103703712
 20
743.5705995037413
 30
0.0
 10
-278.3452442066598
 20
742.978210907174
 30
0.0
 10
-278.6399370657417
 20
742.058383953506
 30
0.0
 10
-278.7316008954822
 20
741.7477981671353
 30
0.0
 10
-278.9003789129122
 20
741.1259314997379
 30
0.0
 10
-278.9778297378293
 20
740.813618476144
 30
0.0
 10
-279.0485790462665
 20
740.5000000000018
 30
0.0
  0
LWPOLYLINE
  5
10D
330
1F
100
AcDbEntity
  8
0
  6
Continuous
 62
     7
370
    15
100
AcDbPolyline
 90
       20
 70
   128
 43
0.0
 10
-260.9763666135
 20
682.0
 10
-261.1335225411
 20
683.0552732749
 10
-261.5879600407
 20
683.9961913162
 10
-262.2904337578
 20
684.7207910544
 10
-263.1648197651
 20
685.1505508643
 10
-264.1163647714
 20
685.2388996023
 10
-265.0419541104
 20
684.9762633116
 10
-265.8412858152
 20
684.3911027097
 10
-266.4277398927
 20
683.5468290274
 10
-266.7377649439
 20
682.5349324184
 10
-266.7377649439
 20
681.4650675816
 10
-266.4277398927
 20
680.4531709726
 10
-265.8412858152
 20
679.6088972903
 10
-265.0419541104
 20
679.0237366884
 10
-264.1163647714
 20
678.7611003977
 10
-263.1648197651
 20
678.8494491357
 10
-262.2904337578
 20
679.2792089456
 10
-261.5879600407
 20
680.0038086838
 10
-261.1335225411
 20
680.9447267251
 10
-260.9763666135
 20
682.0
  0
LWPOLYLINE
  5
110
330
1F
100
AcDbEntity
  8
0
  6
Continuous
 62
     7
370
    15
100
AcDbPolyline
 90
       20
 70
   128
 43
0.0
 10
-260.9763666135
 20
722.0
 10
-261.1335225411
 20
723.0552732749
 10
-261.5879600407
 20
723.9961913162
 10
-262.2904337578
 20
724.7207910544
 10
-263.1648197651
 20
725.1505508643
 10
-264.1163647714
 20
725.2388996023
 10
-265.0419541104
 20
724.9762633116
 10
-265.8412858152
 20
724.3911027097
 10
-266.4277398927
 20
723.5468290274
 10
-266.7377649439
 20
722.5349324184
 10
-266.7377649439
 20
721.4650675816
 10
-266.4277398927
 20
720.4531709726
 10
-265.8412858152
 20
719.6088972903
 10
-265.0419541104
 20
719.0237366884
 10
-264.1163647714
 20
718.7611003977
 10
-263.1648197651
 20
718.8494491357
 10
-262.2904337578
 20
719.2792089456
 10
-261.5879600407
 20
720.0038086838
 10
-261.1335225411
 20
720.9447267251
 10
-260.9763666135
 20
722.0
  0
SPLINE
  5
114
330
1F
100
AcDbEntity
  8
0
  6
Continuous
 62
     7
370
    15
100
AcDbSpline
210
0.0
220
0.0
230
1.0
 70
     8
 71
     3
 72
    28
 73
    24
 74
     0
 42
0.000000001
 43
0.00000001
 40
0.0
 40
0.0
 40
0.0
 40
0.0
 40
0.1250000000000219
 40
0.1250000000000219
 40
0.1875000000000212
 40
0.1875000000000212
 40
0.2500000000000205
 40
0.2500000000000205
 40
0.3750000000000148
 40
0.3750000000000148
 40
0.5000000000000091
 40
0.5000000000000091
 40
0.6250000000000034
 40
0.6250000000000034
 40
0.6875000000000006
 40
0.6875000000000006
 40
0.7499999999999978
 40
0.7499999999999978
 40
0.8750000000000021
 40
0.8750000000000021
 40
0.937500000000001
 40
0.937500000000001
 40
1.0
 40
1.0
 40
1.0
 40
1.0
 10
-281.4070785180012
 20
740.5000000000018
 30
0.0
 10
-281.3795466225107
 20
741.1272369276899
 30
0.0
 10
-281.2918351518878
 20
741.7443099871662
 30
0.0
 10
-281.0731088140993
 20
742.6542519890542
 30
0.0
 10
-280.9855742305732
 20
742.9549376874884
 30
0.0
 10
-280.7805920443242
 20
743.5507702752878
 30
0.0
 10
-280.6624234240922
 20
743.8472637715303
 30
0.0
 10
-280.2691077742654
 20
744.7109591346668
 30
0.0
 10
-279.9547134774396
 20
745.25663141059
 30
0.0
 10
-279.2230521739773
 20
746.2875219525856
 30
0.0
 10
-278.8007484177992
 20
746.7765167776568
 30
0.0
 10
-277.8824528877684
 20
747.6542303408044
 30
0.0
 10
-277.384906599321
 20
748.047088316895
 30
0.0
 10
-276.580663168302
 20
748.5662067068793
 30
0.0
 10
-276.3012813839976
 20
748.7282252986028
 30
0.0
 10
-275.7321353660324
 20
749.0227074706685
 30
0.0
 10
-275.4422712833684
 20
749.1554797144178
 30
0.0
 10
-274.5572506716519
 20
749.5113458941205
 30
0.0
 10
-273.9468025623493
 20
749.6923653201502
 30
0.0
 10
-272.9997757756236
 20
749.8765247732497
 30
0.0
 10
-272.6801419704342
 20
749.9228779442184
 30
0.0
 10
-272.0402927018797
 20
749.9845051940085
 30
0.0
 10
-271.7190146510602
 20
750.0000000000019
 30
0.0
 10
-271.3963947959825
 20
750.0000000000019
 30
0.0
  0
LWPOLYLINE
  5
117
330
1F
100
AcDbEntity
  8
0
  6
Continuous
 62
     7
370
    15
100
AcDbPolyline
 90
       22
 70
   128
 43
0.0
 10
-258.502479202
 20
0.0
 10
-258.6610762768
 20
-1.1790206976
 10
-259.1227754554
 20
-2.2532802323
 10
-259.8465527395
 20
-3.1273259299
 10
-260.7680973412
 20
-3.7234949946
 10
-261.8055259785
 20
-3.9888151887
 10
-262.8666585643
 20
-3.8997116487
 10
-263.8572088117
 20
-3.4641016151
 10
-264.6891619841
 20
-2.7206909511
 10
-265.2885953913
 20
-1.7355349565
 10
-265.6022467445
 20
-0.5961690647
 10
-265.6022467445
 20
0.5961690647
 10
-265.2885953913
 20
1.7355349565
 10
-264.6891619841
 20
2.7206909511
 10
-263.8572088117
 20
3.4641016151
 10
-262.8666585643
 20
3.8997116487
 10
-261.8055259785
 20
3.9888151887
 10
-260.7680973412
 20
3.7234949946
 10
-259.8465527395
 20
3.1273259299
 10
-259.1227754554
 20
2.2532802323
 10
-258.6610762768
 20
1.1790206976
 10
-258.502479202
 20
0.0
  0
LWPOLYLINE
  5
118
330
1F
100
AcDbEntity
  8
0
  6
Continuous
 62
     7
370
    15
100
AcDbPolyline
 90
       20
 70
   128
 43
0.0
 10
-258.9487066694
 20
-412.0
 10
-259.1179515145
 20
-413.1364481422
 10
-259.6073457448
 20
-414.1497444944
 10
-260.3638559017
 20
-414.9300826739
 10
-261.3055023712
 20
-415.3929009308
 10
-262.3302431471
 20
-415.4880457255
 10
-263.327031666
 20
-415.2052066433
 10
-264.1878504251
 20
-414.5750336874
 10
-264.8194163547
 20
-413.6658158756
 10
-265.1532894868
 20
-412.576081066
 10
-265.1532894868
 20
-411.423918934
 10
-264.8194163547
 20
-410.3341841244
 10
-264.1878504251
 20
-409.4249663126
 10
-263.327031666
 20
-408.7947933567
 10
-262.3302431471
 20
-408.5119542745
 10
-261.3055023712
 20
-408.6070990692
 10
-260.3638559017
 20
-409.0699173261
 10
-259.6073457448
 20
-409.8502555056
 10
-259.1179515145
 20
-410.8635518578
 10
-258.9487066694
 20
-412.0
  0
LWPOLYLINE
  5
119
330
1F
100
AcDbEntity
  8
0
  6
Continuous
 62
     7
370
    15
100
AcDbPolyline
 90
       20
 70
   128
 43
0.0
 10
-258.9487066694
 20
-135.0
 10
-259.1179515145
 20
-136.1364481422
 10
-259.6073457448
 20
-137.1497444944
 10
-260.3638559017
 20
-137.9300826739
 10
-261.3055023712
 20
-138.3929009308
 10
-262.3302431471
 20
-138.4880457255
 10
-263.327031666
 20
-138.2052066433
 10
-264.1878504251
 20
-137.5750336874
 10
-264.8194163547
 20
-136.6658158756
 10
-265.1532894868
 20
-135.576081066
 10
-265.1532894868
 20
-134.423918934
 10
-264.8194163547
 20
-133.3341841244
 10
-264.1878504251
 20
-132.4249663126
 10
-263.327031666
 20
-131.7947933567
 10
-262.3302431471
 20
-131.5119542745
 10
-261.3055023712
 20
-131.6070990692
 10
-260.3638559017
 20
-132.0699173261
 10
-259.6073457448
 20
-132.8502555056
 10
-259.1179515145
 20
-133.8635518578
 10
-258.9487066694
 20
-135.0
  0
LWPOLYLINE
  5
11A
330
1F
100
AcDbEntity
  8
0
  6
Continuous
 62
     7
370
    15
100
AcDbPolyline
 90
       20
 70
   128
 43
0.0
 10
-258.9487066694
 20
135.0
 10
-259.1179515145
 20
133.8635518578
 10
-259.6073457448
 20
132.8502555056
 10
-260.3638559017
 20
132.0699173261
 10
-261.3055023712
 20
131.6070990692
 10
-262.3302431471
 20
131.5119542745
 10
-263.327031666
 20
131.7947933567
 10
-264.1878504251
 20
132.4249663126
 10
-264.8194163547
 20
133.3341841244
 10
-265.1532894868
 20
134.423918934
 10
-265.1532894868
 20
135.576081066
 10
-264.8194163547
 20
136.6658158756
 10
-264.1878504251
 20
137.5750336874
 10
-263.327031666
 20
138.2052066433
 10
-262.3302431471
 20
138.4880457255
 10
-261.3055023712
 20
138.3929009308
 10
-260.3638559017
 20
137.9300826739
 10
-259.6073457448
 20
137.1497444944
 10
-259.1179515145
 20
136.1364481422
 10
-258.9487066694
 20
135.0
  0
LWPOLYLINE
  5
11B
330
1F
100
AcDbEntity
  8
0
  6
Continuous
 62
     7
370
    15
100
AcDbPolyline
 90
       20
 70
   128
 43
0.0
 10
-258.9487066694
 20
412.0
 10
-259.1179515145
 20
410.8635518578
 10
-259.6073457448
 20
409.8502555056
 10
-260.3638559017
 20
409.0699173261
 10
-261.3055023712
 20
408.6070990692
 10
-262.3302431471
 20
408.5119542745
 10
-263.327031666
 20
408.7947933567
 10
-264.1878504251
 20
409.4249663126
 10
-264.8194163547
 20
410.3341841244
 10
-265.1532894868
 20
411.423918934
 10
-265.1532894868
 20
412.576081066
 10
-264.8194163547
 20
413.6658158756
 10
-264.1878504251
 20
414.5750336874
 10
-263.327031666
 20
415.2052066433
 10
-262.3302431471
 20
415.4880457255
 10
-261.3055023712
 20
415.3929009308
 10
-260.3638559017
 20
414.9300826739
 10
-259.6073457448
 20
414.1497444944
 10
-259.1179515145
 20
413.1364481422
 10
-258.9487066694
 20
412.0
  0
LINE
  5
153
330
1F
100
AcDbEntity
  8
0
  6
Continuous
 62
     7
370
    15
100
AcDbLine
 10
298.0534485171
 20
-900.0
 30
0.0
 11
298.0534485171
 21
900.0
 31
0.0
  0
LINE
  5
154
330
1F
100
AcDbEntity
  8
0
  6
Continuous
 62
     7
370
    15
100
AcDbLine
 10
252.6933774026
 20
-900.0
 30
0.0
 11
252.6933774026
 21
900.0
 31
0.0
  0
LINE
  5
155
330
1F
100
AcDbEntity
  8
0
  6
Continuous
 62
     7
370
    15
100
AcDbLine
 10
-252.6933774026
 20
900.0
 30
0.0
 11
-252.6933774026
 21
-900.0
 31
0.0
  0
LINE
  5
156
330
1F
100
AcDbEntity
  8
0
  6
Continuous
 62
     7
370
    15
100
AcDbLine
 10
-276.9532603866
 20
670.0
 30
0.0
 11
-276.9532603866
 21
-670.0
 31
0.0
  0
LINE
  5
157
330
1F
100
AcDbEntity
  8
0
  6
Continuous
 62
     7
370
    15
100
AcDbLine
 10
200.6676753386
 20
-670.0
 30
0.0
 11
194.9458771874
 21
-670.0
 31
0.0
  0
LINE
  5
158
330
1F
100
AcDbEntity
  8
0
  6
Continuous
 62
     7
370
    15
100
AcDbLine
 10
154.9458771874
 20
-670.0
 30
0.0
 11
144.9458771874
 21
-670.0
 31
0.0
  0
LINE
  5
159
330
1F
100
AcDbEntity
  8
0
  6
Continuous
 62
     7
370
    15
100
AcDbLine
 10
104.9458771874
 20
-670.0
 30
0.0
 11
94.9458771874
 21
-670.0
 31
0.0
  0
LINE
  5
15A
330
1F
100
AcDbEntity
  8
0
  6
Continuous
 62
     7
370
    15
100
AcDbLine
 10
54.9458771874
 20
-670.0
 30
0.0
 11
44.9458771874
 21
-670.0
 31
0.0
  0
LINE
  5
15B
330
1F
100
AcDbEntity
  8
0
  6
Continuous
 62
     7
370
    15
100
AcDbLine
 10
4.9458771874
 20
-670.0
 30
0.0
 11
-5.0541228126
 21
-670.0
 31
0.0
  0
LINE
  5
15C
330
1F
100
AcDbEntity
  8
0
  6
Continuous
 62
     7
370
    15
100
AcDbLine
 10
-45.0541228126
 20
-670.0
 30
0.0
 11
-55.0541228126
 21
-670.0
 31
0.0
  0
LINE
  5
15D
330
1F
100
AcDbEntity
  8
0
  6
Continuous
 62
     7
370
    15
100
AcDbLine
 10
-95.0541228126
 20
-670.0
 30
0.0
 11
-105.0541228126
 21
-670.0
 31
0.0
  0
LINE
  5
15E
330
1F
100
AcDbEntity
  8
0
  6
Continuous
 62
     7
370
    15
100
AcDbLine
 10
-145.0541228126
 20
-670.0
 30
0.0
 11
-155.0541228126
 21
-670.0
 31
0.0
  0
LINE
  5
15F
330
1F
100
AcDbEntity
  8
0
  6
Continuous
 62
     7
370
    15
100
AcDbLine
 10
-195.0541228126
 20
-670.0
 30
0.0
 11
-200.6676753386
 21
-670.0
 31
0.0
  0
LINE
  5
160
330
1F
100
AcDbEntity
  8
0
  6
Continuous
 62
     7
370
    15
100
AcDbLine
 10
200.6676753386
 20
-750.0
 30
0.0
 11
194.9458771874
 21
-750.0
 31
0.0
  0
LINE
  5
161
330
1F
100
AcDbEntity
  8
0
  6
Continuous
 62
     7
370
    15
100
AcDbLine
 10
154.9458771874
 20
-750.0
 30
0.0
 11
144.9458771874
 21
-750.0
 31
0.0
  0
LINE
  5
162
330
1F
100
AcDbEntity
  8
0
  6
Continuous
 62
     7
370
    15
100
AcDbLine
 10
104.9458771874
 20
-750.0
 30
0.0
 11
94.9458771874
 21
-750.0
 31
0.0
  0
LINE
  5
163
330
1F
100
AcDbEntity
  8
0
  6
Continuous
 62
     7
370
    15
100
AcDbLine
 10
54.9458771874
 20
-750.0
 30
0.0
 11
44.9458771874
 21
-750.0
 31
0.0
  0
LINE
  5
164
330
1F
100
AcDbEntity
  8
0
  6
Continuous
 62
     7
370
    15
100
AcDbLine
 10
4.9458771874
 20
-750.0
 30
0.0
 11
-5.0541228126
 21
-750.0
 31
0.0
  0
LINE
  5
165
330
1F
100
AcDbEntity
  8
0
  6
Continuous
 62
     7
370
    15
100
AcDbLine
 10
-45.0541228126
 20
-750.0
 30
0.0
 11
-55.0541228126
 21
-750.0
 31
0.0
  0
LINE
  5
166
330
1F
100
AcDbEntity
  8
0
  6
Continuous
 62
     7
370
    15
100
AcDbLine
 10
-95.0541228126
 20
-750.0
 30
0.0
 11
-105.0541228126
 21
-750.0
 31
0.0
  0
LINE
  5
167
330
1F
100
AcDbEntity
  8
0
  6
Continuous
 62
     7
370
    15
100
AcDbLine
 10
-145.0541228126
 20
-750.0
 30
0.0
 11
-155.0541228126
 21
-750.0
 31
0.0
  0
LINE
  5
168
330
1F
100
AcDbEntity
  8
0
  6
Continuous
 62
     7
370
    15
100
AcDbLine
 10
-195.0541228126
 20
-750.0
 30
0.0
 11
-200.6676753386
 21
-750.0
 31
0.0
  0
LINE
  5
169
330
1F
100
AcDbEntity
  8
0
  6
Continuous
 62
     7
370
    15
100
AcDbLine
 10
-200.0
 20
-750.0
 30
0.0
 11
-200.6676753386
 21
-749.705340936
 31
0.0
  0
LINE
  5
16A
330
1F
100
AcDbEntity
  8
0
  6
Continuous
 62
     7
370
    15
100
AcDbLine
 10
-252.6933774026
 20
-750.0
 30
0.0
 11
-271.396394796
 21
-750.0
 31
0.0
  0
LINE
  5
16B
330
1F
100
AcDbEntity
  8
0
  6
Continuous
 62
     7
370
    15
100
AcDbLine
 10
200.6676753386
 20
-749.8115399115
 30
0.0
 11
200.0
 21
-750.0
 31
0.0
  0
LINE
  5
16C
330
1F
100
AcDbEntity
  8
0
  6
Continuous
 62
     7
370
    15
100
AcDbLine
 10
-279.0485790463
 20
-740.5
 30
0.0
 11
-279.0485790463
 21
-670.0
 31
0.0
  0
LINE
  5
16D
330
1F
100
AcDbEntity
  8
0
  6
Continuous
 62
     7
370
    15
100
AcDbLine
 10
-281.407078518
 20
-670.0
 30
0.0
 11
-252.6933774026
 21
-670.0
 31
0.0
  0
LINE
  5
16E
330
1F
100
AcDbEntity
  8
0
  6
Continuous
 62
     7
370
    15
100
AcDbLine
 10
-252.6933774026
 20
-740.5
 30
0.0
 11
-281.407078518
 21
-740.5
 31
0.0
  0
LINE
  5
16F
330
1F
100
AcDbEntity
  8
0
  6
Continuous
 62
     7
370
    15
100
AcDbLine
 10
-281.407078518
 20
-670.0
 30
0.0
 11
-281.407078518
 21
-740.5
 31
0.0
  0
LINE
  5
170
330
1F
100
AcDbEntity
  8
0
  6
Continuous
 62
     7
370
    15
100
AcDbLine
 10
200.6676753386
 20
-900.0
 30
0.0
 11
298.0534485171
 21
-900.0
 31
0.0
  0
LINE
  5
171
330
1F
100
AcDbEntity
  8
0
  6
Continuous
 62
     7
370
    15
100
AcDbLine
 10
200.6676753386
 20
900.0
 30
0.0
 11
298.0534485171
 21
900.0
 31
0.0
  0
LINE
  5
172
330
1F
100
AcDbEntity
  8
0
  6
Continuous
 62
     7
370
    15
100
AcDbLine
 10
200.6676753386
 20
900.0
 30
0.0
 11
200.6676753386
 21
-900.0
 31
0.0
  0
LINE
  5
173
330
1F
100
AcDbEntity
  8
0
  6
Continuous
 62
     7
370
    15
100
AcDbLine
 10
154.9458771874
 20
900.0
 30
0.0
 11
194.9458771874
 21
900.0
 31
0.0
  0
LINE
  5
174
330
1F
100
AcDbEntity
  8
0
  6
Continuous
 62
     7
370
    15
100
AcDbLine
 10
154.9458771874
 20
-900.0
 30
0.0
 11
194.9458771874
 21
-900.0
 31
0.0
  0
LINE
  5
175
330
1F
100
AcDbEntity
  8
0
  6
Continuous
 62
     7
370
    15
100
AcDbLine
 10
154.9458771874
 20
900.0
 30
0.0
 11
154.9458771874
 21
-900.0
 31
0.0
  0
LINE
  5
176
330
1F
100
AcDbEntity
  8
0
  6
Continuous
 62
     7
370
    15
100
AcDbLine
 10
194.9458771874
 20
-900.0
 30
0.0
 11
194.9458771874
 21
900.0
 31
0.0
  0
LINE
  5
177
330
1F
100
AcDbEntity
  8
0
  6
Continuous
 62
     7
370
    15
100
AcDbLine
 10
104.9458771874
 20
900.0
 30
0.0
 11
144.9458771874
 21
900.0
 31
0.0
  0
LINE
  5
178
330
1F
100
AcDbEntity
  8
0
  6
Continuous
 62
     7
370
    15
100
AcDbLine
 10
104.9458771874
 20
-900.0
 30
0.0
 11
144.9458771874
 21
-900.0
 31
0.0
  0
LINE
  5
179
330
1F
100
AcDbEntity
  8
0
  6
Continuous
 62
     7
370
    15
100
AcDbLine
 10
104.9458771874
 20
900.0
 30
0.0
 11
104.9458771874
 21
-900.0
 31
0.0
  0
LINE
  5
17A
330
1F
100
AcDbEntity
  8
0
  6
Continuous
 62
     7
370
    15
100
AcDbLine
 10
144.9458771874
 20
-900.0
 30
0.0
 11
144.9458771874
 21
900.0
 31
0.0
  0
LINE
  5
17B
330
1F
100
AcDbEntity
  8
0
  6
Continuous
 62
     7
370
    15
100
AcDbLine
 10
54.9458771874
 20
900.0
 30
0.0
 11
94.9458771874
 21
900.0
 31
0.0
  0
LINE
  5
17C
330
1F
100
AcDbEntity
  8
0
  6
Continuous
 62
     7
370
    15
100
AcDbLine
 10
54.9458771874
 20
-900.0
 30
0.0
 11
94.9458771874
 21
-900.0
 31
0.0
  0
LINE
  5
17D
330
1F
100
AcDbEntity
  8
0
  6
Continuous
 62
     7
370
    15
100
AcDbLine
 10
54.9458771874
 20
900.0
 30
0.0
 11
54.9458771874
 21
-900.0
 31
0.0
  0
LINE
  5
17E
330
1F
100
AcDbEntity
  8
0
  6
Continuous
 62
     7
370
    15
100
AcDbLine
 10
94.9458771874
 20
-900.0
 30
0.0
 11
94.9458771874
 21
900.0
 31
0.0
  0
LINE
  5
17F
330
1F
100
AcDbEntity
  8
0
  6
Continuous
 62
     7
370
    15
100
AcDbLine
 10
4.9458771874
 20
900.0
 30
0.0
 11
44.9458771874
 21
900.0
 31
0.0
  0
LINE
  5
180
330
1F
100
AcDbEntity
  8
0
  6
Continuous
 62
     7
370
    15
100
AcDbLine
 10
4.9458771874
 20
-900.0
 30
0.0
 11
44.9458771874
 21
-900.0
 31
0.0
  0
LINE
  5
181
330
1F
100
AcDbEntity
  8
0
  6
Continuous
 62
     7
370
    15
100
AcDbLine
 10
4.9458771874
 20
900.0
 30
0.0
 11
4.9458771874
 21
-900.0
 31
0.0
  0
LINE
  5
182
330
1F
100
AcDbEntity
  8
0
  6
Continuous
 62
     7
370
    15
100
AcDbLine
 10
44.9458771874
 20
-900.0
 30
0.0
 11
44.9458771874
 21
900.0
 31
0.0
  0
LINE
  5
183
330
1F
100
AcDbEntity
  8
0
  6
Continuous
 62
     7
370
    15
100
AcDbLine
 10
-45.0541228126
 20
900.0
 30
0.0
 11
-5.0541228126
 21
900.0
 31
0.0
  0
LINE
  5
184
330
1F
100
AcDbEntity
  8
0
  6
Continuous
 62
     7
370
    15
100
AcDbLine
 10
-45.0541228126
 20
-900.0
 30
0.0
 11
-5.0541228126
 21
-900.0
 31
0.0
  0
LINE
  5
185
330
1F
100
AcDbEntity
  8
0
  6
Continuous
 62
     7
370
    15
100
AcDbLine
 10
-45.0541228126
 20
900.0
 30
0.0
 11
-45.0541228126
 21
-900.0
 31
0.0
  0
LINE
  5
186
330
1F
100
AcDbEntity
  8
0
  6
Continuous
 62
     7
370
    15
100
AcDbLine
 10
-5.0541228126
 20
-900.0
 30
0.0
 11
-5.0541228126
 21
900.0
 31
0.0
  0
LINE
  5
187
330
1F
100
AcDbEntity
  8
0
  6
Continuous
 62
     7
370
    15
100
AcDbLine
 10
-95.0541228126
 20
900.0
 30
0.0
 11
-55.0541228126
 21
900.0
 31
0.0
  0
LINE
  5
188
330
1F
100
AcDbEntity
  8
0
  6
Continuous
 62
     7
370
    15
100
AcDbLine
 10
-95.0541228126
 20
-900.0
 30
0.0
 11
-55.0541228126
 21
-900.0
 31
0.0
  0
LINE
  5
189
330
1F
100
AcDbEntity
  8
0
  6
Continuous
 62
     7
370
    15
100
AcDbLine
 10
-95.0541228126
 20
900.0
 30
0.0
 11
-95.0541228126
 21
-900.0
 31
0.0
  0
LINE
  5
18A
330
1F
100
AcDbEntity
  8
0
  6
Continuous
 62
     7
370
    15
100
AcDbLine
 10
-55.0541228126
 20
-900.0
 30
0.0
 11
-55.0541228126
 21
900.0
 31
0.0
  0
LINE
  5
18B
330
1F
100
AcDbEntity
  8
0
  6
Continuous
 62
     7
370
    15
100
AcDbLine
 10
-145.0541228126
 20
900.0
 30
0.0
 11
-105.0541228126
 21
900.0
 31
0.0
  0
LINE
  5
18C
330
1F
100
AcDbEntity
  8
0
  6
Continuous
 62
     7
370
    15
100
AcDbLine
 10
-145.0541228126
 20
-900.0
 30
0.0
 11
-105.0541228126
 21
-900.0
 31
0.0
  0
LINE
  5
18D
330
1F
100
AcDbEntity
  8
0
  6
Continuous
 62
     7
370
    15
100
AcDbLine
 10
-145.0541228126
 20
900.0
 30
0.0
 11
-145.0541228126
 21
-900.0
 31
0.0
  0
LINE
  5
18E
330
1F
100
AcDbEntity
  8
0
  6
Continuous
 62
     7
370
    15
100
AcDbLine
 10
-105.0541228126
 20
-900.0
 30
0.0
 11
-105.0541228126
 21
900.0
 31
0.0
  0
LINE
  5
18F
330
1F
100
AcDbEntity
  8
0
  6
Continuous
 62
     7
370
    15
100
AcDbLine
 10
-195.0541228126
 20
900.0
 30
0.0
 11
-155.0541228126
 21
900.0
 31
0.0
  0
LINE
  5
190
330
1F
100
AcDbEntity
  8
0
  6
Continuous
 62
     7
370
    15
100
AcDbLine
 10
-195.0541228126
 20
-900.0
 30
0.0
 11
-155.0541228126
 21
-900.0
 31
0.0
  0
LINE
  5
191
330
1F
100
AcDbEntity
  8
0
  6
Continuous
 62
     7
370
    15
100
AcDbLine
 10
-195.0541228126
 20
900.0
 30
0.0
 11
-195.0541228126
 21
-900.0
 31
0.0
  0
LINE
  5
192
330
1F
100
AcDbEntity
  8
0
  6
Continuous
 62
     7
370
    15
100
AcDbLine
 10
-155.0541228126
 20
-900.0
 30
0.0
 11
-155.0541228126
 21
900.0
 31
0.0
  0
LINE
  5
193
330
1F
100
AcDbEntity
  8
0
  6
Continuous
 62
     7
370
    15
100
AcDbLine
 10
-252.6933774026
 20
-900.0
 30
0.0
 11
-200.6676753386
 21
-900.0
 31
0.0
  0
LINE
  5
194
330
1F
100
AcDbEntity
  8
0
  6
Continuous
 62
     7
370
    15
100
AcDbLine
 10
-252.6933774026
 20
900.0
 30
0.0
 11
-200.6676753386
 21
900.0
 31
0.0
  0
LINE
  5
195
330
1F
100
AcDbEntity
  8
0
  6
Continuous
 62
     7
370
    15
100
AcDbLine
 10
-200.6676753386
 20
-900.0
 30
0.0
 11
-200.6676753386
 21
900.0
 31
0.0
  0
LINE
  5
196
330
1F
100
AcDbEntity
  8
0
  6
Continuous
 62
     7
370
    15
100
AcDbLine
 10
-200.6676753386
 20
670.0
 30
0.0
 11
-195.0541228126
 21
670.0
 31
0.0
  0
LINE
  5
197
330
1F
100
AcDbEntity
  8
0
  6
Continuous
 62
     7
370
    15
100
AcDbLine
 10
-155.0541228126
 20
670.0
 30
0.0
 11
-145.0541228126
 21
670.0
 31
0.0
  0
LINE
  5
198
330
1F
100
AcDbEntity
  8
0
  6
Continuous
 62
     7
370
    15
100
AcDbLine
 10
-105.0541228126
 20
670.0
 30
0.0
 11
-95.0541228126
 21
670.0
 31
0.0
  0
LINE
  5
199
330
1F
100
AcDbEntity
  8
0
  6
Continuous
 62
     7
370
    15
100
AcDbLine
 10
-55.0541228126
 20
670.0
 30
0.0
 11
-45.0541228126
 21
670.0
 31
0.0
  0
LINE
  5
19A
330
1F
100
AcDbEntity
  8
0
  6
Continuous
 62
     7
370
    15
100
AcDbLine
 10
-5.0541228126
 20
670.0
 30
0.0
 11
4.9458771874
 21
670.0
 31
0.0
  0
LINE
  5
19B
330
1F
100
AcDbEntity
  8
0
  6
Continuous
 62
     7
370
    15
100
AcDbLine
 10
44.9458771874
 20
670.0
 30
0.0
 11
54.9458771874
 21
670.0
 31
0.0
  0
LINE
  5
19C
330
1F
100
AcDbEntity
  8
0
  6
Continuous
 62
     7
370
    15
100
AcDbLine
 10
94.9458771874
 20
670.0
 30
0.0
 11
104.9458771874
 21
670.0
 31
0.0
  0
LINE
  5
19D
330
1F
100
AcDbEntity
  8
0
  6
Continuous
 62
     7
370
    15
100
AcDbLine
 10
144.9458771874
 20
670.0
 30
0.0
 11
154.9458771874
 21
670.0
 31
0.0
  0
LINE
  5
19E
330
1F
100
AcDbEntity
  8
0
  6
Continuous
 62
     7
370
    15
100
AcDbLine
 10
194.9458771874
 20
670.0
 30
0.0
 11
200.6676753386
 21
670.0
 31
0.0
  0
LINE
  5
19F
330
1F
100
AcDbEntity
  8
0
  6
Continuous
 62
     7
370
    15
100
AcDbLine
 10
-200.6676753386
 20
750.0
 30
0.0
 11
-195.0541228126
 21
750.0
 31
0.0
  0
LINE
  5
1A0
330
1F
100
AcDbEntity
  8
0
  6
Continuous
 62
     7
370
    15
100
AcDbLine
 10
-155.0541228126
 20
750.0
 30
0.0
 11
-145.0541228126
 21
750.0
 31
0.0
  0
LINE
  5
1A1
330
1F
100
AcDbEntity
  8
0
  6
Continuous
 62
     7
370
    15
100
AcDbLine
 10
-105.0541228126
 20
750.0
 30
0.0
 11
-95.0541228126
 21
750.0
 31
0.0
  0
LINE
  5
1A2
330
1F
100
AcDbEntity
  8
0
  6
Continuous
 62
     7
370
    15
100
AcDbLine
 10
-55.0541228126
 20
750.0
 30
0.0
 11
-45.0541228126
 21
750.0
 31
0.0
  0
LINE
  5
1A3
330
1F
100
AcDbEntity
  8
0
  6
Continuous
 62
     7
370
    15
100
AcDbLine
 10
-5.0541228126
 20
750.0
 30
0.0
 11
4.9458771874
 21
750.0
 31
0.0
  0
LINE
  5
1A4
330
1F
100
AcDbEntity
  8
0
  6
Continuous
 62
     7
370
    15
100
AcDbLine
 10
44.9458771874
 20
750.0
 30
0.0
 11
54.9458771874
 21
750.0
 31
0.0
  0
LINE
  5
1A5
330
1F
100
AcDbEntity
  8
0
  6
Continuous
 62
     7
370
    15
100
AcDbLine
 10
94.9458771874
 20
750.0
 30
0.0
 11
104.9458771874
 21
750.0
 31
0.0
  0
LINE
  5
1A6
330
1F
100
AcDbEntity
  8
0
  6
Continuous
 62
     7
370
    15
100
AcDbLine
 10
144.9458771874
 20
750.0
 30
0.0
 11
154.9458771874
 21
750.0
 31
0.0
  0
LINE
  5
1A7
330
1F
100
AcDbEntity
  8
0
  6
Continuous
 62
     7
370
    15
100
AcDbLine
 10
194.9458771874
 20
750.0
 30
0.0
 11
200.6676753386
 21
750.0
 31
0.0
  0
LINE
  5
1A8
330
1F
100
AcDbEntity
  8
0
  6
Continuous
 62
     7
370
    15
100
AcDbLine
 10
200.0
 20
750.0
 30
0.0
 11
200.6676753386
 21
749.705340936
 31
0.0
  0
LINE
  5
1A9
330
1F
100
AcDbEntity
  8
0
  6
Continuous
 62
     7
370
    15
100
AcDbLine
 10
-200.6676753386
 20
749.8115399115
 30
0.0
 11
-200.0
 21
750.0
 31
0.0
  0
LINE
  5
1AA
330
1F
100
AcDbEntity
  8
0
  6
Continuous
 62
     7
370
    15
100
AcDbLine
 10
-271.396394796
 20
750.0
 30
0.0
 11
-252.6933774026
 21
750.0
 31
0.0
  0
LINE
  5
1AB
330
1F
100
AcDbEntity
  8
0
  6
Continuous
 62
     7
370
    15
100
AcDbLine
 10
-252.6933774026
 20
670.0
 30
0.0
 11
-281.407078518
 21
670.0
 31
0.0
  0
LINE
  5
1AC
330
1F
100
AcDbEntity
  8
0
  6
Continuous
 62
     7
370
    15
100
AcDbLine
 10
-279.0485790463
 20
670.0
 30
0.0
 11
-279.0485790463
 21
740.5
 31
0.0
  0
LINE
  5
1AD
330
1F
100
AcDbEntity
  8
0
  6
Continuous
 62
     7
370
    15
100
AcDbLine
 10
-281.407078518
 20
740.5
 30
0.0
 11
-252.6933774026
 21
740.5
 31
0.0
  0
LINE
  5
1AE
330
1F
100
AcDbEntity
  8
0
  6
Continuous
 62
     7
370
    15
100
AcDbLine
 10
-281.407078518
 20
740.5
 30
0.0
 11
-281.407078518
 21
670.0
 31
0.0
  0
LINE
  5
1AF
330
1F
100
AcDbEntity
  8
0
  6
PHANTOM
 62
     8
370
     0
100
AcDbLine
 10
200.6676753386
 20
-740.5
 30
0.0
 11
194.9458771874
 21
-740.5
 31
0.0
  0
LINE
  5
1B0
330
1F
100
AcDbEntity
  8
0
  6
PHANTOM
 62
     8
370
     0
100
AcDbLine
 10
154.9458771874
 20
-740.5
 30
0.0
 11
144.9458771874
 21
-740.5
 31
0.0
  0
LINE
  5
1B1
330
1F
100
AcDbEntity
  8
0
  6
PHANTOM
 62
     8
370
     0
100
AcDbLine
 10
104.9458771874
 20
-740.5
 30
0.0
 11
94.9458771874
 21
-740.5
 31
0.0
  0
LINE
  5
1B2
330
1F
100
AcDbEntity
  8
0
  6
PHANTOM
 62
     8
370
     0
100
AcDbLine
 10
54.9458771874
 20
-740.5
 30
0.0
 11
44.9458771874
 21
-740.5
 31
0.0
  0
LINE
  5
1B3
330
1F
100
AcDbEntity
  8
0
  6
PHANTOM
 62
     8
370
     0
100
AcDbLine
 10
4.9458771874
 20
-740.5
 30
0.0
 11
-5.0541228126
 21
-740.5
 31
0.0
  0
LINE
  5
1B4
330
1F
100
AcDbEntity
  8
0
  6
PHANTOM
 62
     8
370
     0
100
AcDbLine
 10
-45.0541228126
 20
-740.5
 30
0.0
 11
-55.0541228126
 21
-740.5
 31
0.0
  0
LINE
  5
1B5
330
1F
100
AcDbEntity
  8
0
  6
PHANTOM
 62
     8
370
     0
100
AcDbLine
 10
-95.0541228126
 20
-740.5
 30
0.0
 11
-105.0541228126
 21
-740.5
 31
0.0
  0
LINE
  5
1B6
330
1F
100
AcDbEntity
  8
0
  6
PHANTOM
 62
     8
370
     0
100
AcDbLine
 10
-145.0541228126
 20
-740.5
 30
0.0
 11
-155.0541228126
 21
-740.5
 31
0.0
  0
LINE
  5
1B7
330
1F
100
AcDbEntity
  8
0
  6
PHANTOM
 62
     8
370
     0
100
AcDbLine
 10
-195.0541228126
 20
-740.5
 30
0.0
 11
-200.6676753386
 21
-740.5
 31
0.0
  0
LINE
  5
1B8
330
1F
100
AcDbEntity
  8
0
  6
PHANTOM
 62
     8
370
     0
100
AcDbLine
 10
268.5354832315
 20
-900.0
 30
0.0
 11
268.5354832315
 21
900.0
 31
0.0
  0
LINE
  5
1B9
330
1F
100
AcDbEntity
  8
0
  6
PHANTOM
 62
     8
370
     0
100
AcDbLine
 10
261.8175257938
 20
900.0
 30
0.0
 11
261.8175257938
 21
-900.0
 31
0.0
  0
LINE
  5
1BA
330
1F
100
AcDbEntity
  8
0
  6
PHANTOM
 62
     8
370
     0
100
AcDbLine
 10
295.30913128
 20
900.0
 30
0.0
 11
295.30913128
 21
-900.0
 31
0.0
  0
LINE
  5
1BB
330
1F
100
AcDbEntity
  8
0
  6
PHANTOM
 62
     8
370
     0
100
AcDbLine
 10
223.175412117
 20
-900.0
 30
0.0
 11
223.175412117
 21
900.0
 31
0.0
  0
LINE
  5
1BC
330
1F
100
AcDbEntity
  8
0
  6
PHANTOM
 62
     8
370
     0
100
AcDbLine
 10
216.4574546793
 20
900.0
 30
0.0
 11
216.4574546793
 21
-900.0
 31
0.0
  0
LINE
  5
1BD
330
1F
100
AcDbEntity
  8
0
  6
PHANTOM
 62
     8
370
     0
100
AcDbLine
 10
249.9490601655
 20
900.0
 30
0.0
 11
249.9490601655
 21
-900.0
 31
0.0
  0
LINE
  5
1BE
330
1F
100
AcDbEntity
  8
0
  6
PHANTOM
 62
     8
370
     0
100
AcDbLine
 10
189.9458771874
 20
900.0
 30
0.0
 11
189.9458771874
 21
-900.0
 31
0.0
  0
LINE
  5
1BF
330
1F
100
AcDbEntity
  8
0
  6
PHANTOM
 62
     8
370
     0
100
AcDbLine
 10
159.9458771874
 20
-900.0
 30
0.0
 11
159.9458771874
 21
900.0
 31
0.0
  0
LINE
  5
1C0
330
1F
100
AcDbEntity
  8
0
  6
PHANTOM
 62
     8
370
     0
100
AcDbLine
 10
139.9458771874
 20
900.0
 30
0.0
 11
139.9458771874
 21
-900.0
 31
0.0
  0
LINE
  5
1C1
330
1F
100
AcDbEntity
  8
0
  6
PHANTOM
 62
     8
370
     0
100
AcDbLine
 10
109.9458771874
 20
-900.0
 30
0.0
 11
109.9458771874
 21
900.0
 31
0.0
  0
LINE
  5
1C2
330
1F
100
AcDbEntity
  8
0
  6
PHANTOM
 62
     8
370
     0
100
AcDbLine
 10
89.9458771874
 20
900.0
 30
0.0
 11
89.9458771874
 21
-900.0
 31
0.0
  0
LINE
  5
1C3
330
1F
100
AcDbEntity
  8
0
  6
PHANTOM
 62
     8
370
     0
100
AcDbLine
 10
59.9458771874
 20
-900.0
 30
0.0
 11
59.9458771874
 21
900.0
 31
0.0
  0
LINE
  5
1C4
330
1F
100
AcDbEntity
  8
0
  6
PHANTOM
 62
     8
370
     0
100
AcDbLine
 10
39.9458771874
 20
900.0
 30
0.0
 11
39.9458771874
 21
-900.0
 31
0.0
  0
LINE
  5
1C5
330
1F
100
AcDbEntity
  8
0
  6
PHANTOM
 62
     8
370
     0
100
AcDbLine
 10
9.9458771874
 20
-900.0
 30
0.0
 11
9.9458771874
 21
900.0
 31
0.0
  0
LINE
  5
1C6
330
1F
100
AcDbEntity
  8
0
  6
PHANTOM
 62
     8
370
     0
100
AcDbLine
 10
-10.0541228126
 20
900.0
 30
0.0
 11
-10.0541228126
 21
-900.0
 31
0.0
  0
LINE
  5
1C7
330
1F
100
AcDbEntity
  8
0
  6
PHANTOM
 62
     8
370
     0
100
AcDbLine
 10
-40.0541228126
 20
-900.0
 30
0.0
 11
-40.0541228126
 21
900.0
 31
0.0
  0
LINE
  5
1C8
330
1F
100
AcDbEntity
  8
0
  6
PHANTOM
 62
     8
370
     0
100
AcDbLine
 10
-60.0541228126
 20
900.0
 30
0.0
 11
-60.0541228126
 21
-900.0
 31
0.0
  0
LINE
  5
1C9
330
1F
100
AcDbEntity
  8
0
  6
PHANTOM
 62
     8
370
     0
100
AcDbLine
 10
-90.0541228126
 20
-900.0
 30
0.0
 11
-90.0541228126
 21
900.0
 31
0.0
  0
LINE
  5
1CA
330
1F
100
AcDbEntity
  8
0
  6
PHANTOM
 62
     8
370
     0
100
AcDbLine
 10
-110.0541228126
 20
900.0
 30
0.0
 11
-110.0541228126
 21
-900.0
 31
0.0
  0
LINE
  5
1CB
330
1F
100
AcDbEntity
  8
0
  6
PHANTOM
 62
     8
370
     0
100
AcDbLine
 10
-140.0541228126
 20
-900.0
 30
0.0
 11
-140.0541228126
 21
900.0
 31
0.0
  0
LINE
  5
1CC
330
1F
100
AcDbEntity
  8
0
  6
PHANTOM
 62
     8
370
     0
100
AcDbLine
 10
-160.0541228126
 20
900.0
 30
0.0
 11
-160.0541228126
 21
-900.0
 31
0.0
  0
LINE
  5
1CD
330
1F
100
AcDbEntity
  8
0
  6
PHANTOM
 62
     8
370
     0
100
AcDbLine
 10
-190.0541228126
 20
-900.0
 30
0.0
 11
-190.0541228126
 21
900.0
 31
0.0
  0
LINE
  5
1CE
330
1F
100
AcDbEntity
  8
0
  6
PHANTOM
 62
     8
370
     0
100
AcDbLine
 10
-216.4574546793
 20
-900.0
 30
0.0
 11
-216.4574546793
 21
900.0
 31
0.0
  0
LINE
  5
1CF
330
1F
100
AcDbEntity
  8
0
  6
PHANTOM
 62
     8
370
     0
100
AcDbLine
 10
-223.175412117
 20
900.0
 30
0.0
 11
-223.175412117
 21
-900.0
 31
0.0
  0
LINE
  5
1D0
330
1F
100
AcDbEntity
  8
0
  6
PHANTOM
 62
     8
370
     0
100
AcDbLine
 10
-249.9490601655
 20
-900.0
 30
0.0
 11
-249.9490601655
 21
900.0
 31
0.0
  0
LINE
  5
1D1
330
1F
100
AcDbEntity
  8
0
  6
PHANTOM
 62
     8
370
     0
100
AcDbLine
 10
-200.6676753386
 20
740.5
 30
0.0
 11
-195.0541228126
 21
740.5
 31
0.0
  0
LINE
  5
1D2
330
1F
100
AcDbEntity
  8
0
  6
PHANTOM
 62
     8
370
     0
100
AcDbLine
 10
-155.0541228126
 20
740.5
 30
0.0
 11
-145.0541228126
 21
740.5
 31
0.0
  0
LINE
  5
1D3
330
1F
100
AcDbEntity
  8
0
  6
PHANTOM
 62
     8
370
     0
100
AcDbLine
 10
-105.0541228126
 20
740.5
 30
0.0
 11
-95.0541228126
 21
740.5
 31
0.0
  0
LINE
  5
1D4
330
1F
100
AcDbEntity
  8
0
  6
PHANTOM
 62
     8
370
     0
100
AcDbLine
 10
-55.0541228126
 20
740.5
 30
0.0
 11
-45.0541228126
 21
740.5
 31
0.0
  0
LINE
  5
1D5
330
1F
100
AcDbEntity
  8
0
  6
PHANTOM
 62
     8
370
     0
100
AcDbLine
 10
-5.0541228126
 20
740.5
 30
0.0
 11
4.9458771874
 21
740.5
 31
0.0
  0
LINE
  5
1D6
330
1F
100
AcDbEntity
  8
0
  6
PHANTOM
 62
     8
370
     0
100
AcDbLine
 10
44.9458771874
 20
740.5
 30
0.0
 11
54.9458771874
 21
740.5
 31
0.0
  0
LINE
  5
1D7
330
1F
100
AcDbEntity
  8
0
  6
PHANTOM
 62
     8
370
     0
100
AcDbLine
 10
94.9458771874
 20
740.5
 30
0.0
 11
104.9458771874
 21
740.5
 31
0.0
  0
LINE
  5
1D8
330
1F
100
AcDbEntity
  8
0
  6
PHANTOM
 62
     8
370
     0
100
AcDbLine
 10
144.9458771874
 20
740.5
 30
0.0
 11
154.9458771874
 21
740.5
 31
0.0
  0
LINE
  5
1D9
330
1F
100
AcDbEntity
  8
0
  6
PHANTOM
 62
     8
370
     0
100
AcDbLine
 10
194.9458771874
 20
740.5
 30
0.0
 11
200.6676753386
 21
740.5
 31
0.0
  0
LINE
  5
1DA
330
1F
100
AcDbEntity
  8
0
  6
PHANTOM
 62
     8
370
     0
100
AcDbLine
 10
-274.2089431496
 20
-670.0
 30
0.0
 11
-274.2089431496
 21
670.0
 31
0.0
  0
ARC
  5
1DB
330
1F
100
AcDbEntity
  8
0
  6
Continuous
 62
     7
370
    15
100
AcDbCircle
 10
-261.7488417196
 20
-682.1050634417
 30
0.0
 40
3.225647239863283
100
AcDbArc
 50
178.1334733084
 51
247.6666173679
  0
ARC
  5
1DC
330
1F
100
AcDbEntity
  8
0
  6
Continuous
 62
     7
370
    15
100
AcDbCircle
 10
-261.7488417196
 20
-681.8949365583
 30
0.0
 40
3.225647239863458
100
AcDbArc
 50
112.3333826321
 51
181.8665266916
  0
ARC
  5
1DD
330
1F
100
AcDbEntity
  8
0
  6
Continuous
 62
     7
370
    15
100
AcDbCircle
 10
-261.7488417196
 20
-722.1050634417
 30
0.0
 40
3.225647239859909
100
AcDbArc
 50
178.1334733084
 51
247.6666173685
  0
ARC
  5
1DE
330
1F
100
AcDbEntity
  8
0
  6
Continuous
 62
     7
370
    15
100
AcDbCircle
 10
-261.7488417196
 20
-721.8949365583
 30
0.0
 40
3.225647239859624
100
AcDbArc
 50
112.3333826315
 51
181.8665266916
  0
ARC
  5
1DF
330
1F
100
AcDbEntity
  8
0
  6
Continuous
 62
     7
370
    15
100
AcDbCircle
 10
-261.6678522642
 20
722.0
 30
0.0
 40
3.353787850919641
100
AcDbArc
 50
112.9311713727
 51
247.0688286273
  0
ARC
  5
1E0
330
1F
100
AcDbEntity
  8
0
  6
Continuous
 62
     7
370
    15
100
AcDbCircle
 10
-261.6678522642
 20
682.0
 30
0.0
 40
3.353787850908794
100
AcDbArc
 50
112.9311713705
 51
247.0688286295
  0
ARC
  5
1E1
330
1F
100
AcDbEntity
  8
0
  6
Continuous
 62
     7
370
    15
100
AcDbCircle
 10
-260.5346080073
 20
0.0
 30
0.0
 40
4.068041474722786
100
AcDbArc
 50
103.8494060271
 51
256.1505939729
  0
ARC
  5
1E2
330
1F
100
AcDbEntity
  8
0
  6
Continuous
 62
     7
370
    15
100
AcDbCircle
 10
-260.5609969912
 20
-412.0
 30
0.0
 40
3.570471145937213
100
AcDbArc
 50
105.3870308992
 51
254.6129691008
  0
ARC
  5
1E3
330
1F
100
AcDbEntity
  8
0
  6
Continuous
 62
     7
370
    15
100
AcDbCircle
 10
-260.3895396381
 20
-722.0000000002
 30
0.0
 40
3.702033041129142
100
AcDbArc
 50
127.4343114193
 51
232.5656883679
  0
ARC
  5
1E4
330
1F
100
AcDbEntity
  8
0
  6
Continuous
 62
     7
370
    15
100
AcDbCircle
 10
-260.3895397895
 20
-681.9999999998
 30
0.0
 40
3.702032910073516
100
AcDbArc
 50
127.4342870817
 51
232.5657130918
  0
ARC
  5
1E5
330
1F
100
AcDbEntity
  8
0
  6
Continuous
 62
     7
370
    15
100
AcDbCircle
 10
-260.5609969912
 20
-135.0
 30
0.0
 40
3.570471145939168
100
AcDbArc
 50
105.3870308995
 51
254.6129691004
  0
ARC
  5
1E6
330
1F
100
AcDbEntity
  8
0
  6
Continuous
 62
     7
370
    15
100
AcDbCircle
 10
-260.3895397588
 20
681.9999999999
 30
0.0
 40
3.702032936627182
100
AcDbArc
 50
127.4342919294
 51
232.565707978
  0
ARC
  5
1E7
330
1F
100
AcDbEntity
  8
0
  6
Continuous
 62
     7
370
    15
100
AcDbCircle
 10
-260.5609969912
 20
135.0
 30
0.0
 40
3.57047114593917
100
AcDbArc
 50
105.3870308996
 51
254.6129691005
  0
ARC
  5
1E8
330
1F
100
AcDbEntity
  8
0
  6
Continuous
 62
     7
370
    15
100
AcDbCircle
 10
-260.5609969912
 20
412.0
 30
0.0
 40
3.570471145937213
100
AcDbArc
 50
105.3870308992
 51
254.6129691008
  0
ARC
  5
1E9
330
1F
100
AcDbEntity
  8
0
  6
Continuous
 62
     7
370
    15
100
AcDbCircle
 10
-260.3895395956
 20
722.0000000003
 30
0.0
 40
3.702033077753932
100
AcDbArc
 50
127.4343185041
 51
232.5656818134
  0
ENDSEC
  0
SECTION
  2
OBJECTS
  0
DICTIONARY
  5
C
330
0
100
AcDbDictionary
281
     1
  3
ACAD_GROUP
350
D
  3
ACAD_LAYOUT
350
1A
  3
ACAD_MLINESTYLE
350
17
  3
ACAD_PLOTSETTINGS
350
19
  3
ACAD_PLOTSTYLENAME
350
E
  3
ACAD_SCALELIST
350
47
  0
DICTIONARY
  5
D
102
{ACAD_REACTORS
330
C
102
}
330
C
100
AcDbDictionary
281
     1
  0
DICTIONARY
  5
1A
102
{ACAD_REACTORS
330
C
102
}
330
C
100
AcDbDictionary
281
     1
  3
Layout1
350
1E
  3
Layout2
350
26
  3
Model
350
22
  0
DICTIONARY
  5
17
102
{ACAD_REACTORS
330
C
102
}
330
C
100
AcDbDictionary
281
     1
  3
Standard
350
18
  0
DICTIONARY
  5
19
102
{ACAD_REACTORS
330
C
102
}
330
C
100
AcDbDictionary
281
     1
  0
ACDBDICTIONARYWDFLT
  5
E
102
{ACAD_REACTORS
330
C
102
}
330
C
100
AcDbDictionary
281
     1
  3
Normal
350
F
100
AcDbDictionaryWithDefault
340
F
  0
DICTIONARY
  5
47
102
{ACAD_REACTORS
330
C
102
}
330
C
100
AcDbDictionary
281
     1
  3
A0
350
48
  3
A1
350
49
  3
A2
350
4A
  3
A3
350
4B
  3
A4
350
4C
  3
A5
350
4D
  3
A6
350
4E
  3
A7
350
4F
  3
A8
350
50
  3
A9
350
51
  3
B0
350
52
  3
B1
350
53
  3
B2
350
54
  3
B3
350
55
  3
B4
350
56
  3
B5
350
57
  3
B6
350
58
  3
B7
350
59
  3
B8
350
5A
  3
B9
350
5B
  3
C0
350
5C
  3
C1
350
5D
  3
C2
350
5E
  3
C3
350
5F
  3
C4
350
60
  3
C5
350
61
  3
C6
350
62
  3
C7
350
63
  3
C8
350
64
  3
C9
350
65
  3
D0
350
66
  3
D1
350
67
  3
D2
350
68
  0
LAYOUT
  5
1E
102
{ACAD_REACTORS
330
1A
102
}
330
1A
100
AcDbPlotSettings
  1

  2
none_device
  4

  6

 40
0.0
 41
0.0
 42
0.0
 43
0.0
 44
0.0
 45
0.0
 46
0.0
 47
0.0
 48
0.0
 49
0.0
140
0.0
141
0.0
142
1.0
143
1.0
 70
   688
 72
     1
 73
     0
 74
     5
  7

 75
    16
147
1.0
148
0.0
149
0.0
100
AcDbLayout
  1
Layout1
 70
     1
 71
     1
 10
0.0
 20
0.0
 11
420.0
 21
297.0
 12
0.0
 22
0.0
 32
0.0
 14
1.0000000000E+20
 24
1.0000000000E+20
 34
1.0000000000E+20
 15
-1.0000000000E+20
 25
-1.0000000000E+20
 35
-1.0000000000E+20
146
0.0
 13
0.0
 23
0.0
 33
0.0
 16
1.0
 26
0.0
 36
0.0
 17
0.0
 27
1.0
 37
0.0
 76
     0
330
1B
  0
LAYOUT
  5
26
102
{ACAD_REACTORS
330
1A
102
}
330
1A
100
AcDbPlotSettings
  1

  2
none_device
  4

  6

 40
0.0
 41
0.0
 42
0.0
 43
0.0
 44
0.0
 45
0.0
 46
0.0
 47
0.0
 48
0.0
 49
0.0
140
0.0
141
0.0
142
1.0
143
1.0
 70
   688
 72
     1
 73
     0
 74
     5
  7

 75
    16
147
1.0
148
0.0
149
0.0
100
AcDbLayout
  1
Layout2
 70
     1
 71
     2
 10
0.0
 20
0.0
 11
0.0
 21
0.0
 12
0.0
 22
0.0
 32
0.0
 14
0.0
 24
0.0
 34
0.0
 15
0.0
 25
0.0
 35
0.0
146
0.0
 13
0.0
 23
0.0
 33
0.0
 16
1.0
 26
0.0
 36
0.0
 17
0.0
 27
1.0
 37
0.0
 76
     0
330
23
  0
LAYOUT
  5
22
102
{ACAD_REACTORS
330
1A
102
}
330
1A
100
AcDbPlotSettings
  1

  2
none_device
  4
ANSI_A_(11.00_x_8.50_Inches)
  6

 40
6.35
 41
19.05
 42
6.35000508
 43
19.05000254
 44
279.4
 45
215.9
 46
132.3616608572
 47
88.89999873
 48
0.0
 49
0.0
140
0.0
141
0.0
142
0.004675
143
1.0
 70
  1696
 72
     0
 73
     0
 74
     0
  7

 75
     0
147
0.0179189148
148
-1300.4909072572
149
0.0
100
AcDbLayout
  1
Model
 70
     1
 71
     0
 10
0.0
 20
0.0
 11
420.0
 21
297.0
 12
0.0
 22
0.0
 32
0.0
 14
-281.407078518
 24
-900.0
 34
0.0
 15
298.0534485171
 25
900.0
 35
0.0
146
0.0
 13
0.0
 23
0.0
 33
0.0
 16
1.0
 26
0.0
 36
0.0
 17
0.0
 27
1.0
 37
0.0
 76
     0
330
1F
331
29
  0
MLINESTYLE
  5
18
102
{ACAD_REACTORS
330
17
102
}
330
17
100
AcDbMlineStyle
  2
Standard
 70
     0
  3

 62
   256
 51
90.0
 52
90.0
 71
     2
 49
0.5
 62
   256
  6
BYLAYER
 49
-0.5
 62
   256
  6
BYLAYER
  0
ACDBPLACEHOLDER
  5
F
102
{ACAD_REACTORS
330
E
102
}
330
E
  0
SCALE
  5
48
102
{ACAD_REACTORS
330
47
102
}
330
47
100
AcDbScale
 70
     0
300
1:1
140
1.0
141
1.0
290
     1
  0
SCALE
  5
49
102
{ACAD_REACTORS
330
47
102
}
330
47
100
AcDbScale
 70
     0
300
1:2
140
1.0
141
2.0
290
     0
  0
SCALE
  5
4A
102
{ACAD_REACTORS
330
47
102
}
330
47
100
AcDbScale
 70
     0
300
1:4
140
1.0
141
4.0
290
     0
  0
SCALE
  5
4B
102
{ACAD_REACTORS
330
47
102
}
330
47
100
AcDbScale
 70
     0
300
1:5
140
1.0
141
5.0
290
     0
  0
SCALE
  5
4C
102
{ACAD_REACTORS
330
47
102
}
330
47
100
AcDbScale
 70
     0
300
1:8
140
1.0
141
8.0
290
     0
  0
SCALE
  5
4D
102
{ACAD_REACTORS
330
47
102
}
330
47
100
AcDbScale
 70
     0
300
1:10
140
1.0
141
10.0
290
     0
  0
SCALE
  5
4E
102
{ACAD_REACTORS
330
47
102
}
330
47
100
AcDbScale
 70
     0
300
1:16
140
1.0
141
16.0
290
     0
  0
SCALE
  5
4F
102
{ACAD_REACTORS
330
47
102
}
330
47
100
AcDbScale
 70
     0
300
1:20
140
1.0
141
20.0
290
     0
  0
SCALE
  5
50
102
{ACAD_REACTORS
330
47
102
}
330
47
100
AcDbScale
 70
     0
300
1:30
140
1.0
141
30.0
290
     0
  0
SCALE
  5
51
102
{ACAD_REACTORS
330
47
102
}
330
47
100
AcDbScale
 70
     0
300
1:40
140
1.0
141
40.0
290
     0
  0
SCALE
  5
52
102
{ACAD_REACTORS
330
47
102
}
330
47
100
AcDbScale
 70
     0
300
1:50
140
1.0
141
50.0
290
     0
  0
SCALE
  5
53
102
{ACAD_REACTORS
330
47
102
}
330
47
100
AcDbScale
 70
     0
300
1:100
140
1.0
141
100.0
290
     0
  0
SCALE
  5
54
102
{ACAD_REACTORS
330
47
102
}
330
47
100
AcDbScale
 70
     0
300
2:1
140
2.0
141
1.0
290
     0
  0
SCALE
  5
55
102
{ACAD_REACTORS
330
47
102
}
330
47
100
AcDbScale
 70
     0
300
4:1
140
4.0
141
1.0
290
     0
  0
SCALE
  5
56
102
{ACAD_REACTORS
330
47
102
}
330
47
100
AcDbScale
 70
     0
300
8:1
140
8.0
141
1.0
290
     0
  0
SCALE
  5
57
102
{ACAD_REACTORS
330
47
102
}
330
47
100
AcDbScale
 70
     0
300
10:1
140
10.0
141
1.0
290
     0
  0
SCALE
  5
58
102
{ACAD_REACTORS
330
47
102
}
330
47
100
AcDbScale
 70
     0
300
100:1
140
100.0
141
1.0
290
     0
  0
SCALE
  5
59
102
{ACAD_REACTORS
330
47
102
}
330
47
100
AcDbScale
 70
     0
300
1/128" = 1'-0"
140
0.0078125
141
12.0
290
     0
  0
SCALE
  5
5A
102
{ACAD_REACTORS
330
47
102
}
330
47
100
AcDbScale
 70
     0
300
1/64" = 1'-0"
140
0.015625
141
12.0
290
     0
  0
SCALE
  5
5B
102
{ACAD_REACTORS
330
47
102
}
330
47
100
AcDbScale
 70
     0
300
1/32" = 1'-0"
140
0.03125
141
12.0
290
     0
  0
SCALE
  5
5C
102
{ACAD_REACTORS
330
47
102
}
330
47
100
AcDbScale
 70
     0
300
1/16" = 1'-0"
140
0.0625
141
12.0
290
     0
  0
SCALE
  5
5D
102
{ACAD_REACTORS
330
47
102
}
330
47
100
AcDbScale
 70
     0
300
3/32" = 1'-0"
140
0.09375
141
12.0
290
     0
  0
SCALE
  5
5E
102
{ACAD_REACTORS
330
47
102
}
330
47
100
AcDbScale
 70
     0
300
1/8" = 1'-0"
140
0.125
141
12.0
290
     0
  0
SCALE
  5
5F
102
{ACAD_REACTORS
330
47
102
}
330
47
100
AcDbScale
 70
     0
300
3/16" = 1'-0"
140
0.1875
141
12.0
290
     0
  0
SCALE
  5
60
102
{ACAD_REACTORS
330
47
102
}
330
47
100
AcDbScale
 70
     0
300
1/4" = 1'-0"
140
0.25
141
12.0
290
     0
  0
SCALE
  5
61
102
{ACAD_REACTORS
330
47
102
}
330
47
100
AcDbScale
 70
     0
300
3/8" = 1'-0"
140
0.375
141
12.0
290
     0
  0
SCALE
  5
62
102
{ACAD_REACTORS
330
47
102
}
330
47
100
AcDbScale
 70
     0
300
1/2" = 1'-0"
140
0.5
141
12.0
290
     0
  0
SCALE
  5
63
102
{ACAD_REACTORS
330
47
102
}
330
47
100
AcDbScale
 70
     0
300
3/4" = 1'-0"
140
0.75
141
12.0
290
     0
  0
SCALE
  5
64
102
{ACAD_REACTORS
330
47
102
}
330
47
100
AcDbScale
 70
     0
300
1" = 1'-0"
140
1.0
141
12.0
290
     0
  0
SCALE
  5
65
102
{ACAD_REACTORS
330
47
102
}
330
47
100
AcDbScale
 70
     0
300
1-1/2" = 1'-0"
140
1.5
141
12.0
290
     0
  0
SCALE
  5
66
102
{ACAD_REACTORS
330
47
102
}
330
47
100
AcDbScale
 70
     0
300
3" = 1'-0"
140
3.0
141
12.0
290
     0
  0
SCALE
  5
67
102
{ACAD_REACTORS
330
47
102
}
330
47
100
AcDbScale
 70
     0
300
6" = 1'-0"
140
6.0
141
12.0
290
     0
  0
SCALE
  5
68
102
{ACAD_REACTORS
330
47
102
}
330
47
100
AcDbScale
 70
     0
300
1'-0" = 1'-0"
140
12.0
141
12.0
290
     0
  0
ENDSEC
  0
EOF
