  0
SECTION
  2
HEADER
  9
$ACADVER
  1
AC1015
  9
$ACADMAINTVER
 70
     6
  9
$DWGCODEPAGE
  3
ANSI_1251
  9
$INSBASE
 10
0.0
 20
0.0
 30
0.0
  9
$EXTMIN
 10
-3097.5739169434
 20
-2247.5650358345
 30
0.0
  9
$EXTMAX
 10
1625.7637533452
 20
3367.4487985209
 30
0.0
  9
$LIMMIN
 10
0.0
 20
0.0
  9
$LIMMAX
 10
420.0
 20
297.0
  9
$ORTHOMODE
 70
     0
  9
$REGENMODE
 70
     1
  9
$FILLMODE
 70
     1
  9
$QTEXTMODE
 70
     0
  9
$MIRRTEXT
 70
     1
  9
$LTSCALE
 40
1.0
  9
$ATTMODE
 70
     1
  9
$TEXTSIZE
 40
3.0
  9
$TRACEWID
 40
1.0
  9
$TEXTSTYLE
  7
Standard
  9
$CLAYER
  8
0
  9
$CELTYPE
  6
ByLayer
  9
$CECOLOR
 62
   256
  9
$CELTSCALE
 40
1.0
  9
$DISPSILH
 70
     0
  9
$DIMSCALE
 40
1.0
  9
$DIMASZ
 40
3.0
  9
$DIMEXO
 40
0.0
  9
$DIMDLI
 40
3.75
  9
$DIMRND
 40
0.0
  9
$DIMDLE
 40
0.0
  9
$DIMEXE
 40
2.0
  9
$DIMTP
 40
0.0
  9
$DIMTM
 40
0.0
  9
$DIMTXT
 40
3.0
  9
$DIMCEN
 40
2.5
  9
$DIMTSZ
 40
0.0
  9
$DIMTOL
 70
     0
  9
$DIMLIM
 70
     0
  9
$DIMTIH
 70
     1
  9
$DIMTOH
 70
     1
  9
$DIMSE1
 70
     0
  9
$DIMSE2
 70
     0
  9
$DIMTAD
 70
     1
  9
$DIMZIN
 70
     0
  9
$DIMBLK
  1

  9
$DIMASO
 70
     1
  9
$DIMSHO
 70
     1
  9
$DIMPOST
  1

  9
$DIMAPOST
  1

  9
$DIMALT
 70
     0
  9
$DIMALTD
 70
     3
  9
$DIMALTF
 40
0.0393700787
  9
$DIMLFAC
 40
1.0
  9
$DIMTOFL
 70
     1
  9
$DIMTVP
 40
0.0
  9
$DIMTIX
 70
     0
  9
$DIMSOXD
 70
     0
  9
$DIMSAH
 70
     0
  9
$DIMBLK1
  1

  9
$DIMBLK2
  1

  9
$DIMSTYLE
  2
ISO-25
  9
$DIMCLRD
 70
     0
  9
$DIMCLRE
 70
     0
  9
$DIMCLRT
 70
     0
  9
$DIMTFAC
 40
1.0
  9
$DIMGAP
 40
2.0
  9
$DIMJUST
 70
     0
  9
$DIMSD1
 70
     0
  9
$DIMSD2
 70
     0
  9
$DIMTOLJ
 70
     0
  9
$DIMTZIN
 70
     0
  9
$DIMALTZ
 70
     0
  9
$DIMALTTZ
 70
     0
  9
$DIMUPT
 70
     0
  9
$DIMDEC
 70
     2
  9
$DIMTDEC
 70
     2
  9
$DIMALTU
 70
     2
  9
$DIMALTTD
 70
     3
  9
$DIMTXSTY
  7
Standard
  9
$DIMAUNIT
 70
     0
  9
$DIMADEC
 70
     2
  9
$DIMALTRND
 40
0.0
  9
$DIMAZIN
 70
     0
  9
$DIMDSEP
 70
    44
  9
$DIMATFIT
 70
     3
  9
$DIMFRAC
 70
     0
  9
$DIMLDRBLK
  1

  9
$DIMLUNIT
 70
     2
  9
$DIMLWD
 70
    -2
  9
$DIMLWE
 70
    -2
  9
$DIMTMOVE
 70
     0
  9
$LUNITS
 70
     2
  9
$LUPREC
 70
     2
  9
$SKETCHINC
 40
1.0
  9
$FILLETRAD
 40
10.0
  9
$AUNITS
 70
     1
  9
$AUPREC
 70
     2
  9
$MENU
  1
.
  9
$ELEVATION
 40
0.0
  9
$PELEVATION
 40
0.0
  9
$THICKNESS
 40
0.0
  9
$LIMCHECK
 70
     0
  9
$CHAMFERA
 40
0.0
  9
$CHAMFERB
 40
0.0
  9
$CHAMFERC
 40
0.0
  9
$CHAMFERD
 40
0.0
  9
$SKPOLY
 70
     0
  9
$TDCREATE
 40
2459310.555867072
  9
$TDUCREATE
 40
2459310.430867072
  9
$TDUPDATE
 40
2459310.555895278
  9
$TDUUPDATE
 40
2459310.430895278
  9
$TDINDWG
 40
0.0000000116
  9
$TDUSRTIMER
 40
0.0000000116
  9
$USRTIMER
 70
     1
  9
$ANGBASE
 50
0.0
  9
$ANGDIR
 70
     0
  9
$PDMODE
 70
     0
  9
$PDSIZE
 40
-1.0
  9
$PLINEWID
 40
0.0
  9
$SPLFRAME
 70
     0
  9
$SPLINETYPE
 70
     6
  9
$SPLINESEGS
 70
     8
  9
$HANDSEED
  5
390
  9
$SURFTAB1
 70
     6
  9
$SURFTAB2
 70
     6
  9
$SURFTYPE
 70
     6
  9
$SURFU
 70
     6
  9
$SURFV
 70
     6
  9
$UCSBASE
  2

  9
$UCSNAME
  2

  9
$UCSORG
 10
0.0
 20
0.0
 30
0.0
  9
$UCSXDIR
 10
1.0
 20
0.0
 30
0.0
  9
$UCSYDIR
 10
0.0
 20
1.0
 30
0.0
  9
$UCSORTHOREF
  2

  9
$UCSORTHOVIEW
 70
     0
  9
$UCSORGTOP
 10
0.0
 20
0.0
 30
0.0
  9
$UCSORGBOTTOM
 10
0.0
 20
0.0
 30
0.0
  9
$UCSORGLEFT
 10
0.0
 20
0.0
 30
0.0
  9
$UCSORGRIGHT
 10
0.0
 20
0.0
 30
0.0
  9
$UCSORGFRONT
 10
0.0
 20
0.0
 30
0.0
  9
$UCSORGBACK
 10
0.0
 20
0.0
 30
0.0
  9
$PUCSBASE
  2

  9
$PUCSNAME
  2

  9
$PUCSORG
 10
0.0
 20
0.0
 30
0.0
  9
$PUCSXDIR
 10
1.0
 20
0.0
 30
0.0
  9
$PUCSYDIR
 10
0.0
 20
1.0
 30
0.0
  9
$PUCSORTHOREF
  2

  9
$PUCSORTHOVIEW
 70
     0
  9
$PUCSORGTOP
 10
0.0
 20
0.0
 30
0.0
  9
$PUCSORGBOTTOM
 10
0.0
 20
0.0
 30
0.0
  9
$PUCSORGLEFT
 10
0.0
 20
0.0
 30
0.0
  9
$PUCSORGRIGHT
 10
0.0
 20
0.0
 30
0.0
  9
$PUCSORGFRONT
 10
0.0
 20
0.0
 30
0.0
  9
$PUCSORGBACK
 10
0.0
 20
0.0
 30
0.0
  9
$USERI1
 70
     0
  9
$USERI2
 70
     0
  9
$USERI3
 70
     0
  9
$USERI4
 70
     0
  9
$USERI5
 70
     0
  9
$USERR1
 40
0.0
  9
$USERR2
 40
0.0
  9
$USERR3
 40
0.0
  9
$USERR4
 40
0.0
  9
$USERR5
 40
0.0
  9
$WORLDVIEW
 70
     1
  9
$SHADEDGE
 70
     3
  9
$SHADEDIF
 70
    70
  9
$TILEMODE
 70
     1
  9
$MAXACTVP
 70
    64
  9
$PINSBASE
 10
0.0
 20
0.0
 30
0.0
  9
$PLIMCHECK
 70
     0
  9
$PEXTMIN
 10
1.0000000000E+20
 20
1.0000000000E+20
 30
1.0000000000E+20
  9
$PEXTMAX
 10
-1.0000000000E+20
 20
-1.0000000000E+20
 30
-1.0000000000E+20
  9
$PLIMMIN
 10
0.0
 20
0.0
  9
$PLIMMAX
 10
420.0
 20
297.0
  9
$UNITMODE
 70
     0
  9
$VISRETAIN
 70
     1
  9
$PLINEGEN
 70
     0
  9
$PSLTSCALE
 70
     1
  9
$TREEDEPTH
 70
  3020
  9
$CMLSTYLE
  2
Standard
  9
$CMLJUST
 70
     0
  9
$CMLSCALE
 40
20.0
  9
$PROXYGRAPHICS
 70
     1
  9
$MEASUREMENT
 70
     1
  9
$CELWEIGHT
370
    -1
  9
$ENDCAPS
280
     0
  9
$JOINSTYLE
280
     0
  9
$LWDISPLAY
290
     1
  9
$INSUNITS
 70
     4
  9
$HYPERLINKBASE
  1

  9
$STYLESHEET
  1

  9
$XEDIT
290
     1
  9
$CEPSNTYPE
380
     0
  9
$PSTYLEMODE
290
     1
  9
$FINGERPRINTGUID
  2
{8241B25F-49F4-4ED7-8E78-4C756DB2DC90}
  9
$VERSIONGUID
  2
{FAEB1C32-E019-11D5-929B-00C0DF256EC4}
  9
$EXTNAMES
290
     1
  9
$PSVPSCALE
 40
0.0
  9
$OLESTARTUP
290
     0
  0
ENDSEC
  0
SECTION
  2
CLASSES
  0
CLASS
  1
ACDBDICTIONARYWDFLT
  2
AcDbDictionaryWithDefault
  3
ObjectDBX Classes
 90
        0
280
     0
281
     0
  0
CLASS
  1
VISUALSTYLE
  2
AcDbVisualStyle
  3
ObjectDBX Classes
 90
     4095
280
     0
281
     0
  0
CLASS
  1
MATERIAL
  2
AcDbMaterial
  3
ObjectDBX Classes
 90
     1153
280
     0
281
     0
  0
CLASS
  1
SCALE
  2
AcDbScale
  3
ObjectDBX Classes
 90
     1153
280
     0
281
     0
  0
CLASS
  1
SUN
  2
AcDbSun
  3
SCENEOE
 90
     1153
280
     0
281
     0
  0
CLASS
  1
ACDBPLACEHOLDER
  2
AcDbPlaceHolder
  3
ObjectDBX Classes
 90
        0
280
     0
281
     0
  0
CLASS
  1
LAYOUT
  2
AcDbLayout
  3
ObjectDBX Classes
 90
        0
280
     0
281
     0
  0
ENDSEC
  0
SECTION
  2
TABLES
  0
TABLE
  2
VPORT
  5
8
330
0
100
AcDbSymbolTable
 70
     1
  0
VPORT
  5
29
330
8
100
AcDbSymbolTableRecord
100
AcDbViewportTableRecord
  2
*Active
 70
     0
 10
0.0
 20
0.0
 11
1.0
 21
1.0
 12
-735.9050817991
 22
559.9418813432
 13
0.0
 23
0.0
 14
10.0
 24
10.0
 15
10.0
 25
10.0
 16
0.0
 26
0.0
 36
1.0
 17
0.0
 27
0.0
 37
0.0
 40
5727.3141110425
 41
0.8411978687
 42
50.0
 43
0.0
 44
0.0
 50
0.0
 51
0.0
 71
     0
 72
   100
 73
     1
 74
     3
 75
     0
 76
     0
 77
     0
 78
     0
281
     0
 65
     1
110
0.0
120
0.0
130
0.0
111
1.0
121
0.0
131
0.0
112
0.0
122
1.0
132
0.0
 79
     0
146
0.0
  0
ENDTAB
  0
TABLE
  2
LTYPE
  5
5
330
0
100
AcDbSymbolTable
 70
     6
  0
LTYPE
  5
14
330
5
100
AcDbSymbolTableRecord
100
AcDbLinetypeTableRecord
  2
ByBlock
 70
     0
  3

 72
    65
 73
     0
 40
0.0
  0
LTYPE
  5
15
330
5
100
AcDbSymbolTableRecord
100
AcDbLinetypeTableRecord
  2
ByLayer
 70
     0
  3

 72
    65
 73
     0
 40
0.0
  0
LTYPE
  5
16
330
5
100
AcDbSymbolTableRecord
100
AcDbLinetypeTableRecord
  2
Continuous
 70
     0
  3
Solid line
 72
    65
 73
     0
 40
0.0
  0
LTYPE
  5
6A
330
5
100
AcDbSymbolTableRecord
100
AcDbLinetypeTableRecord
  2
HIDDEN
 70
     0
  3
Hidden __ __ __ __ __ __ __ __ __ __ __ __ __ __
 72
    65
 73
     2
 40
1.905
 49
1.27
 74
     0
 49
-0.635
 74
     0
  0
LTYPE
  5
6B
330
5
100
AcDbSymbolTableRecord
100
AcDbLinetypeTableRecord
  2
PHANTOM
 70
     0
  3
Phantom ______  __  __  ______  __  __  ______
 72
    65
 73
     6
 40
12.7
 49
6.35
 74
     0
 49
-1.27
 74
     0
 49
1.27
 74
     0
 49
-1.27
 74
     0
 49
1.27
 74
     0
 49
-1.27
 74
     0
  0
LTYPE
  5
6C
330
5
100
AcDbSymbolTableRecord
100
AcDbLinetypeTableRecord
  2
CENTER
 70
     0
  3
Center ____ _ ____ _ ____ _ ____ _ ____ _ ____
 72
    65
 73
     4
 40
10.16
 49
6.35
 74
     0
 49
-1.27
 74
     0
 49
1.27
 74
     0
 49
-1.27
 74
     0
  0
LTYPE
  5
6D
330
5
100
AcDbSymbolTableRecord
100
AcDbLinetypeTableRecord
  2
CENTERX2
 70
     0
  3
Center (2x) ________  __  ________  __  _____
 72
    65
 73
     4
 40
20.32
 49
12.7
 74
     0
 49
-2.54
 74
     0
 49
2.54
 74
     0
 49
-2.54
 74
     0
  0
LTYPE
  5
6E
330
5
100
AcDbSymbolTableRecord
100
AcDbLinetypeTableRecord
  2
DOT2
 70
     0
  3
Dot (.5x) ........................................
 72
    65
 73
     2
 40
0.635
 49
0.0
 74
     0
 49
-0.635
 74
     0
  0
ENDTAB
  0
TABLE
  2
LAYER
  5
2
330
0
100
AcDbSymbolTable
 70
     1
  0
LAYER
  5
10
330
2
100
AcDbSymbolTableRecord
100
AcDbLayerTableRecord
  2
0
 70
     0
 62
     7
  6
Continuous
370
    -3
390
F
  0
ENDTAB
  0
TABLE
  2
STYLE
  5
3
330
0
100
AcDbSymbolTable
 70
     1
  0
STYLE
  5
11
330
3
100
AcDbSymbolTableRecord
100
AcDbTextStyleTableRecord
  2
Standard
 70
     0
 40
0.0
 41
1.0
 50
0.0
 71
     0
 42
3.0
  3
txt
  4

  0
ENDTAB
  0
TABLE
  2
VIEW
  5
6
330
0
100
AcDbSymbolTable
 70
     0
  0
ENDTAB
  0
TABLE
  2
UCS
  5
7
330
0
100
AcDbSymbolTable
 70
     0
  0
ENDTAB
  0
TABLE
  2
APPID
  5
9
330
0
100
AcDbSymbolTable
 70
     1
  0
APPID
  5
12
330
9
100
AcDbSymbolTableRecord
100
AcDbRegAppTableRecord
  2
ACAD
 70
     0
  0
ENDTAB
  0
TABLE
  2
DIMSTYLE
  5
A
330
0
100
AcDbSymbolTable
 70
     1
100
AcDbDimStyleTable
  0
DIMSTYLE
105
27
330
A
100
AcDbSymbolTableRecord
100
AcDbDimStyleTableRecord
  2
ISO-25
 70
     0
 41
2.5
 42
0.625
 43
3.75
 44
1.25
 73
     0
 74
     0
 77
     1
 78
     8
140
2.5
141
2.5
143
0.0393700787
147
0.625
171
     3
172
     1
178
     0
271
     2
272
     2
274
     3
278
    44
283
     0
284
     8
340
11
  0
ENDTAB
  0
TABLE
  2
BLOCK_RECORD
  5
1
330
0
100
AcDbSymbolTable
 70
     1
  0
BLOCK_RECORD
  5
1F
330
1
100
AcDbSymbolTableRecord
100
AcDbBlockTableRecord
  2
*Model_Space
340
22
  0
BLOCK_RECORD
  5
1B
330
1
100
AcDbSymbolTableRecord
100
AcDbBlockTableRecord
  2
*Paper_Space
340
1E
  0
BLOCK_RECORD
  5
23
330
1
100
AcDbSymbolTableRecord
100
AcDbBlockTableRecord
  2
*Paper_Space0
340
26
  0
ENDTAB
  0
ENDSEC
  0
SECTION
  2
BLOCKS
  0
BLOCK
  5
20
330
1F
100
AcDbEntity
  8
0
100
AcDbBlockBegin
  2
*Model_Space
 70
     0
 10
0.0
 20
0.0
 30
0.0
  3
*Model_Space
  1
*Model_Space
  0
ENDBLK
  5
21
330
1F
100
AcDbEntity
  8
0
100
AcDbBlockEnd
  0
BLOCK
  5
1C
330
1B
100
AcDbEntity
 67
     1
  8
0
100
AcDbBlockBegin
  2
*Paper_Space
 70
     0
 10
0.0
 20
0.0
 30
0.0
  3
*Paper_Space
  1
*Paper_Space
  0
ENDBLK
  5
1D
330
1B
100
AcDbEntity
 67
     1
  8
0
100
AcDbBlockEnd
  0
BLOCK
  5
24
330
23
100
AcDbEntity
  8
0
100
AcDbBlockBegin
  2
*Paper_Space0
 70
     0
 10
0.0
 20
0.0
 30
0.0
  3
*Paper_Space0
  1
*Paper_Space0
  0
ENDBLK
  5
25
330
23
100
AcDbEntity
  8
0
100
AcDbBlockEnd
  0
ENDSEC
  0
SECTION
  2
ENTITIES
  0
SPLINE
  5
74
330
1F
100
AcDbEntity
  8
0
  6
Continuous
 62
     7
370
    15
100
AcDbSpline
210
0.0
220
0.0
230
1.0
 70
     8
 71
     3
 72
    35
 73
    31
 74
     0
 42
0.000000001
 43
0.00000001
 40
0.0
 40
0.0
 40
0.0
 40
0.0
 40
0.0475411286714676
 40
0.0664243542107255
 40
0.0977575069004661
 40
0.1301233493139616
 40
0.1646914097584531
 40
0.200603066403179
 40
0.2375139176228531
 40
0.2751499720253775
 40
0.3133191775305126
 40
0.3518823383875368
 40
0.3907385251988826
 40
0.4298157089251863
 40
0.4690655449268146
 40
0.5084614615484219
 40
0.5480000341165349
 40
0.5877065153106303
 40
0.627646821696927
 40
0.6679510553569682
 40
0.7088594874531907
 40
0.7508128385716749
 40
0.7946005640615595
 40
0.8410725716779034
 40
0.8823087658231985
 40
0.9137305498501231
 40
0.9403935897526495
 40
0.964677151505766
 40
0.9878818403139339
 40
1.0
 40
1.0
 40
1.0
 40
1.0
 10
-359.8225783354914
 20
393.3146610411582
 30
0.0
 10
-358.4369966697545
 20
394.1191531115137
 30
0.0
 10
-356.5010651947405
 20
395.243187557778
 30
0.0
 10
-353.6772214467733
 20
396.9154826016382
 30
0.0
 10
-351.3066488005139
 20
398.3336065960797
 30
0.0
 10
-348.5163528225518
 20
400.0267120971176
 30
0.0
 10
-345.6362956737833
 20
401.8002217467293
 30
0.0
 10
-342.6816436832372
 20
403.6488018989711
 30
0.0
 10
-339.7074098718122
 20
405.5411428447259
 30
0.0
 10
-336.7493312737523
 20
407.4569171248503
 30
0.0
 10
-333.8365453971558
 20
409.3791336152822
 30
0.0
 10
-330.9924841489379
 20
411.2938389932897
 30
0.0
 10
-328.236290510297
 20
413.1893972238335
 30
0.0
 10
-325.5835959579024
 20
415.0561536019316
 30
0.0
 10
-323.0469670569676
 20
416.8863041876053
 30
0.0
 10
-320.6361010558873
 20
418.6739524925645
 30
0.0
 10
-318.3578091689366
 20
420.4153684632534
 30
0.0
 10
-316.2157763685767
 20
422.1095249761656
 30
0.0
 10
-314.2100219905301
 20
423.7590920168897
 30
0.0
 10
-312.3358806237071
 20
425.3722806509749
 30
0.0
 10
-310.5821303316615
 20
426.9664274484453
 30
0.0
 10
-308.9279732294395
 20
428.5749569987911
 30
0.0
 10
-307.3444113810597
 20
430.2556244359611
 30
0.0
 10
-305.8915993584654
 20
431.9952733736335
 30
0.0
 10
-304.6536212073896
 20
433.7435084079027
 30
0.0
 10
-303.6798480837877
 20
435.4310577199208
 30
0.0
 10
-302.9370165984389
 20
437.044452896487
 30
0.0
 10
-302.380503908321
 20
438.7025425800511
 30
0.0
 10
-302.0204323466244
 20
440.1653722608177
 30
0.0
 10
-301.9402317276264
 20
441.1185624314034
 30
0.0
 10
-301.9127174146712
 20
441.445572035406
 30
0.0
  0
SPLINE
  5
75
330
1F
100
AcDbEntity
  8
0
  6
Continuous
 62
     7
370
    15
100
AcDbSpline
210
0.0
220
0.0
230
1.0
 70
     8
 71
     3
 72
    31
 73
    27
 74
     0
 42
0.000000001
 43
0.00000001
 40
0.0
 40
0.0
 40
0.0
 40
0.0
 40
0.0052097326246845
 40
0.037648430660724
 40
0.0730181120792745
 40
0.1111868480760767
 40
0.1518543202370845
 40
0.1946465880882861
 40
0.2391869888380177
 40
0.285134499798261
 40
0.3321978882854057
 40
0.3801360438198233
 40
0.4287516807664402
 40
0.4778824085625763
 40
0.5273909382754335
 40
0.5771546200694101
 40
0.6270530292090774
 40
0.6769499672506554
 40
0.7266604949881074
 40
0.7758756619331683
 40
0.8239480285662777
 40
0.8690699271784253
 40
0.9071440987537813
 40
0.9384137061381933
 40
0.975845421578731
 40
0.9999999999999999
 40
0.9999999999999999
 40
0.9999999999999999
 40
0.9999999999999999
 10
-327.3083519299514
 20
448.4861157113874
 30
0.0
 10
-327.3051082197848
 20
448.4907415658006
 30
0.0
 10
-327.2816673628189
 20
448.5241705671865
 30
0.0
 10
-327.40458563628
 20
448.3620910620344
 30
0.0
 10
-327.7085952101476
 20
448.0184603143034
 30
0.0
 10
-328.2516047214892
 20
447.4484979829955
 30
0.0
 10
-329.0268181924105
 20
446.6939253558483
 30
0.0
 10
-330.0483106299861
 20
445.7579931480651
 30
0.0
 10
-331.3145034752285
 20
444.6577626261495
 30
0.0
 10
-332.8211563616147
 20
443.4072251106436
 30
0.0
 10
-334.5596458746194
 20
442.02125744095
 30
0.0
 10
-336.5190142471719
 20
440.514028762288
 30
0.0
 10
-338.6864301092907
 20
438.8993210363064
 30
0.0
 10
-341.0476639338993
 20
437.1905134900011
 30
0.0
 10
-343.5872101638477
 20
435.4007861252125
 30
0.0
 10
-346.2881861916903
 20
433.5433719232861
 30
0.0
 10
-349.131892782661
 20
431.6319628227994
 30
0.0
 10
-352.0967529417222
 20
429.6814409800114
 30
0.0
 10
-355.1557424512977
 20
427.7094695629246
 30
0.0
 10
-358.2693203065315
 20
425.7407320911253
 30
0.0
 10
-361.3605101685006
 20
423.8217408790636
 30
0.0
 10
-364.2646347525587
 20
422.0496246915148
 30
0.0
 10
-366.8312170056848
 20
420.5068755595735
 30
0.0
 10
-369.2465239152632
 20
419.0733426862651
 30
0.0
 10
-371.361102278876
 20
417.8327438643519
 30
0.0
 10
-372.7699990816375
 20
417.0172064600147
 30
0.0
 10
-373.3225783354914
 20
416.6973469433381
 30
0.0
  0
SPLINE
  5
76
330
1F
100
AcDbEntity
  8
0
  6
Continuous
 62
     7
370
    15
100
AcDbSpline
210
0.0
220
0.0
230
1.0
 70
     8
 71
     3
 72
    33
 73
    29
 74
     0
 42
0.000000001
 43
0.00000001
 40
0.0
 40
0.0
 40
0.0
 40
0.0
 40
0.0149941855485949
 40
0.0388324575770633
 40
0.0639115230903313
 40
0.0914601591958458
 40
0.1236609879736808
 40
0.1648568458588336
 40
0.2219847229224057
 40
0.267240195090339
 40
0.3113526759781564
 40
0.3557503852813797
 40
0.3998132583748034
 40
0.4434794677626691
 40
0.4867893171506558
 40
0.5297991072646148
 40
0.5725539424851926
 40
0.6150815484768282
 40
0.6573900996304787
 40
0.69946395571386
 40
0.7412524986005125
 40
0.7826423107261897
 40
0.8233836251690193
 40
0.8628618435054254
 40
0.899129123228633
 40
0.9284993007034459
 40
0.9548544608899389
 40
1.0
 40
1.0
 40
1.0
 40
1.0
 10
-750.9591060775807
 20
182.1836259221836
 30
0.0
 10
-750.5913153083135
 20
182.0160905997453
 30
0.0
 10
-749.6387981209995
 20
181.5822018579953
 30
0.0
 10
-748.095181741387
 20
181.1553899549809
 30
0.0
 10
-746.3455112296583
 20
180.8332553938845
 30
0.0
 10
-744.5515128198819
 20
180.6978219092135
 30
0.0
 10
-742.6032134789019
 20
180.7283503711418
 30
0.0
 10
-740.2913945335329
 20
180.9719074415207
 30
0.0
 10
-737.8714029555126
 20
181.4381911223895
 30
0.0
 10
-735.3572558664655
 20
182.0829066402239
 30
0.0
 10
-732.9671797355313
 20
182.8021999714797
 30
0.0
 10
-730.4722665790067
 20
183.6421299673925
 30
0.0
 10
-727.843014606109
 20
184.6056429881768
 30
0.0
 10
-725.0879606798169
 20
185.6846358905572
 30
0.0
 10
-722.2094817734629
 20
186.8744696479623
 30
0.0
 10
-719.2113979555812
 20
188.1709139566751
 30
0.0
 10
-716.1000133641039
 20
189.5693316168362
 30
0.0
 10
-712.884264808602
 20
191.0642683810306
 30
0.0
 10
-709.5757476175932
 20
192.6491801948402
 30
0.0
 10
-706.1890588677194
 20
194.3160569381016
 30
0.0
 10
-702.7429459673766
 20
196.0546470780388
 30
0.0
 10
-699.2635012341783
 20
197.8505774829308
 30
0.0
 10
-695.7936948155419
 20
199.67989980347
 30
0.0
 10
-692.430425292701
 20
201.4883727371567
 30
0.0
 10
-689.3718402652772
 20
203.1625236289609
 30
0.0
 10
-686.6847143633461
 20
204.6560928097545
 30
0.0
 10
-683.7331772793837
 20
206.3155737404184
 30
0.0
 10
-681.643722758824
 20
207.5153104785653
 30
0.0
 10
-680.3244412454306
 20
208.2728242143281
 30
0.0
  0
SPLINE
  5
77
330
1F
100
AcDbEntity
  8
0
  6
Continuous
 62
     7
370
    15
100
AcDbSpline
210
0.0
220
0.0
230
1.0
 70
     8
 71
     3
 72
    32
 73
    28
 74
     0
 42
0.000000001
 43
0.00000001
 40
0.0
 40
0.0
 40
0.0
 40
0.0
 40
0.0575053835976597
 40
0.0803591727641815
 40
0.1182598864377485
 40
0.1573825126080956
 40
0.1991161874264889
 40
0.2423962947995791
 40
0.2867745020039675
 40
0.3318832715320716
 40
0.3774482147708606
 40
0.4232513546799622
 40
0.4691111206662898
 40
0.5148677973646145
 40
0.560372762728154
 40
0.6054799412238697
 40
0.6500385361307534
 40
0.6938865223902632
 40
0.736844789873952
 40
0.7787123515416265
 40
0.8192638050468154
 40
0.8582513406972001
 40
0.8954148778330543
 40
0.9305046729076251
 40
0.9633193770565868
 40
0.993757060762287
 40
0.9999999999999999
 40
0.9999999999999999
 40
0.9999999999999999
 40
0.9999999999999999
 10
-693.8244412454308
 20
231.655510116508
 30
0.0
 10
-695.1430596839393
 20
230.8984991585125
 30
0.0
 10
-696.9857234535009
 20
229.8406369106305
 30
0.0
 10
-699.6991440997715
 20
228.3138250688487
 30
0.0
 10
-701.9872416837173
 20
227.039684384492
 30
0.0
 10
-704.6958434334305
 20
225.5535959682682
 30
0.0
 10
-707.5060937505579
 20
224.0356058561932
 30
0.0
 10
-710.403075802473
 20
222.4972624718579
 30
0.0
 10
-713.3314539184307
 20
220.9705009782417
 30
0.0
 10
-716.2536570906859
 20
219.4766911794659
 30
0.0
 10
-719.1376246046045
 20
218.0333693498197
 30
0.0
 10
-721.9560492602207
 20
216.6548303883481
 30
0.0
 10
-724.6850019333418
 20
215.3529443013531
 30
0.0
 10
-727.3031190277138
 20
214.1376322192145
 30
0.0
 10
-729.7910460852786
 20
213.0171635056391
 30
0.0
 10
-732.1310547727545
 20
211.9983249036655
 30
0.0
 10
-734.3067711482731
 20
211.0864916155975
 30
0.0
 10
-736.3029981382069
 20
210.2856107301676
 30
0.0
 10
-738.1055818897278
 20
209.598099069046
 30
0.0
 10
-739.7014995299186
 20
209.0246272550426
 30
0.0
 10
-741.0786302845736
 20
208.5638299771522
 30
0.0
 10
-742.2273257028596
 20
208.2117302393844
 30
0.0
 10
-743.1365759229483
 20
207.9616111885986
 30
0.0
 10
-743.8100363115865
 20
207.8019267162871
 30
0.0
 10
-744.2148862794922
 20
207.7209579145949
 30
0.0
 10
-744.3998514653946
 20
207.6969445546857
 30
0.0
 10
-744.3659921659034
 20
207.7000814340159
 30
0.0
 10
-744.3602294080115
 20
207.7006153220877
 30
0.0
  0
SPLINE
  5
99
330
1F
100
AcDbEntity
  8
0
  6
Continuous
 62
     7
370
    15
100
AcDbSpline
210
0.0
220
0.0
230
1.0
 70
     8
 71
     3
 72
     8
 73
     4
 74
     0
 42
0.000000001
 43
0.00000001
 40
0.0
 40
0.0
 40
0.0
 40
0.0
 40
0.0848529723448375
 40
0.0848529723448375
 40
0.0848529723448375
 40
0.0848529723448375
 10
-1057.140274648518
 20
-190.5802286293423
 30
0.0
 10
-1085.571346660121
 20
-173.9403843870037
 30
0.0
 10
-1111.383776183852
 20
-153.546725567634
 30
0.0
 10
-1133.285590280522
 20
-127.4346300214176
 30
0.0
  0
SPLINE
  5
9F
330
1F
100
AcDbEntity
  8
0
  6
Continuous
 62
     7
370
    15
100
AcDbSpline
210
0.0
220
0.0
230
1.0
 70
     8
 71
     3
 72
    10
 73
     6
 74
     0
 42
0.000000001
 43
0.00000001
 40
0.1529493341185508
 40
0.1529493341185508
 40
0.1529493341185508
 40
0.1529493341185508
 40
0.4071504299275998
 40
0.8379214651438702
 40
1.0
 40
1.0
 40
1.0
 40
1.0
 10
-50.0337457048502
 20
-646.5478465261447
 30
0.0
 10
-148.9560029951499
 20
-613.7819667941798
 30
0.0
 10
-394.4173622061223
 20
-488.0090037404492
 30
0.0
 10
-680.2494792407
 20
-301.0450168918388
 30
0.0
 10
-923.5534593716235
 20
-247.096649603431
 30
0.0
 10
-984.2988316117179
 20
-224.4043374124923
 30
0.0
  0
CIRCLE
  5
E8
330
1F
100
AcDbEntity
  8
0
  6
Continuous
 62
     7
370
    15
100
AcDbCircle
 10
-286.7534840481
 20
511.6716036187
 30
0.0
 40
2.250000000000022
  0
CIRCLE
  5
F3
330
1F
100
AcDbEntity
  8
0
  6
Continuous
 62
     7
370
    15
100
AcDbCircle
 10
-819.3591073755
 20
204.1716036187
 30
0.0
 40
2.249999999999965
  0
SPLINE
  5
12D
330
1F
100
AcDbEntity
  8
0
  6
Continuous
 62
     7
370
    15
100
AcDbSpline
210
0.0
220
0.0
230
1.0
 70
     8
 71
     3
 72
     9
 73
     5
 74
     0
 42
0.000000001
 43
0.00000001
 40
0.0
 40
0.0
 40
0.0
 40
0.0
 40
0.4556844170297727
 40
1.0
 40
1.0
 40
1.0
 40
1.0
 10
-328.5754070131985
 20
505.1092990644834
 30
0.0
 10
-328.7459609068221
 20
504.9778131086453
 30
0.0
 10
-329.1202416310466
 20
504.6892670207733
 30
0.0
 10
-329.6157905853098
 20
504.4880283634511
 30
0.0
 10
-329.8855256032399
 20
504.3784910263745
 30
0.0
  0
SPLINE
  5
12F
330
1F
100
AcDbEntity
  8
0
  6
Continuous
 62
     7
370
    15
100
AcDbSpline
210
0.0
220
0.0
230
1.0
 70
     8
 71
     3
 72
    14
 73
    10
 74
     0
 42
0.000000001
 43
0.00000001
 40
0.0
 40
0.0
 40
0.0
 40
0.0
 40
0.25
 40
0.25
 40
0.5
 40
0.5
 40
0.75
 40
0.75
 40
1.0
 40
1.0
 40
1.0
 40
1.0
 10
-330.5011870785656
 20
505.4448479819014
 30
0.0
 10
-330.2907407673854
 20
505.4766663073513
 30
0.0
 10
-330.0974489565501
 20
505.5282273978464
 30
0.0
 10
-329.7501498359942
 20
505.657351717795
 30
0.0
 10
-329.6036115008069
 20
505.7323282057744
 30
0.0
 10
-329.3704988163631
 20
505.8866771691834
 30
0.0
 10
-329.287696696018
 20
505.9637155990104
 30
0.0
 10
-329.1919384038859
 20
506.0994225271616
 30
0.0
 10
-329.1799827633243
 20
506.1564549807237
 30
0.0
 10
-329.2021489728883
 20
506.1948479819003
 30
0.0
  0
SPLINE
  5
130
330
1F
100
AcDbEntity
  8
0
  6
Continuous
 62
     7
370
    15
100
AcDbSpline
210
0.0
220
0.0
230
1.0
 70
     8
 71
     3
 72
     9
 73
     5
 74
     0
 42
0.000000001
 43
0.00000001
 40
0.0
 40
0.0
 40
0.0
 40
0.0
 40
0.6476690553234488
 40
1.0
 40
1.0
 40
1.0
 40
1.0
 10
-791.4770658203457
 20
237.8784910263745
 30
0.0
 10
-791.7527840325316
 20
237.664788318829
 30
0.0
 10
-792.1784925173198
 20
237.334831675403
 30
0.0
 10
-792.6124534113616
 20
237.1684783072478
 30
0.0
 10
-792.7653512631118
 20
237.1098668678955
 30
0.0
  0
SPLINE
  5
131
330
1F
100
AcDbEntity
  8
0
  6
Continuous
 62
     7
370
    15
100
AcDbSpline
210
0.0
220
0.0
230
1.0
 70
     8
 71
     3
 72
    14
 73
    10
 74
     0
 42
0.000000001
 43
0.00000001
 40
0.0
 40
0.0
 40
0.0
 40
0.0
 40
0.25
 40
0.25
 40
0.5
 40
0.5
 40
0.75
 40
0.75
 40
1.0
 40
1.0
 40
1.0
 40
1.0
 10
-793.3917654013476
 20
238.1948479819005
 30
0.0
 10
-793.3695991888493
 20
238.1564549756428
 30
0.0
 10
-793.3146326367121
 20
238.1382746297238
 30
0.0
 10
-793.1486192318702
 20
238.1533683690299
 30
0.0
 10
-793.040820029841
 20
238.1865150234244
 30
0.0
 10
-792.7906137740646
 20
238.3111846414841
 30
0.0
 10
-792.6518880670859
 20
238.4010262962306
 30
0.0
 10
-792.3675352914321
 20
238.6362661694389
 30
0.0
 10
-792.2255059118329
 20
238.7785053150282
 30
0.0
 10
-792.0927272956714
 20
238.9448479819013
 30
0.0
  0
SPLINE
  5
133
330
1F
100
AcDbEntity
  8
0
  6
Continuous
 62
     7
370
    15
100
AcDbSpline
210
0.0
220
0.0
230
1.0
 70
     8
 71
     3
 72
    14
 73
    10
 74
     0
 42
0.000000001
 43
0.00000001
 40
0.0
 40
0.0
 40
0.0
 40
0.0
 40
0.25
 40
0.25
 40
0.5
 40
0.5
 40
0.75
 40
0.75
 40
1.0
 40
1.0
 40
1.0
 40
1.0
 10
-1026.546640940094
 20
645.030938447408
 30
0.0
 10
-1027.922168656859
 20
647.0206948188446
 30
0.0
 10
-1029.30957372384
 20
649.031201309559
 30
0.0
 10
-1032.080636766807
 20
653.10525470629
 30
0.0
 10
-1033.464447871706
 20
655.1692779289391
 30
0.0
 10
-1036.201114417738
 20
659.3539766547592
 30
0.0
 10
-1037.554014218441
 20
661.4749063122765
 30
0.0
 10
-1040.206650375175
 20
665.7688459760114
 30
0.0
 10
-1041.506119645481
 20
667.9415156198818
 30
0.0
 10
-1042.772038156055
 20
670.1341507984384
 30
0.0
  0
SPLINE
  5
134
330
1F
100
AcDbEntity
  8
0
  6
Continuous
 62
     7
370
    15
100
AcDbSpline
210
0.0
220
0.0
230
1.0
 70
     8
 71
     3
 72
    14
 73
    10
 74
     0
 42
0.000000001
 43
0.00000001
 40
0.0
 40
0.0
 40
0.0
 40
0.0
 40
0.25
 40
0.25
 40
0.5
 40
0.5
 40
0.75
 40
0.75
 40
1.0
 40
1.0
 40
1.0
 40
1.0
 10
-578.4754841679019
 20
937.9489295118109
 30
0.0
 10
-577.2184764128203
 20
935.7717282145019
 30
0.0
 10
-575.995376867512
 20
933.5751631685008
 30
0.0
 10
-573.6210444700039
 20
929.1621560264368
 30
0.0
 10
-572.4695507658786
 20
926.9453380381843
 30
0.0
 10
-570.2316483379087
 20
922.5138261781825
 30
0.0
 10
-569.1450444789472
 20
920.2989892169895
 30
0.0
 10
-567.0200023818447
 20
915.8926818503296
 30
0.0
 10
-565.9816054218678
 20
913.7016246824978
 30
0.0
 10
-564.9551007229888
 20
911.5309384474082
 30
0.0
  0
SPLINE
  5
13A
330
1F
100
AcDbEntity
  8
0
  6
Continuous
 62
     7
370
    15
100
AcDbSpline
210
0.0
220
0.0
230
1.0
 70
     8
 71
     3
 72
     8
 73
     4
 74
     0
 42
0.000000001
 43
0.00000001
 40
0.0
 40
0.0
 40
0.0
 40
0.0
 40
1.0
 40
1.0
 40
1.0
 40
1.0
 10
-1025.247602834418
 20
645.7809384474087
 30
0.0
 10
-1031.889266048632
 20
655.6179699145224
 30
0.0
 10
-1038.762759587408
 20
665.8565432825116
 30
0.0
 10
-1045.837267719903
 20
676.4432841398859
 30
0.0
  0
SPLINE
  5
13B
330
1F
100
AcDbEntity
  8
0
  6
Continuous
 62
     7
370
    15
100
AcDbSpline
210
0.0
220
0.0
230
1.0
 70
     8
 71
     3
 72
     9
 73
     5
 74
     0
 42
0.000000001
 43
0.00000001
 40
0.0
 40
0.0
 40
0.0
 40
0.0
 40
0.4824744489092525
 40
1.0
 40
1.0
 40
1.0
 40
1.0
 10
-1025.320920820496
 20
645.7386082884103
 30
0.0
 10
-1028.457712387318
 20
650.3947975335636
 30
0.0
 10
-1034.959179094857
 20
660.04544174007
 30
0.0
 10
-1041.775745879853
 20
670.2418552902005
 30
0.0
 10
-1045.303493361804
 20
675.5187598318812
 30
0.0
  0
SPLINE
  5
13C
330
1F
100
AcDbEntity
  8
0
  6
Continuous
 62
     7
370
    15
100
AcDbSpline
210
0.0
220
0.0
230
1.0
 70
     8
 71
     3
 72
     8
 73
     4
 74
     0
 42
0.000000001
 43
0.00000001
 40
0.0
 40
0.0
 40
0.0
 40
0.0
 40
1.0
 40
1.0
 40
1.0
 40
1.0
 10
-582.5136766952288
 20
943.9432841398858
 30
0.0
 10
-576.8825442357075
 20
932.5232099491781
 30
0.0
 10
-571.452426369906
 20
921.4513032478558
 30
0.0
 10
-566.2541388286659
 20
910.7809384474089
 30
0.0
  0
SPLINE
  5
140
330
1F
100
AcDbEntity
  8
0
  6
Continuous
 62
     7
370
    15
100
AcDbSpline
210
0.0
220
0.0
230
1.0
 70
     8
 71
     3
 72
     9
 73
     5
 74
     0
 42
0.000000001
 43
0.00000001
 40
0.0
 40
0.0
 40
0.0
 40
0.0
 40
0.5175255510907505
 40
0.9999999999999999
 40
0.9999999999999999
 40
0.9999999999999999
 40
0.9999999999999999
 10
-581.9799023371298
 20
943.0187598318811
 30
0.0
 10
-579.173842691665
 20
937.3251886235339
 30
0.0
 10
-573.7517729222578
 20
926.3236618460687
 30
0.0
 10
-568.644803230308
 20
915.8679044122285
 30
0.0
 10
-566.1808208425881
 20
910.8232686064076
 30
0.0
  0
SPLINE
  5
178
330
1F
100
AcDbEntity
  8
0
  6
Continuous
 62
     7
370
    15
100
AcDbSpline
210
0.0
220
0.0
230
1.0
 70
     8
 71
     3
 72
    26
 73
    22
 74
     0
 42
0.000000001
 43
0.00000001
 40
0.0
 40
0.0
 40
0.0
 40
0.0
 40
0.0288111462873416
 40
0.0699053691754137
 40
0.1228459624386899
 40
0.1736340336750552
 40
0.2257137954993675
 40
0.280381669499405
 40
0.3363968825674387
 40
0.3950989861836308
 40
0.4558121256365725
 40
0.5397041470959153
 40
0.5919371965610719
 40
0.6457501263940562
 40
0.6979676514240599
 40
0.751592177209395
 40
0.8060027909502949
 40
0.861760101084508
 40
0.9115194696738681
 40
0.9623990373996418
 40
1.0
 40
1.0
 40
1.0
 40
1.0
 10
-813.2113851850959
 20
215.6514306569109
 30
0.0
 10
-813.2113055767305
 20
215.650391224935
 30
0.0
 10
-813.2111124205086
 20
215.6478692192058
 30
0.0
 10
-813.3843655412935
 20
216.3831372232903
 30
0.0
 10
-813.5929338636377
 20
217.7870334965706
 30
0.0
 10
-813.6351327052263
 20
219.53978177998
 30
0.0
 10
-813.4394364613443
 20
221.4073720929236
 30
0.0
 10
-812.9539674798668
 20
223.3620847310213
 30
0.0
 10
-812.1299075178973
 20
225.3551550532124
 30
0.0
 10
-810.9330323867462
 20
227.3062588397073
 30
0.0
 10
-809.1550211257738
 20
229.3415943359326
 30
0.0
 10
-807.0189169135921
 20
230.949472195063
 30
0.0
 10
-804.7130412022713
 20
232.0574476806633
 30
0.0
 10
-802.6854370126019
 20
232.6752794115374
 30
0.0
 10
-800.5979704097098
 20
232.9795143336554
 30
0.0
 10
-798.5175094711125
 20
232.9718648233197
 30
0.0
 10
-796.4646082223713
 20
232.6576541585519
 30
0.0
 10
-794.5785002750579
 20
232.0744094214574
 30
0.0
 10
-792.9093727642676
 20
231.2968374792576
 30
0.0
 10
-791.5709199725478
 20
230.4596555882208
 30
0.0
 10
-790.9560100864403
 20
229.9606841017957
 30
0.0
 10
-790.6946960601242
 20
229.748639620026
 30
0.0
  0
SPLINE
  5
17B
330
1F
100
AcDbEntity
  8
0
  6
Continuous
 62
     7
370
    15
100
AcDbSpline
210
0.0
220
0.0
230
1.0
 70
     8
 71
     3
 72
    26
 73
    22
 74
     0
 42
0.000000001
 43
0.00000001
 40
0.0
 40
0.0
 40
0.0
 40
0.0
 40
0.0431100297544964
 40
0.0945488465373051
 40
0.1460592034925875
 40
0.2014482802362167
 40
0.2568213563269942
 40
0.3165830097541191
 40
0.376316654186221
 40
0.4602711848011213
 40
0.513326113630301
 40
0.5663894940238727
 40
0.6193385432247105
 40
0.6723055537190749
 40
0.7274218189872079
 40
0.7825522575372843
 40
0.8329548057123386
 40
0.8832728659868083
 40
0.9280750962952756
 40
0.9651252263140606
 40
1.0
 40
1.0
 40
1.0
 40
1.0
 10
-323.2343753324743
 20
499.6528947142282
 30
0.0
 10
-323.2955366288807
 20
500.0344586535421
 30
0.0
 10
-323.4296754838265
 20
500.8713040593054
 30
0.0
 10
-323.4600539033879
 20
502.5530018498558
 30
0.0
 10
-323.2681909810228
 20
504.4211444719102
 30
0.0
 10
-322.7784055876925
 20
506.3699310191454
 30
0.0
 10
-321.9513345316732
 20
508.3751506880535
 30
0.0
 10
-320.7515010826766
 20
510.3156415617547
 30
0.0
 10
-318.974618194831
 20
512.350428887226
 30
0.0
 10
-316.8403168747786
 20
513.9567982594789
 30
0.0
 10
-314.5318066549723
 20
515.0589097205963
 30
0.0
 10
-312.4961368378654
 20
515.6806697156157
 30
0.0
 10
-310.4182227246918
 20
515.9777646253555
 30
0.0
 10
-308.3299683053798
 20
515.9718327899824
 30
0.0
 10
-306.285378409926
 20
515.6526840424601
 30
0.0
 10
-304.3964938776695
 20
515.072005474205
 30
0.0
 10
-302.723730055951
 20
514.2845490081152
 30
0.0
 10
-301.3541368943713
 20
513.4268237539005
 30
0.0
 10
-300.3569781630337
 20
512.6334890798556
 30
0.0
 10
-299.8002852027971
 20
512.1191816333811
 30
0.0
 10
-299.760830409793
 20
512.0800888566628
 30
0.0
 10
-299.7416996650026
 20
512.0611336454554
 30
0.0
  0
SPLINE
  5
18D
330
1F
100
AcDbEntity
  8
0
  6
Continuous
 62
     7
370
    15
100
AcDbSpline
210
0.0
220
0.0
230
1.0
 70
     8
 71
     3
 72
    29
 73
    25
 74
     0
 42
0.000000001
 43
0.00000001
 40
-2.622518786204032
 40
-2.622518786204032
 40
-2.622518786204032
 40
-2.622518786204032
 40
-2.589672815455422
 40
-2.556826844706811
 40
-2.49113490320959
 40
-2.42544296171237
 40
-2.359751020215149
 40
-2.228367137220707
 40
-2.096983254226266
 40
-1.965599371231824
 40
-1.834215488237383
 40
-1.702831605242941
 40
-1.5714477222485
 40
-1.440063839254059
 40
-1.308679956259617
 40
-1.177296073265175
 40
-1.045912190270734
 40
-0.9145283072762925
 40
-0.783144424281851
 40
-0.7174524827846303
 40
-0.6517605412874095
 40
-0.5860685997901887
 40
-0.5532226290415783
 40
-0.520376658292968
 40
-0.520376658292968
 40
-0.520376658292968
 40
-0.520376658292968
 10
-761.5259725805352
 20
-2034.898188933935
 30
0.0
 10
-746.3790630567905
 20
-2043.636982265464
 30
0.0
 10
-715.7874817738737
 20
-2060.619184826725
 30
0.0
 10
-653.5733217676823
 20
-2092.516293621959
 30
0.0
 10
-573.9636487151929
 20
-2128.475575832139
 30
0.0
 10
-475.9291993749538
 20
-2165.193548752957
 30
0.0
 10
-342.4587387812464
 20
-2205.399999350751
 30
0.0
 10
-171.5556430837713
 20
-2238.975245009242
 30
0.0
 10
36.48727723571277
 20
-2252.094768690097
 30
0.0
 10
243.9785929127401
 20
-2238.035895237419
 30
0.0
 10
447.4932133539247
 20
-2197.209331721213
 30
0.0
 10
643.7263776826699
 20
-2130.417753014563
 30
0.0
 10
829.5202822242862
 20
-2038.826487175886
 30
0.0
 10
1001.885115818959
 20
-1923.942202933427
 30
0.0
 10
1158.019186028665
 20
-1787.597641105064
 30
0.0
 10
1295.332157769428
 20
-1631.941778832492
 30
0.0
 10
1411.473956169484
 20
-1459.432261837832
 30
0.0
 10
1504.373383620668
 20
-1272.827039757825
 30
0.0
 10
1560.960721405961
 20
-1108.110883462753
 30
0.0
 10
1593.052168452765
 20
-972.4642026064009
 30
0.0
 10
1610.405046953214
 20
-869.2301794997466
 30
0.0
 10
1619.181657214206
 20
-782.3201474564731
 30
0.0
 10
1622.756335331033
 20
-712.4988774825684
 30
0.0
 10
1623.3909114814
 20
-677.5163063870158
 30
0.0
 10
1623.419258980262
 20
-660.0297359540492
 30
0.0
  0
SPLINE
  5
1AC
330
1F
100
AcDbEntity
  8
0
  6
Continuous
 62
     7
370
    15
100
AcDbSpline
210
0.0
220
0.0
230
1.0
 70
     8
 71
     3
 72
    10
 73
     6
 74
     0
 42
0.000000001
 43
0.00000001
 40
0.0
 40
0.0
 40
0.0
 40
0.0
 40
0.0505240364282306
 40
0.5169388266015089
 40
1.0
 40
1.0
 40
1.0
 40
1.0
 10
-853.7777430559865
 20
1417.886429344451
 30
0.0
 10
-853.841267248211
 20
1417.940272323092
 30
0.0
 10
-854.4912177215061
 20
1418.491169048048
 30
0.0
 10
-855.0344459402548
 20
1419.283819304555
 30
0.0
 10
-855.1810626148853
 20
1419.454538289805
 30
0.0
 10
-855.2556562071443
 20
1419.541394320393
 30
0.0
  0
SPLINE
  5
1AD
330
1F
100
AcDbEntity
  8
0
  6
Continuous
 62
     7
370
    15
100
AcDbSpline
210
0.0
220
0.0
230
1.0
 70
     8
 71
     3
 72
     9
 73
     5
 74
     0
 42
0.000000001
 43
0.00000001
 40
0.0
 40
0.0
 40
0.0
 40
0.0
 40
0.5213167132269187
 40
1.0
 40
1.0
 40
1.0
 40
1.0
 10
-1321.346323372136
 20
1150.443822165913
 30
0.0
 10
-1321.296729746219
 20
1150.355225805491
 30
0.0
 10
-1321.201598274968
 20
1150.185278519752
 30
0.0
 10
-1320.825932337331
 20
1148.944236503019
 30
0.0
 10
-1320.646107331575
 20
1148.350170431427
 30
0.0
  0
SPLINE
  5
1BD
330
1F
100
AcDbEntity
  8
0
  6
Continuous
 62
     7
370
    15
100
AcDbSpline
210
0.0
220
0.0
230
1.0
 70
     8
 71
     3
 72
   102
 73
    98
 74
     0
 42
0.000000001
 43
0.00000001
 40
0.0
 40
0.0
 40
0.0
 40
0.0
 40
0.0127507655865013
 40
0.0255085052135427
 40
0.0382564089000788
 40
0.0513441588047648
 40
0.0644426739329095
 40
0.0775309456704121
 40
0.0902916425708945
 40
0.1030619104323096
 40
0.1158216938460891
 40
0.128989572186842
 40
0.1421695001720969
 40
0.1553346238006044
 40
0.1647817540732154
 40
0.1742347058382722
 40
0.183680670872917
 40
0.1933900937561862
 40
0.2031076721655241
 40
0.2128161626110905
 40
0.2222701474803463
 40
0.231732065156826
 40
0.241186955355228
 40
0.2509070917715709
 40
0.2606345829400137
 40
0.2703555523871959
 40
0.2848865437878185
 40
0.299418337082172
 40
0.3142715651307273
 40
0.3291252633085255
 40
0.3402038637699101
 40
0.3512902598570479
 40
0.3623689822489516
 40
0.3737384495607373
 40
0.3851162356195268
 40
0.3964855132513646
 40
0.4080941821635838
 40
0.4197116437077071
 40
0.4313213040613127
 40
0.443228382190172
 40
0.4551436701919712
 40
0.4670511178608729
 40
0.4794229629138987
 40
0.4918035919035152
 40
0.504175073932132
 40
0.5168975387255617
 40
0.5296302000690455
 40
0.5423513131954287
 40
0.5526834326544081
 40
0.563022004737426
 40
0.5733531472893225
 40
0.5839653796185197
 40
0.5945860394836248
 40
0.6051969289509044
 40
0.6155455095473156
 40
0.6259035358226787
 40
0.6362510797114834
 40
0.6469947304309047
 40
0.6577503912400704
 40
0.6684937903580672
 40
0.6775553839161016
 40
0.6866243598729925
 40
0.6956869393828439
 40
0.7096226582892023
 40
0.7235606977283796
 40
0.7369389370045158
 40
0.7503291162023389
 40
0.7637097478644406
 40
0.7774735053658199
 40
0.791247420359375
 40
0.8050103345866466
 40
0.8189365392402512
 40
0.8328612480063833
 40
0.8423242165282943
 40
0.8517925360618462
 40
0.8612524882155582
 40
0.8693558819599063
 40
0.8774582329718542
 40
0.8857031414853853
 40
0.8939459808868538
 40
0.9000388980883356
 40
0.9061308218784443
 40
0.9123722170299262
 40
0.9186122319763822
 40
0.9236192275323131
 40
0.9286257308331013
 40
0.9337751962412337
 40
0.9389244864617683
 40
0.9439323744367133
 40
0.9489412245112234
 40
0.9540667162591022
 40
0.9591930378500202
 40
0.9679385192709579
 40
0.9766876903075548
 40
0.9856569910436516
 40
0.9946279976397775
 40
1.0
 40
1.0
 40
1.0
 40
1.0
 10
-100.7556645874873
 20
594.3422201073322
 30
0.0
 10
-101.0686036850911
 20
597.328728535124
 30
0.0
 10
-101.6946530425663
 20
603.3033788636712
 30
0.0
 10
-102.6734796503728
 20
611.4826433637223
 30
0.0
 10
-103.6902961779781
 20
619.0675127601583
 30
0.0
 10
-104.7479968700167
 20
625.9104078330944
 30
0.0
 10
-105.8423469129589
 20
632.0000880181475
 30
0.0
 10
-106.9513408428051
 20
637.2171397498978
 30
0.0
 10
-108.0707348381453
 20
641.571508365341
 30
0.0
 10
-109.1968390796332
 20
645.0647260909151
 30
0.0
 10
-110.3480513240822
 20
647.7351666858937
 30
0.0
 10
-111.5214641027003
 20
649.5151875357733
 30
0.0
 10
-112.713164284728
 20
650.3298260550721
 30
0.0
 10
-113.7941025227068
 20
650.1333672805216
 30
0.0
 10
-114.7596569238557
 20
649.1993349080473
 30
0.0
 10
-115.6090141115798
 20
647.7960070833682
 30
0.0
 10
-116.4594679658373
 20
645.7793040318774
 30
0.0
 10
-117.3078457602286
 20
643.099912947547
 30
0.0
 10
-118.1505797947458
 20
639.7315061528227
 30
0.0
 10
-118.9693769354537
 20
635.728681490588
 30
0.0
 10
-119.7614403992631
 20
631.116310751865
 30
0.0
 10
-120.5258264731392
 20
625.9613507918641
 30
0.0
 10
-121.2745931575847
 20
620.197157307212
 30
0.0
 10
-122.0051633634238
 20
613.8345229165807
 30
0.0
 10
-122.715421158819
 20
606.8934119920631
 30
0.0
 10
-123.5097694865364
 20
598.2399859005748
 30
0.0
 10
-124.3674783857069
 20
587.6010403432063
 30
0.0
 10
-125.2689916072314
 20
574.6307586588299
 30
0.0
 10
-126.1029368460276
 20
560.7139097860837
 30
0.0
 10
-126.8003782012004
 20
547.1777930724529
 30
0.0
 10
-127.3744434847789
 20
534.3954770971163
 30
0.0
 10
-127.8438547997927
 20
522.5699521485857
 30
0.0
 10
-128.2697030951941
 20
510.3260248516945
 30
0.0
 10
-128.6490618373921
 20
497.6866001884534
 30
0.0
 10
-128.9794407590803
 20
484.6817360168094
 30
0.0
 10
-129.2582345285648
 20
471.3638181145106
 30
0.0
 10
-129.4828303061374
 20
457.76626945926
 30
0.0
 10
-129.653331146492
 20
443.9323128421607
 30
0.0
 10
-129.7700295572359
 20
429.8789266704533
 30
0.0
 10
-129.8320067718004
 20
415.6436880224729
 30
0.0
 10
-129.8384517855087
 20
401.2651239934254
 30
0.0
 10
-129.7887389293906
 20
386.7144636639083
 30
0.0
 10
-129.6805674501844
 20
372.0314822241437
 30
0.0
 10
-129.5116347060056
 20
357.2617711274789
 30
0.0
 10
-129.2811350439282
 20
342.4963864978922
 30
0.0
 10
-128.9866711048128
 20
327.7868688034578
 30
0.0
 10
-128.6260528034219
 20
313.1929873764158
 30
0.0
 10
-128.2280895294677
 20
299.8012720094418
 30
0.0
 10
-127.8055065797752
 20
287.601314946813
 30
0.0
 10
-127.3704515787295
 20
276.5546130717398
 30
0.0
 10
-126.8882591083515
 20
265.7295492012057
 30
0.0
 10
-126.3571916524817
 20
255.1807603449898
 30
0.0
 10
-125.7764960389712
 20
244.9653140032283
 30
0.0
 10
-125.1566330299718
 20
235.3055987519818
 30
0.0
 10
-124.4992636290738
 20
226.2434077071244
 30
0.0
 10
-123.807470539276
 20
217.8043688951121
 30
0.0
 10
-123.0682314373673
 20
209.8565179650345
 30
0.0
 10
-122.2814541108677
 20
202.4817213099579
 30
0.0
 10
-121.4493419053378
 20
195.7400253334398
 30
0.0
 10
-120.6303051084396
 20
190.0666968763294
 30
0.0
 10
-119.8328824109379
 20
185.3683837002112
 30
0.0
 10
-119.064558081726
 20
181.5079733742724
 30
0.0
 10
-118.1413627538583
 20
177.6190903560862
 30
0.0
 10
-117.0577004447788
 20
174.0733727375521
 30
0.0
 10
-115.8299515145555
 20
171.2523774222511
 30
0.0
 10
-114.6079277651497
 20
169.4822047860231
 30
0.0
 10
-113.3971540181921
 20
168.6653727484551
 30
0.0
 10
-112.1732671358031
 20
168.7382725853266
 30
0.0
 10
-110.9398415779906
 20
169.6932332961271
 30
0.0
 10
-109.7006946138208
 20
171.5636439801129
 30
0.0
 10
-108.466419682835
 20
174.3612058808632
 30
0.0
 10
-107.2417493421923
 20
178.1144142419422
 30
0.0
 10
-106.1614562862826
 20
182.3928608476093
 30
0.0
 10
-105.2283212442573
 20
186.877418212657
 30
0.0
 10
-104.4377190879868
 20
191.2943166715022
 30
0.0
 10
-103.7037167149309
 20
196.0547097194061
 30
0.0
 10
-103.0274146868221
 20
201.0984873971099
 30
0.0
 10
-102.4055205427316
 20
206.4044366594554
 30
0.0
 10
-101.8080300342091
 20
212.2850800726195
 30
0.0
 10
-101.2917080641229
 20
218.2296671897566
 30
0.0
 10
-100.856676697381
 20
224.0603781353398
 30
0.0
 10
-100.4930969879674
 20
229.6779382192575
 30
0.0
 10
-100.161420841655
 20
235.7114825901482
 30
0.0
 10
-99.8873738474596
 20
241.735672213298
 30
0.0
 10
-99.66998169361396
 20
247.6037881823955
 30
0.0
 10
-99.50057420693304
 20
253.277281590768
 30
0.0
 10
-99.36699137053495
 20
259.1789231895942
 30
0.0
 10
-99.2724313636153
 20
265.2140611040764
 30
0.0
 10
-99.21887530466678
 20
271.2801301986875
 30
0.0
 10
-99.20211341212493
 20
277.3729789753491
 30
0.0
 10
-99.21942672773521
 20
283.5125428895523
 30
0.0
 10
-99.27928293631105
 20
291.1172988427324
 30
0.0
 10
-99.40567186118065
 20
300.0740374922282
 30
0.0
 10
-99.62017915431476
 20
310.3403528656651
 30
0.0
 10
-99.89524765337788
 20
320.4371090613539
 30
0.0
 10
-100.1717794309583
 20
329.0716079544225
 30
0.0
 10
-100.3721172490319
 20
334.1873940445965
 30
0.0
 10
-100.4471513813265
 20
336.1034505034922
 30
0.0
  0
SPLINE
  5
1BE
330
1F
100
AcDbEntity
  8
0
  6
Continuous
 62
     7
370
    15
100
AcDbSpline
210
0.0
220
0.0
230
1.0
 70
     8
 71
     3
 72
    32
 73
    28
 74
     0
 42
0.000000001
 43
0.00000001
 40
0.0
 40
0.0
 40
0.0
 40
0.0
 40
0.008646283458883
 40
0.062130571715787
 40
0.1171514212749807
 40
0.1722092820993835
 40
0.2272127917633325
 40
0.2750975480982906
 40
0.3229755584580519
 40
0.3718137085848663
 40
0.4206401797595183
 40
0.4585449596442648
 40
0.4964442927454698
 40
0.5353524993317291
 40
0.5742553818207955
 40
0.6122283648685967
 40
0.6501999642698842
 40
0.6895344390638528
 40
0.7288726148246425
 40
0.7634051697897394
 40
0.7979416011534703
 40
0.833199805436455
 40
0.8684621870354758
 40
0.9011858353978874
 40
0.9339119587225586
 40
0.9669550434243356
 40
1.0
 40
1.0
 40
1.0
 40
1.0
 10
-101.0184742994297
 20
349.742767095142
 30
0.0
 10
-101.0429067427745
 20
350.3030028300991
 30
0.0
 10
-101.2184736994496
 20
354.3287517746055
 30
0.0
 10
-101.5910994035986
 20
361.5821072279551
 30
0.0
 10
-102.1341073697496
 20
371.4757249288749
 30
0.0
 10
-102.7264644281178
 20
381.0117315419988
 30
0.0
 10
-103.3319251685076
 20
389.6806660823615
 30
0.0
 10
-103.9469148703143
 20
397.4668378251829
 30
0.0
 10
-104.5712770287589
 20
404.4205463081337
 30
0.0
 10
-105.2357276457807
 20
410.8048384978471
 30
0.0
 10
-105.8887020424506
 20
416.0715154976492
 30
0.0
 10
-106.51587277165
 20
420.2553566088417
 30
0.0
 10
-107.113325363281
 20
423.5178297270919
 30
0.0
 10
-107.7344766365411
 20
426.1325489302332
 30
0.0
 10
-108.3709586114248
 20
428.0118685318778
 30
0.0
 10
-109.012521759136
 20
429.090273381211
 30
0.0
 10
-109.6612530793645
 20
429.3824810972475
 30
0.0
 10
-110.316843233228
 20
428.8413421958541
 30
0.0
 10
-110.9466191213875
 20
427.5292449893138
 30
0.0
 10
-111.539180460779
 20
425.5921775266762
 30
0.0
 10
-112.0974042901873
 20
423.1681228975799
 30
0.0
 10
-112.6450380536049
 20
420.2004989085024
 30
0.0
 10
-113.1675398105435
 20
416.817549645547
 30
0.0
 10
-113.661781320566
 20
413.1260799912782
 30
0.0
 10
-114.1301269137978
 20
409.1824843915346
 30
0.0
 10
-114.586222900927
 20
404.947162491966
 30
0.0
 10
-114.879011887625
 20
401.8963204002703
 30
0.0
 10
-115.0254105274432
 20
400.3708561484844
 30
0.0
  0
SPLINE
  5
1BF
330
1F
100
AcDbEntity
  8
0
  6
Continuous
 62
     7
370
    15
100
AcDbSpline
210
0.0
220
0.0
230
1.0
 70
     8
 71
     3
 72
    62
 73
    58
 74
     0
 42
0.000000001
 43
0.00000001
 40
0.0
 40
0.0
 40
0.0
 40
0.0
 40
0.0154048865033489
 40
0.0308893334439647
 40
0.0463833221806904
 40
0.0618658592222215
 40
0.0777802204220306
 40
0.0937079490474012
 40
0.1096207819225533
 40
0.1251164639827216
 40
0.14062514841811
 40
0.1561223143702887
 40
0.1720542357317172
 40
0.187998211999278
 40
0.203931498751196
 40
0.2277487171915736
 40
0.2515672499867425
 40
0.2759126347732223
 40
0.3002587901314115
 40
0.3184173204014903
 40
0.3365886281976401
 40
0.3547473583195901
 40
0.373382637843872
 40
0.3920315523232012
 40
0.410666520949993
 40
0.429693867100133
 40
0.4487356249327902
 40
0.4677645961183746
 40
0.4872810539403464
 40
0.5068109682658553
 40
0.5263280317874435
 40
0.5466062721369492
 40
0.5668989099168009
 40
0.5871765552462278
 40
0.6080294836343177
 40
0.6288991248160003
 40
0.6497498377358947
 40
0.6666848381995275
 40
0.6836304149240648
 40
0.7005638141749002
 40
0.7179579374357339
 40
0.7353658739635409
 40
0.7527577961883442
 40
0.7697197775024364
 40
0.7866972408846609
 40
0.8036575229690961
 40
0.8212670493239614
 40
0.8388962609792324
 40
0.8565053749433725
 40
0.8713579027055443
 40
0.8862225306886383
 40
0.901076674488502
 40
0.923918203477517
 40
0.9467635359673066
 40
0.9686913204110947
 40
0.9906386751453824
 40
0.9999999999999999
 40
0.9999999999999999
 40
0.9999999999999999
 40
0.9999999999999999
 10
-158.9252126598593
 20
650.0932711307541
 30
0.0
 10
-159.2089517831203
 20
650.0877368741326
 30
0.0
 10
-159.7778954353574
 20
650.0766397785383
 30
0.0
 10
-160.630002035553
 20
649.1850966262863
 30
0.0
 10
-161.4793670433807
 20
647.7998165700334
 30
0.0
 10
-162.3298187910937
 20
645.7782518914025
 30
0.0
 10
-163.1781971650783
 20
643.1001984318477
 30
0.0
 10
-164.0209310427432
 20
639.7314296425191
 30
0.0
 10
-164.8397282252235
 20
635.7287013855205
 30
0.0
 10
-165.6317916781266
 20
631.1163054762965
 30
0.0
 10
-166.3961777549001
 20
625.9613522034675
 30
0.0
 10
-167.1449444385651
 20
620.1971569173006
 30
0.0
 10
-167.8755146446189
 20
613.8345230222668
 30
0.0
 10
-168.5857724399561
 20
606.8934119641316
 30
0.0
 10
-169.3801207676908
 20
598.2399859122687
 30
0.0
 10
-170.2378296668547
 20
587.6010403395653
 30
0.0
 10
-171.1393428883811
 20
574.6307586598307
 30
0.0
 10
-171.9732881271767
 20
560.71390978581
 30
0.0
 10
-172.6707294823496
 20
547.1777930725062
 30
0.0
 10
-173.2447947659281
 20
534.3954770971035
 30
0.0
 10
-173.714206080942
 20
522.5699521485894
 30
0.0
 10
-174.1400543763435
 20
510.3260248516935
 30
0.0
 10
-174.5194131185414
 20
497.6866001884537
 30
0.0
 10
-174.8497920402297
 20
484.6817360168093
 30
0.0
 10
-175.1285858097141
 20
471.3638181145104
 30
0.0
 10
-175.3531815872867
 20
457.7662694592599
 30
0.0
 10
-175.5236824276414
 20
443.9323128421605
 30
0.0
 10
-175.6403808383854
 20
429.8789266704534
 30
0.0
 10
-175.7023580529498
 20
415.6436880224726
 30
0.0
 10
-175.708803066658
 20
401.2651239934254
 30
0.0
 10
-175.6590902105401
 20
386.7144636639084
 30
0.0
 10
-175.5509187313338
 20
372.0314822241436
 30
0.0
 10
-175.381985987155
 20
357.2617711274791
 30
0.0
 10
-175.1514863250775
 20
342.4963864978919
 30
0.0
 10
-174.857022385962
 20
327.7868688034582
 30
0.0
 10
-174.4964040845712
 20
313.1929873764151
 30
0.0
 10
-174.0984408106171
 20
299.8012720094434
 30
0.0
 10
-173.6758578609245
 20
287.6013149468087
 30
0.0
 10
-173.2408028598789
 20
276.5546130717556
 30
0.0
 10
-172.7586103895009
 20
265.7295492011485
 30
0.0
 10
-172.2275429336312
 20
255.1807603452094
 30
0.0
 10
-171.6468473201205
 20
244.9653140024118
 30
0.0
 10
-171.0269843111216
 20
235.3055987549917
 30
0.0
 10
-170.3696149102215
 20
226.2434076961957
 30
0.0
 10
-169.6778218204317
 20
217.8043689359588
 30
0.0
 10
-168.9385827184925
 20
209.8565178102958
 30
0.0
 10
-168.1518053921114
 20
202.4817219124241
 30
0.0
 10
-167.3196931861353
 20
195.7400230861024
 30
0.0
 10
-166.5006563908137
 20
190.0667046977016
 30
0.0
 10
-165.7032336883042
 20
185.3683595385166
 30
0.0
 10
-164.9349093770833
 20
181.508064116085
 30
0.0
 10
-164.0117139699603
 20
177.6186749184513
 30
0.0
 10
-162.9280521178038
 20
174.0758755233571
 30
0.0
 10
-161.7003013778356
 20
171.243321942789
 30
0.0
 10
-160.4782840987304
 20
169.5144730560367
 30
0.0
 10
-159.4987721964761
 20
168.7299506827962
 30
0.0
 10
-158.9222538938168
 20
168.8160003700596
 30
0.0
 10
-158.7498743752076
 20
168.841729308063
 30
0.0
  0
SPLINE
  5
1C0
330
1F
100
AcDbEntity
  8
0
  6
Continuous
 62
     7
370
    15
100
AcDbSpline
210
0.0
220
0.0
230
1.0
 70
     8
 71
     3
 72
    81
 73
    77
 74
     0
 42
0.000000001
 43
0.00000001
 40
0.0
 40
0.0
 40
0.0
 40
0.0
 40
0.0213736014316307
 40
0.0427924241014555
 40
0.0642083326802088
 40
0.0855900417769239
 40
0.1069298706432804
 40
0.1282507303620525
 40
0.1389697046827531
 40
0.1496927019123638
 40
0.16037801120525
 40
0.1669116276940232
 40
0.1734248062690075
 40
0.1792287742823197
 40
0.182177146387088
 40
0.1851200593936854
 40
0.1876799086250103
 40
0.1902414668957364
 40
0.1932043470910993
 40
0.196172666595228
 40
0.2010665659634814
 40
0.2059732219596931
 40
0.2129268774615656
 40
0.2199071422562373
 40
0.2268815426259798
 40
0.23947387219224
 40
0.252103695815756
 40
0.2647531762142508
 40
0.2773723825241857
 40
0.2960111896032235
 40
0.3147168644792324
 40
0.3334146717929676
 40
0.3520427110428461
 40
0.3661767378647772
 40
0.3803517115675926
 40
0.3945134819473476
 40
0.4086294489494053
 40
0.4202953220320159
 40
0.4319802058398103
 40
0.4436286492022398
 40
0.452580384689898
 40
0.4615523466113302
 40
0.47049184544481
 40
0.4794988659026075
 40
0.488545238445305
 40
0.4975614627945962
 40
0.5089311766561049
 40
0.520345752518682
 40
0.5317402902117413
 40
0.5461835820386517
 40
0.5606749644334451
 40
0.5751858620693234
 40
0.589655847506497
 40
0.6052752537021102
 40
0.6209359344162686
 40
0.6365828853079721
 40
0.6521835164886396
 40
0.6644585068657377
 40
0.6767536013698332
 40
0.6890084119597515
 40
0.701409494716454
 40
0.7138610523284185
 40
0.7262592376976772
 40
0.7370493955180978
 40
0.7478698896374834
 40
0.7586733391131483
 40
0.7747189575004008
 40
0.7908146853342556
 40
0.8069468852845141
 40
0.8230423727230557
 40
0.852128103684076
 40
0.8812390143751612
 40
0.9103766194797155
 40
0.9394987773205545
 40
0.9980088244645734
 40
1.0
 40
1.0
 40
1.0
 40
1.0
 10
-114.7560354340846
 20
382.9254450386206
 30
0.0
 10
-114.3846941654846
 20
381.54952719122
 30
0.0
 10
-113.6412259622837
 20
378.7947803955959
 30
0.0
 10
-112.5313878725373
 20
374.3931477978857
 30
0.0
 10
-111.4301960572944
 20
369.6113669220289
 30
0.0
 10
-110.343978979849
 20
364.3045791344878
 30
0.0
 10
-109.2788831058055
 20
358.3380220843746
 30
0.0
 10
-108.4135814447436
 20
352.6984324206524
 30
0.0
 10
-107.7386896754221
 20
347.7196687082936
 30
0.0
 10
-107.2507215688561
 20
343.5421807794198
 30
0.0
 10
-106.8544692232737
 20
339.3697184860285
 30
0.0
 10
-106.5487973022758
 20
335.3612653331234
 30
0.0
 10
-106.3421250229768
 20
331.7401141678977
 30
0.0
 10
-106.2218869675353
 20
328.3877889137775
 30
0.0
 10
-106.1797342038684
 20
325.6187025830519
 30
0.0
 10
-106.1784064304894
 20
323.5715361059661
 30
0.0
 10
-106.2082756121534
 20
321.662310932711
 30
0.0
 10
-106.2635736621402
 20
319.8534562811165
 30
0.0
 10
-106.3473623014697
 20
318.1307456786187
 30
0.0
 10
-106.478417520092
 20
316.1919035001583
 30
0.0
 10
-106.6599259047647
 20
314.2743922398465
 30
0.0
 10
-106.9220843734795
 20
312.2568333006944
 30
0.0
 10
-107.2350108074012
 20
310.4637117642439
 30
0.0
 10
-107.595589265705
 20
308.9727835978487
 30
0.0
 10
-108.062732076873
 20
307.5610066893535
 30
0.0
 10
-108.6377779169553
 20
306.4169901385262
 30
0.0
 10
-109.3199423944738
 20
305.8302037434721
 30
0.0
 10
-110.0038166216639
 20
305.8929326359125
 30
0.0
 10
-110.794218823951
 20
306.585113825766
 30
0.0
 10
-111.6884414611494
 20
308.1605297503999
 30
0.0
 10
-112.6769783005209
 20
311.032413305719
 30
0.0
 10
-113.643913245159
 20
314.9951952535454
 30
0.0
 10
-114.5045657583819
 20
319.6658313152155
 30
0.0
 10
-115.2611571258867
 20
324.7414336840295
 30
0.0
 10
-115.920003645991
 20
329.9637859420528
 30
0.0
 10
-116.5465351134119
 20
335.8455697341431
 30
0.0
 10
-117.0993350940048
 20
342.0201005707252
 30
0.0
 10
-117.5788170441793
 20
348.3785254482375
 30
0.0
 10
-117.9854271950621
 20
354.8282716711846
 30
0.0
 10
-118.3134048725979
 20
361.2594291686448
 30
0.0
 10
-118.5653366770774
 20
367.536230570746
 30
0.0
 10
-118.7496475922498
 20
373.5197839291741
 30
0.0
 10
-118.8837151129045
 20
379.7547836027459
 30
0.0
 10
-118.9552347144669
 20
386.1912900413481
 30
0.0
 10
-118.9654234048548
 20
392.7122051333708
 30
0.0
 10
-118.9132476002953
 20
399.7676646505708
 30
0.0
 10
-118.7858018634638
 20
407.2413238489721
 30
0.0
 10
-118.5829292674342
 20
415.0131322685927
 30
0.0
 10
-118.3022351652094
 20
423.1597060892913
 30
0.0
 10
-117.9405104802059
 20
431.5850876331802
 30
0.0
 10
-117.4936903168379
 20
440.1760285426786
 30
0.0
 10
-116.9986399751947
 20
448.2892734586678
 30
0.0
 10
-116.4497349540718
 20
456.1333916004693
 30
0.0
 10
-115.8505733437258
 20
463.7031269475663
 30
0.0
 10
-115.1981540006073
 20
470.9008848816708
 30
0.0
 10
-114.5078140408501
 20
477.4345205861317
 30
0.0
 10
-113.8330523707645
 20
482.8020537140421
 30
0.0
 10
-113.1815560584415
 20
487.0471306746505
 30
0.0
 10
-112.5599369058373
 20
490.1985184321812
 30
0.0
 10
-111.9146721317352
 20
492.4906782466169
 30
0.0
 10
-111.2497186937877
 20
493.6894470297015
 30
0.0
 10
-110.5762512867939
 20
493.7595439494168
 30
0.0
 10
-109.9363171658689
 20
492.7285980927003
 30
0.0
 10
-109.340058651797
 20
490.7531797602017
 30
0.0
 10
-108.7882966019257
 20
488.1494858697119
 30
0.0
 10
-108.1695270768198
 20
484.3911262389478
 30
0.0
 10
-107.4961559630265
 20
479.2574671949308
 30
0.0
 10
-106.7803946257538
 20
472.6345855658622
 30
0.0
 10
-106.1005772379652
 20
465.3568035991063
 30
0.0
 10
-105.2760427568048
 20
455.5328052566527
 30
0.0
 10
-104.3226386872199
 20
442.9742568406856
 30
0.0
 10
-103.2564295899454
 20
427.5187127084006
 30
0.0
 10
-102.2291699565566
 20
411.5941495912963
 30
0.0
 10
-100.8826397536011
 20
390.0168085643269
 30
0.0
 10
-99.86422306728903
 20
373.290553787409
 30
0.0
 10
-99.1711603520371
 20
362.0603123117685
 30
0.0
 10
-99.14835073824734
 20
361.6907101600615
 30
0.0
  0
LWPOLYLINE
  5
215
330
1F
100
AcDbEntity
  8
0
  6
PHANTOM
 62
     8
370
     0
100
AcDbPolyline
 90
       11
 70
   128
 43
0.0
 10
-1224.2446421775
 20
954.4539211454
 10
-1226.1053782106
 20
953.2492160156
 10
-1227.8024209853
 20
951.881759081
 10
-1229.2894795987
 20
950.3888510022
 10
-1230.5259909682
 20
948.8112144197
 10
-1231.4782262871
 20
947.1918831469
 10
-1232.120211058
 20
945.5750283198
 10
-1232.4344336101
 20
944.004753523
 10
-1232.4123227711
 20
942.5238917598
 10
-1232.0544816672
 20
941.1728370787
 10
-1231.7523604368
 20
940.5576706195
  0
LWPOLYLINE
  5
216
330
1F
100
AcDbEntity
  8
0
  6
PHANTOM
 62
     8
370
     0
100
AcDbPolyline
 90
       11
 70
   128
 43
0.0
 10
-1208.456277075
 20
954.0076706195
 10
-1208.837966241
 20
954.5768985096
 10
-1209.8290933649
 20
955.5623253367
 10
-1211.1005018518
 20
956.3219047665
 10
-1212.6175109927
 20
956.8349174524
 10
-1214.3387407328
 20
957.0873697455
 10
-1216.2172404115
 20
957.0723754054
 10
-1218.2017694547
 20
956.7903434385
 10
-1220.2381950832
 20
956.2489669418
 10
-1222.2709689145
 20
955.4630132549
 10
-1224.2446421775
 20
954.4539211454
  0
LWPOLYLINE
  5
219
330
1F
100
AcDbEntity
  8
0
  6
PHANTOM
 62
     8
370
     0
100
AcDbPolyline
 90
       11
 70
   128
 43
0.0
 10
-734.0742636355
 20
1237.4539211454
 10
-735.9349996686
 20
1236.2492160156
 10
-737.6320424433
 20
1234.8817590811
 10
-739.1191010567
 20
1233.3888510022
 10
-740.3556124262
 20
1231.8112144197
 10
-741.3078477451
 20
1230.1918831469
 10
-741.9498325161
 20
1228.5750283198
 10
-742.2640550681
 20
1227.004753523
 10
-742.2419442291
 20
1225.5238917598
 10
-741.8841031252
 20
1224.1728370787
 10
-741.5819818948
 20
1223.5576706195
  0
LWPOLYLINE
  5
21A
330
1F
100
AcDbEntity
  8
0
  6
PHANTOM
 62
     8
370
     0
100
AcDbPolyline
 90
       11
 70
   128
 43
0.0
 10
-718.285898533
 20
1237.0076706195
 10
-718.6675876991
 20
1237.5768985096
 10
-719.6587148229
 20
1238.5623253367
 10
-720.9301233098
 20
1239.3219047665
 10
-722.4471324507
 20
1239.8349174524
 10
-724.1683621908
 20
1240.0873697455
 10
-726.0468618696
 20
1240.0723754054
 10
-728.0313909127
 20
1239.7903434385
 10
-730.0678165412
 20
1239.2489669419
 10
-732.1005903725
 20
1238.4630132549
 10
-734.0742636355
 20
1237.4539211454
  0
LINE
  5
21F
330
1F
100
AcDbEntity
  8
0
  6
Continuous
 62
     7
370
    15
100
AcDbLine
 10
-200.1514253149
 20
433.3275621473
 30
0.0
 11
-228.1632968109
 21
384.8095775012
 31
0.0
  0
LINE
  5
220
330
1F
100
AcDbEntity
  8
0
  6
Continuous
 62
     7
370
    15
100
AcDbLine
 10
-175.0032661388
 20
476.885451557
 30
0.0
 11
-181.1326701677
 21
466.269012359
 31
0.0
  0
LINE
  5
221
330
1F
100
AcDbEntity
  8
0
  6
Continuous
 62
     7
370
    15
100
AcDbLine
 10
-65.4926451998
 20
306.5634109918
 30
0.0
 11
31.1591240411
 21
473.9691859586
 31
0.0
  0
LINE
  5
222
330
1F
100
AcDbEntity
  8
0
  6
Continuous
 62
     7
370
    15
100
AcDbLine
 10
30.3513728855
 20
-472.5701199171
 30
0.0
 11
-22.5015932417
 21
-381.0260972542
 31
0.0
  0
LINE
  5
223
330
1F
100
AcDbEntity
  8
0
  6
Continuous
 62
     7
370
    15
100
AcDbLine
 10
-835.4330022013
 20
90.0
 30
0.0
 11
-937.8889309197
 21
90.0
 31
0.0
  0
LINE
  5
224
330
1F
100
AcDbEntity
  8
0
  6
Continuous
 62
     7
370
    15
100
AcDbLine
 10
-373.3225783355
 20
416.6973469433
 30
0.0
 11
-693.8244412454
 21
231.6555101165
 31
0.0
  0
LINE
  5
225
330
1F
100
AcDbEntity
  8
0
  6
Continuous
 62
     7
370
    15
100
AcDbLine
 10
-680.3244412454
 20
208.2728242143
 30
0.0
 11
-359.8225783355
 21
393.3146610412
 31
0.0
  0
LINE
  5
226
330
1F
100
AcDbEntity
  8
0
  6
Continuous
 62
     7
370
    15
100
AcDbLine
 10
-322.8722312999
 20
503.2977478556
 30
0.0
 11
-328.4385771717
 21
447.2744217486
 31
0.0
  0
LINE
  5
227
330
1F
100
AcDbEntity
  8
0
  6
Continuous
 62
     7
370
    15
100
AcDbLine
 10
-301.8874903925
 20
441.4182329495
 30
0.0
 11
-296.0045238314
 21
500.6282356551
 31
0.0
  0
LINE
  5
228
330
1F
100
AcDbEntity
  8
0
  6
Continuous
 62
     7
370
    15
100
AcDbLine
 10
-805.1697502841
 20
206.6615551007
 30
0.0
 11
-750.9509005023
 21
182.1513522394
 31
0.0
  0
LINE
  5
229
330
1F
100
AcDbEntity
  8
0
  6
Continuous
 62
     7
370
    15
100
AcDbLine
 10
-742.7476118254
 20
208.0736545193
 30
0.0
 11
-794.0477619311
 21
231.26442841
 31
0.0
  0
LINE
  5
22A
330
1F
100
AcDbEntity
  8
0
  6
Continuous
 62
     7
370
    15
100
AcDbLine
 10
-1346.0092207415
 20
1138.4563577805
 30
0.0
 11
-813.2235967538
 21
215.6445874915
 31
0.0
  0
LINE
  5
22B
330
1F
100
AcDbEntity
  8
0
  6
Continuous
 62
     7
370
    15
100
AcDbLine
 10
-790.1675457748
 20
229.510335774
 30
0.0
 11
-1322.7131373797
 21
1151.9063577805
 31
0.0
  0
LINE
  5
22C
330
1F
100
AcDbEntity
  8
0
  6
Continuous
 62
     7
370
    15
100
AcDbLine
 10
-855.8388421995
 20
1421.4563577805
 30
0.0
 11
-323.2932505946
 21
499.060335774
 31
0.0
  0
LINE
  5
22D
330
1F
100
AcDbEntity
  8
0
  6
Continuous
 62
     7
370
    15
100
AcDbLine
 10
-299.7388335061
 20
512.0628886339
 30
0.0
 11
-832.5427588377
 21
1434.9063577805
 31
0.0
  0
LINE
  5
22E
330
1F
100
AcDbEntity
  8
0
  6
Continuous
 62
     7
370
    15
100
AcDbLine
 10
-1310.7381373797
 20
1131.1650493599
 30
0.0
 11
-1308.962785302
 21
1132.1900493599
 31
0.0
  0
LINE
  5
22F
330
1F
100
AcDbEntity
  8
0
  6
Continuous
 62
     7
370
    15
100
AcDbLine
 10
-845.6391942773
 20
1399.6900493599
 30
0.0
 11
-843.8638421995
 21
1400.7150493599
 31
0.0
  0
LINE
  5
230
330
1F
100
AcDbEntity
  8
0
  6
Continuous
 62
     7
370
    15
100
AcDbLine
 10
-855.2556562071
 20
1419.5413943204
 30
0.0
 11
-856.6391942773
 21
1418.7426082432
 31
0.0
  0
LINE
  5
231
330
1F
100
AcDbEntity
  8
0
  6
Continuous
 62
     7
370
    15
100
AcDbLine
 10
-1319.962785302
 20
1151.2426082432
 30
0.0
 11
-1321.3463233721
 21
1150.4438221659
 31
0.0
  0
LINE
  5
232
330
1F
100
AcDbEntity
  8
0
  6
Continuous
 62
     7
370
    15
100
AcDbLine
 10
-113.054976924
 20
650.201407921
 30
0.0
 11
-158.9253282051
 21
650.201407921
 31
0.0
  0
LINE
  5
233
330
1F
100
AcDbEntity
  8
0
  6
Continuous
 62
     7
370
    15
100
AcDbLine
 10
-109.5561908497
 20
429.2532002192
 30
0.0
 11
-118.027181344
 21
429.2532002192
 31
0.0
  0
LINE
  5
234
330
1F
100
AcDbEntity
  8
0
  6
Continuous
 62
     7
370
    15
100
AcDbLine
 10
-158.7498418822
 20
168.7360512605
 30
0.0
 11
-112.879490601
 21
168.7360512605
 31
0.0
  0
LINE
  5
235
330
1F
100
AcDbEntity
  8
0
  6
Continuous
 62
     7
370
    15
100
AcDbLine
 10
-1133.2855902805
 20
-127.4346300214
 30
0.0
 11
-1156.8748766559
 21
-99.3106720249
 31
0.0
  0
LINE
  5
236
330
1F
100
AcDbEntity
  8
0
  6
Continuous
 62
     7
370
    15
100
AcDbLine
 10
-1156.8748766559
 20
-99.3106720249
 30
0.0
 11
-1127.7976327652
 21
-84.4677594943
 31
0.0
  0
LINE
  5
237
330
1F
100
AcDbEntity
  8
0
  6
Continuous
 62
     7
370
    15
100
AcDbLine
 10
-1127.7976327652
 20
-84.4677594943
 30
0.0
 11
-14.446912372
 21
-601.4549897233
 31
0.0
  0
LINE
  5
238
330
1F
100
AcDbEntity
  8
0
  6
Continuous
 62
     7
370
    15
100
AcDbLine
 10
-14.446912372
 20
-601.4549897233
 30
0.0
 11
-10.8153056785
 21
-659.5381150904
 31
0.0
  0
LINE
  5
239
330
1F
100
AcDbEntity
  8
0
  6
Continuous
 62
     7
370
    15
100
AcDbLine
 10
-10.8153056785
 20
-659.5381150904
 30
0.0
 11
-50.0337457049
 21
-646.5478465261
 31
0.0
  0
LINE
  5
23A
330
1F
100
AcDbEntity
  8
0
  6
Continuous
 62
     7
370
    15
100
AcDbLine
 10
-984.2988316117
 20
-224.404337413
 30
0.0
 11
-1057.1402746403
 21
-190.5802286339
 31
0.0
  0
LINE
  5
23B
330
1F
100
AcDbEntity
  8
0
  6
Continuous
 62
     7
370
    15
100
AcDbLine
 10
-1122.8559651449
 20
-71.8996301425
 30
0.0
 11
-1151.9332090356
 21
-86.7425426731
 31
0.0
  0
LINE
  5
23C
330
1F
100
AcDbEntity
  8
0
  6
Continuous
 62
     7
370
    15
100
AcDbLine
 10
-1127.7976327652
 20
-84.4677594943
 30
0.0
 11
-1122.8559651449
 21
-71.8996301425
 31
0.0
  0
LINE
  5
23D
330
1F
100
AcDbEntity
  8
0
  6
Continuous
 62
     7
370
    15
100
AcDbLine
 10
-1151.9332090356
 20
-86.7425426731
 30
0.0
 11
-1156.8748766559
 21
-99.3106720249
 31
0.0
  0
LINE
  5
23E
330
1F
100
AcDbEntity
  8
0
  6
Continuous
 62
     7
370
    15
100
AcDbLine
 10
-1122.8559651449
 20
-71.8996301425
 30
0.0
 11
-1121.1618270624
 21
-72.6863074571
 31
0.0
  0
LINE
  5
23F
330
1F
100
AcDbEntity
  8
0
  6
Continuous
 62
     7
370
    15
100
AcDbLine
 10
-10.474987079
 20
-588.4365580628
 30
0.0
 11
-9.5052447517
 21
-588.8868603715
 31
0.0
  0
LINE
  5
240
330
1F
100
AcDbEntity
  8
0
  6
Continuous
 62
     7
370
    15
100
AcDbLine
 10
-9.5052447517
 20
-588.8868603715
 30
0.0
 11
-14.446912372
 21
-601.4549897233
 31
0.0
  0
LINE
  5
241
330
1F
100
AcDbEntity
  8
0
  6
Continuous
 62
     7
370
    15
100
AcDbLine
 10
-5.8736380581
 20
-646.9699857385
 30
0.0
 11
-10.8153056785
 21
-659.5381150904
 31
0.0
  0
LINE
  5
242
330
1F
100
AcDbEntity
  8
0
  6
Continuous
 62
     7
370
    15
100
AcDbLine
 10
-5.8736380581
 20
-646.9699857385
 30
0.0
 11
-9.5052447517
 21
-588.8868603715
 31
0.0
  0
LINE
  5
243
330
1F
100
AcDbEntity
  8
0
  6
Continuous
 62
     7
370
    15
100
AcDbLine
 10
-81.5884509165
 20
469.7203453403
 30
0.0
 11
-81.7378995986
 21
469.4614926297
 31
0.0
  0
LINE
  5
244
330
1F
100
AcDbEntity
  8
0
  6
Continuous
 62
     7
370
    15
100
AcDbLine
 10
-503.6693557679
 20
234.1278219205
 30
0.0
 11
-428.4731778164
 21
272.5128317295
 31
0.0
  0
LINE
  5
245
330
1F
100
AcDbEntity
  8
0
  6
Continuous
 62
     7
370
    15
100
AcDbLine
 10
-58.3450917357
 20
100.6429163939
 30
0.0
 11
-428.4731778164
 21
272.5128317295
 31
0.0
  0
LINE
  5
246
330
1F
100
AcDbEntity
  8
0
  6
Continuous
 62
     7
370
    15
100
AcDbLine
 10
-58.3450917357
 20
100.6429163939
 30
0.0
 11
-53.6248573955
 21
25.1485178867
 31
0.0
  0
LINE
  5
247
330
1F
100
AcDbEntity
  8
0
  6
Continuous
 62
     7
370
    15
100
AcDbLine
 10
-503.6693557679
 20
234.1278219205
 30
0.0
 11
-53.6248573955
 21
25.1485178867
 31
0.0
  0
LINE
  5
248
330
1F
100
AcDbEntity
  8
0
  6
Continuous
 62
     7
370
    15
100
AcDbLine
 10
-428.4731778164
 20
272.5128317295
 30
0.0
 11
-423.5315101961
 21
285.0809610813
 31
0.0
  0
LINE
  5
249
330
1F
100
AcDbEntity
  8
0
  6
Continuous
 62
     7
370
    15
100
AcDbLine
 10
-53.4034241154
 20
113.2110457457
 30
0.0
 11
-54.3731664427
 21
113.6613480545
 31
0.0
  0
LINE
  5
24A
330
1F
100
AcDbEntity
  8
0
  6
Continuous
 62
     7
370
    15
100
AcDbLine
 10
-421.8373721136
 20
284.2942837668
 30
0.0
 11
-423.5315101961
 21
285.0809610813
 31
0.0
  0
LINE
  5
24B
330
1F
100
AcDbEntity
  8
0
  6
Continuous
 62
     7
370
    15
100
AcDbLine
 10
-53.4034241154
 20
113.2110457457
 30
0.0
 11
-58.3450917357
 21
100.6429163939
 31
0.0
  0
LINE
  5
24C
330
1F
100
AcDbEntity
  8
0
  6
Continuous
 62
     7
370
    15
100
AcDbLine
 10
-498.7276881475
 20
246.6959512723
 30
0.0
 11
-503.6693557679
 21
234.1278219205
 31
0.0
  0
LINE
  5
24D
330
1F
100
AcDbEntity
  8
0
  6
Continuous
 62
     7
370
    15
100
AcDbLine
 10
-423.5315101961
 20
285.0809610813
 30
0.0
 11
-498.7276881475
 21
246.6959512723
 31
0.0
  0
LINE
  5
24E
330
1F
100
AcDbEntity
  8
0
  6
Continuous
 62
     7
370
    15
100
AcDbLine
 10
-53.6248573955
 20
25.1485178867
 30
0.0
 11
-48.6831897752
 21
37.7166472385
 31
0.0
  0
LINE
  5
24F
330
1F
100
AcDbEntity
  8
0
  6
Continuous
 62
     7
370
    15
100
AcDbLine
 10
-48.6831897752
 20
37.7166472385
 30
0.0
 11
-53.4034241154
 21
113.2110457457
 31
0.0
  0
LINE
  5
250
330
1F
100
AcDbEntity
  8
0
  6
Continuous
 62
     7
370
    15
100
AcDbLine
 10
-1127.2588931406
 20
-42.5669290673
 30
0.0
 11
-1127.38872508
 21
10.4745487579
 31
0.0
  0
LINE
  5
251
330
1F
100
AcDbEntity
  8
0
  6
Continuous
 62
     7
370
    15
100
AcDbLine
 10
-1127.3871106113
 20
10.4736166439
 30
0.0
 11
-1127.38872508
 21
10.4745487579
 31
0.0
  0
LINE
  5
252
330
1F
100
AcDbEntity
  8
0
  6
Continuous
 62
     7
370
    15
100
AcDbLine
 10
53.1503455869
 20
-671.1100014805
 30
0.0
 11
7.1501623662
 21
-697.5183026353
 31
0.0
  0
LINE
  5
253
330
1F
100
AcDbEntity
  8
0
  6
Continuous
 62
     7
370
    15
100
AcDbLine
 10
7.1501623662
 20
-697.5183026353
 30
0.0
 11
-141.8791106556
 21
-611.476211739
 31
0.0
  0
LINE
  5
254
330
1F
100
AcDbEntity
  8
0
  6
Continuous
 62
     7
370
    15
100
AcDbLine
 10
-1098.2280043886
 20
-59.3279205031
 30
0.0
 11
-1127.2588931406
 21
-42.5669290673
 31
0.0
  0
LINE
  5
255
330
1F
100
AcDbEntity
  8
0
  6
Continuous
 62
     7
370
    15
100
AcDbLine
 10
47.8984992383
 20
-680.2064661898
 30
0.0
 11
53.1503455869
 21
-671.1100014805
 31
0.0
  0
LINE
  5
256
330
1F
100
AcDbEntity
  8
0
  6
Continuous
 62
     7
370
    15
100
AcDbLine
 10
47.8984992383
 20
-680.2064661898
 30
0.0
 11
1.8983160177
 21
-706.6147673445
 31
0.0
  0
LINE
  5
257
330
1F
100
AcDbEntity
  8
0
  6
Continuous
 62
     7
370
    15
100
AcDbLine
 10
1.8983160177
 20
-706.6147673445
 30
0.0
 11
7.1501623662
 21
-697.5183026353
 31
0.0
  0
LINE
  5
258
330
1F
100
AcDbEntity
  8
0
  6
Continuous
 62
     7
370
    15
100
AcDbLine
 10
-1132.5107394891
 20
-51.6633937765
 30
0.0
 11
-1127.2588931406
 21
-42.5669290673
 31
0.0
  0
LINE
  5
259
330
1F
100
AcDbEntity
  8
0
  6
Continuous
 62
     7
370
    15
100
AcDbLine
 10
-1132.5107394891
 20
-51.6633937765
 30
0.0
 11
-1109.3775267559
 21
-65.0193603753
 31
0.0
  0
LINE
  5
25A
330
1F
100
AcDbEntity
  8
0
  6
Continuous
 62
     7
370
    15
100
AcDbLine
 10
-276.0877720494
 20
-546.1194245681
 30
0.0
 11
1.8983160177
 21
-706.6147673445
 31
0.0
  0
LINE
  5
25B
330
1F
100
AcDbEntity
  8
0
  6
Continuous
 62
     7
370
    15
100
AcDbLine
 10
-1127.38872508
 20
10.4745487579
 30
0.0
 11
-1132.6405714286
 21
1.3780840487
 31
0.0
  0
LINE
  5
25C
330
1F
100
AcDbEntity
  8
0
  6
Continuous
 62
     7
370
    15
100
AcDbLine
 10
-1132.6405714286
 20
1.3780840487
 30
0.0
 11
-1132.5107394891
 21
-51.6633937765
 31
0.0
  0
LINE
  5
25D
330
1F
100
AcDbEntity
  8
0
  6
Continuous
 62
     7
370
    15
100
AcDbLine
 10
74.8951569361
 20
570.6471489882
 30
0.0
 11
23.0348668761
 21
540.7055965618
 31
0.0
  0
LINE
  5
25E
330
1F
100
AcDbEntity
  8
0
  6
Continuous
 62
     7
370
    15
100
AcDbLine
 10
74.8951569361
 20
408.9890736151
 30
0.0
 11
74.8951569361
 21
570.6471489882
 31
0.0
  0
LINE
  5
25F
330
1F
100
AcDbEntity
  8
0
  6
Continuous
 62
     7
370
    15
100
AcDbLine
 10
-46.9833204365
 20
338.6225018956
 30
0.0
 11
74.8951569361
 21
408.9890736151
 31
0.0
  0
LINE
  5
260
330
1F
100
AcDbEntity
  8
0
  6
Continuous
 62
     7
370
    15
100
AcDbLine
 10
-81.95892579
 20
523.3009364189
 30
0.0
 11
-95.1321038335
 21
515.7254264438
 31
0.0
  0
LINE
  5
261
330
1F
100
AcDbEntity
  8
0
  6
Continuous
 62
     7
370
    15
100
AcDbLine
 10
-175.1458792814
 20
469.7118409557
 30
0.0
 11
-184.0899373922
 21
464.568374344
 31
0.0
  0
LINE
  5
262
330
1F
100
AcDbEntity
  8
0
  6
Continuous
 62
     7
370
    15
100
AcDbLine
 10
-272.4833838446
 20
413.7358847864
 30
0.0
 11
-741.7428104395
 21
143.8784930956
 31
0.0
  0
LINE
  5
263
330
1F
100
AcDbEntity
  8
0
  6
Continuous
 62
     7
370
    15
100
AcDbLine
 10
-830.990967766
 20
92.5544842758
 30
0.0
 11
-939.6104674214
 21
30.0905822154
 31
0.0
  0
LINE
  5
264
330
1F
100
AcDbEntity
  8
0
  6
Continuous
 62
     7
370
    15
100
AcDbLine
 10
-90.0682018811
 20
510.856617355
 30
0.0
 11
-81.95892579
 21
523.3009364189
 31
0.0
  0
LINE
  5
265
330
1F
100
AcDbEntity
  8
0
  6
Continuous
 62
     7
370
    15
100
AcDbLine
 10
-921.7303028571
 20
32.5920314606
 30
0.0
 11
-853.8030396576
 21
71.6550167366
 31
0.0
  0
LINE
  5
266
330
1F
100
AcDbEntity
  8
0
  6
Continuous
 62
     7
370
    15
100
AcDbLine
 10
-834.8168263916
 20
82.5734335007
 30
0.0
 11
-175.2758524137
 21
461.8561859908
 31
0.0
  0
LINE
  5
267
330
1F
100
AcDbEntity
  8
0
  6
Continuous
 62
     7
370
    15
100
AcDbLine
 10
-94.6624930909
 20
508.2145746547
 30
0.0
 11
-90.0682018811
 21
510.856617355
 31
0.0
  0
LINE
  5
268
330
1F
100
AcDbEntity
  8
0
  6
Continuous
 62
     7
370
    15
100
AcDbLine
 10
-939.6104674214
 20
30.0905822154
 30
0.0
 11
-921.7303028571
 21
32.5920314606
 31
0.0
  0
LINE
  5
269
330
1F
100
AcDbEntity
  8
0
  6
Continuous
 62
     7
370
    15
100
AcDbLine
 10
-70.0897740243
 20
476.3328986065
 30
0.0
 11
-61.9804979332
 21
488.7772176705
 31
0.0
  0
LINE
  5
26A
330
1F
100
AcDbEntity
  8
0
  6
Continuous
 62
     7
370
    15
100
AcDbLine
 10
-90.0682018811
 20
510.856617355
 30
0.0
 11
-70.0897740243
 21
476.3328986065
 31
0.0
  0
LINE
  5
26B
330
1F
100
AcDbEntity
  8
0
  6
Continuous
 62
     7
370
    15
100
AcDbLine
 10
-61.9804979332
 20
488.7772176705
 30
0.0
 11
-81.95892579
 21
523.3009364189
 31
0.0
  0
LINE
  5
26C
330
1F
100
AcDbEntity
  8
0
  6
Continuous
 62
     7
370
    15
100
AcDbLine
 10
-237.7576948032
 20
379.9119740447
 30
0.0
 11
-227.6275445752
 21
385.7375275937
 31
0.0
  0
LINE
  5
26D
330
1F
100
AcDbEntity
  8
0
  6
Continuous
 62
     7
370
    15
100
AcDbLine
 10
-81.9005069849
 20
469.5408910088
 30
0.0
 11
-70.0897740243
 21
476.3328986065
 31
0.0
  0
LINE
  5
26E
330
1F
100
AcDbEntity
  8
0
  6
Continuous
 62
     7
370
    15
100
AcDbLine
 10
-920.915445776
 20
31.1839178247
 30
0.0
 11
-921.7303028571
 21
32.5920314606
 31
0.0
  0
LINE
  5
26F
330
1F
100
AcDbEntity
  8
0
  6
Continuous
 62
     7
370
    15
100
AcDbLine
 10
-935.8357248552
 20
23.5676389869
 30
0.0
 11
-939.6104674214
 21
30.0905822154
 31
0.0
  0
LINE
  5
270
330
1F
100
AcDbEntity
  8
0
  6
Continuous
 62
     7
370
    15
100
AcDbLine
 10
-1132.6558915607
 20
-1.3478203457
 30
0.0
 11
-1132.633805477
 21
-1.3860745648
 31
0.0
  0
LINE
  5
271
330
1F
100
AcDbEntity
  8
0
  6
Continuous
 62
     7
370
    15
100
AcDbLine
 10
-1132.5260596212
 20
51.6936574795
 30
0.0
 11
-1132.6558915607
 21
-1.3478203457
 31
0.0
  0
LINE
  5
272
330
1F
100
AcDbEntity
  8
0
  6
Continuous
 62
     7
370
    15
100
AcDbLine
 10
-1127.2742132726
 20
42.5971927703
 30
0.0
 11
-1132.5260596212
 21
51.6936574795
 31
0.0
  0
LINE
  5
273
330
1F
100
AcDbEntity
  8
0
  6
Continuous
 62
     7
370
    15
100
AcDbLine
 10
-1127.3699770814
 20
3.4738926084
 30
0.0
 11
-1127.2742132726
 21
42.5971927703
 31
0.0
  0
LINE
  5
274
330
1F
100
AcDbEntity
  8
0
  6
Continuous
 62
     7
370
    15
100
AcDbLine
 10
-1127.2742132726
 20
42.5971927703
 30
0.0
 11
-825.075073546
 21
217.0719474403
 31
0.0
  0
LINE
  5
275
330
1F
100
AcDbEntity
  8
0
  6
Continuous
 62
     7
370
    15
100
AcDbLine
 10
-295.0675264299
 20
523.0719474403
 30
0.0
 11
-169.5744928722
 21
595.5253841463
 31
0.0
  0
LINE
  5
276
330
1F
100
AcDbEntity
  8
0
  6
Continuous
 62
     7
370
    15
100
AcDbLine
 10
-105.9328217345
 20
632.2689201093
 30
0.0
 11
7.1348422342
 21
697.5485663383
 31
0.0
  0
LINE
  5
277
330
1F
100
AcDbEntity
  8
0
  6
Continuous
 62
     7
370
    15
100
AcDbLine
 10
53.1350254548
 20
671.1402651835
 30
0.0
 11
7.1348422342
 21
697.5485663383
 31
0.0
  0
LINE
  5
278
330
1F
100
AcDbEntity
  8
0
  6
Continuous
 62
     7
370
    15
100
AcDbLine
 10
53.1334109861
 20
671.1393330695
 30
0.0
 11
53.1350254548
 21
671.1402651835
 31
0.0
  0
LINE
  5
279
330
1F
100
AcDbEntity
  8
0
  6
Continuous
 62
     7
370
    15
100
AcDbLine
 10
1.8829958856
 20
706.6450310475
 30
0.0
 11
-108.5432994412
 21
642.890379715
 31
0.0
  0
LINE
  5
27A
330
1F
100
AcDbEntity
  8
0
  6
Continuous
 62
     7
370
    15
100
AcDbLine
 10
-168.4270334761
 20
608.3164897498
 30
0.0
 11
-308.5899153846
 21
527.3934121495
 31
0.0
  0
LINE
  5
27B
330
1F
100
AcDbEntity
  8
0
  6
Continuous
 62
     7
370
    15
100
AcDbLine
 10
-822.0563772884
 20
230.9434121495
 30
0.0
 11
-1132.5260596212
 21
51.6936574795
 31
0.0
  0
LINE
  5
27C
330
1F
100
AcDbEntity
  8
0
  6
Continuous
 62
     7
370
    15
100
AcDbLine
 10
7.1348422342
 20
697.5485663383
 30
0.0
 11
1.8829958856
 21
706.6450310475
 31
0.0
  0
LINE
  5
27D
330
1F
100
AcDbEntity
  8
0
  6
Continuous
 62
     7
370
    15
100
AcDbLine
 10
47.8831791063
 20
680.2367298927
 30
0.0
 11
1.8829958856
 21
706.6450310475
 31
0.0
  0
LINE
  5
27E
330
1F
100
AcDbEntity
  8
0
  6
Continuous
 62
     7
370
    15
100
AcDbLine
 10
53.1350254548
 20
671.1402651835
 30
0.0
 11
47.8831791063
 21
680.2367298927
 31
0.0
  0
LINE
  5
27F
330
1F
100
AcDbEntity
  8
0
  6
Continuous
 62
     7
370
    15
100
AcDbLine
 10
-296.8335746076
 20
492.2841292947
 30
0.0
 11
-282.1775221538
 21
500.7458051242
 31
0.0
  0
LINE
  5
280
330
1F
100
AcDbEntity
  8
0
  6
Continuous
 62
     7
370
    15
100
AcDbLine
 10
-295.6775221538
 20
524.1284910264
 30
0.0
 11
-303.9480647599
 21
519.3534910264
 31
0.0
  0
LINE
  5
281
330
1F
100
AcDbEntity
  8
0
  6
Continuous
 62
     7
370
    15
100
AcDbLine
 10
-309.8847638909
 20
515.925936185
 30
0.0
 11
-310.8070955513
 21
515.3934277526
 31
0.0
  0
LINE
  5
282
330
1F
100
AcDbEntity
  8
0
  6
Continuous
 62
     7
370
    15
100
AcDbLine
 10
-320.3851173303
 20
509.8635543002
 30
0.0
 11
-321.2719317196
 21
509.3515517738
 31
0.0
  0
LINE
  5
283
330
1F
100
AcDbEntity
  8
0
  6
Continuous
 62
     7
370
    15
100
AcDbLine
 10
-295.6775221538
 20
524.1284910264
 30
0.0
 11
-293.9275221538
 21
521.0974021131
 31
0.0
  0
LINE
  5
284
330
1F
100
AcDbEntity
  8
0
  6
Continuous
 62
     7
370
    15
100
AcDbLine
 10
-825.6850692698
 20
218.1284910264
 30
0.0
 11
-823.9350692698
 21
215.0974021131
 31
0.0
  0
LINE
  5
285
330
1F
100
AcDbEntity
  8
0
  6
Continuous
 62
     7
370
    15
100
AcDbLine
 10
-800.0562064187
 20
232.9253218925
 30
0.0
 11
-800.9774740933
 21
232.3934277526
 31
0.0
  0
LINE
  5
286
330
1F
100
AcDbEntity
  8
0
  6
Continuous
 62
     7
370
    15
100
AcDbLine
 10
-810.5554958723
 20
226.8635543002
 30
0.0
 11
-811.4474158319
 21
226.3486040714
 31
0.0
  0
LINE
  5
287
330
1F
100
AcDbEntity
  8
0
  6
Continuous
 62
     7
370
    15
100
AcDbLine
 10
-817.4145266637
 20
222.9034910264
 30
0.0
 11
-825.6850692698
 21
218.1284910264
 31
0.0
  0
LINE
  5
288
330
1F
100
AcDbEntity
  8
0
  6
Continuous
 62
     7
370
    15
100
AcDbLine
 10
-812.1850692698
 20
194.7458051242
 30
0.0
 11
-797.529016816
 21
203.2074809537
 31
0.0
  0
LINE
  5
289
330
1F
100
AcDbEntity
  8
0
  6
Continuous
 62
     7
370
    15
100
AcDbLine
 10
-328.5864874976
 20
505.1284910264
 30
0.0
 11
-792.776103926
 21
237.1284910264
 31
0.0
  0
LINE
  5
28A
330
1F
100
AcDbEntity
  8
0
  6
Continuous
 62
     7
370
    15
100
AcDbLine
 10
80.878246233
 20
-654.951373568
 30
0.0
 11
35.0078949519
 21
-681.5845502384
 31
0.0
  0
LINE
  5
28B
330
1F
100
AcDbEntity
  8
0
  6
Continuous
 62
     7
370
    15
100
AcDbLine
 10
35.0078949519
 20
551.0823291595
 30
0.0
 11
35.0078949519
 21
547.6182275444
 31
0.0
  0
LINE
  5
28C
330
1F
100
AcDbEntity
  8
0
  6
Continuous
 62
     7
370
    15
100
AcDbLine
 10
35.0078949519
 20
385.9601521713
 30
0.0
 11
35.0078949519
 21
382.4960505562
 31
0.0
  0
LINE
  5
28D
330
1F
100
AcDbEntity
  8
0
  6
Continuous
 62
     7
370
    15
100
AcDbLine
 10
35.0078949519
 20
220.8379751831
 30
0.0
 11
35.0078949519
 21
217.3738735679
 31
0.0
  0
LINE
  5
28E
330
1F
100
AcDbEntity
  8
0
  6
Continuous
 62
     7
370
    15
100
AcDbLine
 10
35.0078949519
 20
55.7157981948
 30
0.0
 11
35.0078949519
 21
52.2516965797
 31
0.0
  0
LINE
  5
28F
330
1F
100
AcDbEntity
  8
0
  6
Continuous
 62
     7
370
    15
100
AcDbLine
 10
35.0078949519
 20
-109.4063787934
 30
0.0
 11
35.0078949519
 21
-112.8704804085
 31
0.0
  0
LINE
  5
290
330
1F
100
AcDbEntity
  8
0
  6
Continuous
 62
     7
370
    15
100
AcDbLine
 10
35.0078949519
 20
-274.5285557816
 30
0.0
 11
35.0078949519
 21
-277.9926573968
 31
0.0
  0
LINE
  5
291
330
1F
100
AcDbEntity
  8
0
  6
Continuous
 62
     7
370
    15
100
AcDbLine
 10
35.0078949519
 20
-439.6507327699
 30
0.0
 11
35.0078949519
 21
-443.114834385
 31
0.0
  0
LINE
  5
292
330
1F
100
AcDbEntity
  8
0
  6
Continuous
 62
     7
370
    15
100
AcDbLine
 10
35.0078949519
 20
-604.7729097581
 30
0.0
 11
35.0078949519
 21
-608.2370113732
 31
0.0
  0
LINE
  5
293
330
1F
100
AcDbEntity
  8
0
  6
Continuous
 62
     7
370
    15
100
AcDbLine
 10
41.0620731143
 20
678.0693821158
 30
0.0
 11
80.878246233
 21
654.951373568
 31
0.0
  0
LINE
  5
294
330
1F
100
AcDbEntity
  8
0
  6
Continuous
 62
     7
370
    15
100
AcDbLine
 10
80.878246233
 20
654.951373568
 30
0.0
 11
80.878246233
 21
-654.951373568
 31
0.0
  0
LINE
  5
295
330
1F
100
AcDbEntity
  8
0
  6
Continuous
 62
     7
370
    15
100
AcDbLine
 10
35.0078949519
 20
-681.5845502384
 30
0.0
 11
45.5115876489
 21
-681.5845502384
 31
0.0
  0
LINE
  5
296
330
1F
100
AcDbEntity
  8
0
  6
Continuous
 62
     7
370
    15
100
AcDbLine
 10
91.3819389301
 20
-654.951373568
 30
0.0
 11
80.878246233
 21
-654.951373568
 31
0.0
  0
LINE
  5
297
330
1F
100
AcDbEntity
  8
0
  6
Continuous
 62
     7
370
    15
100
AcDbLine
 10
45.5115876489
 20
-681.5845502384
 30
0.0
 11
91.3819389301
 21
-654.951373568
 31
0.0
  0
LINE
  5
298
330
1F
100
AcDbEntity
  8
0
  6
Continuous
 62
     7
370
    15
100
AcDbLine
 10
91.3819389301
 20
654.951373568
 30
0.0
 11
80.878246233
 21
654.951373568
 31
0.0
  0
LINE
  5
299
330
1F
100
AcDbEntity
  8
0
  6
Continuous
 62
     7
370
    15
100
AcDbLine
 10
91.3819389301
 20
-654.951373568
 30
0.0
 11
91.3819389301
 21
654.951373568
 31
0.0
  0
LINE
  5
29A
330
1F
100
AcDbEntity
  8
0
  6
Continuous
 62
     7
370
    15
100
AcDbLine
 10
47.9085124578
 20
680.1928512408
 30
0.0
 11
91.3819389301
 21
654.951373568
 31
0.0
  0
LINE
  5
29B
330
1F
100
AcDbEntity
  8
0
  6
Continuous
 62
     7
370
    15
100
AcDbLine
 10
-425.9666385513
 20
273.7923320565
 30
0.0
 11
-350.7704605999
 21
312.1773418655
 31
0.0
  0
LINE
  5
29C
330
1F
100
AcDbEntity
  8
0
  6
Continuous
 62
     7
370
    15
100
AcDbLine
 10
-63.2226672206
 20
178.6537948514
 30
0.0
 11
-103.5402018511
 21
197.3753442936
 31
0.0
  0
LINE
  5
29D
330
1F
100
AcDbEntity
  8
0
  6
Continuous
 62
     7
370
    15
100
AcDbLine
 10
-170.5184093914
 20
228.476844807
 30
0.0
 11
-350.7704605999
 21
312.1773418655
 31
0.0
  0
LINE
  5
29E
330
1F
100
AcDbEntity
  8
0
  6
Continuous
 62
     7
370
    15
100
AcDbLine
 10
-63.2226672206
 20
178.6537948514
 30
0.0
 11
-58.5024328804
 21
103.1593963442
 31
0.0
  0
LINE
  5
29F
330
1F
100
AcDbEntity
  8
0
  6
Continuous
 62
     7
370
    15
100
AcDbLine
 10
-425.9666385513
 20
273.7923320565
 30
0.0
 11
-58.5024328804
 21
103.1593963442
 31
0.0
  0
LINE
  5
2A0
330
1F
100
AcDbEntity
  8
0
  6
Continuous
 62
     7
370
    15
100
AcDbLine
 10
-421.024970931
 20
286.3604614083
 30
0.0
 11
-425.9666385513
 21
273.7923320565
 31
0.0
  0
LINE
  5
2A1
330
1F
100
AcDbEntity
  8
0
  6
Continuous
 62
     7
370
    15
100
AcDbLine
 10
-345.8287929795
 20
324.7454712173
 30
0.0
 11
-421.024970931
 21
286.3604614083
 31
0.0
  0
LINE
  5
2A2
330
1F
100
AcDbEntity
  8
0
  6
Continuous
 62
     7
370
    15
100
AcDbLine
 10
-350.7704605999
 20
312.1773418655
 30
0.0
 11
-345.8287929795
 21
324.7454712173
 31
0.0
  0
LINE
  5
2A3
330
1F
100
AcDbEntity
  8
0
  6
Continuous
 62
     7
370
    15
100
AcDbLine
 10
-58.2809996002
 20
191.2219242032
 30
0.0
 11
-59.2507419275
 21
191.672226512
 31
0.0
  0
LINE
  5
2A4
330
1F
100
AcDbEntity
  8
0
  6
Continuous
 62
     7
370
    15
100
AcDbLine
 10
-344.1346548971
 20
323.9587939028
 30
0.0
 11
-345.8287929795
 21
324.7454712173
 31
0.0
  0
LINE
  5
2A5
330
1F
100
AcDbEntity
  8
0
  6
Continuous
 62
     7
370
    15
100
AcDbLine
 10
-58.2809996002
 20
191.2219242032
 30
0.0
 11
-63.2226672206
 21
178.6537948514
 31
0.0
  0
LINE
  5
2A6
330
1F
100
AcDbEntity
  8
0
  6
Continuous
 62
     7
370
    15
100
AcDbLine
 10
-58.5024328804
 20
103.1593963442
 30
0.0
 11
-53.5607652601
 21
115.727525696
 31
0.0
  0
LINE
  5
2A7
330
1F
100
AcDbEntity
  8
0
  6
Continuous
 62
     7
370
    15
100
AcDbLine
 10
-53.5607652601
 20
115.727525696
 30
0.0
 11
-58.2809996002
 21
191.2219242032
 31
0.0
  0
LINE
  5
2A8
330
1F
100
AcDbEntity
  8
0
  6
Continuous
 62
     7
370
    15
100
AcDbLine
 10
-270.5612041183
 20
353.1213523285
 30
0.0
 11
-195.3650261668
 21
391.5063621375
 31
0.0
  0
LINE
  5
2A9
330
1F
100
AcDbEntity
  8
0
  6
Continuous
 62
     7
370
    15
100
AcDbLine
 10
-72.9778181903
 20
334.6755517663
 30
0.0
 11
-101.1678139786
 21
347.7656477943
 31
0.0
  0
LINE
  5
2AA
330
1F
100
AcDbEntity
  8
0
  6
Continuous
 62
     7
370
    15
100
AcDbLine
 10
-175.6168221962
 20
382.3362335466
 30
0.0
 11
-195.3650261668
 21
391.5063621375
 31
0.0
  0
LINE
  5
2AB
330
1F
100
AcDbEntity
  8
0
  6
Continuous
 62
     7
370
    15
100
AcDbLine
 10
-72.9778181903
 20
334.6755517663
 30
0.0
 11
-68.2575838501
 21
259.1811532591
 31
0.0
  0
LINE
  5
2AC
330
1F
100
AcDbEntity
  8
0
  6
Continuous
 62
     7
370
    15
100
AcDbLine
 10
-270.5612041183
 20
353.1213523285
 30
0.0
 11
-174.3429018865
 21
308.4421396985
 31
0.0
  0
LINE
  5
2AD
330
1F
100
AcDbEntity
  8
0
  6
Continuous
 62
     7
370
    15
100
AcDbLine
 10
-99.2184944215
 20
273.5579305931
 30
0.0
 11
-68.2575838501
 21
259.1811532591
 31
0.0
  0
LINE
  5
2AE
330
1F
100
AcDbEntity
  8
0
  6
Continuous
 62
     7
370
    15
100
AcDbLine
 10
-265.619536498
 20
365.6894816803
 30
0.0
 11
-270.5612041183
 21
353.1213523285
 31
0.0
  0
LINE
  5
2AF
330
1F
100
AcDbEntity
  8
0
  6
Continuous
 62
     7
370
    15
100
AcDbLine
 10
-190.4233585465
 20
404.0744914893
 30
0.0
 11
-265.619536498
 21
365.6894816803
 31
0.0
  0
LINE
  5
2B0
330
1F
100
AcDbEntity
  8
0
  6
Continuous
 62
     7
370
    15
100
AcDbLine
 10
-195.3650261668
 20
391.5063621375
 30
0.0
 11
-190.4233585465
 21
404.0744914893
 31
0.0
  0
LINE
  5
2B1
330
1F
100
AcDbEntity
  8
0
  6
Continuous
 62
     7
370
    15
100
AcDbLine
 10
-68.03615057
 20
347.2436811182
 30
0.0
 11
-101.6681141634
 21
362.8607686961
 31
0.0
  0
LINE
  5
2B2
330
1F
100
AcDbEntity
  8
0
  6
Continuous
 62
     7
370
    15
100
AcDbLine
 10
-175.6857684502
 20
397.2310541568
 30
0.0
 11
-190.4233585465
 21
404.0744914893
 31
0.0
  0
LINE
  5
2B3
330
1F
100
AcDbEntity
  8
0
  6
Continuous
 62
     7
370
    15
100
AcDbLine
 10
-68.03615057
 20
347.2436811182
 30
0.0
 11
-72.9778181903
 21
334.6755517663
 31
0.0
  0
LINE
  5
2B4
330
1F
100
AcDbEntity
  8
0
  6
Continuous
 62
     7
370
    15
100
AcDbLine
 10
-63.3159162298
 20
271.7492826109
 30
0.0
 11
-68.03615057
 21
347.2436811182
 31
0.0
  0
LINE
  5
2B5
330
1F
100
AcDbEntity
  8
0
  6
Continuous
 62
     7
370
    15
100
AcDbLine
 10
-68.2575838501
 20
259.1811532591
 30
0.0
 11
-63.3159162298
 21
271.7492826109
 31
0.0
  0
LINE
  5
2B6
330
1F
100
AcDbEntity
  8
0
  6
Continuous
 62
     7
370
    15
100
AcDbLine
 10
-749.9928462656
 20
1238.1257150452
 30
0.0
 11
-751.3351856415
 21
1237.3507150452
 31
0.0
  0
LINE
  5
2B7
330
1F
100
AcDbEntity
  8
0
  6
Continuous
 62
     7
370
    15
100
AcDbLine
 10
-323.5560359193
 20
496.4154933079
 30
0.0
 11
-751.3351856415
 21
1237.3507150452
 31
0.0
  0
LINE
  5
2B8
330
1F
100
AcDbEntity
  8
0
  6
Continuous
 62
     7
370
    15
100
AcDbLine
 10
-323.2700208238
 20
499.9201006307
 30
0.0
 11
-323.216958081
 21
499.8281932641
 31
0.0
  0
LINE
  5
2B9
330
1F
100
AcDbEntity
  8
0
  6
Continuous
 62
     7
370
    15
100
AcDbLine
 10
-1215.5887991515
 20
969.4615612421
 30
0.0
 11
-1216.9311385274
 21
968.6865612421
 31
0.0
  0
LINE
  5
2BA
330
1F
100
AcDbEntity
  8
0
  6
Continuous
 62
     7
370
    15
100
AcDbLine
 10
-790.8706761246
 20
229.8281932641
 30
0.0
 11
-790.9304737142
 21
229.9317657275
 31
0.0
  0
LINE
  5
2BB
330
1F
100
AcDbEntity
  8
0
  6
Continuous
 62
     7
370
    15
100
AcDbLine
 10
-1215.5887991515
 20
969.4615612421
 30
0.0
 11
-787.7456523478
 21
228.4154933079
 31
0.0
  0
LINE
  5
2BC
330
1F
100
AcDbEntity
  8
0
  6
Continuous
 62
     7
370
    15
100
AcDbLine
 10
-329.8855256032
 20
504.3784910264
 30
0.0
 11
-564.955100723
 21
911.5309384474
 31
0.0
  0
LINE
  5
2BD
330
1F
100
AcDbEntity
  8
0
  6
Continuous
 62
     7
370
    15
100
AcDbLine
 10
-1026.5466409401
 20
645.0309384474
 30
0.0
 11
-791.4770658203
 21
237.8784910264
 31
0.0
  0
LINE
  5
2BE
330
1F
100
AcDbEntity
  8
0
  6
Continuous
 62
     7
370
    15
100
AcDbLine
 10
-330.5011870786
 20
505.4448479819
 30
0.0
 11
-792.0927272957
 21
238.9448479819
 31
0.0
  0
LINE
  5
2BF
330
1F
100
AcDbEntity
  8
0
  6
Continuous
 62
     7
370
    15
100
AcDbLine
 10
-564.955100723
 20
911.5309384474
 30
0.0
 11
-1026.5466409401
 21
645.0309384474
 31
0.0
  0
LINE
  5
2C0
330
1F
100
AcDbEntity
  8
0
  6
Continuous
 62
     7
370
    15
100
AcDbLine
 10
-857.6391942773
 20
1420.4746590507
 30
0.0
 11
-1320.962785302
 21
1152.9746590507
 31
0.0
  0
LINE
  5
2C1
330
1F
100
AcDbEntity
  8
0
  6
Continuous
 62
     7
370
    15
100
AcDbLine
 10
-857.6391942773
 20
1420.4746590507
 30
0.0
 11
-581.9799023371
 21
943.0187598319
 31
0.0
  0
LINE
  5
2C2
330
1F
100
AcDbEntity
  8
0
  6
Continuous
 62
     7
370
    15
100
AcDbLine
 10
-1045.3034933618
 20
675.5187598319
 30
0.0
 11
-1320.962785302
 21
1152.9746590507
 31
0.0
  0
LINE
  5
2C3
330
1F
100
AcDbEntity
  8
0
  6
Continuous
 62
     7
370
    15
100
AcDbLine
 10
74.8951569355
 20
656.6883198726
 30
0.0
 11
74.8951569355
 21
574.111250603
 31
0.0
  0
LINE
  5
2C4
330
1F
100
AcDbEntity
  8
0
  6
Continuous
 62
     7
370
    15
100
AcDbLine
 10
21.5720852026
 20
543.325160784
 30
0.0
 11
74.8951569355
 21
574.111250603
 31
0.0
  0
LINE
  5
2C5
330
1F
100
AcDbEntity
  8
0
  6
Continuous
 62
     7
370
    15
100
AcDbLine
 10
-1125.7715881166
 20
-36.5169485902
 30
0.0
 11
-1091.8770390784
 21
-56.0859756015
 31
0.0
  0
LINE
  5
2C6
330
1F
100
AcDbEntity
  8
0
  6
Continuous
 62
     7
370
    15
100
AcDbLine
 10
-1125.7715881166
 20
42.5640575133
 30
0.0
 11
-1125.7715881166
 21
-36.5169485902
 31
0.0
  0
LINE
  5
2C7
330
1F
100
AcDbEntity
  8
0
  6
Continuous
 62
     7
370
    15
100
AcDbLine
 10
6.408996693
 20
696.2288229243
 30
0.0
 11
74.8951569355
 21
656.6883198726
 31
0.0
  0
LINE
  5
2C8
330
1F
100
AcDbEntity
  8
0
  6
Continuous
 62
     7
370
    15
100
AcDbLine
 10
6.408996693
 20
696.2288229243
 30
0.0
 11
-105.7741171579
 21
631.459871944
 31
0.0
  0
LINE
  5
2C9
330
1F
100
AcDbEntity
  8
0
  6
Continuous
 62
     7
370
    15
100
AcDbLine
 10
-169.6507273705
 20
594.5806938428
 30
0.0
 11
-294.6775221538
 21
522.3964402188
 31
0.0
  0
LINE
  5
2CA
330
1F
100
AcDbEntity
  8
0
  6
Continuous
 62
     7
370
    15
100
AcDbLine
 10
-327.5864874976
 20
503.3964402188
 30
0.0
 11
-791.776103926
 21
235.3964402188
 31
0.0
  0
LINE
  5
2CB
330
1F
100
AcDbEntity
  8
0
  6
Continuous
 62
     7
370
    15
100
AcDbLine
 10
-824.6850692698
 20
216.3964402188
 30
0.0
 11
-1125.7715881166
 21
42.5640575133
 31
0.0
  0
LINE
  5
2CC
330
1F
100
AcDbEntity
  8
0
  6
Continuous
 62
     7
370
    15
100
AcDbLine
 10
74.895156936
 20
243.8668966268
 30
0.0
 11
74.895156936
 21
405.5249719999
 31
0.0
  0
LINE
  5
2CD
330
1F
100
AcDbEntity
  8
0
  6
Continuous
 62
     7
370
    15
100
AcDbLine
 10
74.895156936
 20
405.5249719999
 30
0.0
 11
-49.9833204365
 21
333.4263494729
 31
0.0
  0
LINE
  5
2CE
330
1F
100
AcDbEntity
  8
0
  6
Continuous
 62
     7
370
    15
100
AcDbLine
 10
-56.8179542773
 20
167.8222964121
 30
0.0
 11
74.895156936
 21
243.8668966268
 31
0.0
  0
LINE
  5
2CF
330
1F
100
AcDbEntity
  8
0
  6
Continuous
 62
     7
370
    15
100
AcDbLine
 10
74.8951569356
 20
240.4027950115
 30
0.0
 11
-56.6089099234
 21
164.4788866109
 31
0.0
  0
LINE
  5
2D0
330
1F
100
AcDbEntity
  8
0
  6
Continuous
 62
     7
370
    15
100
AcDbLine
 10
74.8951569356
 20
78.7447196384
 30
0.0
 11
74.8951569356
 21
240.4027950115
 31
0.0
  0
LINE
  5
2D1
330
1F
100
AcDbEntity
  8
0
  6
Continuous
 62
     7
370
    15
100
AcDbLine
 10
-46.8535067428
 20
8.4530958902
 30
0.0
 11
74.8951569356
 21
78.7447196384
 31
0.0
  0
LINE
  5
2D2
330
1F
100
AcDbEntity
  8
0
  6
Continuous
 62
     7
370
    15
100
AcDbLine
 10
-36.8890592083
 20
-150.9161046317
 30
0.0
 11
74.8951569356
 21
-86.3774573499
 31
0.0
  0
LINE
  5
2D3
330
1F
100
AcDbEntity
  8
0
  6
Continuous
 62
     7
370
    15
100
AcDbLine
 10
74.8951569356
 20
-86.3774573499
 30
0.0
 11
74.8951569356
 21
75.2806180232
 31
0.0
  0
LINE
  5
2D4
330
1F
100
AcDbEntity
  8
0
  6
Continuous
 62
     7
370
    15
100
AcDbLine
 10
74.8951569356
 20
75.2806180232
 30
0.0
 11
-46.6444623889
 21
5.109686089
 31
0.0
  0
LINE
  5
2D5
330
1F
100
AcDbEntity
  8
0
  6
Continuous
 62
     7
370
    15
100
AcDbLine
 10
74.8951569356
 20
-89.841558965
 30
0.0
 11
-36.6800148545
 21
-154.2595144329
 31
0.0
  0
LINE
  5
2D6
330
1F
100
AcDbEntity
  8
0
  6
Continuous
 62
     7
370
    15
100
AcDbLine
 10
74.8951569356
 20
-251.4996343381
 30
0.0
 11
74.8951569356
 21
-89.841558965
 31
0.0
  0
LINE
  5
2D7
330
1F
100
AcDbEntity
  8
0
  6
Continuous
 62
     7
370
    15
100
AcDbLine
 10
-26.9246116739
 20
-310.2853051536
 30
0.0
 11
74.8951569356
 21
-251.4996343381
 31
0.0
  0
LINE
  5
2D8
330
1F
100
AcDbEntity
  8
0
  6
Continuous
 62
     7
370
    15
100
AcDbLine
 10
74.8951569356
 20
-416.6218113263
 30
0.0
 11
19.3171901479
 21
-448.7097654122
 31
0.0
  0
LINE
  5
2D9
330
1F
100
AcDbEntity
  8
0
  6
Continuous
 62
     7
370
    15
100
AcDbLine
 10
74.8951569356
 20
-254.9637359532
 30
0.0
 11
74.8951569356
 21
-416.6218113263
 31
0.0
  0
LINE
  5
2DA
330
1F
100
AcDbEntity
  8
0
  6
Continuous
 62
     7
370
    15
100
AcDbLine
 10
-26.71556732
 20
-313.6287149547
 30
0.0
 11
74.8951569356
 21
-254.9637359532
 31
0.0
  0
LINE
  5
2DB
330
1F
100
AcDbEntity
  8
0
  6
Continuous
 62
     7
370
    15
100
AcDbLine
 10
-53.2577483591
 20
-655.7331026839
 30
0.0
 11
-101.294971182
 21
-627.998799156
 31
0.0
  0
LINE
  5
2DC
330
1F
100
AcDbEntity
  8
0
  6
Continuous
 62
     7
370
    15
100
AcDbLine
 10
74.8951569356
 20
-420.0859129415
 30
0.0
 11
20.9105336968
 21
-451.2539497005
 31
0.0
  0
LINE
  5
2DD
330
1F
100
AcDbEntity
  8
0
  6
Continuous
 62
     7
370
    15
100
AcDbLine
 10
74.8951569356
 20
-581.7439883146
 30
0.0
 11
74.8951569356
 21
-420.0859129415
 31
0.0
  0
LINE
  5
2DE
330
1F
100
AcDbEntity
  8
0
  6
Continuous
 62
     7
370
    15
100
AcDbLine
 10
-53.2577483591
 20
-655.7331026839
 30
0.0
 11
-41.9729403173
 21
-649.2178157232
 31
0.0
  0
LINE
  5
2DF
330
1F
100
AcDbEntity
  8
0
  6
Continuous
 62
     7
370
    15
100
AcDbLine
 10
-6.9957166049
 20
-629.0237061974
 30
0.0
 11
74.8951569356
 21
-581.7439883146
 31
0.0
  0
LINE
  5
2E0
330
1F
100
AcDbEntity
  8
0
  6
Continuous
 62
     7
370
    15
100
AcDbLine
 10
7.5359621305
 20
-690.8323678009
 30
0.0
 11
-50.2577483591
 21
-657.4651534915
 31
0.0
  0
LINE
  5
2E1
330
1F
100
AcDbEntity
  8
0
  6
Continuous
 62
     7
370
    15
100
AcDbLine
 10
74.8951569356
 20
-585.2080899297
 30
0.0
 11
-6.7866722511
 21
-632.3671159985
 31
0.0
  0
LINE
  5
2E2
330
1F
100
AcDbEntity
  8
0
  6
Continuous
 62
     7
370
    15
100
AcDbLine
 10
-38.1602810387
 20
-650.4806774775
 30
0.0
 11
-50.2577483591
 21
-657.4651534915
 31
0.0
  0
LINE
  5
2E3
330
1F
100
AcDbEntity
  8
0
  6
Continuous
 62
     7
370
    15
100
AcDbLine
 10
74.8951569361
 20
-651.9425185472
 30
0.0
 11
7.5359621305
 21
-690.8323678009
 31
0.0
  0
LINE
  5
2E4
330
1F
100
AcDbEntity
  8
0
  6
Continuous
 62
     7
370
    15
100
AcDbLine
 10
74.8951569356
 20
-585.2080899297
 30
0.0
 11
74.8951569361
 21
-651.9425185472
 31
0.0
  0
LINE
  5
2E5
330
1F
100
AcDbEntity
  8
0
  6
Continuous
 62
     7
370
    15
100
AcDbLine
 10
-1125.2910935001
 20
-83.1882591674
 30
0.0
 11
-1050.0949155487
 21
-44.8032493584
 31
0.0
  0
LINE
  5
2E6
330
1F
100
AcDbEntity
  8
0
  6
Continuous
 62
     7
370
    15
100
AcDbLine
 10
-1050.0949155487
 20
-44.8032493584
 30
0.0
 11
-19.3244878569
 21
-523.4441112658
 31
0.0
  0
LINE
  5
2E7
330
1F
100
AcDbEntity
  8
0
  6
Continuous
 62
     7
370
    15
100
AcDbLine
 10
-19.3244878569
 20
-523.4441112658
 30
0.0
 11
-14.6042535167
 21
-598.9385097731
 31
0.0
  0
LINE
  5
2E8
330
1F
100
AcDbEntity
  8
0
  6
Continuous
 62
     7
370
    15
100
AcDbLine
 10
-14.6042535167
 20
-598.9385097731
 30
0.0
 11
-1125.2910935001
 21
-83.1882591674
 31
0.0
  0
LINE
  5
2E9
330
1F
100
AcDbEntity
  8
0
  6
Continuous
 62
     7
370
    15
100
AcDbLine
 10
-1120.3494258798
 20
-70.6201298156
 30
0.0
 11
-1125.2910935001
 21
-83.1882591674
 31
0.0
  0
LINE
  5
2EA
330
1F
100
AcDbEntity
  8
0
  6
Continuous
 62
     7
370
    15
100
AcDbLine
 10
-1045.1532479283
 20
-32.2351200065
 30
0.0
 11
-1120.3494258798
 21
-70.6201298156
 31
0.0
  0
LINE
  5
2EB
330
1F
100
AcDbEntity
  8
0
  6
Continuous
 62
     7
370
    15
100
AcDbLine
 10
-1050.0949155487
 20
-44.8032493584
 30
0.0
 11
-1045.1532479283
 21
-32.2351200065
 31
0.0
  0
LINE
  5
2EC
330
1F
100
AcDbEntity
  8
0
  6
Continuous
 62
     7
370
    15
100
AcDbLine
 10
-1045.1532479283
 20
-32.2351200065
 30
0.0
 11
-1043.4591098459
 21
-33.0217973211
 31
0.0
  0
LINE
  5
2ED
330
1F
100
AcDbEntity
  8
0
  6
Continuous
 62
     7
370
    15
100
AcDbLine
 10
-15.3525625638
 20
-510.4256796053
 30
0.0
 11
-14.3828202365
 21
-510.875981914
 31
0.0
  0
LINE
  5
2EE
330
1F
100
AcDbEntity
  8
0
  6
Continuous
 62
     7
370
    15
100
AcDbLine
 10
-14.3828202365
 20
-510.875981914
 30
0.0
 11
-19.3244878569
 21
-523.4441112658
 31
0.0
  0
LINE
  5
2EF
330
1F
100
AcDbEntity
  8
0
  6
Continuous
 62
     7
370
    15
100
AcDbLine
 10
-14.6042535167
 20
-598.9385097731
 30
0.0
 11
-9.6625858963
 21
-586.3703804213
 31
0.0
  0
LINE
  5
2F0
330
1F
100
AcDbEntity
  8
0
  6
Continuous
 62
     7
370
    15
100
AcDbLine
 10
-9.6625858963
 20
-586.3703804213
 30
0.0
 11
-14.3828202365
 21
-510.875981914
 31
0.0
  0
LINE
  5
2F1
330
1F
100
AcDbEntity
  8
0
  6
Continuous
 62
     7
370
    15
100
AcDbLine
 10
-581.3720729844
 20
194.4633117845
 30
0.0
 11
-506.1758950329
 21
232.8483215935
 31
0.0
  0
LINE
  5
2F2
330
1F
100
AcDbEntity
  8
0
  6
Continuous
 62
     7
370
    15
100
AcDbLine
 10
-576.4304053641
 20
207.0314411363
 30
0.0
 11
-581.3720729844
 21
194.4633117845
 31
0.0
  0
LINE
  5
2F3
330
1F
100
AcDbEntity
  8
0
  6
Continuous
 62
     7
370
    15
100
AcDbLine
 10
-501.2342274126
 20
245.4164509454
 30
0.0
 11
-576.4304053641
 21
207.0314411363
 31
0.0
  0
LINE
  5
2F4
330
1F
100
AcDbEntity
  8
0
  6
Continuous
 62
     7
370
    15
100
AcDbLine
 10
-506.1758950329
 20
232.8483215935
 30
0.0
 11
-501.2342274126
 21
245.4164509454
 31
0.0
  0
LINE
  5
2F5
330
1F
100
AcDbEntity
  8
0
  6
Continuous
 62
     7
370
    15
100
AcDbLine
 10
-48.5258486305
 20
35.2001672883
 30
0.0
 11
-49.4955909578
 21
35.650469597
 31
0.0
  0
LINE
  5
2F6
330
1F
100
AcDbEntity
  8
0
  6
Continuous
 62
     7
370
    15
100
AcDbLine
 10
-499.5400893302
 20
244.6297736308
 30
0.0
 11
-501.2342274126
 21
245.4164509454
 31
0.0
  0
LINE
  5
2F7
330
1F
100
AcDbEntity
  8
0
  6
Continuous
 62
     7
370
    15
100
AcDbLine
 10
-48.5258486305
 20
35.2001672883
 30
0.0
 11
-53.4675162508
 21
22.6320379365
 31
0.0
  0
LINE
  5
2F8
330
1F
100
AcDbEntity
  8
0
  6
Continuous
 62
     7
370
    15
100
AcDbLine
 10
-53.4675162508
 20
22.6320379365
 30
0.0
 11
-506.1758950329
 21
232.8483215935
 31
0.0
  0
LINE
  5
2F9
330
1F
100
AcDbEntity
  8
0
  6
Continuous
 62
     7
370
    15
100
AcDbLine
 10
-53.4675162508
 20
22.6320379365
 30
0.0
 11
-48.7472819107
 21
-52.8623605708
 31
0.0
  0
LINE
  5
2FA
330
1F
100
AcDbEntity
  8
0
  6
Continuous
 62
     7
370
    15
100
AcDbLine
 10
-581.3720729844
 20
194.4633117845
 30
0.0
 11
-48.7472819107
 21
-52.8623605708
 31
0.0
  0
LINE
  5
2FB
330
1F
100
AcDbEntity
  8
0
  6
Continuous
 62
     7
370
    15
100
AcDbLine
 10
-48.7472819107
 20
-52.8623605708
 30
0.0
 11
-43.8056142903
 21
-40.294231219
 31
0.0
  0
LINE
  5
2FC
330
1F
100
AcDbEntity
  8
0
  6
Continuous
 62
     7
370
    15
100
AcDbLine
 10
-43.8056142903
 20
-40.294231219
 30
0.0
 11
-48.5258486305
 21
35.2001672883
 31
0.0
  0
LINE
  5
2FD
330
1F
100
AcDbEntity
  8
0
  6
Continuous
 62
     7
370
    15
100
AcDbLine
 10
-1833.357585495
 20
3166.4869041975
 30
0.0
 11
-2347.5739169434
 21
2869.6039668141
 31
0.0
  0
LINE
  5
2FE
330
1F
100
AcDbEntity
  8
0
  6
Continuous
 62
     7
370
    15
100
AcDbLine
 10
1623.4192589803
 20
-660.029735954
 30
0.0
 11
1625.4225162707
 21
639.8813691424
 31
0.0
  0
LINE
  5
2FF
330
1F
100
AcDbEntity
  8
0
  6
Continuous
 62
     7
370
    15
100
AcDbLine
 10
-1901.0882957822
 20
-1377.4439659952
 30
0.0
 11
-761.5259725805
 21
-2034.8981889339
 31
0.0
  0
LINE
  5
300
330
1F
100
AcDbEntity
  8
0
  6
Continuous
 62
     7
370
    15
100
AcDbLine
 10
461.8743000814
 20
2192.9104522382
 30
0.0
 11
214.2444171937
 21
2619.9307203092
 31
0.0
  0
LINE
  5
301
330
1F
100
AcDbEntity
  8
0
  6
Continuous
 62
     7
370
    15
100
AcDbLine
 10
-2893.8840351495
 20
815.8605693603
 30
0.0
 11
-2647.2714833192
 21
392.269599882
 31
0.0
  0
LINE
  5
302
330
1F
100
AcDbEntity
  8
0
  6
Continuous
 62
     7
370
    15
100
AcDbLine
 10
-659.0747902009
 20
154.7988016485
 30
0.0
 11
-583.8786122495
 21
193.1838114576
 31
0.0
  0
LINE
  5
303
330
1F
100
AcDbEntity
  8
0
  6
Continuous
 62
     7
370
    15
100
AcDbLine
 10
-654.1331225806
 20
167.3669310004
 30
0.0
 11
-659.0747902009
 21
154.7988016485
 31
0.0
  0
LINE
  5
304
330
1F
100
AcDbEntity
  8
0
  6
Continuous
 62
     7
370
    15
100
AcDbLine
 10
-578.9369446291
 20
205.7519408094
 30
0.0
 11
-654.1331225806
 21
167.3669310004
 31
0.0
  0
LINE
  5
305
330
1F
100
AcDbEntity
  8
0
  6
Continuous
 62
     7
370
    15
100
AcDbLine
 10
-583.8786122495
 20
193.1838114576
 30
0.0
 11
-578.9369446291
 21
205.7519408094
 31
0.0
  0
LINE
  5
306
330
1F
100
AcDbEntity
  8
0
  6
Continuous
 62
     7
370
    15
100
AcDbLine
 10
-43.6482731457
 20
-42.8107111692
 30
0.0
 11
-44.618015473
 21
-42.3604088605
 31
0.0
  0
LINE
  5
307
330
1F
100
AcDbEntity
  8
0
  6
Continuous
 62
     7
370
    15
100
AcDbLine
 10
-577.2428065467
 20
204.9652634948
 30
0.0
 11
-578.9369446291
 21
205.7519408094
 31
0.0
  0
LINE
  5
308
330
1F
100
AcDbEntity
  8
0
  6
Continuous
 62
     7
370
    15
100
AcDbLine
 10
-43.6482731457
 20
-42.8107111692
 30
0.0
 11
-48.589940766
 21
-55.378840521
 31
0.0
  0
LINE
  5
309
330
1F
100
AcDbEntity
  8
0
  6
Continuous
 62
     7
370
    15
100
AcDbLine
 10
-48.589940766
 20
-55.378840521
 30
0.0
 11
-583.8786122495
 21
193.1838114576
 31
0.0
  0
LINE
  5
30A
330
1F
100
AcDbEntity
  8
0
  6
Continuous
 62
     7
370
    15
100
AcDbLine
 10
-48.589940766
 20
-55.378840521
 30
0.0
 11
-43.8697064258
 21
-130.8732390282
 31
0.0
  0
LINE
  5
30B
330
1F
100
AcDbEntity
  8
0
  6
Continuous
 62
     7
370
    15
100
AcDbLine
 10
-659.0747902009
 20
154.7988016485
 30
0.0
 11
-43.8697064258
 21
-130.8732390282
 31
0.0
  0
LINE
  5
30C
330
1F
100
AcDbEntity
  8
0
  6
Continuous
 62
     7
370
    15
100
AcDbLine
 10
-43.8697064258
 20
-130.8732390282
 30
0.0
 11
-38.9280388055
 21
-118.3051096764
 31
0.0
  0
LINE
  5
30D
330
1F
100
AcDbEntity
  8
0
  6
Continuous
 62
     7
370
    15
100
AcDbLine
 10
-38.9280388055
 20
-118.3051096764
 30
0.0
 11
-43.6482731457
 21
-42.8107111692
 31
0.0
  0
LINE
  5
30E
330
1F
100
AcDbEntity
  8
0
  6
Continuous
 62
     7
370
    15
100
AcDbLine
 10
-1047.5883762836
 20
-43.5237490314
 30
0.0
 11
-972.3921983321
 21
-5.1387392224
 31
0.0
  0
LINE
  5
30F
330
1F
100
AcDbEntity
  8
0
  6
Continuous
 62
     7
370
    15
100
AcDbLine
 10
-972.3921983321
 20
-5.1387392224
 30
0.0
 11
-24.2020633417
 21
-445.4332328084
 31
0.0
  0
LINE
  5
310
330
1F
100
AcDbEntity
  8
0
  6
Continuous
 62
     7
370
    15
100
AcDbLine
 10
-24.2020633417
 20
-445.4332328084
 30
0.0
 11
-19.4818290015
 21
-520.9276313156
 31
0.0
  0
LINE
  5
311
330
1F
100
AcDbEntity
  8
0
  6
Continuous
 62
     7
370
    15
100
AcDbLine
 10
-19.4818290015
 20
-520.9276313156
 30
0.0
 11
-1047.5883762836
 21
-43.5237490314
 31
0.0
  0
LINE
  5
312
330
1F
100
AcDbEntity
  8
0
  6
Continuous
 62
     7
370
    15
100
AcDbLine
 10
-1042.6467086633
 20
-30.9556196796
 30
0.0
 11
-1047.5883762836
 21
-43.5237490314
 31
0.0
  0
LINE
  5
313
330
1F
100
AcDbEntity
  8
0
  6
Continuous
 62
     7
370
    15
100
AcDbLine
 10
-967.4505307118
 20
7.4293901294
 30
0.0
 11
-1042.6467086633
 21
-30.9556196796
 31
0.0
  0
LINE
  5
314
330
1F
100
AcDbEntity
  8
0
  6
Continuous
 62
     7
370
    15
100
AcDbLine
 10
-972.3921983321
 20
-5.1387392224
 30
0.0
 11
-967.4505307118
 21
7.4293901294
 31
0.0
  0
LINE
  5
315
330
1F
100
AcDbEntity
  8
0
  6
Continuous
 62
     7
370
    15
100
AcDbLine
 10
-967.4505307118
 20
7.4293901294
 30
0.0
 11
-965.7563926294
 21
6.6427128149
 31
0.0
  0
LINE
  5
316
330
1F
100
AcDbEntity
  8
0
  6
Continuous
 62
     7
370
    15
100
AcDbLine
 10
-20.2301380487
 20
-432.4148011478
 30
0.0
 11
-19.2603957214
 21
-432.8651034566
 31
0.0
  0
LINE
  5
317
330
1F
100
AcDbEntity
  8
0
  6
Continuous
 62
     7
370
    15
100
AcDbLine
 10
-19.2603957214
 20
-432.8651034566
 30
0.0
 11
-24.2020633417
 21
-445.4332328084
 31
0.0
  0
LINE
  5
318
330
1F
100
AcDbEntity
  8
0
  6
Continuous
 62
     7
370
    15
100
AcDbLine
 10
-19.4818290015
 20
-520.9276313156
 30
0.0
 11
-14.5401613812
 21
-508.3595019638
 31
0.0
  0
LINE
  5
319
330
1F
100
AcDbEntity
  8
0
  6
Continuous
 62
     7
370
    15
100
AcDbLine
 10
-14.5401613812
 20
-508.3595019638
 30
0.0
 11
-19.2603957214
 21
-432.8651034566
 31
0.0
  0
LINE
  5
31A
330
1F
100
AcDbEntity
  8
0
  6
Continuous
 62
     7
370
    15
100
AcDbLine
 10
-172.2880815075
 20
554.2250880643
 30
0.0
 11
-210.7775118551
 21
487.4529476051
 31
0.0
  0
LINE
  5
31B
330
1F
100
AcDbEntity
  8
0
  6
Continuous
 62
     7
370
    15
100
AcDbLine
 10
-174.9284188698
 20
480.4619377476
 30
0.0
 11
-190.7990839983
 21
452.9292288567
 31
0.0
  0
LINE
  5
31C
330
1F
100
AcDbEntity
  8
0
  6
Continuous
 62
     7
370
    15
100
AcDbLine
 10
-210.7775118551
 20
487.4529476051
 30
0.0
 11
-190.7990839983
 21
452.9292288567
 31
0.0
  0
LINE
  5
31D
330
1F
100
AcDbEntity
  8
0
  6
Continuous
 62
     7
370
    15
100
AcDbLine
 10
-210.7775118551
 20
487.4529476051
 30
0.0
 11
-289.0833906384
 21
442.4215236104
 31
0.0
  0
LINE
  5
31E
330
1F
100
AcDbEntity
  8
0
  6
Continuous
 62
     7
370
    15
100
AcDbLine
 10
-289.0833906384
 20
442.4215236104
 30
0.0
 11
-269.1049627816
 21
407.8978048619
 31
0.0
  0
LINE
  5
31F
330
1F
100
AcDbEntity
  8
0
  6
Continuous
 62
     7
370
    15
100
AcDbLine
 10
-289.0833906384
 20
442.4215236104
 30
0.0
 11
-226.0115477138
 21
551.8396655975
 31
0.0
  0
LINE
  5
320
330
1F
100
AcDbEntity
  8
0
  6
Continuous
 62
     7
370
    15
100
AcDbLine
 10
-758.3428172333
 20
172.5641319196
 30
0.0
 11
-837.391446813
 21
127.1055736337
 31
0.0
  0
LINE
  5
321
330
1F
100
AcDbEntity
  8
0
  6
Continuous
 62
     7
370
    15
100
AcDbLine
 10
-758.3428172333
 20
172.5641319196
 30
0.0
 11
-738.3643893765
 21
138.0404131712
 31
0.0
  0
LINE
  5
322
330
1F
100
AcDbEntity
  8
0
  6
Continuous
 62
     7
370
    15
100
AcDbLine
 10
-837.391446813
 20
127.1055736337
 30
0.0
 11
-817.4130189562
 21
92.5818548852
 31
0.0
  0
LINE
  5
323
330
1F
100
AcDbEntity
  8
0
  6
Continuous
 62
     7
370
    15
100
AcDbLine
 10
-837.391446813
 20
127.1055736337
 30
0.0
 11
-960.4017178694
 21
126.8576078971
 31
0.0
  0
LINE
  5
324
330
1F
100
AcDbEntity
  8
0
  6
Continuous
 62
     7
370
    15
100
AcDbLine
 10
-881.8487909521
 20
172.3151669391
 30
0.0
 11
-758.3428172333
 21
172.5641319196
 31
0.0
  0
LINE
  5
325
330
1F
100
AcDbEntity
  8
0
  6
Continuous
 62
     7
370
    15
100
AcDbLine
 10
-817.4130189562
 20
92.5818548852
 30
0.0
 11
-939.9724718517
 21
92.3347979139
 31
0.0
  0
LINE
  5
326
330
1F
100
AcDbEntity
  8
0
  6
Continuous
 62
     7
370
    15
100
AcDbLine
 10
-178.2760133179
 20
398.4338409294
 30
0.0
 11
-175.6943773728
 21
399.751675476
 31
0.0
  0
LINE
  5
327
330
1F
100
AcDbEntity
  8
0
  6
Continuous
 62
     7
370
    15
100
AcDbLine
 10
-85.0931212565
 20
355.1641287092
 30
0.0
 11
-97.4668547195
 21
553.0669228821
 31
0.0
  0
LINE
  5
328
330
1F
100
AcDbEntity
  8
0
  6
Continuous
 62
     7
370
    15
100
AcDbLine
 10
-739.2840466825
 20
113.8547911856
 30
0.0
 11
-734.3423790622
 21
126.4229205374
 31
0.0
  0
LINE
  5
329
330
1F
100
AcDbEntity
  8
0
  6
Continuous
 62
     7
370
    15
100
AcDbLine
 10
-33.893122176
 20
-198.8324680841
 30
0.0
 11
-34.8628645033
 21
-198.3821657754
 31
0.0
  0
LINE
  5
32A
330
1F
100
AcDbEntity
  8
0
  6
Continuous
 62
     7
370
    15
100
AcDbLine
 10
-732.6482409798
 20
125.6362432229
 30
0.0
 11
-734.3423790622
 21
126.4229205374
 31
0.0
  0
LINE
  5
32B
330
1F
100
AcDbEntity
  8
0
  6
Continuous
 62
     7
370
    15
100
AcDbLine
 10
-33.893122176
 20
-198.8324680841
 30
0.0
 11
-38.8347897963
 21
-211.400597436
 31
0.0
  0
LINE
  5
32C
330
1F
100
AcDbEntity
  8
0
  6
Continuous
 62
     7
370
    15
100
AcDbLine
 10
-38.8347897963
 20
-211.400597436
 30
0.0
 11
-739.2840466825
 21
113.8547911856
 31
0.0
  0
LINE
  5
32D
330
1F
100
AcDbEntity
  8
0
  6
Continuous
 62
     7
370
    15
100
AcDbLine
 10
-814.480224634
 20
75.4697813766
 30
0.0
 11
-739.2840466825
 21
113.8547911856
 31
0.0
  0
LINE
  5
32E
330
1F
100
AcDbEntity
  8
0
  6
Continuous
 62
     7
370
    15
100
AcDbLine
 10
-809.5385570137
 20
88.0379107284
 30
0.0
 11
-814.480224634
 21
75.4697813766
 31
0.0
  0
LINE
  5
32F
330
1F
100
AcDbEntity
  8
0
  6
Continuous
 62
     7
370
    15
100
AcDbLine
 10
-734.3423790622
 20
126.4229205374
 30
0.0
 11
-809.5385570137
 21
88.0379107284
 31
0.0
  0
LINE
  5
330
330
1F
100
AcDbEntity
  8
0
  6
Continuous
 62
     7
370
    15
100
AcDbLine
 10
-38.8347897963
 20
-211.400597436
 30
0.0
 11
-34.1145554561
 21
-286.8949959432
 31
0.0
  0
LINE
  5
331
330
1F
100
AcDbEntity
  8
0
  6
Continuous
 62
     7
370
    15
100
AcDbLine
 10
-814.480224634
 20
75.4697813766
 30
0.0
 11
-34.1145554561
 21
-286.8949959432
 31
0.0
  0
LINE
  5
332
330
1F
100
AcDbEntity
  8
0
  6
Continuous
 62
     7
370
    15
100
AcDbLine
 10
-34.1145554561
 20
-286.8949959432
 30
0.0
 11
-29.1728878358
 21
-274.3268665914
 31
0.0
  0
LINE
  5
333
330
1F
100
AcDbEntity
  8
0
  6
Continuous
 62
     7
370
    15
100
AcDbLine
 10
-29.1728878358
 20
-274.3268665914
 30
0.0
 11
-33.893122176
 21
-198.8324680841
 31
0.0
  0
LINE
  5
334
330
1F
100
AcDbEntity
  8
0
  6
Continuous
 62
     7
370
    15
100
AcDbLine
 10
-892.1829418505
 20
35.8052712406
 30
0.0
 11
-816.9867638991
 21
74.1902810496
 31
0.0
  0
LINE
  5
335
330
1F
100
AcDbEntity
  8
0
  6
Continuous
 62
     7
370
    15
100
AcDbLine
 10
-887.2412742302
 20
48.3734005924
 30
0.0
 11
-892.1829418505
 21
35.8052712406
 31
0.0
  0
LINE
  5
336
330
1F
100
AcDbEntity
  8
0
  6
Continuous
 62
     7
370
    15
100
AcDbLine
 10
-812.0450962787
 20
86.7584104014
 30
0.0
 11
-887.2412742302
 21
48.3734005924
 31
0.0
  0
LINE
  5
337
330
1F
100
AcDbEntity
  8
0
  6
Continuous
 62
     7
370
    15
100
AcDbLine
 10
-816.9867638991
 20
74.1902810496
 30
0.0
 11
-812.0450962787
 21
86.7584104014
 31
0.0
  0
LINE
  5
338
330
1F
100
AcDbEntity
  8
0
  6
Continuous
 62
     7
370
    15
100
AcDbLine
 10
-816.9867638991
 20
74.1902810496
 30
0.0
 11
-33.9572143114
 21
-289.4114758934
 31
0.0
  0
LINE
  5
339
330
1F
100
AcDbEntity
  8
0
  6
Continuous
 62
     7
370
    15
100
AcDbLine
 10
-33.9572143114
 20
-289.4114758934
 30
0.0
 11
-29.2369799712
 21
-364.9058744007
 31
0.0
  0
LINE
  5
33A
330
1F
100
AcDbEntity
  8
0
  6
Continuous
 62
     7
370
    15
100
AcDbLine
 10
-29.2369799712
 20
-364.9058744007
 30
0.0
 11
-892.1829418505
 21
35.8052712406
 31
0.0
  0
LINE
  5
33B
330
1F
100
AcDbEntity
  8
0
  6
Continuous
 62
     7
370
    15
100
AcDbLine
 10
-812.0450962787
 20
86.7584104014
 30
0.0
 11
-810.3509581963
 21
85.9717330869
 31
0.0
  0
LINE
  5
33C
330
1F
100
AcDbEntity
  8
0
  6
Continuous
 62
     7
370
    15
100
AcDbLine
 10
-29.9852890184
 20
-276.3930442329
 30
0.0
 11
-29.0155466911
 21
-276.8433465416
 31
0.0
  0
LINE
  5
33D
330
1F
100
AcDbEntity
  8
0
  6
Continuous
 62
     7
370
    15
100
AcDbLine
 10
-29.0155466911
 20
-276.8433465416
 30
0.0
 11
-33.9572143114
 21
-289.4114758934
 31
0.0
  0
LINE
  5
33E
330
1F
100
AcDbEntity
  8
0
  6
Continuous
 62
     7
370
    15
100
AcDbLine
 10
-29.2369799712
 20
-364.9058744007
 30
0.0
 11
-24.2953123509
 21
-352.3377450488
 31
0.0
  0
LINE
  5
33F
330
1F
100
AcDbEntity
  8
0
  6
Continuous
 62
     7
370
    15
100
AcDbLine
 10
-24.2953123509
 20
-352.3377450488
 30
0.0
 11
-29.0155466911
 21
-276.8433465416
 31
0.0
  0
LINE
  5
340
330
1F
100
AcDbEntity
  8
0
  6
Continuous
 62
     7
370
    15
100
AcDbLine
 10
-969.8856590671
 20
-3.8592388954
 30
0.0
 11
-894.6894811156
 21
34.5257709136
 31
0.0
  0
LINE
  5
341
330
1F
100
AcDbEntity
  8
0
  6
Continuous
 62
     7
370
    15
100
AcDbLine
 10
-964.9439914467
 20
8.7088904564
 30
0.0
 11
-969.8856590671
 21
-3.8592388954
 31
0.0
  0
LINE
  5
342
330
1F
100
AcDbEntity
  8
0
  6
Continuous
 62
     7
370
    15
100
AcDbLine
 10
-889.7478134953
 20
47.0939002654
 30
0.0
 11
-964.9439914467
 21
8.7088904564
 31
0.0
  0
LINE
  5
343
330
1F
100
AcDbEntity
  8
0
  6
Continuous
 62
     7
370
    15
100
AcDbLine
 10
-894.6894811156
 20
34.5257709136
 30
0.0
 11
-889.7478134953
 21
47.0939002654
 31
0.0
  0
LINE
  5
344
330
1F
100
AcDbEntity
  8
0
  6
Continuous
 62
     7
370
    15
100
AcDbLine
 10
-24.1379712062
 20
-354.8542249991
 30
0.0
 11
-25.1077135335
 21
-354.4039226903
 31
0.0
  0
LINE
  5
345
330
1F
100
AcDbEntity
  8
0
  6
Continuous
 62
     7
370
    15
100
AcDbLine
 10
-888.0536754128
 20
46.3072229509
 30
0.0
 11
-889.7478134953
 21
47.0939002654
 31
0.0
  0
LINE
  5
346
330
1F
100
AcDbEntity
  8
0
  6
Continuous
 62
     7
370
    15
100
AcDbLine
 10
-24.1379712062
 20
-354.8542249991
 30
0.0
 11
-29.0796388266
 21
-367.4223543509
 31
0.0
  0
LINE
  5
347
330
1F
100
AcDbEntity
  8
0
  6
Continuous
 62
     7
370
    15
100
AcDbLine
 10
-29.0796388266
 20
-367.4223543509
 30
0.0
 11
-894.6894811156
 21
34.5257709136
 31
0.0
  0
LINE
  5
348
330
1F
100
AcDbEntity
  8
0
  6
Continuous
 62
     7
370
    15
100
AcDbLine
 10
-29.0796388266
 20
-367.4223543509
 30
0.0
 11
-24.3594044864
 21
-442.9167528581
 31
0.0
  0
LINE
  5
349
330
1F
100
AcDbEntity
  8
0
  6
Continuous
 62
     7
370
    15
100
AcDbLine
 10
-969.8856590671
 20
-3.8592388954
 30
0.0
 11
-24.3594044864
 21
-442.9167528581
 31
0.0
  0
LINE
  5
34A
330
1F
100
AcDbEntity
  8
0
  6
Continuous
 62
     7
370
    15
100
AcDbLine
 10
-24.3594044864
 20
-442.9167528581
 30
0.0
 11
-19.4177368661
 21
-430.3486235063
 31
0.0
  0
LINE
  5
34B
330
1F
100
AcDbEntity
  8
0
  6
Continuous
 62
     7
370
    15
100
AcDbLine
 10
-19.4177368661
 20
-430.3486235063
 30
0.0
 11
-24.1379712062
 21
-354.8542249991
 31
0.0
  0
LINE
  5
34C
330
1F
100
AcDbEntity
  8
0
  6
Continuous
 62
     7
370
    15
100
AcDbLine
 10
-661.581329466
 20
153.5193013216
 30
0.0
 11
-656.6396618457
 21
166.0874306734
 31
0.0
  0
LINE
  5
34D
330
1F
100
AcDbEntity
  8
0
  6
Continuous
 62
     7
370
    15
100
AcDbLine
 10
-38.7706976608
 20
-120.8215896267
 30
0.0
 11
-39.7404399881
 21
-120.3712873179
 31
0.0
  0
LINE
  5
34E
330
1F
100
AcDbEntity
  8
0
  6
Continuous
 62
     7
370
    15
100
AcDbLine
 10
-654.9455237632
 20
165.3007533589
 30
0.0
 11
-656.6396618457
 21
166.0874306734
 31
0.0
  0
LINE
  5
34F
330
1F
100
AcDbEntity
  8
0
  6
Continuous
 62
     7
370
    15
100
AcDbLine
 10
-38.7706976608
 20
-120.8215896267
 30
0.0
 11
-43.7123652811
 21
-133.3897189785
 31
0.0
  0
LINE
  5
350
330
1F
100
AcDbEntity
  8
0
  6
Continuous
 62
     7
370
    15
100
AcDbLine
 10
-43.7123652811
 20
-133.3897189785
 30
0.0
 11
-661.581329466
 21
153.5193013216
 31
0.0
  0
LINE
  5
351
330
1F
100
AcDbEntity
  8
0
  6
Continuous
 62
     7
370
    15
100
AcDbLine
 10
-736.7775074175
 20
115.1342915125
 30
0.0
 11
-661.581329466
 21
153.5193013216
 31
0.0
  0
LINE
  5
352
330
1F
100
AcDbEntity
  8
0
  6
Continuous
 62
     7
370
    15
100
AcDbLine
 10
-43.7123652811
 20
-133.3897189785
 30
0.0
 11
-38.992130941
 21
-208.8841174857
 31
0.0
  0
LINE
  5
353
330
1F
100
AcDbEntity
  8
0
  6
Continuous
 62
     7
370
    15
100
AcDbLine
 10
-736.7775074175
 20
115.1342915125
 30
0.0
 11
-38.992130941
 21
-208.8841174857
 31
0.0
  0
LINE
  5
354
330
1F
100
AcDbEntity
  8
0
  6
Continuous
 62
     7
370
    15
100
AcDbLine
 10
-731.8358397971
 20
127.7024208644
 30
0.0
 11
-736.7775074175
 21
115.1342915125
 31
0.0
  0
LINE
  5
355
330
1F
100
AcDbEntity
  8
0
  6
Continuous
 62
     7
370
    15
100
AcDbLine
 10
-656.6396618457
 20
166.0874306734
 30
0.0
 11
-731.8358397971
 21
127.7024208644
 31
0.0
  0
LINE
  5
356
330
1F
100
AcDbEntity
  8
0
  6
Continuous
 62
     7
370
    15
100
AcDbLine
 10
-38.992130941
 20
-208.8841174857
 30
0.0
 11
-34.0504633206
 21
-196.3159881339
 31
0.0
  0
LINE
  5
357
330
1F
100
AcDbEntity
  8
0
  6
Continuous
 62
     7
370
    15
100
AcDbLine
 10
-34.0504633206
 20
-196.3159881339
 30
0.0
 11
-38.7706976608
 21
-120.8215896267
 31
0.0
  0
LINE
  5
358
330
1F
100
AcDbEntity
  8
0
  6
Continuous
 62
     7
370
    15
100
AcDbLine
 10
-348.2639213348
 20
313.4568421925
 30
0.0
 11
-273.0677433833
 21
351.8418520015
 31
0.0
  0
LINE
  5
359
330
1F
100
AcDbEntity
  8
0
  6
Continuous
 62
     7
370
    15
100
AcDbLine
 10
-343.3222537145
 20
326.0249715443
 30
0.0
 11
-348.2639213348
 21
313.4568421925
 31
0.0
  0
LINE
  5
35A
330
1F
100
AcDbEntity
  8
0
  6
Continuous
 62
     7
370
    15
100
AcDbLine
 10
-268.126075763
 20
364.4099813533
 30
0.0
 11
-343.3222537145
 21
326.0249715443
 31
0.0
  0
LINE
  5
35B
330
1F
100
AcDbEntity
  8
0
  6
Continuous
 62
     7
370
    15
100
AcDbLine
 10
-273.0677433833
 20
351.8418520015
 30
0.0
 11
-268.126075763
 21
364.4099813533
 31
0.0
  0
LINE
  5
35C
330
1F
100
AcDbEntity
  8
0
  6
Continuous
 62
     7
370
    15
100
AcDbLine
 10
-63.1585750851
 20
269.2328026607
 30
0.0
 11
-64.1283174124
 21
269.6831049694
 31
0.0
  0
LINE
  5
35D
330
1F
100
AcDbEntity
  8
0
  6
Continuous
 62
     7
370
    15
100
AcDbLine
 10
-266.4319376806
 20
363.6233040388
 30
0.0
 11
-268.126075763
 21
364.4099813533
 31
0.0
  0
LINE
  5
35E
330
1F
100
AcDbEntity
  8
0
  6
Continuous
 62
     7
370
    15
100
AcDbLine
 10
-63.1585750851
 20
269.2328026607
 30
0.0
 11
-68.1002427054
 21
256.6646733089
 31
0.0
  0
LINE
  5
35F
330
1F
100
AcDbEntity
  8
0
  6
Continuous
 62
     7
370
    15
100
AcDbLine
 10
-68.1002427054
 20
256.6646733089
 30
0.0
 11
-99.2264427264
 21
271.1182032179
 31
0.0
  0
LINE
  5
360
330
1F
100
AcDbEntity
  8
0
  6
Continuous
 62
     7
370
    15
100
AcDbLine
 10
-174.2691949355
 20
305.9644954982
 30
0.0
 11
-273.0677433833
 21
351.8418520015
 31
0.0
  0
LINE
  5
361
330
1F
100
AcDbEntity
  8
0
  6
Continuous
 62
     7
370
    15
100
AcDbLine
 10
-68.1002427054
 20
256.6646733089
 30
0.0
 11
-63.3800083652
 21
181.1702748016
 31
0.0
  0
LINE
  5
362
330
1F
100
AcDbEntity
  8
0
  6
Continuous
 62
     7
370
    15
100
AcDbLine
 10
-348.2639213348
 20
313.4568421925
 30
0.0
 11
-170.7018854019
 21
231.0054605485
 31
0.0
  0
LINE
  5
363
330
1F
100
AcDbEntity
  8
0
  6
Continuous
 62
     7
370
    15
100
AcDbLine
 10
-103.2325033436
 20
199.6758819021
 30
0.0
 11
-63.3800083652
 21
181.1702748016
 31
0.0
  0
LINE
  5
364
330
1F
100
AcDbEntity
  8
0
  6
Continuous
 62
     7
370
    15
100
AcDbLine
 10
-58.4383407449
 20
193.7384041535
 30
0.0
 11
-63.1585750851
 21
269.2328026607
 31
0.0
  0
LINE
  5
365
330
1F
100
AcDbEntity
  8
0
  6
Continuous
 62
     7
370
    15
100
AcDbLine
 10
-63.3800083652
 20
181.1702748016
 30
0.0
 11
-58.4383407449
 21
193.7384041535
 31
0.0
  0
LINE
  5
366
330
1F
100
AcDbEntity
  8
0
  6
PHANTOM
 62
     8
370
     0
100
AcDbLine
 10
-323.250926253
 20
504.1675268629
 30
0.0
 11
-322.7006690211
 21
504.4852180238
 31
0.0
  0
LINE
  5
367
330
1F
100
AcDbEntity
  8
0
  6
PHANTOM
 62
     8
370
     0
100
AcDbLine
 10
-304.9915438605
 20
514.7095862024
 30
0.0
 11
-304.4322978423
 21
515.0324670416
 31
0.0
  0
LINE
  5
368
330
1F
100
AcDbEntity
  8
0
  6
PHANTOM
 62
     8
370
     0
100
AcDbLine
 10
-302.1980647599
 20
516.3224021131
 30
0.0
 11
-293.9275221538
 21
521.0974021131
 31
0.0
  0
LINE
  5
369
330
1F
100
AcDbEntity
  8
0
  6
PHANTOM
 62
     8
370
     0
100
AcDbLine
 10
-823.9350692698
 20
215.0974021131
 30
0.0
 11
-815.6645266637
 21
219.8724021131
 31
0.0
  0
LINE
  5
36A
330
1F
100
AcDbEntity
  8
0
  6
PHANTOM
 62
     8
370
     0
100
AcDbLine
 10
-813.4214119796
 20
221.1674649798
 30
0.0
 11
-812.8710475631
 21
221.4852180238
 31
0.0
  0
LINE
  5
36B
330
1F
100
AcDbEntity
  8
0
  6
PHANTOM
 62
     8
370
     0
100
AcDbLine
 10
-795.1619224025
 20
231.7095862024
 30
0.0
 11
-794.6026992045
 21
232.0324538663
 31
0.0
  0
LINE
  5
36C
330
1F
100
AcDbEntity
  8
0
  6
PHANTOM
 62
     8
370
     0
100
AcDbLine
 10
-373.3225776259
 20
416.6973457144
 30
0.0
 11
-359.8225783357
 21
393.3146610414
 31
0.0
  0
LINE
  5
36D
330
1F
100
AcDbEntity
  8
0
  6
PHANTOM
 62
     8
370
     0
100
AcDbLine
 10
-693.8244410607
 20
231.6555097965
 30
0.0
 11
-680.3244413294
 21
208.2728243598
 31
0.0
  0
LINE
  5
36E
330
1F
100
AcDbEntity
  8
0
  6
PHANTOM
 62
     8
370
     0
100
AcDbLine
 10
-1165.9364982922
 20
884.4612534409
 30
0.0
 11
-702.6129072675
 21
1151.9612534409
 31
0.0
  0
LINE
  5
36F
330
1F
100
AcDbEntity
  8
0
  6
PHANTOM
 62
     8
370
     0
100
AcDbLine
 10
-825.8891942773
 20
1365.4820459104
 30
0.0
 11
-1289.212785302
 21
1097.9820459104
 31
0.0
  0
LINE
  5
370
330
1F
100
AcDbEntity
  8
0
  6
PHANTOM
 62
     8
370
     0
100
AcDbLine
 10
-1227.9881373797
 20
987.8378450336
 30
0.0
 11
-1251.2842207415
 21
974.3878450336
 31
0.0
  0
LINE
  5
371
330
1F
100
AcDbEntity
  8
0
  6
PHANTOM
 62
     8
370
     0
100
AcDbLine
 10
-1290.9881373797
 20
1096.9570459104
 30
0.0
 11
-1314.2842207415
 21
1083.5070459104
 31
0.0
  0
LINE
  5
372
330
1F
100
AcDbEntity
  8
0
  6
PHANTOM
 62
     8
370
     0
100
AcDbLine
 10
-737.8177588377
 20
1270.8378450336
 30
0.0
 11
-761.1138421995
 21
1257.3878450336
 31
0.0
  0
LINE
  5
373
330
1F
100
AcDbEntity
  8
0
  6
PHANTOM
 62
     8
370
     0
100
AcDbLine
 10
-800.8177588377
 20
1379.9570459104
 30
0.0
 11
-824.1138421995
 21
1366.5070459104
 31
0.0
  0
LINE
  5
374
330
1F
100
AcDbEntity
  8
0
  6
PHANTOM
 62
     8
370
     0
100
AcDbLine
 10
-115.0254105274
 20
400.3708561485
 30
0.0
 11
-118.8887263868
 21
400.3708561485
 31
0.0
  0
LINE
  5
375
330
1F
100
AcDbEntity
  8
0
  6
PHANTOM
 62
     8
370
     0
100
AcDbLine
 10
-118.9083330336
 20
382.9254450386
 30
0.0
 11
-114.7560354341
 21
382.9254450386
 31
0.0
  0
ARC
  5
376
330
1F
100
AcDbEntity
  8
0
  6
Continuous
 62
     7
370
    15
100
AcDbCircle
 10
-121.3869055751
 20
388.458287534
 30
0.0
 40
90.186267861066
100
AcDbArc
 50
63.9194289507
 51
71.330118312
  0
ARC
  5
377
330
1F
100
AcDbEntity
  8
0
  6
Continuous
 62
     7
370
    15
100
AcDbCircle
 10
-121.7829253608
 20
388.0572425185
 30
0.0
 40
90.50427406676238
100
AcDbArc
 50
126.2956273494
 51
149.986707463
  0
ARC
  5
378
330
1F
100
AcDbEntity
  8
0
  6
Continuous
 62
     7
370
    15
100
AcDbCircle
 10
-58.4475128306
 20
496.9235020786
 30
0.0
 40
92.50000000000011
100
AcDbArc
 50
314.3683477386
 51
28.2500177681
  0
ARC
  5
379
330
1F
100
AcDbEntity
  8
0
  6
Continuous
 62
     7
370
    15
100
AcDbCircle
 10
-288.0525221538
 20
510.9216036187
 30
0.0
 40
11.75000000000003
100
AcDbArc
 50
300.0
 51
120.0
  0
ARC
  5
37A
330
1F
100
AcDbEntity
  8
0
  6
Continuous
 62
     7
370
    15
100
AcDbCircle
 10
-818.0600692698
 20
204.9216036187
 30
0.0
 40
11.7500000000001
100
AcDbArc
 50
120.0
 51
300.0
  0
ARC
  5
37B
330
1F
100
AcDbEntity
  8
0
  6
Continuous
 62
     7
370
    15
100
AcDbCircle
 10
-812.6394123144
 20
-2.6155800273
 30
0.0
 40
92.62345729532697
100
AcDbArc
 50
111.5859893719
 51
128.2179109175
  0
ARC
  5
37C
330
1F
100
AcDbEntity
  8
0
  6
Continuous
 62
     7
370
    15
100
AcDbCircle
 10
-798.4935668268
 20
-2.5317257223
 30
0.0
 40
92.5348504490697
100
AcDbArc
 50
94.8653741255
 51
139.2200588176
  0
ARC
  5
37D
330
1F
100
AcDbEntity
  8
0
  6
Continuous
 62
     7
370
    15
100
AcDbCircle
 10
-309.4383775656
 20
501.9629917553
 30
0.0
 40
13.50000000000007
100
AcDbArc
 50
354.3258488811
 51
174.3258488811
  0
ARC
  5
37E
330
1F
100
AcDbEntity
  8
0
  6
Continuous
 62
     7
370
    15
100
AcDbCircle
 10
-799.6087561076
 20
218.9629917553
 30
0.0
 40
13.50000000000007
100
AcDbArc
 50
65.6741511189
 51
245.6741511189
  0
ARC
  5
37F
330
1F
100
AcDbEntity
  8
0
  6
Continuous
 62
     7
370
    15
100
AcDbCircle
 10
-58.4475128306
 20
496.9235020786
 30
0.0
 40
92.50000000000107
100
AcDbArc
 50
30.1085314029
 51
116.2875737397
  0
ARC
  5
380
330
1F
100
AcDbEntity
  8
0
  6
Continuous
 62
     7
370
    15
100
AcDbCircle
 10
-920.6760065641
 20
-0.8843508814
 30
0.0
 40
92.50000000000001
100
AcDbArc
 50
79.2755641743
 51
188.9860680765
  0
ARC
  5
381
330
1F
100
AcDbEntity
  8
0
  6
Continuous
 62
     7
370
    15
100
AcDbCircle
 10
-58.2709181368
 20
-499.0718091834
 30
0.0
 40
92.49999999999235
100
AcDbArc
 50
32.9873958127
 51
43.3511843322
  0
ARC
  5
382
330
1F
100
AcDbEntity
  8
0
  6
Continuous
 62
     7
370
    15
100
AcDbCircle
 10
-58.2709181368
 20
-499.0718091834
 30
0.0
 40
92.49999999999996
100
AcDbArc
 50
301.3253489582
 51
31.1278737668
  0
ARC
  5
383
330
1F
100
AcDbEntity
  8
0
  6
Continuous
 62
     7
370
    15
100
AcDbCircle
 10
-1334.3611790606
 20
1145.1813577805
 30
0.0
 40
13.45000000000072
100
AcDbArc
 50
30.0
 51
210.0
  0
ARC
  5
384
330
1F
100
AcDbEntity
  8
0
  6
Continuous
 62
     7
370
    15
100
AcDbCircle
 10
-844.1908005186
 20
1428.1813577805
 30
0.0
 40
13.45000000000098
100
AcDbArc
 50
30.0
 51
210.0
  0
ARC
  5
385
330
1F
100
AcDbEntity
  8
0
  6
Continuous
 62
     7
370
    15
100
AcDbCircle
 10
-1597.5739169435
 20
1570.5658611375
 30
0.0
 40
1499.99999999999
100
AcDbArc
 50
120.0
 51
210.2077509772
  0
ARC
  5
386
330
1F
100
AcDbEntity
  8
0
  6
Continuous
 62
     7
370
    15
100
AcDbCircle
 10
50.9619062503
 20
672.6631492611
 30
0.0
 40
1574.801847094841
100
AcDbArc
 50
358.8072192544
 51
74.8747723763
  0
ARC
  5
387
330
1F
100
AcDbEntity
  8
0
  6
Continuous
 62
     7
370
    15
100
AcDbCircle
 10
-1083.357585495
 20
1867.4487985209
 30
0.0
 40
1499.999999999988
100
AcDbArc
 50
30.1095289253
 51
120.0
  0
ARC
  5
388
330
1F
100
AcDbEntity
  8
0
  6
Continuous
 62
     7
370
    15
100
AcDbCircle
 10
-1106.5442740219
 20
-0.2645370214
 30
0.0
 40
1589.944458810928
100
AcDbArc
 50
165.7067152206
 51
240.017816627
  0
ARC
  5
389
330
1F
100
AcDbEntity
  8
0
  6
Continuous
 62
     7
370
    15
100
AcDbCircle
 10
-30.3286721786
 20
392.9538756456
 30
0.0
 40
85.02087441750876
100
AcDbArc
 50
174.9953167053
 51
186.7739542405
  0
ARC
  5
38A
330
1F
100
AcDbEntity
  8
0
  6
Continuous
 62
     7
370
    15
100
AcDbCircle
 10
-1171.1474131183
 20
488.2848818153
 30
0.0
 40
1075.633141144482
100
AcDbArc
 50
3.4528362762
 51
5.6585531683
  0
ARC
  5
38B
330
1F
100
AcDbEntity
  8
0
  6
PHANTOM
 62
     8
370
     0
100
AcDbCircle
 10
-315.3491407523
 20
442.6194599676
 30
0.0
 40
13.5153868190361
100
AcDbArc
 50
355.005819819
 51
153.8636527903
  0
ARC
  5
38C
330
1F
100
AcDbEntity
  8
0
  6
PHANTOM
 62
     8
370
     0
100
AcDbCircle
 10
-745.4891585998
 20
194.2182415491
 30
0.0
 40
13.2454036165039
100
AcDbArc
 50
209.9562841736
 51
245.5505918598
  0
ARC
  5
38D
330
1F
100
AcDbEntity
  8
0
  6
PHANTOM
 62
     8
370
     0
100
AcDbCircle
 10
-745.2169859004
 20
194.3670209069
 30
0.0
 40
13.5555090097538
100
AcDbArc
 50
86.3234193891
 51
209.9266840395
  0
ARC
  5
38E
330
1F
100
AcDbEntity
  8
0
  6
PHANTOM
 62
     8
370
     0
100
AcDbCircle
 10
-309.5207083434
 20
501.1343612468
 30
0.0
 40
13.50052938041031
100
AcDbArc
 50
354.8332455168
 51
173.8184522454
  0
ARC
  5
38F
330
1F
100
AcDbEntity
  8
0
  6
PHANTOM
 62
     8
370
     0
100
AcDbCircle
 10
-798.849975648
 20
218.6199770461
 30
0.0
 40
13.5005293804103
100
AcDbArc
 50
66.1815477546
 51
245.1667544832
  0
ENDSEC
  0
SECTION
  2
OBJECTS
  0
DICTIONARY
  5
C
330
0
100
AcDbDictionary
281
     1
  3
ACAD_GROUP
350
D
  3
ACAD_LAYOUT
350
1A
  3
ACAD_MLINESTYLE
350
17
  3
ACAD_PLOTSETTINGS
350
19
  3
ACAD_PLOTSTYLENAME
350
E
  3
ACAD_SCALELIST
350
47
  0
DICTIONARY
  5
D
102
{ACAD_REACTORS
330
C
102
}
330
C
100
AcDbDictionary
281
     1
  0
DICTIONARY
  5
1A
102
{ACAD_REACTORS
330
C
102
}
330
C
100
AcDbDictionary
281
     1
  3
Layout1
350
1E
  3
Layout2
350
26
  3
Model
350
22
  0
DICTIONARY
  5
17
102
{ACAD_REACTORS
330
C
102
}
330
C
100
AcDbDictionary
281
     1
  3
Standard
350
18
  0
DICTIONARY
  5
19
102
{ACAD_REACTORS
330
C
102
}
330
C
100
AcDbDictionary
281
     1
  0
ACDBDICTIONARYWDFLT
  5
E
102
{ACAD_REACTORS
330
C
102
}
330
C
100
AcDbDictionary
281
     1
  3
Normal
350
F
100
AcDbDictionaryWithDefault
340
F
  0
DICTIONARY
  5
47
102
{ACAD_REACTORS
330
C
102
}
330
C
100
AcDbDictionary
281
     1
  3
A0
350
48
  3
A1
350
49
  3
A2
350
4A
  3
A3
350
4B
  3
A4
350
4C
  3
A5
350
4D
  3
A6
350
4E
  3
A7
350
4F
  3
A8
350
50
  3
A9
350
51
  3
B0
350
52
  3
B1
350
53
  3
B2
350
54
  3
B3
350
55
  3
B4
350
56
  3
B5
350
57
  3
B6
350
58
  3
B7
350
59
  3
B8
350
5A
  3
B9
350
5B
  3
C0
350
5C
  3
C1
350
5D
  3
C2
350
5E
  3
C3
350
5F
  3
C4
350
60
  3
C5
350
61
  3
C6
350
62
  3
C7
350
63
  3
C8
350
64
  3
C9
350
65
  3
D0
350
66
  3
D1
350
67
  3
D2
350
68
  0
LAYOUT
  5
1E
102
{ACAD_REACTORS
330
1A
102
}
330
1A
100
AcDbPlotSettings
  1

  2
none_device
  4

  6

 40
0.0
 41
0.0
 42
0.0
 43
0.0
 44
0.0
 45
0.0
 46
0.0
 47
0.0
 48
0.0
 49
0.0
140
0.0
141
0.0
142
1.0
143
1.0
 70
   688
 72
     1
 73
     0
 74
     5
  7

 75
    16
147
1.0
148
0.0
149
0.0
100
AcDbLayout
  1
Layout1
 70
     1
 71
     1
 10
0.0
 20
0.0
 11
420.0
 21
297.0
 12
0.0
 22
0.0
 32
0.0
 14
1.0000000000E+20
 24
1.0000000000E+20
 34
1.0000000000E+20
 15
-1.0000000000E+20
 25
-1.0000000000E+20
 35
-1.0000000000E+20
146
0.0
 13
0.0
 23
0.0
 33
0.0
 16
1.0
 26
0.0
 36
0.0
 17
0.0
 27
1.0
 37
0.0
 76
     0
330
1B
  0
LAYOUT
  5
26
102
{ACAD_REACTORS
330
1A
102
}
330
1A
100
AcDbPlotSettings
  1

  2
none_device
  4

  6

 40
0.0
 41
0.0
 42
0.0
 43
0.0
 44
0.0
 45
0.0
 46
0.0
 47
0.0
 48
0.0
 49
0.0
140
0.0
141
0.0
142
1.0
143
1.0
 70
   688
 72
     1
 73
     0
 74
     5
  7

 75
    16
147
1.0
148
0.0
149
0.0
100
AcDbLayout
  1
Layout2
 70
     1
 71
     2
 10
0.0
 20
0.0
 11
0.0
 21
0.0
 12
0.0
 22
0.0
 32
0.0
 14
0.0
 24
0.0
 34
0.0
 15
0.0
 25
0.0
 35
0.0
146
0.0
 13
0.0
 23
0.0
 33
0.0
 16
1.0
 26
0.0
 36
0.0
 17
0.0
 27
1.0
 37
0.0
 76
     0
330
23
  0
LAYOUT
  5
22
102
{ACAD_REACTORS
330
1A
102
}
330
1A
100
AcDbPlotSettings
  1

  2
none_device
  4
ANSI_A_(11.00_x_8.50_Inches)
  6

 40
6.35
 41
19.05
 42
6.35000508
 43
19.05000254
 44
279.4
 45
215.9
 46
161.3629450197
 47
67.5852627043
 48
0.0
 49
0.0
140
0.0
141
0.0
142
0.0014986606
143
1.0
 70
  1696
 72
     0
 73
     0
 74
     0
  7

 75
     0
147
0.0179189148
148
-1300.4909072572
149
0.0
100
AcDbLayout
  1
Model
 70
     1
 71
     0
 10
0.0
 20
0.0
 11
420.0
 21
297.0
 12
0.0
 22
0.0
 32
0.0
 14
-3097.5739169434
 24
-2247.5650358345
 34
0.0
 15
1625.7637533452
 25
3367.4487985209
 35
0.0
146
0.0
 13
0.0
 23
0.0
 33
0.0
 16
1.0
 26
0.0
 36
0.0
 17
0.0
 27
1.0
 37
0.0
 76
     0
330
1F
331
29
  0
MLINESTYLE
  5
18
102
{ACAD_REACTORS
330
17
102
}
330
17
100
AcDbMlineStyle
  2
Standard
 70
     0
  3

 62
   256
 51
90.0
 52
90.0
 71
     2
 49
0.5
 62
   256
  6
BYLAYER
 49
-0.5
 62
   256
  6
BYLAYER
  0
ACDBPLACEHOLDER
  5
F
102
{ACAD_REACTORS
330
E
102
}
330
E
  0
SCALE
  5
48
102
{ACAD_REACTORS
330
47
102
}
330
47
100
AcDbScale
 70
     0
300
1:1
140
1.0
141
1.0
290
     1
  0
SCALE
  5
49
102
{ACAD_REACTORS
330
47
102
}
330
47
100
AcDbScale
 70
     0
300
1:2
140
1.0
141
2.0
290
     0
  0
SCALE
  5
4A
102
{ACAD_REACTORS
330
47
102
}
330
47
100
AcDbScale
 70
     0
300
1:4
140
1.0
141
4.0
290
     0
  0
SCALE
  5
4B
102
{ACAD_REACTORS
330
47
102
}
330
47
100
AcDbScale
 70
     0
300
1:5
140
1.0
141
5.0
290
     0
  0
SCALE
  5
4C
102
{ACAD_REACTORS
330
47
102
}
330
47
100
AcDbScale
 70
     0
300
1:8
140
1.0
141
8.0
290
     0
  0
SCALE
  5
4D
102
{ACAD_REACTORS
330
47
102
}
330
47
100
AcDbScale
 70
     0
300
1:10
140
1.0
141
10.0
290
     0
  0
SCALE
  5
4E
102
{ACAD_REACTORS
330
47
102
}
330
47
100
AcDbScale
 70
     0
300
1:16
140
1.0
141
16.0
290
     0
  0
SCALE
  5
4F
102
{ACAD_REACTORS
330
47
102
}
330
47
100
AcDbScale
 70
     0
300
1:20
140
1.0
141
20.0
290
     0
  0
SCALE
  5
50
102
{ACAD_REACTORS
330
47
102
}
330
47
100
AcDbScale
 70
     0
300
1:30
140
1.0
141
30.0
290
     0
  0
SCALE
  5
51
102
{ACAD_REACTORS
330
47
102
}
330
47
100
AcDbScale
 70
     0
300
1:40
140
1.0
141
40.0
290
     0
  0
SCALE
  5
52
102
{ACAD_REACTORS
330
47
102
}
330
47
100
AcDbScale
 70
     0
300
1:50
140
1.0
141
50.0
290
     0
  0
SCALE
  5
53
102
{ACAD_REACTORS
330
47
102
}
330
47
100
AcDbScale
 70
     0
300
1:100
140
1.0
141
100.0
290
     0
  0
SCALE
  5
54
102
{ACAD_REACTORS
330
47
102
}
330
47
100
AcDbScale
 70
     0
300
2:1
140
2.0
141
1.0
290
     0
  0
SCALE
  5
55
102
{ACAD_REACTORS
330
47
102
}
330
47
100
AcDbScale
 70
     0
300
4:1
140
4.0
141
1.0
290
     0
  0
SCALE
  5
56
102
{ACAD_REACTORS
330
47
102
}
330
47
100
AcDbScale
 70
     0
300
8:1
140
8.0
141
1.0
290
     0
  0
SCALE
  5
57
102
{ACAD_REACTORS
330
47
102
}
330
47
100
AcDbScale
 70
     0
300
10:1
140
10.0
141
1.0
290
     0
  0
SCALE
  5
58
102
{ACAD_REACTORS
330
47
102
}
330
47
100
AcDbScale
 70
     0
300
100:1
140
100.0
141
1.0
290
     0
  0
SCALE
  5
59
102
{ACAD_REACTORS
330
47
102
}
330
47
100
AcDbScale
 70
     0
300
1/128" = 1'-0"
140
0.0078125
141
12.0
290
     0
  0
SCALE
  5
5A
102
{ACAD_REACTORS
330
47
102
}
330
47
100
AcDbScale
 70
     0
300
1/64" = 1'-0"
140
0.015625
141
12.0
290
     0
  0
SCALE
  5
5B
102
{ACAD_REACTORS
330
47
102
}
330
47
100
AcDbScale
 70
     0
300
1/32" = 1'-0"
140
0.03125
141
12.0
290
     0
  0
SCALE
  5
5C
102
{ACAD_REACTORS
330
47
102
}
330
47
100
AcDbScale
 70
     0
300
1/16" = 1'-0"
140
0.0625
141
12.0
290
     0
  0
SCALE
  5
5D
102
{ACAD_REACTORS
330
47
102
}
330
47
100
AcDbScale
 70
     0
300
3/32" = 1'-0"
140
0.09375
141
12.0
290
     0
  0
SCALE
  5
5E
102
{ACAD_REACTORS
330
47
102
}
330
47
100
AcDbScale
 70
     0
300
1/8" = 1'-0"
140
0.125
141
12.0
290
     0
  0
SCALE
  5
5F
102
{ACAD_REACTORS
330
47
102
}
330
47
100
AcDbScale
 70
     0
300
3/16" = 1'-0"
140
0.1875
141
12.0
290
     0
  0
SCALE
  5
60
102
{ACAD_REACTORS
330
47
102
}
330
47
100
AcDbScale
 70
     0
300
1/4" = 1'-0"
140
0.25
141
12.0
290
     0
  0
SCALE
  5
61
102
{ACAD_REACTORS
330
47
102
}
330
47
100
AcDbScale
 70
     0
300
3/8" = 1'-0"
140
0.375
141
12.0
290
     0
  0
SCALE
  5
62
102
{ACAD_REACTORS
330
47
102
}
330
47
100
AcDbScale
 70
     0
300
1/2" = 1'-0"
140
0.5
141
12.0
290
     0
  0
SCALE
  5
63
102
{ACAD_REACTORS
330
47
102
}
330
47
100
AcDbScale
 70
     0
300
3/4" = 1'-0"
140
0.75
141
12.0
290
     0
  0
SCALE
  5
64
102
{ACAD_REACTORS
330
47
102
}
330
47
100
AcDbScale
 70
     0
300
1" = 1'-0"
140
1.0
141
12.0
290
     0
  0
SCALE
  5
65
102
{ACAD_REACTORS
330
47
102
}
330
47
100
AcDbScale
 70
     0
300
1-1/2" = 1'-0"
140
1.5
141
12.0
290
     0
  0
SCALE
  5
66
102
{ACAD_REACTORS
330
47
102
}
330
47
100
AcDbScale
 70
     0
300
3" = 1'-0"
140
3.0
141
12.0
290
     0
  0
SCALE
  5
67
102
{ACAD_REACTORS
330
47
102
}
330
47
100
AcDbScale
 70
     0
300
6" = 1'-0"
140
6.0
141
12.0
290
     0
  0
SCALE
  5
68
102
{ACAD_REACTORS
330
47
102
}
330
47
100
AcDbScale
 70
     0
300
1'-0" = 1'-0"
140
12.0
141
12.0
290
     0
  0
ENDSEC
  0
EOF
