  0
SECTION
  2
HEADER
  9
$ACADVER
  1
AC1015
  9
$ACADMAINTVER
 70
     6
  9
$DWGCODEPAGE
  3
ANSI_1251
  9
$INSBASE
 10
0.0
 20
0.0
 30
0.0
  9
$EXTMIN
 10
0.0
 20
0.0
 30
0.0
  9
$EXTMAX
 10
594.0
 20
420.0
 30
0.0
  9
$LIMMIN
 10
0.0
 20
0.0
  9
$LIMMAX
 10
594.0
 20
420.0
  9
$ORTHOMODE
 70
     0
  9
$REGENMODE
 70
     1
  9
$FILLMODE
 70
     1
  9
$QTEXTMODE
 70
     0
  9
$MIRRTEXT
 70
     1
  9
$LTSCALE
 40
1.0
  9
$ATTMODE
 70
     1
  9
$TEXTSIZE
 40
3.0
  9
$TRACEWID
 40
1.0
  9
$TEXTSTYLE
  7
Standard
  9
$CLAYER
  8
0
  9
$CELTYPE
  6
ByLayer
  9
$CECOLOR
 62
   256
  9
$CELTSCALE
 40
1.0
  9
$DISPSILH
 70
     0
  9
$DIMSCALE
 40
1.0
  9
$DIMASZ
 40
3.0
  9
$DIMEXO
 40
0.0
  9
$DIMDLI
 40
3.75
  9
$DIMRND
 40
0.0
  9
$DIMDLE
 40
0.0
  9
$DIMEXE
 40
1.0
  9
$DIMTP
 40
0.0
  9
$DIMTM
 40
0.0
  9
$DIMTXT
 40
5.0
  9
$DIMCEN
 40
2.5
  9
$DIMTSZ
 40
0.0
  9
$DIMTOL
 70
     0
  9
$DIMLIM
 70
     0
  9
$DIMTIH
 70
     1
  9
$DIMTOH
 70
     1
  9
$DIMSE1
 70
     0
  9
$DIMSE2
 70
     0
  9
$DIMTAD
 70
     1
  9
$DIMZIN
 70
     0
  9
$DIMBLK
  1

  9
$DIMASO
 70
     1
  9
$DIMSHO
 70
     1
  9
$DIMPOST
  1

  9
$DIMAPOST
  1

  9
$DIMALT
 70
     0
  9
$DIMALTD
 70
     3
  9
$DIMALTF
 40
0.0393700787
  9
$DIMLFAC
 40
1.0
  9
$DIMTOFL
 70
     1
  9
$DIMTVP
 40
0.0
  9
$DIMTIX
 70
     0
  9
$DIMSOXD
 70
     0
  9
$DIMSAH
 70
     0
  9
$DIMBLK1
  1

  9
$DIMBLK2
  1

  9
$DIMSTYLE
  2
ISO-25
  9
$DIMCLRD
 70
     0
  9
$DIMCLRE
 70
     0
  9
$DIMCLRT
 70
     0
  9
$DIMTFAC
 40
1.0
  9
$DIMGAP
 40
1.524
  9
$DIMJUST
 70
     0
  9
$DIMSD1
 70
     0
  9
$DIMSD2
 70
     0
  9
$DIMTOLJ
 70
     0
  9
$DIMTZIN
 70
     0
  9
$DIMALTZ
 70
     0
  9
$DIMALTTZ
 70
     0
  9
$DIMUPT
 70
     0
  9
$DIMDEC
 70
     0
  9
$DIMTDEC
 70
     2
  9
$DIMALTU
 70
     2
  9
$DIMALTTD
 70
     3
  9
$DIMTXSTY
  7
Standard
  9
$DIMAUNIT
 70
     0
  9
$DIMADEC
 70
     0
  9
$DIMALTRND
 40
0.0
  9
$DIMAZIN
 70
     0
  9
$DIMDSEP
 70
    44
  9
$DIMATFIT
 70
     3
  9
$DIMFRAC
 70
     0
  9
$DIMLDRBLK
  1

  9
$DIMLUNIT
 70
     2
  9
$DIMLWD
 70
    -2
  9
$DIMLWE
 70
    -2
  9
$DIMTMOVE
 70
     0
  9
$LUNITS
 70
     2
  9
$LUPREC
 70
     2
  9
$SKETCHINC
 40
1.0
  9
$FILLETRAD
 40
10.0
  9
$AUNITS
 70
     1
  9
$AUPREC
 70
     2
  9
$MENU
  1
.
  9
$ELEVATION
 40
0.0
  9
$PELEVATION
 40
0.0
  9
$THICKNESS
 40
0.0
  9
$LIMCHECK
 70
     0
  9
$CHAMFERA
 40
0.0
  9
$CHAMFERB
 40
0.0
  9
$CHAMFERC
 40
0.0
  9
$CHAMFERD
 40
0.0
  9
$SKPOLY
 70
     0
  9
$TDCREATE
 40
2459649.661382882
  9
$TDUCREATE
 40
2459649.536382882
  9
$TDUPDATE
 40
2459649.661383067
  9
$TDUUPDATE
 40
2459649.536383067
  9
$TDINDWG
 40
0.0000000116
  9
$TDUSRTIMER
 40
0.0000000116
  9
$USRTIMER
 70
     1
  9
$ANGBASE
 50
0.0
  9
$ANGDIR
 70
     0
  9
$PDMODE
 70
     0
  9
$PDSIZE
 40
-1.0
  9
$PLINEWID
 40
0.0
  9
$SPLFRAME
 70
     0
  9
$SPLINETYPE
 70
     6
  9
$SPLINESEGS
 70
     8
  9
$HANDSEED
  5
4FB
  9
$SURFTAB1
 70
     6
  9
$SURFTAB2
 70
     6
  9
$SURFTYPE
 70
     6
  9
$SURFU
 70
     6
  9
$SURFV
 70
     6
  9
$UCSBASE
  2

  9
$UCSNAME
  2

  9
$UCSORG
 10
0.0
 20
0.0
 30
0.0
  9
$UCSXDIR
 10
1.0
 20
0.0
 30
0.0
  9
$UCSYDIR
 10
0.0
 20
1.0
 30
0.0
  9
$UCSORTHOREF
  2

  9
$UCSORTHOVIEW
 70
     0
  9
$UCSORGTOP
 10
0.0
 20
0.0
 30
0.0
  9
$UCSORGBOTTOM
 10
0.0
 20
0.0
 30
0.0
  9
$UCSORGLEFT
 10
0.0
 20
0.0
 30
0.0
  9
$UCSORGRIGHT
 10
0.0
 20
0.0
 30
0.0
  9
$UCSORGFRONT
 10
0.0
 20
0.0
 30
0.0
  9
$UCSORGBACK
 10
0.0
 20
0.0
 30
0.0
  9
$PUCSBASE
  2

  9
$PUCSNAME
  2

  9
$PUCSORG
 10
0.0
 20
0.0
 30
0.0
  9
$PUCSXDIR
 10
1.0
 20
0.0
 30
0.0
  9
$PUCSYDIR
 10
0.0
 20
1.0
 30
0.0
  9
$PUCSORTHOREF
  2

  9
$PUCSORTHOVIEW
 70
     0
  9
$PUCSORGTOP
 10
0.0
 20
0.0
 30
0.0
  9
$PUCSORGBOTTOM
 10
0.0
 20
0.0
 30
0.0
  9
$PUCSORGLEFT
 10
0.0
 20
0.0
 30
0.0
  9
$PUCSORGRIGHT
 10
0.0
 20
0.0
 30
0.0
  9
$PUCSORGFRONT
 10
0.0
 20
0.0
 30
0.0
  9
$PUCSORGBACK
 10
0.0
 20
0.0
 30
0.0
  9
$USERI1
 70
     0
  9
$USERI2
 70
     0
  9
$USERI3
 70
     0
  9
$USERI4
 70
     0
  9
$USERI5
 70
     0
  9
$USERR1
 40
0.0
  9
$USERR2
 40
0.0
  9
$USERR3
 40
0.0
  9
$USERR4
 40
0.0
  9
$USERR5
 40
0.0
  9
$WORLDVIEW
 70
     1
  9
$SHADEDGE
 70
     3
  9
$SHADEDIF
 70
    70
  9
$TILEMODE
 70
     1
  9
$MAXACTVP
 70
    64
  9
$PINSBASE
 10
0.0
 20
0.0
 30
0.0
  9
$PLIMCHECK
 70
     0
  9
$PEXTMIN
 10
1.0000000000E+20
 20
1.0000000000E+20
 30
1.0000000000E+20
  9
$PEXTMAX
 10
-1.0000000000E+20
 20
-1.0000000000E+20
 30
-1.0000000000E+20
  9
$PLIMMIN
 10
0.0
 20
0.0
  9
$PLIMMAX
 10
420.0
 20
297.0
  9
$UNITMODE
 70
     0
  9
$VISRETAIN
 70
     1
  9
$PLINEGEN
 70
     0
  9
$PSLTSCALE
 70
     1
  9
$TREEDEPTH
 70
  3020
  9
$CMLSTYLE
  2
Standard
  9
$CMLJUST
 70
     0
  9
$CMLSCALE
 40
20.0
  9
$PROXYGRAPHICS
 70
     1
  9
$MEASUREMENT
 70
     1
  9
$CELWEIGHT
370
    -1
  9
$ENDCAPS
280
     0
  9
$JOINSTYLE
280
     0
  9
$LWDISPLAY
290
     1
  9
$INSUNITS
 70
     4
  9
$HYPERLINKBASE
  1

  9
$STYLESHEET
  1

  9
$XEDIT
290
     1
  9
$CEPSNTYPE
380
     0
  9
$PSTYLEMODE
290
     1
  9
$FINGERPRINTGUID
  2
{A730F845-A9E2-4505-AA5B-351D7D3AB98D}
  9
$VERSIONGUID
  2
{FAEB1C32-E019-11D5-929B-00C0DF256EC4}
  9
$EXTNAMES
290
     1
  9
$PSVPSCALE
 40
0.0
  9
$OLESTARTUP
290
     0
  0
ENDSEC
  0
SECTION
  2
CLASSES
  0
CLASS
  1
ACDBDICTIONARYWDFLT
  2
AcDbDictionaryWithDefault
  3
ObjectDBX Classes
 90
        0
280
     0
281
     0
  0
CLASS
  1
VISUALSTYLE
  2
AcDbVisualStyle
  3
ObjectDBX Classes
 90
     4095
280
     0
281
     0
  0
CLASS
  1
MATERIAL
  2
AcDbMaterial
  3
ObjectDBX Classes
 90
     1153
280
     0
281
     0
  0
CLASS
  1
SCALE
  2
AcDbScale
  3
ObjectDBX Classes
 90
     1153
280
     0
281
     0
  0
CLASS
  1
SUN
  2
AcDbSun
  3
SCENEOE
 90
     1153
280
     0
281
     0
  0
CLASS
  1
ACDBPLACEHOLDER
  2
AcDbPlaceHolder
  3
ObjectDBX Classes
 90
        0
280
     0
281
     0
  0
CLASS
  1
LAYOUT
  2
AcDbLayout
  3
ObjectDBX Classes
 90
        0
280
     0
281
     0
  0
ENDSEC
  0
SECTION
  2
TABLES
  0
TABLE
  2
VPORT
  5
8
330
0
100
AcDbSymbolTable
 70
     1
  0
VPORT
  5
29
330
8
100
AcDbSymbolTableRecord
100
AcDbViewportTableRecord
  2
*Active
 70
     0
 10
0.0
 20
0.0
 11
1.0
 21
1.0
 12
297.0
 22
210.0
 13
0.0
 23
0.0
 14
10.0
 24
10.0
 15
10.0
 25
10.0
 16
0.0
 26
0.0
 36
1.0
 17
0.0
 27
0.0
 37
0.0
 40
420.0
 41
1.4142857143
 42
50.0
 43
0.0
 44
0.0
 50
0.0
 51
0.0
 71
     0
 72
  2000
 73
     1
 74
     3
 75
     0
 76
     0
 77
     0
 78
     0
281
     0
 65
     1
110
0.0
120
0.0
130
0.0
111
1.0
121
0.0
131
0.0
112
0.0
122
1.0
132
0.0
 79
     0
146
0.0
  0
ENDTAB
  0
TABLE
  2
LTYPE
  5
5
330
0
100
AcDbSymbolTable
 70
     6
  0
LTYPE
  5
14
330
5
100
AcDbSymbolTableRecord
100
AcDbLinetypeTableRecord
  2
ByBlock
 70
     0
  3

 72
    65
 73
     0
 40
0.0
  0
LTYPE
  5
15
330
5
100
AcDbSymbolTableRecord
100
AcDbLinetypeTableRecord
  2
ByLayer
 70
     0
  3

 72
    65
 73
     0
 40
0.0
  0
LTYPE
  5
16
330
5
100
AcDbSymbolTableRecord
100
AcDbLinetypeTableRecord
  2
Continuous
 70
     0
  3
Solid line
 72
    65
 73
     0
 40
0.0
  0
LTYPE
  5
6A
330
5
100
AcDbSymbolTableRecord
100
AcDbLinetypeTableRecord
  2
HIDDEN
 70
     0
  3
Hidden __ __ __ __ __ __ __ __ __ __ __ __ __ __
 72
    65
 73
     2
 40
1.905
 49
1.27
 74
     0
 49
-0.635
 74
     0
  0
LTYPE
  5
6B
330
5
100
AcDbSymbolTableRecord
100
AcDbLinetypeTableRecord
  2
PHANTOM
 70
     0
  3
Phantom ______  __  __  ______  __  __  ______
 72
    65
 73
     6
 40
12.7
 49
6.35
 74
     0
 49
-1.27
 74
     0
 49
1.27
 74
     0
 49
-1.27
 74
     0
 49
1.27
 74
     0
 49
-1.27
 74
     0
  0
LTYPE
  5
6C
330
5
100
AcDbSymbolTableRecord
100
AcDbLinetypeTableRecord
  2
CENTER
 70
     0
  3
Center ____ _ ____ _ ____ _ ____ _ ____ _ ____
 72
    65
 73
     4
 40
10.16
 49
6.35
 74
     0
 49
-1.27
 74
     0
 49
1.27
 74
     0
 49
-1.27
 74
     0
  0
LTYPE
  5
6D
330
5
100
AcDbSymbolTableRecord
100
AcDbLinetypeTableRecord
  2
CENTERX2
 70
     0
  3
Center (2x) ________  __  ________  __  _____
 72
    65
 73
     4
 40
20.32
 49
12.7
 74
     0
 49
-2.54
 74
     0
 49
2.54
 74
     0
 49
-2.54
 74
     0
  0
LTYPE
  5
6E
330
5
100
AcDbSymbolTableRecord
100
AcDbLinetypeTableRecord
  2
DOT2
 70
     0
  3
Dot (.5x) ........................................
 72
    65
 73
     2
 40
0.635
 49
0.0
 74
     0
 49
-0.635
 74
     0
  0
ENDTAB
  0
TABLE
  2
LAYER
  5
2
330
0
100
AcDbSymbolTable
 70
     5
  0
LAYER
  5
10
330
2
100
AcDbSymbolTableRecord
100
AcDbLayerTableRecord
  2
0
 70
     0
 62
     7
  6
Continuous
370
    -3
390
F
  0
LAYER
  5
6F
330
2
100
AcDbSymbolTableRecord
100
AcDbLayerTableRecord
  2
К
 70
     0
 62
     1
  6
Continuous
370
    -3
390
F
  0
LAYER
  5
70
330
2
100
AcDbSymbolTableRecord
100
AcDbLayerTableRecord
  2
С
 70
     0
 62
     5
  6
Continuous
370
    -3
390
F
  0
LAYER
  5
71
330
2
100
AcDbSymbolTableRecord
100
AcDbLayerTableRecord
  2
Р
 70
     0
 62
    42
  6
Continuous
370
    -3
390
F
  0
LAYER
  5
72
330
2
100
AcDbSymbolTableRecord
100
AcDbLayerTableRecord
  2
FORMAT
 70
     0
 62
     7
  6
Continuous
370
    -3
390
F
  0
ENDTAB
  0
TABLE
  2
STYLE
  5
3
330
0
100
AcDbSymbolTable
 70
     1
  0
STYLE
  5
11
330
3
100
AcDbSymbolTableRecord
100
AcDbTextStyleTableRecord
  2
Standard
 70
     0
 40
0.0
 41
1.0
 50
0.0
 71
     0
 42
3.0
  3
txt
  4

  0
ENDTAB
  0
TABLE
  2
VIEW
  5
6
330
0
100
AcDbSymbolTable
 70
     0
  0
ENDTAB
  0
TABLE
  2
UCS
  5
7
330
0
100
AcDbSymbolTable
 70
     0
  0
ENDTAB
  0
TABLE
  2
APPID
  5
9
330
0
100
AcDbSymbolTable
 70
     1
  0
APPID
  5
12
330
9
100
AcDbSymbolTableRecord
100
AcDbRegAppTableRecord
  2
ACAD
 70
     0
  0
ENDTAB
  0
TABLE
  2
DIMSTYLE
  5
A
330
0
100
AcDbSymbolTable
 70
     1
100
AcDbDimStyleTable
  0
DIMSTYLE
105
27
330
A
100
AcDbSymbolTableRecord
100
AcDbDimStyleTableRecord
  2
ISO-25
 70
     0
 41
2.5
 42
0.625
 43
3.75
 44
1.25
 73
     0
 74
     0
 77
     1
 78
     8
140
2.5
141
2.5
143
0.0393700787
147
0.625
171
     3
172
     1
178
     0
271
     2
272
     2
274
     3
278
    44
283
     0
284
     8
340
11
  0
ENDTAB
  0
TABLE
  2
BLOCK_RECORD
  5
1
330
0
100
AcDbSymbolTable
 70
     1
  0
BLOCK_RECORD
  5
1F
330
1
100
AcDbSymbolTableRecord
100
AcDbBlockTableRecord
  2
*Model_Space
340
22
  0
BLOCK_RECORD
  5
1B
330
1
100
AcDbSymbolTableRecord
100
AcDbBlockTableRecord
  2
*Paper_Space
340
1E
  0
BLOCK_RECORD
  5
23
330
1
100
AcDbSymbolTableRecord
100
AcDbBlockTableRecord
  2
*Paper_Space0
340
26
  0
ENDTAB
  0
ENDSEC
  0
SECTION
  2
BLOCKS
  0
BLOCK
  5
20
330
1F
100
AcDbEntity
  8
0
100
AcDbBlockBegin
  2
*Model_Space
 70
     0
 10
0.0
 20
0.0
 30
0.0
  3
*Model_Space
  1
*Model_Space
  0
ENDBLK
  5
21
330
1F
100
AcDbEntity
  8
0
100
AcDbBlockEnd
  0
BLOCK
  5
1C
330
1B
100
AcDbEntity
 67
     1
  8
0
100
AcDbBlockBegin
  2
*Paper_Space
 70
     0
 10
0.0
 20
0.0
 30
0.0
  3
*Paper_Space
  1
*Paper_Space
  0
ENDBLK
  5
1D
330
1B
100
AcDbEntity
 67
     1
  8
0
100
AcDbBlockEnd
  0
BLOCK
  5
24
330
23
100
AcDbEntity
  8
0
100
AcDbBlockBegin
  2
*Paper_Space0
 70
     0
 10
0.0
 20
0.0
 30
0.0
  3
*Paper_Space0
  1
*Paper_Space0
  0
ENDBLK
  5
25
330
23
100
AcDbEntity
  8
0
100
AcDbBlockEnd
  0
ENDSEC
  0
SECTION
  2
ENTITIES
  0
ARC
  5
73
330
1F
100
AcDbEntity
  8
0
  6
Continuous
 62
     7
370
    15
100
AcDbCircle
 10
2285.6842383443
 20
-299.6690376199
 30
0.0
 40
1500.0
100
AcDbArc
 50
180.0
 51
270.0
  0
LINE
  5
74
330
1F
100
AcDbEntity
  8
0
  6
Continuous
 62
     7
370
    15
100
AcDbLine
 10
2285.6842383443
 20
-1799.6690376199
 30
0.0
 11
4085.6842383443
 21
-1799.6690376199
 31
0.0
  0
ARC
  5
75
330
1F
100
AcDbEntity
  8
0
  6
Continuous
 62
     7
370
    15
100
AcDbCircle
 10
4085.6842383443
 20
-299.6690376199
 30
0.0
 40
1500.0
100
AcDbArc
 50
270.0
 51
0.0
  0
LINE
  5
76
330
1F
100
AcDbEntity
  8
0
  6
Continuous
 62
     7
370
    15
100
AcDbLine
 10
5585.6842383443
 20
-299.6690376199
 30
0.0
 11
5585.6842383443
 21
950.3309623801
 31
0.0
  0
ARC
  5
77
330
1F
100
AcDbEntity
  8
0
  6
Continuous
 62
     7
370
    15
100
AcDbCircle
 10
4085.6842383443
 20
950.3309623801
 30
0.0
 40
1500.0
100
AcDbArc
 50
0.0
 51
90.0
  0
LINE
  5
78
330
1F
100
AcDbEntity
  8
0
  6
Continuous
 62
     7
370
    15
100
AcDbLine
 10
4085.6842383443
 20
2450.3309623801
 30
0.0
 11
2285.6842383443
 21
2450.3309623801
 31
0.0
  0
ARC
  5
79
330
1F
100
AcDbEntity
  8
0
  6
Continuous
 62
     7
370
    15
100
AcDbCircle
 10
2285.6842383443
 20
950.3309623801
 30
0.0
 40
1500.0
100
AcDbArc
 50
90.0
 51
180.0
  0
LINE
  5
7A
330
1F
100
AcDbEntity
  8
0
  6
Continuous
 62
     7
370
    15
100
AcDbLine
 10
785.6842383443
 20
950.3309623801
 30
0.0
 11
785.6842383443
 21
-299.6690376199
 31
0.0
  0
ARC
  5
7B
330
1F
100
AcDbEntity
  8
0
  6
Continuous
 62
     7
370
    15
100
AcDbCircle
 10
3375.6842383443
 20
700.3309623801
 30
0.0
 40
2.886751345948028
100
AcDbArc
 50
30.0
 51
90.0
  0
SPLINE
  5
7C
330
1F
100
AcDbEntity
  8
0
  6
Continuous
 62
     7
370
    15
100
AcDbSpline
210
0.0
220
0.0
230
1.0
 70
    24
 71
     3
 72
     9
 73
     5
 74
     0
 42
0.000000001
 43
0.00000001
 40
0.0
 40
0.0
 40
0.0
 40
0.0
 40
0.5346858623657081
 40
1.0
 40
1.0
 40
1.0
 40
1.0
 10
3375.684238344283
 20
703.2177137260422
 30
0.0
 10
3376.130892634225
 20
702.9598377515092
 30
0.0
 10
3376.966250965876
 20
702.4775433938614
 30
0.0
 10
3377.797463432285
 20
701.9976426526262
 30
0.0
 10
3378.184238344283
 20
701.774338053068
 30
0.0
  0
ARC
  5
7D
330
1F
100
AcDbEntity
  8
0
  6
Continuous
 62
     7
370
    15
100
AcDbCircle
 10
3375.6842383443
 20
700.3309623801
 30
0.0
 40
2.886751345948028
100
AcDbArc
 50
90.0
 51
150.0
  0
SPLINE
  5
7E
330
1F
100
AcDbEntity
  8
0
  6
Continuous
 62
     7
370
    15
100
AcDbSpline
210
0.0
220
0.0
230
1.0
 70
    24
 71
     3
 72
     9
 73
     5
 74
     0
 42
0.000000001
 43
0.00000001
 40
0.0
 40
0.0
 40
0.0
 40
0.0
 40
0.5346858623657081
 40
1.0
 40
1.0
 40
1.0
 40
1.0
 10
3373.184238344283
 20
701.774338053068
 30
0.0
 10
3373.630892634225
 20
702.0322140276012
 30
0.0
 10
3374.466250965876
 20
702.514508385249
 30
0.0
 10
3375.297463432285
 20
702.9944091264844
 30
0.0
 10
3375.684238344283
 20
703.2177137260422
 30
0.0
  0
ARC
  5
7F
330
1F
100
AcDbEntity
  8
0
  6
Continuous
 62
     7
370
    15
100
AcDbCircle
 10
3375.6842383443
 20
700.3309623801
 30
0.0
 40
2.886751345948369
100
AcDbArc
 50
210.0
 51
270.0
  0
SPLINE
  5
80
330
1F
100
AcDbEntity
  8
0
  6
Continuous
 62
     7
370
    15
100
AcDbSpline
210
0.0
220
0.0
230
1.0
 70
    24
 71
     3
 72
     9
 73
     5
 74
     0
 42
0.000000001
 43
0.00000001
 40
0.0
 40
0.0
 40
0.0
 40
0.0
 40
0.5346858623657081
 40
1.0
 40
1.0
 40
1.0
 40
1.0
 10
3375.684238344283
 20
697.4442110341458
 30
0.0
 10
3375.237584054341
 20
697.702087008679
 30
0.0
 10
3374.402225722691
 20
698.1843813663269
 30
0.0
 10
3373.571013256282
 20
698.6642821075621
 30
0.0
 10
3373.184238344283
 20
698.88758670712
 30
0.0
  0
ARC
  5
81
330
1F
100
AcDbEntity
  8
0
  6
Continuous
 62
     7
370
    15
100
AcDbCircle
 10
3375.6842383443
 20
700.3309623801
 30
0.0
 40
2.886751345948369
100
AcDbArc
 50
270.0
 51
330.0
  0
SPLINE
  5
82
330
1F
100
AcDbEntity
  8
0
  6
Continuous
 62
     7
370
    15
100
AcDbSpline
210
0.0
220
0.0
230
1.0
 70
    24
 71
     3
 72
     9
 73
     5
 74
     0
 42
0.000000001
 43
0.00000001
 40
0.0
 40
0.0
 40
0.0
 40
0.0
 40
0.5346858623657081
 40
1.0
 40
1.0
 40
1.0
 40
1.0
 10
3378.184238344283
 20
698.88758670712
 30
0.0
 10
3377.73758405434
 20
698.629710732587
 30
0.0
 10
3376.902225722691
 20
698.1474163749392
 30
0.0
 10
3376.071013256281
 20
697.6675156337038
 30
0.0
 10
3375.684238344283
 20
697.4442110341458
 30
0.0
  0
ARC
  5
83
330
1F
100
AcDbEntity
  8
0
  6
Continuous
 62
     7
370
    15
100
AcDbCircle
 10
3375.6842383443
 20
700.3309623801
 30
0.0
 40
2.886751345948189
100
AcDbArc
 50
150.0
 51
210.0
  0
SPLINE
  5
84
330
1F
100
AcDbEntity
  8
0
  6
Continuous
 62
     7
370
    15
100
AcDbSpline
210
0.0
220
0.0
230
1.0
 70
    24
 71
     3
 72
    10
 73
     6
 74
     0
 42
0.000000001
 43
0.00000001
 40
0.0
 40
0.0
 40
0.0
 40
0.0
 40
0.3476243397033723
 40
0.8477691611544885
 40
0.9999999999999999
 40
0.9999999999999999
 40
0.9999999999999999
 40
0.9999999999999999
 10
3373.184238344283
 20
698.8875867071201
 30
0.0
 10
3373.184238344283
 20
699.2174116073376
 30
0.0
 10
3373.184238344283
 20
700.021772369946
 30
0.0
 10
3373.184238344283
 20
701.0179438675781
 30
0.0
 10
3373.184238344283
 20
701.6312289413746
 30
0.0
 10
3373.184238344283
 20
701.774338053068
 30
0.0
  0
ARC
  5
85
330
1F
100
AcDbEntity
  8
0
  6
Continuous
 62
     7
370
    15
100
AcDbCircle
 10
3375.6842383443
 20
700.3309623801
 30
0.0
 40
2.886751345948189
100
AcDbArc
 50
330.0
 51
30.0
  0
SPLINE
  5
86
330
1F
100
AcDbEntity
  8
0
  6
Continuous
 62
     7
370
    15
100
AcDbSpline
210
0.0
220
0.0
230
1.0
 70
    24
 71
     3
 72
    10
 73
     6
 74
     0
 42
0.000000001
 43
0.00000001
 40
0.0
 40
0.0
 40
0.0
 40
0.0
 40
0.1522308389023572
 40
0.6523756600650883
 40
1.0
 40
1.0
 40
1.0
 40
1.0
 10
3378.184238344283
 20
701.7743380530682
 30
0.0
 10
3378.184238344283
 20
701.6312289413207
 30
0.0
 10
3378.184238344283
 20
701.0179438677386
 30
0.0
 10
3378.184238344283
 20
700.0217723701305
 30
0.0
 10
3378.184238344283
 20
699.2174116075624
 30
0.0
 10
3378.184238344283
 20
698.88758670712
 30
0.0
  0
CIRCLE
  5
87
330
1F
100
AcDbEntity
  8
0
  6
Continuous
 62
     7
370
    15
100
AcDbCircle
 10
3375.6842383443
 20
700.3309623801
 30
0.0
 40
4.199999999999818
  0
CIRCLE
  5
88
330
1F
100
AcDbEntity
  8
0
  6
Continuous
 62
     7
370
    15
100
AcDbCircle
 10
3375.6842383443
 20
700.3309623801
 30
0.0
 40
5.0
  0
ARC
  5
89
330
1F
100
AcDbEntity
  8
0
  6
Continuous
 62
     7
370
    15
100
AcDbCircle
 10
2725.6842383443
 20
325.3309623801
 30
0.0
 40
2.886751345948142
100
AcDbArc
 50
90.0
 51
150.0
  0
SPLINE
  5
8A
330
1F
100
AcDbEntity
  8
0
  6
Continuous
 62
     7
370
    15
100
AcDbSpline
210
0.0
220
0.0
230
1.0
 70
    24
 71
     3
 72
     9
 73
     5
 74
     0
 42
0.000000001
 43
0.00000001
 40
0.0
 40
0.0
 40
0.0
 40
0.0
 40
0.5346858623657081
 40
1.0
 40
1.0
 40
1.0
 40
1.0
 10
2723.184238344283
 20
326.7743380530682
 30
0.0
 10
2723.630892634226
 20
327.0322140276012
 30
0.0
 10
2724.466250965875
 20
327.514508385249
 30
0.0
 10
2725.297463432285
 20
327.9944091264843
 30
0.0
 10
2725.684238344283
 20
328.2177137260423
 30
0.0
  0
ARC
  5
8B
330
1F
100
AcDbEntity
  8
0
  6
Continuous
 62
     7
370
    15
100
AcDbCircle
 10
2725.6842383443
 20
325.3309623801
 30
0.0
 40
2.886751345948198
100
AcDbArc
 50
210.0
 51
270.0
  0
SPLINE
  5
8C
330
1F
100
AcDbEntity
  8
0
  6
Continuous
 62
     7
370
    15
100
AcDbSpline
210
0.0
220
0.0
230
1.0
 70
    24
 71
     3
 72
     9
 73
     5
 74
     0
 42
0.000000001
 43
0.00000001
 40
0.0
 40
0.0
 40
0.0
 40
0.0
 40
0.5346858623657081
 40
1.0
 40
1.0
 40
1.0
 40
1.0
 10
2725.684238344283
 20
322.444211034146
 30
0.0
 10
2725.237584054341
 20
322.702087008679
 30
0.0
 10
2724.402225722691
 20
323.1843813663268
 30
0.0
 10
2723.571013256281
 20
323.6642821075621
 30
0.0
 10
2723.184238344283
 20
323.8875867071201
 30
0.0
  0
ARC
  5
8D
330
1F
100
AcDbEntity
  8
0
  6
Continuous
 62
     7
370
    15
100
AcDbCircle
 10
2725.6842383443
 20
325.3309623801
 30
0.0
 40
2.886751345948198
100
AcDbArc
 50
270.0
 51
330.0
  0
SPLINE
  5
8E
330
1F
100
AcDbEntity
  8
0
  6
Continuous
 62
     7
370
    15
100
AcDbSpline
210
0.0
220
0.0
230
1.0
 70
    24
 71
     3
 72
     9
 73
     5
 74
     0
 42
0.000000001
 43
0.00000001
 40
0.0
 40
0.0
 40
0.0
 40
0.0
 40
0.5346858623657081
 40
1.0
 40
1.0
 40
1.0
 40
1.0
 10
2728.184238344283
 20
323.8875867071201
 30
0.0
 10
2727.737584054341
 20
323.6297107325871
 30
0.0
 10
2726.902225722691
 20
323.1474163749393
 30
0.0
 10
2726.071013256282
 20
322.6675156337039
 30
0.0
 10
2725.684238344283
 20
322.444211034146
 30
0.0
  0
ARC
  5
8F
330
1F
100
AcDbEntity
  8
0
  6
Continuous
 62
     7
370
    15
100
AcDbCircle
 10
2725.6842383443
 20
325.3309623801
 30
0.0
 40
2.886751345948142
100
AcDbArc
 50
30.0
 51
90.0
  0
SPLINE
  5
90
330
1F
100
AcDbEntity
  8
0
  6
Continuous
 62
     7
370
    15
100
AcDbSpline
210
0.0
220
0.0
230
1.0
 70
    24
 71
     3
 72
     9
 73
     5
 74
     0
 42
0.000000001
 43
0.00000001
 40
0.0
 40
0.0
 40
0.0
 40
0.0
 40
0.5346858623657081
 40
1.0
 40
1.0
 40
1.0
 40
1.0
 10
2725.684238344283
 20
328.2177137260423
 30
0.0
 10
2726.130892634226
 20
327.9598377515093
 30
0.0
 10
2726.966250965876
 20
327.4775433938615
 30
0.0
 10
2727.797463432285
 20
326.9976426526261
 30
0.0
 10
2728.184238344283
 20
326.7743380530682
 30
0.0
  0
ARC
  5
91
330
1F
100
AcDbEntity
  8
0
  6
Continuous
 62
     7
370
    15
100
AcDbCircle
 10
2725.6842383443
 20
325.3309623801
 30
0.0
 40
2.886751345948132
100
AcDbArc
 50
150.0
 51
210.0
  0
SPLINE
  5
92
330
1F
100
AcDbEntity
  8
0
  6
Continuous
 62
     7
370
    15
100
AcDbSpline
210
0.0
220
0.0
230
1.0
 70
    24
 71
     3
 72
    10
 73
     6
 74
     0
 42
0.000000001
 43
0.00000001
 40
0.0
 40
0.0
 40
0.0
 40
0.0
 40
0.3476243397033723
 40
0.8477691611544885
 40
0.9999999999999999
 40
0.9999999999999999
 40
0.9999999999999999
 40
0.9999999999999999
 10
2723.184238344283
 20
323.8875867071201
 30
0.0
 10
2723.184238344283
 20
324.2174116073373
 30
0.0
 10
2723.184238344283
 20
325.0217723699459
 30
0.0
 10
2723.184238344283
 20
326.017943867578
 30
0.0
 10
2723.184238344283
 20
326.6312289413747
 30
0.0
 10
2723.184238344283
 20
326.7743380530682
 30
0.0
  0
ARC
  5
93
330
1F
100
AcDbEntity
  8
0
  6
Continuous
 62
     7
370
    15
100
AcDbCircle
 10
2725.6842383443
 20
325.3309623801
 30
0.0
 40
2.886751345948132
100
AcDbArc
 50
330.0
 51
30.0
  0
SPLINE
  5
94
330
1F
100
AcDbEntity
  8
0
  6
Continuous
 62
     7
370
    15
100
AcDbSpline
210
0.0
220
0.0
230
1.0
 70
    24
 71
     3
 72
    10
 73
     6
 74
     0
 42
0.000000001
 43
0.00000001
 40
0.0
 40
0.0
 40
0.0
 40
0.0
 40
0.1522308389023572
 40
0.6523756600650883
 40
1.0
 40
1.0
 40
1.0
 40
1.0
 10
2728.184238344283
 20
326.7743380530682
 30
0.0
 10
2728.184238344283
 20
326.6312289413205
 30
0.0
 10
2728.184238344283
 20
326.0179438677385
 30
0.0
 10
2728.184238344283
 20
325.0217723701305
 30
0.0
 10
2728.184238344283
 20
324.2174116075625
 30
0.0
 10
2728.184238344283
 20
323.8875867071201
 30
0.0
  0
CIRCLE
  5
95
330
1F
100
AcDbEntity
  8
0
  6
Continuous
 62
     7
370
    15
100
AcDbCircle
 10
2725.6842383443
 20
325.3309623801
 30
0.0
 40
4.199999999999818
  0
CIRCLE
  5
96
330
1F
100
AcDbEntity
  8
0
  6
Continuous
 62
     7
370
    15
100
AcDbCircle
 10
2725.6842383443
 20
325.3309623801
 30
0.0
 40
5.0
  0
ARC
  5
97
330
1F
100
AcDbEntity
  8
0
  6
Continuous
 62
     7
370
    15
100
AcDbCircle
 10
3280.6842383443
 20
-214.2138643389
 30
0.0
 40
2.88675134594817
100
AcDbArc
 50
30.0
 51
90.0
  0
SPLINE
  5
98
330
1F
100
AcDbEntity
  8
0
  6
Continuous
 62
     7
370
    15
100
AcDbSpline
210
0.0
220
0.0
230
1.0
 70
    24
 71
     3
 72
     9
 73
     5
 74
     0
 42
0.000000001
 43
0.00000001
 40
0.0
 40
0.0
 40
0.0
 40
0.0
 40
0.5346858623657081
 40
1.0
 40
1.0
 40
1.0
 40
1.0
 10
3280.684238344283
 20
-211.3271129930009
 30
0.0
 10
3281.130892634226
 20
-211.5849889675339
 30
0.0
 10
3281.966250965875
 20
-212.0672833251818
 30
0.0
 10
3282.797463432285
 20
-212.547184066417
 30
0.0
 10
3283.184238344283
 20
-212.770488665975
 30
0.0
  0
ARC
  5
99
330
1F
100
AcDbEntity
  8
0
  6
Continuous
 62
     7
370
    15
100
AcDbCircle
 10
3280.6842383443
 20
-214.2138643389
 30
0.0
 40
2.88675134594817
100
AcDbArc
 50
210.0
 51
270.0
  0
SPLINE
  5
9A
330
1F
100
AcDbEntity
  8
0
  6
Continuous
 62
     7
370
    15
100
AcDbSpline
210
0.0
220
0.0
230
1.0
 70
    24
 71
     3
 72
     9
 73
     5
 74
     0
 42
0.000000001
 43
0.00000001
 40
0.0
 40
0.0
 40
0.0
 40
0.0
 40
0.5346858623657081
 40
1.0
 40
1.0
 40
1.0
 40
1.0
 10
3280.684238344283
 20
-217.1006156848972
 30
0.0
 10
3280.23758405434
 20
-216.8427397103642
 30
0.0
 10
3279.402225722691
 20
-216.3604453527164
 30
0.0
 10
3278.571013256281
 20
-215.8805446114811
 30
0.0
 10
3278.184238344284
 20
-215.6572400119231
 30
0.0
  0
ARC
  5
9B
330
1F
100
AcDbEntity
  8
0
  6
Continuous
 62
     7
370
    15
100
AcDbCircle
 10
3280.6842383443
 20
-214.2138643389
 30
0.0
 40
2.88675134594817
100
AcDbArc
 50
270.0
 51
330.0
  0
SPLINE
  5
9C
330
1F
100
AcDbEntity
  8
0
  6
Continuous
 62
     7
370
    15
100
AcDbSpline
210
0.0
220
0.0
230
1.0
 70
    24
 71
     3
 72
     9
 73
     5
 74
     0
 42
0.000000001
 43
0.00000001
 40
0.0
 40
0.0
 40
0.0
 40
0.0
 40
0.5346858623657081
 40
1.0
 40
1.0
 40
1.0
 40
1.0
 10
3283.184238344283
 20
-215.6572400119231
 30
0.0
 10
3282.73758405434
 20
-215.915115986456
 30
0.0
 10
3281.902225722691
 20
-216.3974103441039
 30
0.0
 10
3281.071013256281
 20
-216.8773110853392
 30
0.0
 10
3280.684238344283
 20
-217.1006156848972
 30
0.0
  0
ARC
  5
9D
330
1F
100
AcDbEntity
  8
0
  6
Continuous
 62
     7
370
    15
100
AcDbCircle
 10
3280.6842383443
 20
-214.2138643389
 30
0.0
 40
2.88675134594817
100
AcDbArc
 50
90.0
 51
150.0
  0
SPLINE
  5
9E
330
1F
100
AcDbEntity
  8
0
  6
Continuous
 62
     7
370
    15
100
AcDbSpline
210
0.0
220
0.0
230
1.0
 70
    24
 71
     3
 72
     9
 73
     5
 74
     0
 42
0.000000001
 43
0.00000001
 40
0.0
 40
0.0
 40
0.0
 40
0.0
 40
0.5346858623657081
 40
1.0
 40
1.0
 40
1.0
 40
1.0
 10
3278.184238344284
 20
-212.770488665975
 30
0.0
 10
3278.630892634226
 20
-212.5126126914421
 30
0.0
 10
3279.466250965876
 20
-212.0303183337943
 30
0.0
 10
3280.297463432285
 20
-211.5504175925588
 30
0.0
 10
3280.684238344283
 20
-211.3271129930009
 30
0.0
  0
ARC
  5
9F
330
1F
100
AcDbEntity
  8
0
  6
Continuous
 62
     7
370
    15
100
AcDbCircle
 10
3280.6842383443
 20
-214.2138643389
 30
0.0
 40
2.886751345947724
100
AcDbArc
 50
150.0
 51
210.0
  0
SPLINE
  5
A0
330
1F
100
AcDbEntity
  8
0
  6
Continuous
 62
     7
370
    15
100
AcDbSpline
210
0.0
220
0.0
230
1.0
 70
    24
 71
     3
 72
    10
 73
     6
 74
     0
 42
0.000000001
 43
0.00000001
 40
0.0
 40
0.0
 40
0.0
 40
0.0
 40
0.3476243397033723
 40
0.8477691611544885
 40
0.9999999999999999
 40
0.9999999999999999
 40
0.9999999999999999
 40
0.9999999999999999
 10
3278.184238344284
 20
-215.6572400119232
 30
0.0
 10
3278.184238344284
 20
-215.3274151117058
 30
0.0
 10
3278.184238344284
 20
-214.5230543490974
 30
0.0
 10
3278.184238344284
 20
-213.526882851465
 30
0.0
 10
3278.184238344284
 20
-212.9135977776684
 30
0.0
 10
3278.184238344284
 20
-212.770488665975
 30
0.0
  0
ARC
  5
A1
330
1F
100
AcDbEntity
  8
0
  6
Continuous
 62
     7
370
    15
100
AcDbCircle
 10
3280.6842383443
 20
-214.2138643389
 30
0.0
 40
2.886751345948118
100
AcDbArc
 50
330.0
 51
30.0
  0
SPLINE
  5
A2
330
1F
100
AcDbEntity
  8
0
  6
Continuous
 62
     7
370
    15
100
AcDbSpline
210
0.0
220
0.0
230
1.0
 70
    24
 71
     3
 72
    10
 73
     6
 74
     0
 42
0.000000001
 43
0.00000001
 40
0.0
 40
0.0
 40
0.0
 40
0.0
 40
0.1522308389023572
 40
0.6523756600650883
 40
1.0
 40
1.0
 40
1.0
 40
1.0
 10
3283.184238344283
 20
-212.7704886659751
 30
0.0
 10
3283.184238344283
 20
-212.9135977777229
 30
0.0
 10
3283.184238344283
 20
-213.5268828513048
 30
0.0
 10
3283.184238344283
 20
-214.5230543489127
 30
0.0
 10
3283.184238344283
 20
-215.3274151114807
 30
0.0
 10
3283.184238344283
 20
-215.6572400119231
 30
0.0
  0
CIRCLE
  5
A3
330
1F
100
AcDbEntity
  8
0
  6
Continuous
 62
     7
370
    15
100
AcDbCircle
 10
3280.6842383443
 20
-214.2138643389
 30
0.0
 40
4.199999999999818
  0
CIRCLE
  5
A4
330
1F
100
AcDbEntity
  8
0
  6
Continuous
 62
     7
370
    15
100
AcDbCircle
 10
3280.6842383443
 20
-214.2138643389
 30
0.0
 40
5.0
  0
ARC
  5
A5
330
1F
100
AcDbEntity
  8
0
  6
Continuous
 62
     7
370
    15
100
AcDbCircle
 10
2345.6842383443
 20
325.3309623801
 30
0.0
 40
2.886751345948198
100
AcDbArc
 50
210.0
 51
270.0
  0
SPLINE
  5
A6
330
1F
100
AcDbEntity
  8
0
  6
Continuous
 62
     7
370
    15
100
AcDbSpline
210
0.0
220
0.0
230
1.0
 70
    24
 71
     3
 72
     9
 73
     5
 74
     0
 42
0.000000001
 43
0.00000001
 40
0.0
 40
0.0
 40
0.0
 40
0.0
 40
0.5346858623657081
 40
1.0
 40
1.0
 40
1.0
 40
1.0
 10
2345.684238344283
 20
322.444211034146
 30
0.0
 10
2345.23758405434
 20
322.702087008679
 30
0.0
 10
2344.402225722691
 20
323.1843813663268
 30
0.0
 10
2343.571013256281
 20
323.6642821075621
 30
0.0
 10
2343.184238344283
 20
323.8875867071201
 30
0.0
  0
ARC
  5
A7
330
1F
100
AcDbEntity
  8
0
  6
Continuous
 62
     7
370
    15
100
AcDbCircle
 10
2345.6842383443
 20
325.3309623801
 30
0.0
 40
2.886751345948142
100
AcDbArc
 50
90.0
 51
150.0
  0
SPLINE
  5
A8
330
1F
100
AcDbEntity
  8
0
  6
Continuous
 62
     7
370
    15
100
AcDbSpline
210
0.0
220
0.0
230
1.0
 70
    24
 71
     3
 72
     9
 73
     5
 74
     0
 42
0.000000001
 43
0.00000001
 40
0.0
 40
0.0
 40
0.0
 40
0.0
 40
0.5346858623657081
 40
1.0
 40
1.0
 40
1.0
 40
1.0
 10
2343.184238344283
 20
326.7743380530682
 30
0.0
 10
2343.630892634226
 20
327.0322140276012
 30
0.0
 10
2344.466250965875
 20
327.514508385249
 30
0.0
 10
2345.297463432285
 20
327.9944091264843
 30
0.0
 10
2345.684238344283
 20
328.2177137260423
 30
0.0
  0
ARC
  5
A9
330
1F
100
AcDbEntity
  8
0
  6
Continuous
 62
     7
370
    15
100
AcDbCircle
 10
2345.6842383443
 20
325.3309623801
 30
0.0
 40
2.886751345948198
100
AcDbArc
 50
270.0
 51
330.0
  0
SPLINE
  5
AA
330
1F
100
AcDbEntity
  8
0
  6
Continuous
 62
     7
370
    15
100
AcDbSpline
210
0.0
220
0.0
230
1.0
 70
    24
 71
     3
 72
     9
 73
     5
 74
     0
 42
0.000000001
 43
0.00000001
 40
0.0
 40
0.0
 40
0.0
 40
0.0
 40
0.5346858623657081
 40
1.0
 40
1.0
 40
1.0
 40
1.0
 10
2348.184238344283
 20
323.8875867071201
 30
0.0
 10
2347.73758405434
 20
323.6297107325871
 30
0.0
 10
2346.902225722691
 20
323.1474163749393
 30
0.0
 10
2346.071013256281
 20
322.6675156337039
 30
0.0
 10
2345.684238344283
 20
322.444211034146
 30
0.0
  0
ARC
  5
AB
330
1F
100
AcDbEntity
  8
0
  6
Continuous
 62
     7
370
    15
100
AcDbCircle
 10
2345.6842383443
 20
325.3309623801
 30
0.0
 40
2.886751345948142
100
AcDbArc
 50
30.0
 51
90.0
  0
SPLINE
  5
AC
330
1F
100
AcDbEntity
  8
0
  6
Continuous
 62
     7
370
    15
100
AcDbSpline
210
0.0
220
0.0
230
1.0
 70
    24
 71
     3
 72
     9
 73
     5
 74
     0
 42
0.000000001
 43
0.00000001
 40
0.0
 40
0.0
 40
0.0
 40
0.0
 40
0.5346858623657081
 40
1.0
 40
1.0
 40
1.0
 40
1.0
 10
2345.684238344283
 20
328.2177137260423
 30
0.0
 10
2346.130892634226
 20
327.9598377515093
 30
0.0
 10
2346.966250965875
 20
327.4775433938615
 30
0.0
 10
2347.797463432285
 20
326.9976426526261
 30
0.0
 10
2348.184238344283
 20
326.7743380530682
 30
0.0
  0
ARC
  5
AD
330
1F
100
AcDbEntity
  8
0
  6
Continuous
 62
     7
370
    15
100
AcDbCircle
 10
2345.6842383443
 20
325.3309623801
 30
0.0
 40
2.886751345948132
100
AcDbArc
 50
150.0
 51
210.0
  0
SPLINE
  5
AE
330
1F
100
AcDbEntity
  8
0
  6
Continuous
 62
     7
370
    15
100
AcDbSpline
210
0.0
220
0.0
230
1.0
 70
    24
 71
     3
 72
    10
 73
     6
 74
     0
 42
0.000000001
 43
0.00000001
 40
0.0
 40
0.0
 40
0.0
 40
0.0
 40
0.3476243397033723
 40
0.8477691611544885
 40
0.9999999999999999
 40
0.9999999999999999
 40
0.9999999999999999
 40
0.9999999999999999
 10
2343.184238344283
 20
323.8875867071201
 30
0.0
 10
2343.184238344283
 20
324.2174116073373
 30
0.0
 10
2343.184238344283
 20
325.0217723699459
 30
0.0
 10
2343.184238344283
 20
326.017943867578
 30
0.0
 10
2343.184238344283
 20
326.6312289413747
 30
0.0
 10
2343.184238344283
 20
326.7743380530682
 30
0.0
  0
ARC
  5
AF
330
1F
100
AcDbEntity
  8
0
  6
Continuous
 62
     7
370
    15
100
AcDbCircle
 10
2345.6842383443
 20
325.3309623801
 30
0.0
 40
2.886751345947738
100
AcDbArc
 50
330.0
 51
30.0
  0
SPLINE
  5
B0
330
1F
100
AcDbEntity
  8
0
  6
Continuous
 62
     7
370
    15
100
AcDbSpline
210
0.0
220
0.0
230
1.0
 70
    24
 71
     3
 72
    10
 73
     6
 74
     0
 42
0.000000001
 43
0.00000001
 40
0.0
 40
0.0
 40
0.0
 40
0.0
 40
0.1522308389023572
 40
0.6523756600650883
 40
1.0
 40
1.0
 40
1.0
 40
1.0
 10
2348.184238344283
 20
326.7743380530682
 30
0.0
 10
2348.184238344283
 20
326.6312289413205
 30
0.0
 10
2348.184238344283
 20
326.0179438677385
 30
0.0
 10
2348.184238344283
 20
325.0217723701305
 30
0.0
 10
2348.184238344283
 20
324.2174116075625
 30
0.0
 10
2348.184238344283
 20
323.8875867071201
 30
0.0
  0
CIRCLE
  5
B1
330
1F
100
AcDbEntity
  8
0
  6
Continuous
 62
     7
370
    15
100
AcDbCircle
 10
2345.6842383443
 20
325.3309623801
 30
0.0
 40
4.199999999999818
  0
CIRCLE
  5
B2
330
1F
100
AcDbEntity
  8
0
  6
Continuous
 62
     7
370
    15
100
AcDbCircle
 10
2345.6842383443
 20
325.3309623801
 30
0.0
 40
5.0
  0
ARC
  5
B3
330
1F
100
AcDbEntity
  8
0
  6
Continuous
 62
     7
370
    15
100
AcDbCircle
 10
2630.6842383443
 20
489.8757890991
 30
0.0
 40
2.886751345948198
100
AcDbArc
 50
270.0
 51
330.0
  0
SPLINE
  5
B4
330
1F
100
AcDbEntity
  8
0
  6
Continuous
 62
     7
370
    15
100
AcDbSpline
210
0.0
220
0.0
230
1.0
 70
    24
 71
     3
 72
     9
 73
     5
 74
     0
 42
0.000000001
 43
0.00000001
 40
0.0
 40
0.0
 40
0.0
 40
0.0
 40
0.5346858623657081
 40
1.0
 40
1.0
 40
1.0
 40
1.0
 10
2633.184238344283
 20
488.4324134261635
 30
0.0
 10
2632.73758405434
 20
488.1745374516304
 30
0.0
 10
2631.902225722691
 20
487.6922430939826
 30
0.0
 10
2631.071013256281
 20
487.2123423527472
 30
0.0
 10
2630.684238344283
 20
486.9890377531893
 30
0.0
  0
ARC
  5
B5
330
1F
100
AcDbEntity
  8
0
  6
Continuous
 62
     7
370
    15
100
AcDbCircle
 10
2630.6842383443
 20
489.8757890991
 30
0.0
 40
2.886751345948198
100
AcDbArc
 50
210.0
 51
270.0
  0
SPLINE
  5
B6
330
1F
100
AcDbEntity
  8
0
  6
Continuous
 62
     7
370
    15
100
AcDbSpline
210
0.0
220
0.0
230
1.0
 70
    24
 71
     3
 72
     9
 73
     5
 74
     0
 42
0.000000001
 43
0.00000001
 40
0.0
 40
0.0
 40
0.0
 40
0.0
 40
0.5346858623657081
 40
1.0
 40
1.0
 40
1.0
 40
1.0
 10
2630.684238344283
 20
486.9890377531893
 30
0.0
 10
2630.23758405434
 20
487.2469137277224
 30
0.0
 10
2629.402225722691
 20
487.7292080853701
 30
0.0
 10
2628.571013256281
 20
488.2091088266055
 30
0.0
 10
2628.184238344283
 20
488.4324134261635
 30
0.0
  0
ARC
  5
B7
330
1F
100
AcDbEntity
  8
0
  6
Continuous
 62
     7
370
    15
100
AcDbCircle
 10
2630.6842383443
 20
489.8757890991
 30
0.0
 40
2.886751345948198
100
AcDbArc
 50
90.0
 51
150.0
  0
SPLINE
  5
B8
330
1F
100
AcDbEntity
  8
0
  6
Continuous
 62
     7
370
    15
100
AcDbSpline
210
0.0
220
0.0
230
1.0
 70
    24
 71
     3
 72
     9
 73
     5
 74
     0
 42
0.000000001
 43
0.00000001
 40
0.0
 40
0.0
 40
0.0
 40
0.0
 40
0.5346858623657081
 40
1.0
 40
1.0
 40
1.0
 40
1.0
 10
2628.184238344283
 20
491.3191647721115
 30
0.0
 10
2628.630892634225
 20
491.5770407466446
 30
0.0
 10
2629.466250965876
 20
492.0593351042924
 30
0.0
 10
2630.297463432285
 20
492.5392358455277
 30
0.0
 10
2630.684238344283
 20
492.7625404450857
 30
0.0
  0
ARC
  5
B9
330
1F
100
AcDbEntity
  8
0
  6
Continuous
 62
     7
370
    15
100
AcDbCircle
 10
2630.6842383443
 20
489.8757890991
 30
0.0
 40
2.886751345948198
100
AcDbArc
 50
30.0
 51
90.0
  0
SPLINE
  5
BA
330
1F
100
AcDbEntity
  8
0
  6
Continuous
 62
     7
370
    15
100
AcDbSpline
210
0.0
220
0.0
230
1.0
 70
    24
 71
     3
 72
     9
 73
     5
 74
     0
 42
0.000000001
 43
0.00000001
 40
0.0
 40
0.0
 40
0.0
 40
0.0
 40
0.5346858623657081
 40
1.0
 40
1.0
 40
1.0
 40
1.0
 10
2630.684238344283
 20
492.7625404450857
 30
0.0
 10
2631.130892634226
 20
492.5046644705527
 30
0.0
 10
2631.966250965876
 20
492.0223701129049
 30
0.0
 10
2632.797463432285
 20
491.5424693716695
 30
0.0
 10
2633.184238344283
 20
491.3191647721115
 30
0.0
  0
ARC
  5
BB
330
1F
100
AcDbEntity
  8
0
  6
Continuous
 62
     7
370
    15
100
AcDbCircle
 10
2630.6842383443
 20
489.8757890991
 30
0.0
 40
2.886751345948103
100
AcDbArc
 50
150.0
 51
210.0
  0
SPLINE
  5
BC
330
1F
100
AcDbEntity
  8
0
  6
Continuous
 62
     7
370
    15
100
AcDbSpline
210
0.0
220
0.0
230
1.0
 70
    24
 71
     3
 72
    10
 73
     6
 74
     0
 42
0.000000001
 43
0.00000001
 40
0.0
 40
0.0
 40
0.0
 40
0.0
 40
0.3476243397033723
 40
0.8477691611544885
 40
0.9999999999999999
 40
0.9999999999999999
 40
0.9999999999999999
 40
0.9999999999999999
 10
2628.184238344283
 20
488.4324134261635
 30
0.0
 10
2628.184238344283
 20
488.7622383263808
 30
0.0
 10
2628.184238344283
 20
489.5665990889893
 30
0.0
 10
2628.184238344283
 20
490.5627705866214
 30
0.0
 10
2628.184238344283
 20
491.176055660418
 30
0.0
 10
2628.184238344283
 20
491.3191647721115
 30
0.0
  0
ARC
  5
BD
330
1F
100
AcDbEntity
  8
0
  6
Continuous
 62
     7
370
    15
100
AcDbCircle
 10
2630.6842383443
 20
489.8757890991
 30
0.0
 40
2.886751345948103
100
AcDbArc
 50
330.0
 51
30.0
  0
SPLINE
  5
BE
330
1F
100
AcDbEntity
  8
0
  6
Continuous
 62
     7
370
    15
100
AcDbSpline
210
0.0
220
0.0
230
1.0
 70
    24
 71
     3
 72
    10
 73
     6
 74
     0
 42
0.000000001
 43
0.00000001
 40
0.0
 40
0.0
 40
0.0
 40
0.0
 40
0.1522308389023572
 40
0.6523756600650883
 40
1.0
 40
1.0
 40
1.0
 40
1.0
 10
2633.184238344283
 20
491.3191647721115
 30
0.0
 10
2633.184238344283
 20
491.1760556603639
 30
0.0
 10
2633.184238344283
 20
490.5627705867819
 30
0.0
 10
2633.184238344283
 20
489.5665990891738
 30
0.0
 10
2633.184238344283
 20
488.7622383266059
 30
0.0
 10
2633.184238344283
 20
488.4324134261635
 30
0.0
  0
CIRCLE
  5
BF
330
1F
100
AcDbEntity
  8
0
  6
Continuous
 62
     7
370
    15
100
AcDbCircle
 10
2630.6842383443
 20
489.8757890991
 30
0.0
 40
4.200000000000273
  0
CIRCLE
  5
C0
330
1F
100
AcDbEntity
  8
0
  6
Continuous
 62
     7
370
    15
100
AcDbCircle
 10
2630.6842383443
 20
489.8757890991
 30
0.0
 40
5.0
  0
ARC
  5
C1
330
1F
100
AcDbEntity
  8
0
  6
Continuous
 62
     7
370
    15
100
AcDbCircle
 10
2630.6842383443
 20
160.7861356611
 30
0.0
 40
2.886751345948511
100
AcDbArc
 50
90.0
 51
150.0
  0
SPLINE
  5
C2
330
1F
100
AcDbEntity
  8
0
  6
Continuous
 62
     7
370
    15
100
AcDbSpline
210
0.0
220
0.0
230
1.0
 70
    24
 71
     3
 72
     9
 73
     5
 74
     0
 42
0.000000001
 43
0.00000001
 40
0.0
 40
0.0
 40
0.0
 40
0.0
 40
0.5346858623657081
 40
1.0
 40
1.0
 40
1.0
 40
1.0
 10
2628.184238344283
 20
162.2295113340249
 30
0.0
 10
2628.630892634226
 20
162.4873873085579
 30
0.0
 10
2629.466250965876
 20
162.9696816662057
 30
0.0
 10
2630.297463432285
 20
163.449582407441
 30
0.0
 10
2630.684238344284
 20
163.672887006999
 30
0.0
  0
ARC
  5
C3
330
1F
100
AcDbEntity
  8
0
  6
Continuous
 62
     7
370
    15
100
AcDbCircle
 10
2630.6842383443
 20
160.7861356611
 30
0.0
 40
2.88675134594817
100
AcDbArc
 50
30.0
 51
90.0
  0
SPLINE
  5
C4
330
1F
100
AcDbEntity
  8
0
  6
Continuous
 62
     7
370
    15
100
AcDbSpline
210
0.0
220
0.0
230
1.0
 70
    24
 71
     3
 72
     9
 73
     5
 74
     0
 42
0.000000001
 43
0.00000001
 40
0.0
 40
0.0
 40
0.0
 40
0.0
 40
0.5346858623657081
 40
1.0
 40
1.0
 40
1.0
 40
1.0
 10
2630.684238344284
 20
163.672887006999
 30
0.0
 10
2631.130892634226
 20
163.415011032466
 30
0.0
 10
2631.966250965876
 20
162.9327166748182
 30
0.0
 10
2632.797463432285
 20
162.4528159335829
 30
0.0
 10
2633.184238344283
 20
162.2295113340249
 30
0.0
  0
ARC
  5
C5
330
1F
100
AcDbEntity
  8
0
  6
Continuous
 62
     7
370
    15
100
AcDbCircle
 10
2630.6842383443
 20
160.7861356611
 30
0.0
 40
2.886751345948511
100
AcDbArc
 50
210.0
 51
270.0
  0
SPLINE
  5
C6
330
1F
100
AcDbEntity
  8
0
  6
Continuous
 62
     7
370
    15
100
AcDbSpline
210
0.0
220
0.0
230
1.0
 70
    24
 71
     3
 72
     9
 73
     5
 74
     0
 42
0.000000001
 43
0.00000001
 40
0.0
 40
0.0
 40
0.0
 40
0.0
 40
0.5346858623657081
 40
1.0
 40
1.0
 40
1.0
 40
1.0
 10
2630.684238344284
 20
157.8993843151027
 30
0.0
 10
2630.23758405434
 20
158.1572602896357
 30
0.0
 10
2629.402225722691
 20
158.6395546472835
 30
0.0
 10
2628.571013256281
 20
159.1194553885188
 30
0.0
 10
2628.184238344283
 20
159.3427599880768
 30
0.0
  0
ARC
  5
C7
330
1F
100
AcDbEntity
  8
0
  6
Continuous
 62
     7
370
    15
100
AcDbCircle
 10
2630.6842383443
 20
160.7861356611
 30
0.0
 40
2.88675134594817
100
AcDbArc
 50
270.0
 51
330.0
  0
SPLINE
  5
C8
330
1F
100
AcDbEntity
  8
0
  6
Continuous
 62
     7
370
    15
100
AcDbSpline
210
0.0
220
0.0
230
1.0
 70
    24
 71
     3
 72
     9
 73
     5
 74
     0
 42
0.000000001
 43
0.00000001
 40
0.0
 40
0.0
 40
0.0
 40
0.0
 40
0.5346858623657081
 40
1.0
 40
1.0
 40
1.0
 40
1.0
 10
2633.184238344283
 20
159.3427599880768
 30
0.0
 10
2632.73758405434
 20
159.0848840135438
 30
0.0
 10
2631.902225722691
 20
158.602589655896
 30
0.0
 10
2631.071013256281
 20
158.1226889146606
 30
0.0
 10
2630.684238344284
 20
157.8993843151027
 30
0.0
  0
ARC
  5
C9
330
1F
100
AcDbEntity
  8
0
  6
Continuous
 62
     7
370
    15
100
AcDbCircle
 10
2630.6842383443
 20
160.7861356611
 30
0.0
 40
2.886751345948511
100
AcDbArc
 50
150.0
 51
210.0
  0
SPLINE
  5
CA
330
1F
100
AcDbEntity
  8
0
  6
Continuous
 62
     7
370
    15
100
AcDbSpline
210
0.0
220
0.0
230
1.0
 70
    24
 71
     3
 72
    10
 73
     6
 74
     0
 42
0.000000001
 43
0.00000001
 40
0.0
 40
0.0
 40
0.0
 40
0.0
 40
0.3476243397033723
 40
0.8477691611544885
 40
0.9999999999999999
 40
0.9999999999999999
 40
0.9999999999999999
 40
0.9999999999999999
 10
2628.184238344283
 20
159.3427599880768
 30
0.0
 10
2628.184238344283
 20
159.6725848882941
 30
0.0
 10
2628.184238344283
 20
160.4769456509026
 30
0.0
 10
2628.184238344283
 20
161.4731171485347
 30
0.0
 10
2628.184238344283
 20
162.0864022223314
 30
0.0
 10
2628.184238344283
 20
162.2295113340249
 30
0.0
  0
ARC
  5
CB
330
1F
100
AcDbEntity
  8
0
  6
Continuous
 62
     7
370
    15
100
AcDbCircle
 10
2630.6842383443
 20
160.7861356611
 30
0.0
 40
2.886751345947724
100
AcDbArc
 50
330.0
 51
30.0
  0
SPLINE
  5
CC
330
1F
100
AcDbEntity
  8
0
  6
Continuous
 62
     7
370
    15
100
AcDbSpline
210
0.0
220
0.0
230
1.0
 70
    24
 71
     3
 72
    10
 73
     6
 74
     0
 42
0.000000001
 43
0.00000001
 40
0.0
 40
0.0
 40
0.0
 40
0.0
 40
0.1522308389023572
 40
0.6523756600650883
 40
1.0
 40
1.0
 40
1.0
 40
1.0
 10
2633.184238344283
 20
162.2295113340248
 30
0.0
 10
2633.184238344283
 20
162.0864022222772
 30
0.0
 10
2633.184238344283
 20
161.4731171486951
 30
0.0
 10
2633.184238344283
 20
160.4769456510872
 30
0.0
 10
2633.184238344283
 20
159.6725848885192
 30
0.0
 10
2633.184238344283
 20
159.3427599880768
 30
0.0
  0
CIRCLE
  5
CD
330
1F
100
AcDbEntity
  8
0
  6
Continuous
 62
     7
370
    15
100
AcDbCircle
 10
2630.6842383443
 20
160.7861356611
 30
0.0
 40
4.200000000000273
  0
CIRCLE
  5
CE
330
1F
100
AcDbEntity
  8
0
  6
Continuous
 62
     7
370
    15
100
AcDbCircle
 10
2630.6842383443
 20
160.7861356611
 30
0.0
 40
5.000000000000455
  0
ARC
  5
CF
330
1F
100
AcDbEntity
  8
0
  6
Continuous
 62
     7
370
    15
100
AcDbCircle
 10
2440.6842383443
 20
160.7861356611
 30
0.0
 40
2.88675134594817
100
AcDbArc
 50
90.0
 51
150.0
  0
SPLINE
  5
D0
330
1F
100
AcDbEntity
  8
0
  6
Continuous
 62
     7
370
    15
100
AcDbSpline
210
0.0
220
0.0
230
1.0
 70
    24
 71
     3
 72
     9
 73
     5
 74
     0
 42
0.000000001
 43
0.00000001
 40
0.0
 40
0.0
 40
0.0
 40
0.0
 40
0.5346858623657081
 40
1.0
 40
1.0
 40
1.0
 40
1.0
 10
2438.184238344284
 20
162.2295113340247
 30
0.0
 10
2438.630892634226
 20
162.4873873085578
 30
0.0
 10
2439.466250965876
 20
162.9696816662056
 30
0.0
 10
2440.297463432285
 20
163.4495824074409
 30
0.0
 10
2440.684238344283
 20
163.6728870069989
 30
0.0
  0
ARC
  5
D1
330
1F
100
AcDbEntity
  8
0
  6
Continuous
 62
     7
370
    15
100
AcDbCircle
 10
2440.6842383443
 20
160.7861356611
 30
0.0
 40
2.886751345948511
100
AcDbArc
 50
30.0
 51
90.0
  0
SPLINE
  5
D2
330
1F
100
AcDbEntity
  8
0
  6
Continuous
 62
     7
370
    15
100
AcDbSpline
210
0.0
220
0.0
230
1.0
 70
    24
 71
     3
 72
     9
 73
     5
 74
     0
 42
0.000000001
 43
0.00000001
 40
0.0
 40
0.0
 40
0.0
 40
0.0
 40
0.5346858623657081
 40
1.0
 40
1.0
 40
1.0
 40
1.0
 10
2440.684238344283
 20
163.6728870069989
 30
0.0
 10
2441.130892634226
 20
163.4150110324659
 30
0.0
 10
2441.966250965876
 20
162.932716674818
 30
0.0
 10
2442.797463432285
 20
162.4528159335827
 30
0.0
 10
2443.184238344284
 20
162.2295113340247
 30
0.0
  0
ARC
  5
D3
330
1F
100
AcDbEntity
  8
0
  6
Continuous
 62
     7
370
    15
100
AcDbCircle
 10
2440.6842383443
 20
160.7861356611
 30
0.0
 40
2.88675134594817
100
AcDbArc
 50
210.0
 51
270.0
  0
SPLINE
  5
D4
330
1F
100
AcDbEntity
  8
0
  6
Continuous
 62
     7
370
    15
100
AcDbSpline
210
0.0
220
0.0
230
1.0
 70
    24
 71
     3
 72
     9
 73
     5
 74
     0
 42
0.000000001
 43
0.00000001
 40
0.0
 40
0.0
 40
0.0
 40
0.0
 40
0.5346858623657081
 40
1.0
 40
1.0
 40
1.0
 40
1.0
 10
2440.684238344283
 20
157.8993843151025
 30
0.0
 10
2440.23758405434
 20
158.1572602896356
 30
0.0
 10
2439.402225722691
 20
158.6395546472833
 30
0.0
 10
2438.571013256281
 20
159.1194553885187
 30
0.0
 10
2438.184238344284
 20
159.3427599880767
 30
0.0
  0
ARC
  5
D5
330
1F
100
AcDbEntity
  8
0
  6
Continuous
 62
     7
370
    15
100
AcDbCircle
 10
2440.6842383443
 20
160.7861356611
 30
0.0
 40
2.886751345948511
100
AcDbArc
 50
270.0
 51
330.0
  0
SPLINE
  5
D6
330
1F
100
AcDbEntity
  8
0
  6
Continuous
 62
     7
370
    15
100
AcDbSpline
210
0.0
220
0.0
230
1.0
 70
    24
 71
     3
 72
     9
 73
     5
 74
     0
 42
0.000000001
 43
0.00000001
 40
0.0
 40
0.0
 40
0.0
 40
0.0
 40
0.5346858623657081
 40
1.0
 40
1.0
 40
1.0
 40
1.0
 10
2443.184238344284
 20
159.3427599880767
 30
0.0
 10
2442.73758405434
 20
159.0848840135436
 30
0.0
 10
2441.902225722691
 20
158.6025896558958
 30
0.0
 10
2441.071013256281
 20
158.1226889146605
 30
0.0
 10
2440.684238344283
 20
157.8993843151025
 30
0.0
  0
ARC
  5
D7
330
1F
100
AcDbEntity
  8
0
  6
Continuous
 62
     7
370
    15
100
AcDbCircle
 10
2440.6842383443
 20
160.7861356611
 30
0.0
 40
2.886751345947724
100
AcDbArc
 50
150.0
 51
210.0
  0
SPLINE
  5
D8
330
1F
100
AcDbEntity
  8
0
  6
Continuous
 62
     7
370
    15
100
AcDbSpline
210
0.0
220
0.0
230
1.0
 70
    24
 71
     3
 72
    10
 73
     6
 74
     0
 42
0.000000001
 43
0.00000001
 40
0.0
 40
0.0
 40
0.0
 40
0.0
 40
0.3476243397033723
 40
0.8477691611544885
 40
0.9999999999999999
 40
0.9999999999999999
 40
0.9999999999999999
 40
0.9999999999999999
 10
2438.184238344283
 20
159.3427599880766
 30
0.0
 10
2438.184238344283
 20
159.672584888294
 30
0.0
 10
2438.184238344283
 20
160.4769456509025
 30
0.0
 10
2438.184238344284
 20
161.4731171485347
 30
0.0
 10
2438.184238344284
 20
162.0864022223313
 30
0.0
 10
2438.184238344284
 20
162.2295113340247
 30
0.0
  0
ARC
  5
D9
330
1F
100
AcDbEntity
  8
0
  6
Continuous
 62
     7
370
    15
100
AcDbCircle
 10
2440.6842383443
 20
160.7861356611
 30
0.0
 40
2.886751345948511
100
AcDbArc
 50
330.0
 51
30.0
  0
SPLINE
  5
DA
330
1F
100
AcDbEntity
  8
0
  6
Continuous
 62
     7
370
    15
100
AcDbSpline
210
0.0
220
0.0
230
1.0
 70
    24
 71
     3
 72
    10
 73
     6
 74
     0
 42
0.000000001
 43
0.00000001
 40
0.0
 40
0.0
 40
0.0
 40
0.0
 40
0.1522308389023572
 40
0.6523756600650883
 40
1.0
 40
1.0
 40
1.0
 40
1.0
 10
2443.184238344283
 20
162.2295113340247
 30
0.0
 10
2443.184238344283
 20
162.0864022222771
 30
0.0
 10
2443.184238344283
 20
161.473117148695
 30
0.0
 10
2443.184238344284
 20
160.476945651087
 30
0.0
 10
2443.184238344284
 20
159.6725848885191
 30
0.0
 10
2443.184238344284
 20
159.3427599880767
 30
0.0
  0
CIRCLE
  5
DB
330
1F
100
AcDbEntity
  8
0
  6
Continuous
 62
     7
370
    15
100
AcDbCircle
 10
2440.6842383443
 20
160.7861356611
 30
0.0
 40
4.200000000000273
  0
CIRCLE
  5
DC
330
1F
100
AcDbEntity
  8
0
  6
Continuous
 62
     7
370
    15
100
AcDbCircle
 10
2440.6842383443
 20
160.7861356611
 30
0.0
 40
5.0
  0
ARC
  5
DD
330
1F
100
AcDbEntity
  8
0
  6
Continuous
 62
     7
370
    15
100
AcDbCircle
 10
4025.6842383443
 20
325.3309623801
 30
0.0
 40
2.886751345948497
100
AcDbArc
 50
30.0
 51
90.0
  0
SPLINE
  5
DE
330
1F
100
AcDbEntity
  8
0
  6
Continuous
 62
     7
370
    15
100
AcDbSpline
210
0.0
220
0.0
230
1.0
 70
    24
 71
     3
 72
     9
 73
     5
 74
     0
 42
0.000000001
 43
0.00000001
 40
0.0
 40
0.0
 40
0.0
 40
0.0
 40
0.5346858623657081
 40
1.0
 40
1.0
 40
1.0
 40
1.0
 10
4025.684238344283
 20
328.2177137260423
 30
0.0
 10
4026.130892634225
 20
327.9598377515093
 30
0.0
 10
4026.966250965876
 20
327.4775433938615
 30
0.0
 10
4027.797463432285
 20
326.9976426526261
 30
0.0
 10
4028.184238344284
 20
326.7743380530682
 30
0.0
  0
ARC
  5
DF
330
1F
100
AcDbEntity
  8
0
  6
Continuous
 62
     7
370
    15
100
AcDbCircle
 10
4025.6842383443
 20
325.3309623801
 30
0.0
 40
2.886751345948142
100
AcDbArc
 50
90.0
 51
150.0
  0
SPLINE
  5
E0
330
1F
100
AcDbEntity
  8
0
  6
Continuous
 62
     7
370
    15
100
AcDbSpline
210
0.0
220
0.0
230
1.0
 70
    24
 71
     3
 72
     9
 73
     5
 74
     0
 42
0.000000001
 43
0.00000001
 40
0.0
 40
0.0
 40
0.0
 40
0.0
 40
0.5346858623657081
 40
1.0
 40
1.0
 40
1.0
 40
1.0
 10
4023.184238344284
 20
326.7743380530682
 30
0.0
 10
4023.630892634226
 20
327.0322140276012
 30
0.0
 10
4024.466250965876
 20
327.514508385249
 30
0.0
 10
4025.297463432285
 20
327.9944091264843
 30
0.0
 10
4025.684238344283
 20
328.2177137260423
 30
0.0
  0
ARC
  5
E1
330
1F
100
AcDbEntity
  8
0
  6
Continuous
 62
     7
370
    15
100
AcDbCircle
 10
4025.6842383443
 20
325.3309623801
 30
0.0
 40
2.886751345948198
100
AcDbArc
 50
210.0
 51
270.0
  0
SPLINE
  5
E2
330
1F
100
AcDbEntity
  8
0
  6
Continuous
 62
     7
370
    15
100
AcDbSpline
210
0.0
220
0.0
230
1.0
 70
    24
 71
     3
 72
     9
 73
     5
 74
     0
 42
0.000000001
 43
0.00000001
 40
0.0
 40
0.0
 40
0.0
 40
0.0
 40
0.5346858623657081
 40
1.0
 40
1.0
 40
1.0
 40
1.0
 10
4025.684238344283
 20
322.444211034146
 30
0.0
 10
4025.23758405434
 20
322.702087008679
 30
0.0
 10
4024.402225722691
 20
323.1843813663268
 30
0.0
 10
4023.571013256282
 20
323.6642821075621
 30
0.0
 10
4023.184238344284
 20
323.8875867071201
 30
0.0
  0
ARC
  5
E3
330
1F
100
AcDbEntity
  8
0
  6
Continuous
 62
     7
370
    15
100
AcDbCircle
 10
4025.6842383443
 20
325.3309623801
 30
0.0
 40
2.886751345948526
100
AcDbArc
 50
270.0
 51
330.0
  0
SPLINE
  5
E4
330
1F
100
AcDbEntity
  8
0
  6
Continuous
 62
     7
370
    15
100
AcDbSpline
210
0.0
220
0.0
230
1.0
 70
    24
 71
     3
 72
     9
 73
     5
 74
     0
 42
0.000000001
 43
0.00000001
 40
0.0
 40
0.0
 40
0.0
 40
0.0
 40
0.5346858623657081
 40
1.0
 40
1.0
 40
1.0
 40
1.0
 10
4028.184238344284
 20
323.8875867071201
 30
0.0
 10
4027.737584054341
 20
323.6297107325871
 30
0.0
 10
4026.902225722691
 20
323.1474163749393
 30
0.0
 10
4026.071013256281
 20
322.6675156337039
 30
0.0
 10
4025.684238344283
 20
322.444211034146
 30
0.0
  0
ARC
  5
E5
330
1F
100
AcDbEntity
  8
0
  6
Continuous
 62
     7
370
    15
100
AcDbCircle
 10
4025.6842383443
 20
325.3309623801
 30
0.0
 40
2.886751345947738
100
AcDbArc
 50
150.0
 51
210.0
  0
SPLINE
  5
E6
330
1F
100
AcDbEntity
  8
0
  6
Continuous
 62
     7
370
    15
100
AcDbSpline
210
0.0
220
0.0
230
1.0
 70
    24
 71
     3
 72
    10
 73
     6
 74
     0
 42
0.000000001
 43
0.00000001
 40
0.0
 40
0.0
 40
0.0
 40
0.0
 40
0.3476243397033723
 40
0.8477691611544885
 40
0.9999999999999999
 40
0.9999999999999999
 40
0.9999999999999999
 40
0.9999999999999999
 10
4023.184238344284
 20
323.8875867071201
 30
0.0
 10
4023.184238344284
 20
324.2174116073373
 30
0.0
 10
4023.184238344284
 20
325.0217723699459
 30
0.0
 10
4023.184238344284
 20
326.017943867578
 30
0.0
 10
4023.184238344284
 20
326.6312289413747
 30
0.0
 10
4023.184238344284
 20
326.7743380530682
 30
0.0
  0
ARC
  5
E7
330
1F
100
AcDbEntity
  8
0
  6
Continuous
 62
     7
370
    15
100
AcDbCircle
 10
4025.6842383443
 20
325.3309623801
 30
0.0
 40
2.886751345948526
100
AcDbArc
 50
330.0
 51
30.0
  0
SPLINE
  5
E8
330
1F
100
AcDbEntity
  8
0
  6
Continuous
 62
     7
370
    15
100
AcDbSpline
210
0.0
220
0.0
230
1.0
 70
    24
 71
     3
 72
    10
 73
     6
 74
     0
 42
0.000000001
 43
0.00000001
 40
0.0
 40
0.0
 40
0.0
 40
0.0
 40
0.1522308389023572
 40
0.6523756600650883
 40
1.0
 40
1.0
 40
1.0
 40
1.0
 10
4028.184238344284
 20
326.7743380530682
 30
0.0
 10
4028.184238344284
 20
326.6312289413205
 30
0.0
 10
4028.184238344284
 20
326.0179438677385
 30
0.0
 10
4028.184238344284
 20
325.0217723701305
 30
0.0
 10
4028.184238344284
 20
324.2174116075625
 30
0.0
 10
4028.184238344284
 20
323.8875867071201
 30
0.0
  0
CIRCLE
  5
E9
330
1F
100
AcDbEntity
  8
0
  6
Continuous
 62
     7
370
    15
100
AcDbCircle
 10
4025.6842383443
 20
325.3309623801
 30
0.0
 40
4.200000000000273
  0
CIRCLE
  5
EA
330
1F
100
AcDbEntity
  8
0
  6
Continuous
 62
     7
370
    15
100
AcDbCircle
 10
4025.6842383443
 20
325.3309623801
 30
0.0
 40
5.0
  0
ARC
  5
EB
330
1F
100
AcDbEntity
  8
0
  6
Continuous
 62
     7
370
    15
100
AcDbCircle
 10
3740.6842383443
 20
489.8757890991
 30
0.0
 40
2.886751345948198
100
AcDbArc
 50
210.0
 51
270.0
  0
SPLINE
  5
EC
330
1F
100
AcDbEntity
  8
0
  6
Continuous
 62
     7
370
    15
100
AcDbSpline
210
0.0
220
0.0
230
1.0
 70
    24
 71
     3
 72
     9
 73
     5
 74
     0
 42
0.000000001
 43
0.00000001
 40
0.0
 40
0.0
 40
0.0
 40
0.0
 40
0.5346858623657081
 40
1.0
 40
1.0
 40
1.0
 40
1.0
 10
3740.684238344283
 20
486.9890377531892
 30
0.0
 10
3740.23758405434
 20
487.2469137277223
 30
0.0
 10
3739.402225722691
 20
487.7292080853701
 30
0.0
 10
3738.571013256282
 20
488.2091088266054
 30
0.0
 10
3738.184238344284
 20
488.4324134261634
 30
0.0
  0
ARC
  5
ED
330
1F
100
AcDbEntity
  8
0
  6
Continuous
 62
     7
370
    15
100
AcDbCircle
 10
3740.6842383443
 20
489.8757890991
 30
0.0
 40
2.886751345948198
100
AcDbArc
 50
90.0
 51
150.0
  0
SPLINE
  5
EE
330
1F
100
AcDbEntity
  8
0
  6
Continuous
 62
     7
370
    15
100
AcDbSpline
210
0.0
220
0.0
230
1.0
 70
    24
 71
     3
 72
     9
 73
     5
 74
     0
 42
0.000000001
 43
0.00000001
 40
0.0
 40
0.0
 40
0.0
 40
0.0
 40
0.5346858623657081
 40
1.0
 40
1.0
 40
1.0
 40
1.0
 10
3738.184238344284
 20
491.3191647721114
 30
0.0
 10
3738.630892634226
 20
491.5770407466445
 30
0.0
 10
3739.466250965876
 20
492.0593351042923
 30
0.0
 10
3740.297463432285
 20
492.5392358455276
 30
0.0
 10
3740.684238344283
 20
492.7625404450856
 30
0.0
  0
ARC
  5
EF
330
1F
100
AcDbEntity
  8
0
  6
Continuous
 62
     7
370
    15
100
AcDbCircle
 10
3740.6842383443
 20
489.8757890991
 30
0.0
 40
2.886751345948198
100
AcDbArc
 50
270.0
 51
330.0
  0
SPLINE
  5
F0
330
1F
100
AcDbEntity
  8
0
  6
Continuous
 62
     7
370
    15
100
AcDbSpline
210
0.0
220
0.0
230
1.0
 70
    24
 71
     3
 72
     9
 73
     5
 74
     0
 42
0.000000001
 43
0.00000001
 40
0.0
 40
0.0
 40
0.0
 40
0.0
 40
0.5346858623657081
 40
1.0
 40
1.0
 40
1.0
 40
1.0
 10
3743.184238344283
 20
488.4324134261634
 30
0.0
 10
3742.737584054341
 20
488.1745374516303
 30
0.0
 10
3741.902225722691
 20
487.6922430939826
 30
0.0
 10
3741.071013256281
 20
487.2123423527472
 30
0.0
 10
3740.684238344283
 20
486.9890377531892
 30
0.0
  0
ARC
  5
F1
330
1F
100
AcDbEntity
  8
0
  6
Continuous
 62
     7
370
    15
100
AcDbCircle
 10
3740.6842383443
 20
489.8757890991
 30
0.0
 40
2.886751345948198
100
AcDbArc
 50
30.0
 51
90.0
  0
SPLINE
  5
F2
330
1F
100
AcDbEntity
  8
0
  6
Continuous
 62
     7
370
    15
100
AcDbSpline
210
0.0
220
0.0
230
1.0
 70
    24
 71
     3
 72
     9
 73
     5
 74
     0
 42
0.000000001
 43
0.00000001
 40
0.0
 40
0.0
 40
0.0
 40
0.0
 40
0.5346858623657081
 40
1.0
 40
1.0
 40
1.0
 40
1.0
 10
3740.684238344283
 20
492.7625404450856
 30
0.0
 10
3741.130892634226
 20
492.5046644705525
 30
0.0
 10
3741.966250965875
 20
492.0223701129048
 30
0.0
 10
3742.797463432285
 20
491.5424693716694
 30
0.0
 10
3743.184238344283
 20
491.3191647721114
 30
0.0
  0
ARC
  5
F3
330
1F
100
AcDbEntity
  8
0
  6
Continuous
 62
     7
370
    15
100
AcDbCircle
 10
3740.6842383443
 20
489.8757890991
 30
0.0
 40
2.886751345947709
100
AcDbArc
 50
150.0
 51
210.0
  0
SPLINE
  5
F4
330
1F
100
AcDbEntity
  8
0
  6
Continuous
 62
     7
370
    15
100
AcDbSpline
210
0.0
220
0.0
230
1.0
 70
    24
 71
     3
 72
    10
 73
     6
 74
     0
 42
0.000000001
 43
0.00000001
 40
0.0
 40
0.0
 40
0.0
 40
0.0
 40
0.3476243397033723
 40
0.8477691611544885
 40
0.9999999999999999
 40
0.9999999999999999
 40
0.9999999999999999
 40
0.9999999999999999
 10
3738.184238344284
 20
488.4324134261634
 30
0.0
 10
3738.184238344284
 20
488.7622383263808
 30
0.0
 10
3738.184238344284
 20
489.5665990889893
 30
0.0
 10
3738.184238344284
 20
490.5627705866214
 30
0.0
 10
3738.184238344284
 20
491.176055660418
 30
0.0
 10
3738.184238344284
 20
491.3191647721114
 30
0.0
  0
ARC
  5
F5
330
1F
100
AcDbEntity
  8
0
  6
Continuous
 62
     7
370
    15
100
AcDbCircle
 10
3740.6842383443
 20
489.8757890991
 30
0.0
 40
2.886751345948103
100
AcDbArc
 50
330.0
 51
30.0
  0
SPLINE
  5
F6
330
1F
100
AcDbEntity
  8
0
  6
Continuous
 62
     7
370
    15
100
AcDbSpline
210
0.0
220
0.0
230
1.0
 70
    24
 71
     3
 72
    10
 73
     6
 74
     0
 42
0.000000001
 43
0.00000001
 40
0.0
 40
0.0
 40
0.0
 40
0.0
 40
0.1522308389023572
 40
0.6523756600650883
 40
1.0
 40
1.0
 40
1.0
 40
1.0
 10
3743.184238344283
 20
491.3191647721114
 30
0.0
 10
3743.184238344283
 20
491.1760556603639
 30
0.0
 10
3743.184238344283
 20
490.5627705867818
 30
0.0
 10
3743.184238344283
 20
489.5665990891738
 30
0.0
 10
3743.184238344283
 20
488.7622383266059
 30
0.0
 10
3743.184238344283
 20
488.4324134261634
 30
0.0
  0
CIRCLE
  5
F7
330
1F
100
AcDbEntity
  8
0
  6
Continuous
 62
     7
370
    15
100
AcDbCircle
 10
3740.6842383443
 20
489.8757890991
 30
0.0
 40
4.199999999999818
  0
CIRCLE
  5
F8
330
1F
100
AcDbEntity
  8
0
  6
Continuous
 62
     7
370
    15
100
AcDbCircle
 10
3740.6842383443
 20
489.8757890991
 30
0.0
 40
5.0
  0
ARC
  5
F9
330
1F
100
AcDbEntity
  8
0
  6
Continuous
 62
     7
370
    15
100
AcDbCircle
 10
3090.6842383443
 20
114.8757890991
 30
0.0
 40
2.886751345948184
100
AcDbArc
 50
90.0
 51
150.0
  0
SPLINE
  5
FA
330
1F
100
AcDbEntity
  8
0
  6
Continuous
 62
     7
370
    15
100
AcDbSpline
210
0.0
220
0.0
230
1.0
 70
    24
 71
     3
 72
     9
 73
     5
 74
     0
 42
0.000000001
 43
0.00000001
 40
0.0
 40
0.0
 40
0.0
 40
0.0
 40
0.5346858623657081
 40
1.0
 40
1.0
 40
1.0
 40
1.0
 10
3088.184238344283
 20
116.3191647721115
 30
0.0
 10
3088.630892634226
 20
116.5770407466445
 30
0.0
 10
3089.466250965876
 20
117.0593351042923
 30
0.0
 10
3090.297463432285
 20
117.5392358455276
 30
0.0
 10
3090.684238344283
 20
117.7625404450856
 30
0.0
  0
ARC
  5
FB
330
1F
100
AcDbEntity
  8
0
  6
Continuous
 62
     7
370
    15
100
AcDbCircle
 10
3090.6842383443
 20
114.8757890991
 30
0.0
 40
2.886751345948184
100
AcDbArc
 50
30.0
 51
90.0
  0
SPLINE
  5
FC
330
1F
100
AcDbEntity
  8
0
  6
Continuous
 62
     7
370
    15
100
AcDbSpline
210
0.0
220
0.0
230
1.0
 70
    24
 71
     3
 72
     9
 73
     5
 74
     0
 42
0.000000001
 43
0.00000001
 40
0.0
 40
0.0
 40
0.0
 40
0.0
 40
0.5346858623657081
 40
1.0
 40
1.0
 40
1.0
 40
1.0
 10
3090.684238344283
 20
117.7625404450856
 30
0.0
 10
3091.130892634226
 20
117.5046644705526
 30
0.0
 10
3091.966250965876
 20
117.0223701129048
 30
0.0
 10
3092.797463432285
 20
116.5424693716695
 30
0.0
 10
3093.184238344283
 20
116.3191647721115
 30
0.0
  0
ARC
  5
FD
330
1F
100
AcDbEntity
  8
0
  6
Continuous
 62
     7
370
    15
100
AcDbCircle
 10
3090.6842383443
 20
114.8757890991
 30
0.0
 40
2.88675134594817
100
AcDbArc
 50
270.0
 51
330.0
  0
SPLINE
  5
FE
330
1F
100
AcDbEntity
  8
0
  6
Continuous
 62
     7
370
    15
100
AcDbSpline
210
0.0
220
0.0
230
1.0
 70
    24
 71
     3
 72
     9
 73
     5
 74
     0
 42
0.000000001
 43
0.00000001
 40
0.0
 40
0.0
 40
0.0
 40
0.0
 40
0.5346858623657081
 40
1.0
 40
1.0
 40
1.0
 40
1.0
 10
3093.184238344283
 20
113.4324134261634
 30
0.0
 10
3092.73758405434
 20
113.1745374516304
 30
0.0
 10
3091.902225722691
 20
112.6922430939826
 30
0.0
 10
3091.071013256281
 20
112.2123423527472
 30
0.0
 10
3090.684238344283
 20
111.9890377531893
 30
0.0
  0
ARC
  5
FF
330
1F
100
AcDbEntity
  8
0
  6
Continuous
 62
     7
370
    15
100
AcDbCircle
 10
3090.6842383443
 20
114.8757890991
 30
0.0
 40
2.88675134594817
100
AcDbArc
 50
210.0
 51
270.0
  0
SPLINE
  5
100
330
1F
100
AcDbEntity
  8
0
  6
Continuous
 62
     7
370
    15
100
AcDbSpline
210
0.0
220
0.0
230
1.0
 70
    24
 71
     3
 72
     9
 73
     5
 74
     0
 42
0.000000001
 43
0.00000001
 40
0.0
 40
0.0
 40
0.0
 40
0.0
 40
0.5346858623657081
 40
1.0
 40
1.0
 40
1.0
 40
1.0
 10
3090.684238344283
 20
111.9890377531893
 30
0.0
 10
3090.23758405434
 20
112.2469137277223
 30
0.0
 10
3089.402225722691
 20
112.7292080853701
 30
0.0
 10
3088.571013256281
 20
113.2091088266055
 30
0.0
 10
3088.184238344283
 20
113.4324134261634
 30
0.0
  0
ARC
  5
101
330
1F
100
AcDbEntity
  8
0
  6
Continuous
 62
     7
370
    15
100
AcDbCircle
 10
3090.6842383443
 20
114.8757890991
 30
0.0
 40
2.886751345948118
100
AcDbArc
 50
150.0
 51
210.0
  0
SPLINE
  5
102
330
1F
100
AcDbEntity
  8
0
  6
Continuous
 62
     7
370
    15
100
AcDbSpline
210
0.0
220
0.0
230
1.0
 70
    24
 71
     3
 72
    10
 73
     6
 74
     0
 42
0.000000001
 43
0.00000001
 40
0.0
 40
0.0
 40
0.0
 40
0.0
 40
0.3476243397033723
 40
0.8477691611544885
 40
0.9999999999999999
 40
0.9999999999999999
 40
0.9999999999999999
 40
0.9999999999999999
 10
3088.184238344283
 20
113.4324134261634
 30
0.0
 10
3088.184238344283
 20
113.7622383263807
 30
0.0
 10
3088.184238344283
 20
114.5665990889892
 30
0.0
 10
3088.184238344283
 20
115.5627705866214
 30
0.0
 10
3088.184238344283
 20
116.176055660418
 30
0.0
 10
3088.184238344283
 20
116.3191647721115
 30
0.0
  0
ARC
  5
103
330
1F
100
AcDbEntity
  8
0
  6
Continuous
 62
     7
370
    15
100
AcDbCircle
 10
3090.6842383443
 20
114.8757890991
 30
0.0
 40
2.886751345948118
100
AcDbArc
 50
330.0
 51
30.0
  0
SPLINE
  5
104
330
1F
100
AcDbEntity
  8
0
  6
Continuous
 62
     7
370
    15
100
AcDbSpline
210
0.0
220
0.0
230
1.0
 70
    24
 71
     3
 72
    10
 73
     6
 74
     0
 42
0.000000001
 43
0.00000001
 40
0.0
 40
0.0
 40
0.0
 40
0.0
 40
0.1522308389023572
 40
0.6523756600650883
 40
1.0
 40
1.0
 40
1.0
 40
1.0
 10
3093.184238344283
 20
116.3191647721115
 30
0.0
 10
3093.184238344283
 20
116.1760556603638
 30
0.0
 10
3093.184238344283
 20
115.5627705867818
 30
0.0
 10
3093.184238344283
 20
114.5665990891738
 30
0.0
 10
3093.184238344283
 20
113.7622383266058
 30
0.0
 10
3093.184238344283
 20
113.4324134261634
 30
0.0
  0
CIRCLE
  5
105
330
1F
100
AcDbEntity
  8
0
  6
Continuous
 62
     7
370
    15
100
AcDbCircle
 10
3090.6842383443
 20
114.8757890991
 30
0.0
 40
4.200000000000273
  0
CIRCLE
  5
106
330
1F
100
AcDbEntity
  8
0
  6
Continuous
 62
     7
370
    15
100
AcDbCircle
 10
3090.6842383443
 20
114.8757890991
 30
0.0
 40
5.0
  0
ARC
  5
107
330
1F
100
AcDbEntity
  8
0
  6
Continuous
 62
     7
370
    15
100
AcDbCircle
 10
3375.6842383443
 20
-49.6690376199
 30
0.0
 40
2.886751345948184
100
AcDbArc
 50
30.0
 51
90.0
  0
SPLINE
  5
108
330
1F
100
AcDbEntity
  8
0
  6
Continuous
 62
     7
370
    15
100
AcDbSpline
210
0.0
220
0.0
230
1.0
 70
    24
 71
     3
 72
     9
 73
     5
 74
     0
 42
0.000000001
 43
0.00000001
 40
0.0
 40
0.0
 40
0.0
 40
0.0
 40
0.5346858623657081
 40
1.0
 40
1.0
 40
1.0
 40
1.0
 10
3375.684238344283
 20
-46.78228627395769
 30
0.0
 10
3376.130892634225
 20
-47.04016224849067
 30
0.0
 10
3376.966250965876
 20
-47.52245660613858
 30
0.0
 10
3377.797463432285
 20
-48.00235734737385
 30
0.0
 10
3378.184238344283
 20
-48.22566194693184
 30
0.0
  0
ARC
  5
109
330
1F
100
AcDbEntity
  8
0
  6
Continuous
 62
     7
370
    15
100
AcDbCircle
 10
3375.6842383443
 20
-49.6690376199
 30
0.0
 40
2.886751345948177
100
AcDbArc
 50
210.0
 51
270.0
  0
SPLINE
  5
10A
330
1F
100
AcDbEntity
  8
0
  6
Continuous
 62
     7
370
    15
100
AcDbSpline
210
0.0
220
0.0
230
1.0
 70
    24
 71
     3
 72
     9
 73
     5
 74
     0
 42
0.000000001
 43
0.00000001
 40
0.0
 40
0.0
 40
0.0
 40
0.0
 40
0.5346858623657081
 40
1.0
 40
1.0
 40
1.0
 40
1.0
 10
3375.684238344283
 20
-52.55578896585406
 30
0.0
 10
3375.237584054341
 20
-52.29791299132097
 30
0.0
 10
3374.402225722691
 20
-51.81561863367329
 30
0.0
 10
3373.571013256282
 20
-51.33571789243791
 30
0.0
 10
3373.184238344283
 20
-51.11241329287991
 30
0.0
  0
ARC
  5
10B
330
1F
100
AcDbEntity
  8
0
  6
Continuous
 62
     7
370
    15
100
AcDbCircle
 10
3375.6842383443
 20
-49.6690376199
 30
0.0
 40
2.886751345948177
100
AcDbArc
 50
270.0
 51
330.0
  0
SPLINE
  5
10C
330
1F
100
AcDbEntity
  8
0
  6
Continuous
 62
     7
370
    15
100
AcDbSpline
210
0.0
220
0.0
230
1.0
 70
    24
 71
     3
 72
     9
 73
     5
 74
     0
 42
0.000000001
 43
0.00000001
 40
0.0
 40
0.0
 40
0.0
 40
0.0
 40
0.5346858623657081
 40
1.0
 40
1.0
 40
1.0
 40
1.0
 10
3378.184238344283
 20
-51.11241329287991
 30
0.0
 10
3377.73758405434
 20
-51.37028926741294
 30
0.0
 10
3376.902225722691
 20
-51.85258362506073
 30
0.0
 10
3376.071013256281
 20
-52.33248436629606
 30
0.0
 10
3375.684238344283
 20
-52.55578896585406
 30
0.0
  0
ARC
  5
10D
330
1F
100
AcDbEntity
  8
0
  6
Continuous
 62
     7
370
    15
100
AcDbCircle
 10
3375.6842383443
 20
-49.6690376199
 30
0.0
 40
2.886751345948184
100
AcDbArc
 50
90.0
 51
150.0
  0
SPLINE
  5
10E
330
1F
100
AcDbEntity
  8
0
  6
Continuous
 62
     7
370
    15
100
AcDbSpline
210
0.0
220
0.0
230
1.0
 70
    24
 71
     3
 72
     9
 73
     5
 74
     0
 42
0.000000001
 43
0.00000001
 40
0.0
 40
0.0
 40
0.0
 40
0.0
 40
0.5346858623657081
 40
1.0
 40
1.0
 40
1.0
 40
1.0
 10
3373.184238344283
 20
-48.22566194693184
 30
0.0
 10
3373.630892634225
 20
-47.96778597239876
 30
0.0
 10
3374.466250965876
 20
-47.48549161475108
 30
0.0
 10
3375.297463432285
 20
-47.00559087351564
 30
0.0
 10
3375.684238344283
 20
-46.78228627395769
 30
0.0
  0
ARC
  5
10F
330
1F
100
AcDbEntity
  8
0
  6
Continuous
 62
     7
370
    15
100
AcDbCircle
 10
3375.6842383443
 20
-49.6690376199
 30
0.0
 40
2.886751345948114
100
AcDbArc
 50
150.0
 51
210.0
  0
SPLINE
  5
110
330
1F
100
AcDbEntity
  8
0
  6
Continuous
 62
     7
370
    15
100
AcDbSpline
210
0.0
220
0.0
230
1.0
 70
    24
 71
     3
 72
    10
 73
     6
 74
     0
 42
0.000000001
 43
0.00000001
 40
0.0
 40
0.0
 40
0.0
 40
0.0
 40
0.3476243397033723
 40
0.8477691611544885
 40
0.9999999999999999
 40
0.9999999999999999
 40
0.9999999999999999
 40
0.9999999999999999
 10
3373.184238344283
 20
-51.11241329287996
 30
0.0
 10
3373.184238344283
 20
-50.7825883926627
 30
0.0
 10
3373.184238344283
 20
-49.97822763005416
 30
0.0
 10
3373.184238344283
 20
-48.98205613242185
 30
0.0
 10
3373.184238344283
 20
-48.36877105862531
 30
0.0
 10
3373.184238344283
 20
-48.22566194693184
 30
0.0
  0
ARC
  5
111
330
1F
100
AcDbEntity
  8
0
  6
Continuous
 62
     7
370
    15
100
AcDbCircle
 10
3375.6842383443
 20
-49.6690376199
 30
0.0
 40
2.886751345948114
100
AcDbArc
 50
330.0
 51
30.0
  0
SPLINE
  5
112
330
1F
100
AcDbEntity
  8
0
  6
Continuous
 62
     7
370
    15
100
AcDbSpline
210
0.0
220
0.0
230
1.0
 70
    24
 71
     3
 72
    10
 73
     6
 74
     0
 42
0.000000001
 43
0.00000001
 40
0.0
 40
0.0
 40
0.0
 40
0.0
 40
0.1522308389023572
 40
0.6523756600650883
 40
1.0
 40
1.0
 40
1.0
 40
1.0
 10
3378.184238344283
 20
-48.22566194693189
 30
0.0
 10
3378.184238344283
 20
-48.36877105867959
 30
0.0
 10
3378.184238344283
 20
-48.98205613226159
 30
0.0
 10
3378.184238344283
 20
-49.97822762986953
 30
0.0
 10
3378.184238344283
 20
-50.78258839243749
 30
0.0
 10
3378.184238344283
 20
-51.11241329287991
 30
0.0
  0
CIRCLE
  5
113
330
1F
100
AcDbEntity
  8
0
  6
Continuous
 62
     7
370
    15
100
AcDbCircle
 10
3375.6842383443
 20
-49.6690376199
 30
0.0
 40
4.199999999999818
  0
CIRCLE
  5
114
330
1F
100
AcDbEntity
  8
0
  6
Continuous
 62
     7
370
    15
100
AcDbCircle
 10
3375.6842383443
 20
-49.6690376199
 30
0.0
 40
5.0
  0
ARC
  5
115
330
1F
100
AcDbEntity
  8
0
  6
Continuous
 62
     7
370
    15
100
AcDbCircle
 10
3740.6842383443
 20
160.7861356611
 30
0.0
 40
2.88675134594817
100
AcDbArc
 50
30.0
 51
90.0
  0
SPLINE
  5
116
330
1F
100
AcDbEntity
  8
0
  6
Continuous
 62
     7
370
    15
100
AcDbSpline
210
0.0
220
0.0
230
1.0
 70
    24
 71
     3
 72
     9
 73
     5
 74
     0
 42
0.000000001
 43
0.00000001
 40
0.0
 40
0.0
 40
0.0
 40
0.0
 40
0.5346858623657081
 40
1.0
 40
1.0
 40
1.0
 40
1.0
 10
3740.684238344283
 20
163.6728870069989
 30
0.0
 10
3741.130892634226
 20
163.4150110324659
 30
0.0
 10
3741.966250965876
 20
162.932716674818
 30
0.0
 10
3742.797463432285
 20
162.4528159335827
 30
0.0
 10
3743.184238344283
 20
162.2295113340247
 30
0.0
  0
ARC
  5
117
330
1F
100
AcDbEntity
  8
0
  6
Continuous
 62
     7
370
    15
100
AcDbCircle
 10
3740.6842383443
 20
160.7861356611
 30
0.0
 40
2.88675134594817
100
AcDbArc
 50
90.0
 51
150.0
  0
SPLINE
  5
118
330
1F
100
AcDbEntity
  8
0
  6
Continuous
 62
     7
370
    15
100
AcDbSpline
210
0.0
220
0.0
230
1.0
 70
    24
 71
     3
 72
     9
 73
     5
 74
     0
 42
0.000000001
 43
0.00000001
 40
0.0
 40
0.0
 40
0.0
 40
0.0
 40
0.5346858623657081
 40
1.0
 40
1.0
 40
1.0
 40
1.0
 10
3738.184238344284
 20
162.2295113340247
 30
0.0
 10
3738.630892634226
 20
162.4873873085578
 30
0.0
 10
3739.466250965876
 20
162.9696816662056
 30
0.0
 10
3740.297463432285
 20
163.4495824074409
 30
0.0
 10
3740.684238344283
 20
163.6728870069989
 30
0.0
  0
ARC
  5
119
330
1F
100
AcDbEntity
  8
0
  6
Continuous
 62
     7
370
    15
100
AcDbCircle
 10
3740.6842383443
 20
160.7861356611
 30
0.0
 40
2.88675134594817
100
AcDbArc
 50
270.0
 51
330.0
  0
SPLINE
  5
11A
330
1F
100
AcDbEntity
  8
0
  6
Continuous
 62
     7
370
    15
100
AcDbSpline
210
0.0
220
0.0
230
1.0
 70
    24
 71
     3
 72
     9
 73
     5
 74
     0
 42
0.000000001
 43
0.00000001
 40
0.0
 40
0.0
 40
0.0
 40
0.0
 40
0.5346858623657081
 40
1.0
 40
1.0
 40
1.0
 40
1.0
 10
3743.184238344283
 20
159.3427599880767
 30
0.0
 10
3742.737584054341
 20
159.0848840135436
 30
0.0
 10
3741.902225722691
 20
158.6025896558958
 30
0.0
 10
3741.071013256281
 20
158.1226889146605
 30
0.0
 10
3740.684238344283
 20
157.8993843151025
 30
0.0
  0
ARC
  5
11B
330
1F
100
AcDbEntity
  8
0
  6
Continuous
 62
     7
370
    15
100
AcDbCircle
 10
3740.6842383443
 20
160.7861356611
 30
0.0
 40
2.88675134594817
100
AcDbArc
 50
210.0
 51
270.0
  0
SPLINE
  5
11C
330
1F
100
AcDbEntity
  8
0
  6
Continuous
 62
     7
370
    15
100
AcDbSpline
210
0.0
220
0.0
230
1.0
 70
    24
 71
     3
 72
     9
 73
     5
 74
     0
 42
0.000000001
 43
0.00000001
 40
0.0
 40
0.0
 40
0.0
 40
0.0
 40
0.5346858623657081
 40
1.0
 40
1.0
 40
1.0
 40
1.0
 10
3740.684238344283
 20
157.8993843151025
 30
0.0
 10
3740.23758405434
 20
158.1572602896356
 30
0.0
 10
3739.402225722691
 20
158.6395546472833
 30
0.0
 10
3738.571013256282
 20
159.1194553885187
 30
0.0
 10
3738.184238344284
 20
159.3427599880767
 30
0.0
  0
ARC
  5
11D
330
1F
100
AcDbEntity
  8
0
  6
Continuous
 62
     7
370
    15
100
AcDbCircle
 10
3740.6842383443
 20
160.7861356611
 30
0.0
 40
2.886751345947724
100
AcDbArc
 50
150.0
 51
210.0
  0
SPLINE
  5
11E
330
1F
100
AcDbEntity
  8
0
  6
Continuous
 62
     7
370
    15
100
AcDbSpline
210
0.0
220
0.0
230
1.0
 70
    24
 71
     3
 72
    10
 73
     6
 74
     0
 42
0.000000001
 43
0.00000001
 40
0.0
 40
0.0
 40
0.0
 40
0.0
 40
0.3476243397033723
 40
0.8477691611544885
 40
0.9999999999999999
 40
0.9999999999999999
 40
0.9999999999999999
 40
0.9999999999999999
 10
3738.184238344284
 20
159.3427599880766
 30
0.0
 10
3738.184238344284
 20
159.672584888294
 30
0.0
 10
3738.184238344284
 20
160.4769456509025
 30
0.0
 10
3738.184238344284
 20
161.4731171485347
 30
0.0
 10
3738.184238344284
 20
162.0864022223313
 30
0.0
 10
3738.184238344284
 20
162.2295113340247
 30
0.0
  0
ARC
  5
11F
330
1F
100
AcDbEntity
  8
0
  6
Continuous
 62
     7
370
    15
100
AcDbCircle
 10
3740.6842383443
 20
160.7861356611
 30
0.0
 40
2.886751345948118
100
AcDbArc
 50
330.0
 51
30.0
  0
SPLINE
  5
120
330
1F
100
AcDbEntity
  8
0
  6
Continuous
 62
     7
370
    15
100
AcDbSpline
210
0.0
220
0.0
230
1.0
 70
    24
 71
     3
 72
    10
 73
     6
 74
     0
 42
0.000000001
 43
0.00000001
 40
0.0
 40
0.0
 40
0.0
 40
0.0
 40
0.1522308389023572
 40
0.6523756600650883
 40
1.0
 40
1.0
 40
1.0
 40
1.0
 10
3743.184238344283
 20
162.2295113340247
 30
0.0
 10
3743.184238344283
 20
162.0864022222771
 30
0.0
 10
3743.184238344283
 20
161.473117148695
 30
0.0
 10
3743.184238344283
 20
160.476945651087
 30
0.0
 10
3743.184238344283
 20
159.6725848885191
 30
0.0
 10
3743.184238344283
 20
159.3427599880767
 30
0.0
  0
CIRCLE
  5
121
330
1F
100
AcDbEntity
  8
0
  6
Continuous
 62
     7
370
    15
100
AcDbCircle
 10
3740.6842383443
 20
160.7861356611
 30
0.0
 40
4.199999999999818
  0
CIRCLE
  5
122
330
1F
100
AcDbEntity
  8
0
  6
Continuous
 62
     7
370
    15
100
AcDbCircle
 10
3740.6842383443
 20
160.7861356611
 30
0.0
 40
4.999999999999545
  0
ARC
  5
123
330
1F
100
AcDbEntity
  8
0
  6
Continuous
 62
     7
370
    15
100
AcDbCircle
 10
3090.6842383443
 20
864.8757890991
 30
0.0
 40
2.886751345948255
100
AcDbArc
 50
270.0
 51
330.0
  0
SPLINE
  5
124
330
1F
100
AcDbEntity
  8
0
  6
Continuous
 62
     7
370
    15
100
AcDbSpline
210
0.0
220
0.0
230
1.0
 70
    24
 71
     3
 72
     9
 73
     5
 74
     0
 42
0.000000001
 43
0.00000001
 40
0.0
 40
0.0
 40
0.0
 40
0.0
 40
0.5346858623657081
 40
1.0
 40
1.0
 40
1.0
 40
1.0
 10
3093.184238344283
 20
863.4324134261635
 30
0.0
 10
3092.73758405434
 20
863.1745374516304
 30
0.0
 10
3091.902225722691
 20
862.6922430939827
 30
0.0
 10
3091.071013256281
 20
862.2123423527473
 30
0.0
 10
3090.684238344283
 20
861.9890377531893
 30
0.0
  0
ARC
  5
125
330
1F
100
AcDbEntity
  8
0
  6
Continuous
 62
     7
370
    15
100
AcDbCircle
 10
3090.6842383443
 20
864.8757890991
 30
0.0
 40
2.886751345948255
100
AcDbArc
 50
210.0
 51
270.0
  0
SPLINE
  5
126
330
1F
100
AcDbEntity
  8
0
  6
Continuous
 62
     7
370
    15
100
AcDbSpline
210
0.0
220
0.0
230
1.0
 70
    24
 71
     3
 72
     9
 73
     5
 74
     0
 42
0.000000001
 43
0.00000001
 40
0.0
 40
0.0
 40
0.0
 40
0.0
 40
0.5346858623657081
 40
1.0
 40
1.0
 40
1.0
 40
1.0
 10
3090.684238344283
 20
861.9890377531893
 30
0.0
 10
3090.23758405434
 20
862.2469137277224
 30
0.0
 10
3089.402225722691
 20
862.7292080853703
 30
0.0
 10
3088.571013256281
 20
863.2091088266055
 30
0.0
 10
3088.184238344283
 20
863.4324134261635
 30
0.0
  0
ARC
  5
127
330
1F
100
AcDbEntity
  8
0
  6
Continuous
 62
     7
370
    15
100
AcDbCircle
 10
3090.6842383443
 20
864.8757890991
 30
0.0
 40
2.886751345948142
100
AcDbArc
 50
90.0
 51
150.0
  0
SPLINE
  5
128
330
1F
100
AcDbEntity
  8
0
  6
Continuous
 62
     7
370
    15
100
AcDbSpline
210
0.0
220
0.0
230
1.0
 70
    24
 71
     3
 72
     9
 73
     5
 74
     0
 42
0.000000001
 43
0.00000001
 40
0.0
 40
0.0
 40
0.0
 40
0.0
 40
0.5346858623657081
 40
1.0
 40
1.0
 40
1.0
 40
1.0
 10
3088.184238344283
 20
866.3191647721115
 30
0.0
 10
3088.630892634226
 20
866.5770407466446
 30
0.0
 10
3089.466250965876
 20
867.0593351042925
 30
0.0
 10
3090.297463432285
 20
867.5392358455277
 30
0.0
 10
3090.684238344283
 20
867.7625404450857
 30
0.0
  0
ARC
  5
129
330
1F
100
AcDbEntity
  8
0
  6
Continuous
 62
     7
370
    15
100
AcDbCircle
 10
3090.6842383443
 20
864.8757890991
 30
0.0
 40
2.886751345948142
100
AcDbArc
 50
30.0
 51
90.0
  0
SPLINE
  5
12A
330
1F
100
AcDbEntity
  8
0
  6
Continuous
 62
     7
370
    15
100
AcDbSpline
210
0.0
220
0.0
230
1.0
 70
    24
 71
     3
 72
     9
 73
     5
 74
     0
 42
0.000000001
 43
0.00000001
 40
0.0
 40
0.0
 40
0.0
 40
0.0
 40
0.5346858623657081
 40
1.0
 40
1.0
 40
1.0
 40
1.0
 10
3090.684238344283
 20
867.7625404450857
 30
0.0
 10
3091.130892634226
 20
867.5046644705526
 30
0.0
 10
3091.966250965876
 20
867.0223701129049
 30
0.0
 10
3092.797463432285
 20
866.5424693716695
 30
0.0
 10
3093.184238344283
 20
866.3191647721115
 30
0.0
  0
ARC
  5
12B
330
1F
100
AcDbEntity
  8
0
  6
Continuous
 62
     7
370
    15
100
AcDbCircle
 10
3090.6842383443
 20
864.8757890991
 30
0.0
 40
2.886751345948132
100
AcDbArc
 50
150.0
 51
210.0
  0
SPLINE
  5
12C
330
1F
100
AcDbEntity
  8
0
  6
Continuous
 62
     7
370
    15
100
AcDbSpline
210
0.0
220
0.0
230
1.0
 70
    24
 71
     3
 72
    10
 73
     6
 74
     0
 42
0.000000001
 43
0.00000001
 40
0.0
 40
0.0
 40
0.0
 40
0.0
 40
0.3476243397033723
 40
0.8477691611544885
 40
0.9999999999999999
 40
0.9999999999999999
 40
0.9999999999999999
 40
0.9999999999999999
 10
3088.184238344283
 20
863.4324134261636
 30
0.0
 10
3088.184238344283
 20
863.7622383263808
 30
0.0
 10
3088.184238344283
 20
864.5665990889895
 30
0.0
 10
3088.184238344283
 20
865.5627705866214
 30
0.0
 10
3088.184238344283
 20
866.176055660418
 30
0.0
 10
3088.184238344283
 20
866.3191647721115
 30
0.0
  0
ARC
  5
12D
330
1F
100
AcDbEntity
  8
0
  6
Continuous
 62
     7
370
    15
100
AcDbCircle
 10
3090.6842383443
 20
864.8757890991
 30
0.0
 40
2.886751345948132
100
AcDbArc
 50
330.0
 51
30.0
  0
SPLINE
  5
12E
330
1F
100
AcDbEntity
  8
0
  6
Continuous
 62
     7
370
    15
100
AcDbSpline
210
0.0
220
0.0
230
1.0
 70
    24
 71
     3
 72
    10
 73
     6
 74
     0
 42
0.000000001
 43
0.00000001
 40
0.0
 40
0.0
 40
0.0
 40
0.0
 40
0.1522308389023572
 40
0.6523756600650883
 40
1.0
 40
1.0
 40
1.0
 40
1.0
 10
3093.184238344283
 20
866.3191647721117
 30
0.0
 10
3093.184238344283
 20
866.1760556603641
 30
0.0
 10
3093.184238344283
 20
865.5627705867821
 30
0.0
 10
3093.184238344283
 20
864.5665990891739
 30
0.0
 10
3093.184238344283
 20
863.7622383266059
 30
0.0
 10
3093.184238344283
 20
863.4324134261635
 30
0.0
  0
CIRCLE
  5
12F
330
1F
100
AcDbEntity
  8
0
  6
Continuous
 62
     7
370
    15
100
AcDbCircle
 10
3090.6842383443
 20
864.8757890991
 30
0.0
 40
4.200000000000273
  0
CIRCLE
  5
130
330
1F
100
AcDbEntity
  8
0
  6
Continuous
 62
     7
370
    15
100
AcDbCircle
 10
3090.6842383443
 20
864.8757890991
 30
0.0
 40
5.0
  0
ARC
  5
131
330
1F
100
AcDbEntity
  8
0
  6
Continuous
 62
     7
370
    15
100
AcDbCircle
 10
2995.6842383443
 20
-49.6690376199
 30
0.0
 40
2.886751345948184
100
AcDbArc
 50
90.0
 51
150.0
  0
SPLINE
  5
132
330
1F
100
AcDbEntity
  8
0
  6
Continuous
 62
     7
370
    15
100
AcDbSpline
210
0.0
220
0.0
230
1.0
 70
    24
 71
     3
 72
     9
 73
     5
 74
     0
 42
0.000000001
 43
0.00000001
 40
0.0
 40
0.0
 40
0.0
 40
0.0
 40
0.5346858623657081
 40
1.0
 40
1.0
 40
1.0
 40
1.0
 10
2993.184238344283
 20
-48.22566194693184
 30
0.0
 10
2993.630892634226
 20
-47.96778597239876
 30
0.0
 10
2994.466250965875
 20
-47.48549161475108
 30
0.0
 10
2995.297463432285
 20
-47.00559087351564
 30
0.0
 10
2995.684238344283
 20
-46.78228627395769
 30
0.0
  0
ARC
  5
133
330
1F
100
AcDbEntity
  8
0
  6
Continuous
 62
     7
370
    15
100
AcDbCircle
 10
2995.6842383443
 20
-49.6690376199
 30
0.0
 40
2.886751345948177
100
AcDbArc
 50
210.0
 51
270.0
  0
SPLINE
  5
134
330
1F
100
AcDbEntity
  8
0
  6
Continuous
 62
     7
370
    15
100
AcDbSpline
210
0.0
220
0.0
230
1.0
 70
    24
 71
     3
 72
     9
 73
     5
 74
     0
 42
0.000000001
 43
0.00000001
 40
0.0
 40
0.0
 40
0.0
 40
0.0
 40
0.5346858623657081
 40
1.0
 40
1.0
 40
1.0
 40
1.0
 10
2995.684238344283
 20
-52.55578896585406
 30
0.0
 10
2995.237584054341
 20
-52.29791299132097
 30
0.0
 10
2994.402225722691
 20
-51.81561863367329
 30
0.0
 10
2993.571013256282
 20
-51.33571789243791
 30
0.0
 10
2993.184238344283
 20
-51.11241329287991
 30
0.0
  0
ARC
  5
135
330
1F
100
AcDbEntity
  8
0
  6
Continuous
 62
     7
370
    15
100
AcDbCircle
 10
2995.6842383443
 20
-49.6690376199
 30
0.0
 40
2.886751345948177
100
AcDbArc
 50
270.0
 51
330.0
  0
SPLINE
  5
136
330
1F
100
AcDbEntity
  8
0
  6
Continuous
 62
     7
370
    15
100
AcDbSpline
210
0.0
220
0.0
230
1.0
 70
    24
 71
     3
 72
     9
 73
     5
 74
     0
 42
0.000000001
 43
0.00000001
 40
0.0
 40
0.0
 40
0.0
 40
0.0
 40
0.5346858623657081
 40
1.0
 40
1.0
 40
1.0
 40
1.0
 10
2998.184238344283
 20
-51.11241329287991
 30
0.0
 10
2997.737584054341
 20
-51.37028926741294
 30
0.0
 10
2996.902225722691
 20
-51.85258362506073
 30
0.0
 10
2996.071013256282
 20
-52.33248436629606
 30
0.0
 10
2995.684238344283
 20
-52.55578896585406
 30
0.0
  0
ARC
  5
137
330
1F
100
AcDbEntity
  8
0
  6
Continuous
 62
     7
370
    15
100
AcDbCircle
 10
2995.6842383443
 20
-49.6690376199
 30
0.0
 40
2.886751345948184
100
AcDbArc
 50
30.0
 51
90.0
  0
SPLINE
  5
138
330
1F
100
AcDbEntity
  8
0
  6
Continuous
 62
     7
370
    15
100
AcDbSpline
210
0.0
220
0.0
230
1.0
 70
    24
 71
     3
 72
     9
 73
     5
 74
     0
 42
0.000000001
 43
0.00000001
 40
0.0
 40
0.0
 40
0.0
 40
0.0
 40
0.5346858623657081
 40
1.0
 40
1.0
 40
1.0
 40
1.0
 10
2995.684238344283
 20
-46.78228627395769
 30
0.0
 10
2996.130892634226
 20
-47.04016224849067
 30
0.0
 10
2996.966250965875
 20
-47.52245660613858
 30
0.0
 10
2997.797463432285
 20
-48.00235734737385
 30
0.0
 10
2998.184238344283
 20
-48.22566194693184
 30
0.0
  0
ARC
  5
139
330
1F
100
AcDbEntity
  8
0
  6
Continuous
 62
     7
370
    15
100
AcDbCircle
 10
2995.6842383443
 20
-49.6690376199
 30
0.0
 40
2.886751345948114
100
AcDbArc
 50
150.0
 51
210.0
  0
SPLINE
  5
13A
330
1F
100
AcDbEntity
  8
0
  6
Continuous
 62
     7
370
    15
100
AcDbSpline
210
0.0
220
0.0
230
1.0
 70
    24
 71
     3
 72
    10
 73
     6
 74
     0
 42
0.000000001
 43
0.00000001
 40
0.0
 40
0.0
 40
0.0
 40
0.0
 40
0.3476243397033723
 40
0.8477691611544885
 40
0.9999999999999999
 40
0.9999999999999999
 40
0.9999999999999999
 40
0.9999999999999999
 10
2993.184238344283
 20
-51.11241329287996
 30
0.0
 10
2993.184238344283
 20
-50.7825883926627
 30
0.0
 10
2993.184238344283
 20
-49.97822763005416
 30
0.0
 10
2993.184238344283
 20
-48.98205613242185
 30
0.0
 10
2993.184238344283
 20
-48.36877105862531
 30
0.0
 10
2993.184238344283
 20
-48.22566194693184
 30
0.0
  0
ARC
  5
13B
330
1F
100
AcDbEntity
  8
0
  6
Continuous
 62
     7
370
    15
100
AcDbCircle
 10
2995.6842383443
 20
-49.6690376199
 30
0.0
 40
2.886751345948114
100
AcDbArc
 50
330.0
 51
30.0
  0
SPLINE
  5
13C
330
1F
100
AcDbEntity
  8
0
  6
Continuous
 62
     7
370
    15
100
AcDbSpline
210
0.0
220
0.0
230
1.0
 70
    24
 71
     3
 72
    10
 73
     6
 74
     0
 42
0.000000001
 43
0.00000001
 40
0.0
 40
0.0
 40
0.0
 40
0.0
 40
0.1522308389023572
 40
0.6523756600650883
 40
1.0
 40
1.0
 40
1.0
 40
1.0
 10
2998.184238344283
 20
-48.22566194693189
 30
0.0
 10
2998.184238344283
 20
-48.36877105867959
 30
0.0
 10
2998.184238344283
 20
-48.98205613226159
 30
0.0
 10
2998.184238344283
 20
-49.97822762986953
 30
0.0
 10
2998.184238344283
 20
-50.78258839243749
 30
0.0
 10
2998.184238344283
 20
-51.11241329287991
 30
0.0
  0
CIRCLE
  5
13D
330
1F
100
AcDbEntity
  8
0
  6
Continuous
 62
     7
370
    15
100
AcDbCircle
 10
2995.6842383443
 20
-49.6690376199
 30
0.0
 40
4.199999999999818
  0
CIRCLE
  5
13E
330
1F
100
AcDbEntity
  8
0
  6
Continuous
 62
     7
370
    15
100
AcDbCircle
 10
2995.6842383443
 20
-49.6690376199
 30
0.0
 40
5.0
  0
ARC
  5
13F
330
1F
100
AcDbEntity
  8
0
  6
Continuous
 62
     7
370
    15
100
AcDbCircle
 10
3280.6842383443
 20
114.8757890991
 30
0.0
 40
2.886751345948184
100
AcDbArc
 50
90.0
 51
150.0
  0
SPLINE
  5
140
330
1F
100
AcDbEntity
  8
0
  6
Continuous
 62
     7
370
    15
100
AcDbSpline
210
0.0
220
0.0
230
1.0
 70
    24
 71
     3
 72
     9
 73
     5
 74
     0
 42
0.000000001
 43
0.00000001
 40
0.0
 40
0.0
 40
0.0
 40
0.0
 40
0.5346858623657081
 40
1.0
 40
1.0
 40
1.0
 40
1.0
 10
3278.184238344284
 20
116.3191647721115
 30
0.0
 10
3278.630892634226
 20
116.5770407466445
 30
0.0
 10
3279.466250965876
 20
117.0593351042923
 30
0.0
 10
3280.297463432285
 20
117.5392358455277
 30
0.0
 10
3280.684238344283
 20
117.7625404450857
 30
0.0
  0
ARC
  5
141
330
1F
100
AcDbEntity
  8
0
  6
Continuous
 62
     7
370
    15
100
AcDbCircle
 10
3280.6842383443
 20
114.8757890991
 30
0.0
 40
2.886751345948184
100
AcDbArc
 50
30.0
 51
90.0
  0
SPLINE
  5
142
330
1F
100
AcDbEntity
  8
0
  6
Continuous
 62
     7
370
    15
100
AcDbSpline
210
0.0
220
0.0
230
1.0
 70
    24
 71
     3
 72
     9
 73
     5
 74
     0
 42
0.000000001
 43
0.00000001
 40
0.0
 40
0.0
 40
0.0
 40
0.0
 40
0.5346858623657081
 40
1.0
 40
1.0
 40
1.0
 40
1.0
 10
3280.684238344283
 20
117.7625404450857
 30
0.0
 10
3281.130892634226
 20
117.5046644705526
 30
0.0
 10
3281.966250965875
 20
117.0223701129048
 30
0.0
 10
3282.797463432285
 20
116.5424693716695
 30
0.0
 10
3283.184238344283
 20
116.3191647721115
 30
0.0
  0
ARC
  5
143
330
1F
100
AcDbEntity
  8
0
  6
Continuous
 62
     7
370
    15
100
AcDbCircle
 10
3280.6842383443
 20
114.8757890991
 30
0.0
 40
2.88675134594817
100
AcDbArc
 50
210.0
 51
270.0
  0
SPLINE
  5
144
330
1F
100
AcDbEntity
  8
0
  6
Continuous
 62
     7
370
    15
100
AcDbSpline
210
0.0
220
0.0
230
1.0
 70
    24
 71
     3
 72
     9
 73
     5
 74
     0
 42
0.000000001
 43
0.00000001
 40
0.0
 40
0.0
 40
0.0
 40
0.0
 40
0.5346858623657081
 40
1.0
 40
1.0
 40
1.0
 40
1.0
 10
3280.684238344283
 20
111.9890377531893
 30
0.0
 10
3280.23758405434
 20
112.2469137277224
 30
0.0
 10
3279.402225722691
 20
112.7292080853701
 30
0.0
 10
3278.571013256281
 20
113.2091088266055
 30
0.0
 10
3278.184238344284
 20
113.4324134261634
 30
0.0
  0
ARC
  5
145
330
1F
100
AcDbEntity
  8
0
  6
Continuous
 62
     7
370
    15
100
AcDbCircle
 10
3280.6842383443
 20
114.8757890991
 30
0.0
 40
2.88675134594817
100
AcDbArc
 50
270.0
 51
330.0
  0
SPLINE
  5
146
330
1F
100
AcDbEntity
  8
0
  6
Continuous
 62
     7
370
    15
100
AcDbSpline
210
0.0
220
0.0
230
1.0
 70
    24
 71
     3
 72
     9
 73
     5
 74
     0
 42
0.000000001
 43
0.00000001
 40
0.0
 40
0.0
 40
0.0
 40
0.0
 40
0.5346858623657081
 40
1.0
 40
1.0
 40
1.0
 40
1.0
 10
3283.184238344283
 20
113.4324134261634
 30
0.0
 10
3282.73758405434
 20
113.1745374516304
 30
0.0
 10
3281.902225722691
 20
112.6922430939826
 30
0.0
 10
3281.071013256281
 20
112.2123423527473
 30
0.0
 10
3280.684238344283
 20
111.9890377531893
 30
0.0
  0
ARC
  5
147
330
1F
100
AcDbEntity
  8
0
  6
Continuous
 62
     7
370
    15
100
AcDbCircle
 10
3280.6842383443
 20
114.8757890991
 30
0.0
 40
2.886751345947724
100
AcDbArc
 50
150.0
 51
210.0
  0
SPLINE
  5
148
330
1F
100
AcDbEntity
  8
0
  6
Continuous
 62
     7
370
    15
100
AcDbSpline
210
0.0
220
0.0
230
1.0
 70
    24
 71
     3
 72
    10
 73
     6
 74
     0
 42
0.000000001
 43
0.00000001
 40
0.0
 40
0.0
 40
0.0
 40
0.0
 40
0.3476243397033723
 40
0.8477691611544885
 40
0.9999999999999999
 40
0.9999999999999999
 40
0.9999999999999999
 40
0.9999999999999999
 10
3278.184238344284
 20
113.4324134261634
 30
0.0
 10
3278.184238344284
 20
113.7622383263807
 30
0.0
 10
3278.184238344284
 20
114.5665990889892
 30
0.0
 10
3278.184238344283
 20
115.5627705866215
 30
0.0
 10
3278.184238344284
 20
116.1760556604181
 30
0.0
 10
3278.184238344284
 20
116.3191647721115
 30
0.0
  0
ARC
  5
149
330
1F
100
AcDbEntity
  8
0
  6
Continuous
 62
     7
370
    15
100
AcDbCircle
 10
3280.6842383443
 20
114.8757890991
 30
0.0
 40
2.886751345948118
100
AcDbArc
 50
330.0
 51
30.0
  0
SPLINE
  5
14A
330
1F
100
AcDbEntity
  8
0
  6
Continuous
 62
     7
370
    15
100
AcDbSpline
210
0.0
220
0.0
230
1.0
 70
    24
 71
     3
 72
    10
 73
     6
 74
     0
 42
0.000000001
 43
0.00000001
 40
0.0
 40
0.0
 40
0.0
 40
0.0
 40
0.1522308389023572
 40
0.6523756600650883
 40
1.0
 40
1.0
 40
1.0
 40
1.0
 10
3283.184238344283
 20
116.3191647721115
 30
0.0
 10
3283.184238344283
 20
116.1760556603638
 30
0.0
 10
3283.184238344283
 20
115.5627705867818
 30
0.0
 10
3283.184238344283
 20
114.5665990891738
 30
0.0
 10
3283.184238344283
 20
113.7622383266059
 30
0.0
 10
3283.184238344283
 20
113.4324134261634
 30
0.0
  0
CIRCLE
  5
14B
330
1F
100
AcDbEntity
  8
0
  6
Continuous
 62
     7
370
    15
100
AcDbCircle
 10
3280.6842383443
 20
114.8757890991
 30
0.0
 40
4.200000000000273
  0
CIRCLE
  5
14C
330
1F
100
AcDbEntity
  8
0
  6
Continuous
 62
     7
370
    15
100
AcDbCircle
 10
3280.6842383443
 20
114.8757890991
 30
0.0
 40
5.0
  0
ARC
  5
14D
330
1F
100
AcDbEntity
  8
0
  6
Continuous
 62
     7
370
    15
100
AcDbCircle
 10
3645.6842383443
 20
325.3309623801
 30
0.0
 40
2.886751345948142
100
AcDbArc
 50
90.0
 51
150.0
  0
SPLINE
  5
14E
330
1F
100
AcDbEntity
  8
0
  6
Continuous
 62
     7
370
    15
100
AcDbSpline
210
0.0
220
0.0
230
1.0
 70
    24
 71
     3
 72
     9
 73
     5
 74
     0
 42
0.000000001
 43
0.00000001
 40
0.0
 40
0.0
 40
0.0
 40
0.0
 40
0.5346858623657081
 40
1.0
 40
1.0
 40
1.0
 40
1.0
 10
3643.184238344283
 20
326.7743380530682
 30
0.0
 10
3643.630892634225
 20
327.0322140276012
 30
0.0
 10
3644.466250965876
 20
327.514508385249
 30
0.0
 10
3645.297463432285
 20
327.9944091264843
 30
0.0
 10
3645.684238344283
 20
328.2177137260423
 30
0.0
  0
ARC
  5
14F
330
1F
100
AcDbEntity
  8
0
  6
Continuous
 62
     7
370
    15
100
AcDbCircle
 10
3645.6842383443
 20
325.3309623801
 30
0.0
 40
2.886751345948198
100
AcDbArc
 50
270.0
 51
330.0
  0
SPLINE
  5
150
330
1F
100
AcDbEntity
  8
0
  6
Continuous
 62
     7
370
    15
100
AcDbSpline
210
0.0
220
0.0
230
1.0
 70
    24
 71
     3
 72
     9
 73
     5
 74
     0
 42
0.000000001
 43
0.00000001
 40
0.0
 40
0.0
 40
0.0
 40
0.0
 40
0.5346858623657081
 40
1.0
 40
1.0
 40
1.0
 40
1.0
 10
3648.184238344283
 20
323.8875867071201
 30
0.0
 10
3647.73758405434
 20
323.6297107325871
 30
0.0
 10
3646.902225722691
 20
323.1474163749393
 30
0.0
 10
3646.071013256281
 20
322.6675156337039
 30
0.0
 10
3645.684238344283
 20
322.444211034146
 30
0.0
  0
ARC
  5
151
330
1F
100
AcDbEntity
  8
0
  6
Continuous
 62
     7
370
    15
100
AcDbCircle
 10
3645.6842383443
 20
325.3309623801
 30
0.0
 40
2.886751345948198
100
AcDbArc
 50
210.0
 51
270.0
  0
SPLINE
  5
152
330
1F
100
AcDbEntity
  8
0
  6
Continuous
 62
     7
370
    15
100
AcDbSpline
210
0.0
220
0.0
230
1.0
 70
    24
 71
     3
 72
     9
 73
     5
 74
     0
 42
0.000000001
 43
0.00000001
 40
0.0
 40
0.0
 40
0.0
 40
0.0
 40
0.5346858623657081
 40
1.0
 40
1.0
 40
1.0
 40
1.0
 10
3645.684238344283
 20
322.444211034146
 30
0.0
 10
3645.237584054341
 20
322.702087008679
 30
0.0
 10
3644.402225722691
 20
323.1843813663268
 30
0.0
 10
3643.571013256282
 20
323.6642821075621
 30
0.0
 10
3643.184238344283
 20
323.8875867071201
 30
0.0
  0
ARC
  5
153
330
1F
100
AcDbEntity
  8
0
  6
Continuous
 62
     7
370
    15
100
AcDbCircle
 10
3645.6842383443
 20
325.3309623801
 30
0.0
 40
2.886751345948142
100
AcDbArc
 50
30.0
 51
90.0
  0
SPLINE
  5
154
330
1F
100
AcDbEntity
  8
0
  6
Continuous
 62
     7
370
    15
100
AcDbSpline
210
0.0
220
0.0
230
1.0
 70
    24
 71
     3
 72
     9
 73
     5
 74
     0
 42
0.000000001
 43
0.00000001
 40
0.0
 40
0.0
 40
0.0
 40
0.0
 40
0.5346858623657081
 40
1.0
 40
1.0
 40
1.0
 40
1.0
 10
3645.684238344283
 20
328.2177137260423
 30
0.0
 10
3646.130892634225
 20
327.9598377515093
 30
0.0
 10
3646.966250965876
 20
327.4775433938615
 30
0.0
 10
3647.797463432285
 20
326.9976426526261
 30
0.0
 10
3648.184238344283
 20
326.7743380530682
 30
0.0
  0
ARC
  5
155
330
1F
100
AcDbEntity
  8
0
  6
Continuous
 62
     7
370
    15
100
AcDbCircle
 10
3645.6842383443
 20
325.3309623801
 30
0.0
 40
2.886751345948132
100
AcDbArc
 50
150.0
 51
210.0
  0
SPLINE
  5
156
330
1F
100
AcDbEntity
  8
0
  6
Continuous
 62
     7
370
    15
100
AcDbSpline
210
0.0
220
0.0
230
1.0
 70
    24
 71
     3
 72
    10
 73
     6
 74
     0
 42
0.000000001
 43
0.00000001
 40
0.0
 40
0.0
 40
0.0
 40
0.0
 40
0.3476243397033723
 40
0.8477691611544885
 40
0.9999999999999999
 40
0.9999999999999999
 40
0.9999999999999999
 40
0.9999999999999999
 10
3643.184238344283
 20
323.8875867071201
 30
0.0
 10
3643.184238344283
 20
324.2174116073373
 30
0.0
 10
3643.184238344283
 20
325.0217723699459
 30
0.0
 10
3643.184238344283
 20
326.017943867578
 30
0.0
 10
3643.184238344283
 20
326.6312289413747
 30
0.0
 10
3643.184238344283
 20
326.7743380530682
 30
0.0
  0
ARC
  5
157
330
1F
100
AcDbEntity
  8
0
  6
Continuous
 62
     7
370
    15
100
AcDbCircle
 10
3645.6842383443
 20
325.3309623801
 30
0.0
 40
2.886751345948132
100
AcDbArc
 50
330.0
 51
30.0
  0
SPLINE
  5
158
330
1F
100
AcDbEntity
  8
0
  6
Continuous
 62
     7
370
    15
100
AcDbSpline
210
0.0
220
0.0
230
1.0
 70
    24
 71
     3
 72
    10
 73
     6
 74
     0
 42
0.000000001
 43
0.00000001
 40
0.0
 40
0.0
 40
0.0
 40
0.0
 40
0.1522308389023572
 40
0.6523756600650883
 40
1.0
 40
1.0
 40
1.0
 40
1.0
 10
3648.184238344283
 20
326.7743380530682
 30
0.0
 10
3648.184238344283
 20
326.6312289413205
 30
0.0
 10
3648.184238344283
 20
326.0179438677385
 30
0.0
 10
3648.184238344283
 20
325.0217723701305
 30
0.0
 10
3648.184238344283
 20
324.2174116075625
 30
0.0
 10
3648.184238344283
 20
323.8875867071201
 30
0.0
  0
CIRCLE
  5
159
330
1F
100
AcDbEntity
  8
0
  6
Continuous
 62
     7
370
    15
100
AcDbCircle
 10
3645.6842383443
 20
325.3309623801
 30
0.0
 40
4.199999999999818
  0
CIRCLE
  5
15A
330
1F
100
AcDbEntity
  8
0
  6
Continuous
 62
     7
370
    15
100
AcDbCircle
 10
3645.6842383443
 20
325.3309623801
 30
0.0
 40
5.0
  0
ARC
  5
15B
330
1F
100
AcDbEntity
  8
0
  6
Continuous
 62
     7
370
    15
100
AcDbCircle
 10
3090.6842383443
 20
-214.2138643389
 30
0.0
 40
2.88675134594817
100
AcDbArc
 50
270.0
 51
330.0
  0
SPLINE
  5
15C
330
1F
100
AcDbEntity
  8
0
  6
Continuous
 62
     7
370
    15
100
AcDbSpline
210
0.0
220
0.0
230
1.0
 70
    24
 71
     3
 72
     9
 73
     5
 74
     0
 42
0.000000001
 43
0.00000001
 40
0.0
 40
0.0
 40
0.0
 40
0.0
 40
0.5346858623657081
 40
1.0
 40
1.0
 40
1.0
 40
1.0
 10
3093.184238344283
 20
-215.6572400119233
 30
0.0
 10
3092.73758405434
 20
-215.9151159864563
 30
0.0
 10
3091.902225722691
 20
-216.3974103441042
 30
0.0
 10
3091.071013256281
 20
-216.8773110853395
 30
0.0
 10
3090.684238344284
 20
-217.1006156848975
 30
0.0
  0
ARC
  5
15D
330
1F
100
AcDbEntity
  8
0
  6
Continuous
 62
     7
370
    15
100
AcDbCircle
 10
3090.6842383443
 20
-214.2138643389
 30
0.0
 40
2.88675134594817
100
AcDbArc
 50
30.0
 51
90.0
  0
SPLINE
  5
15E
330
1F
100
AcDbEntity
  8
0
  6
Continuous
 62
     7
370
    15
100
AcDbSpline
210
0.0
220
0.0
230
1.0
 70
    24
 71
     3
 72
     9
 73
     5
 74
     0
 42
0.000000001
 43
0.00000001
 40
0.0
 40
0.0
 40
0.0
 40
0.0
 40
0.5346858623657081
 40
1.0
 40
1.0
 40
1.0
 40
1.0
 10
3090.684238344284
 20
-211.3271129930011
 30
0.0
 10
3091.130892634226
 20
-211.5849889675341
 30
0.0
 10
3091.966250965876
 20
-212.067283325182
 30
0.0
 10
3092.797463432285
 20
-212.5471840664173
 30
0.0
 10
3093.184238344283
 20
-212.7704886659753
 30
0.0
  0
ARC
  5
15F
330
1F
100
AcDbEntity
  8
0
  6
Continuous
 62
     7
370
    15
100
AcDbCircle
 10
3090.6842383443
 20
-214.2138643389
 30
0.0
 40
2.88675134594817
100
AcDbArc
 50
210.0
 51
270.0
  0
SPLINE
  5
160
330
1F
100
AcDbEntity
  8
0
  6
Continuous
 62
     7
370
    15
100
AcDbSpline
210
0.0
220
0.0
230
1.0
 70
    24
 71
     3
 72
     9
 73
     5
 74
     0
 42
0.000000001
 43
0.00000001
 40
0.0
 40
0.0
 40
0.0
 40
0.0
 40
0.5346858623657081
 40
1.0
 40
1.0
 40
1.0
 40
1.0
 10
3090.684238344284
 20
-217.1006156848975
 30
0.0
 10
3090.23758405434
 20
-216.8427397103644
 30
0.0
 10
3089.402225722691
 20
-216.3604453527167
 30
0.0
 10
3088.571013256281
 20
-215.8805446114813
 30
0.0
 10
3088.184238344284
 20
-215.6572400119233
 30
0.0
  0
ARC
  5
161
330
1F
100
AcDbEntity
  8
0
  6
Continuous
 62
     7
370
    15
100
AcDbCircle
 10
3090.6842383443
 20
-214.2138643389
 30
0.0
 40
2.88675134594817
100
AcDbArc
 50
90.0
 51
150.0
  0
SPLINE
  5
162
330
1F
100
AcDbEntity
  8
0
  6
Continuous
 62
     7
370
    15
100
AcDbSpline
210
0.0
220
0.0
230
1.0
 70
    24
 71
     3
 72
     9
 73
     5
 74
     0
 42
0.000000001
 43
0.00000001
 40
0.0
 40
0.0
 40
0.0
 40
0.0
 40
0.5346858623657081
 40
1.0
 40
1.0
 40
1.0
 40
1.0
 10
3088.184238344284
 20
-212.7704886659753
 30
0.0
 10
3088.630892634226
 20
-212.5126126914423
 30
0.0
 10
3089.466250965876
 20
-212.0303183337945
 30
0.0
 10
3090.297463432285
 20
-211.5504175925591
 30
0.0
 10
3090.684238344284
 20
-211.3271129930011
 30
0.0
  0
ARC
  5
163
330
1F
100
AcDbEntity
  8
0
  6
Continuous
 62
     7
370
    15
100
AcDbCircle
 10
3090.6842383443
 20
-214.2138643389
 30
0.0
 40
2.886751345948118
100
AcDbArc
 50
150.0
 51
210.0
  0
SPLINE
  5
164
330
1F
100
AcDbEntity
  8
0
  6
Continuous
 62
     7
370
    15
100
AcDbSpline
210
0.0
220
0.0
230
1.0
 70
    24
 71
     3
 72
    10
 73
     6
 74
     0
 42
0.000000001
 43
0.00000001
 40
0.0
 40
0.0
 40
0.0
 40
0.0
 40
0.3476243397033723
 40
0.8477691611544885
 40
0.9999999999999999
 40
0.9999999999999999
 40
0.9999999999999999
 40
0.9999999999999999
 10
3088.184238344284
 20
-215.6572400119234
 30
0.0
 10
3088.184238344284
 20
-215.327415111706
 30
0.0
 10
3088.184238344284
 20
-214.5230543490976
 30
0.0
 10
3088.184238344284
 20
-213.5268828514653
 30
0.0
 10
3088.184238344284
 20
-212.9135977776687
 30
0.0
 10
3088.184238344284
 20
-212.7704886659753
 30
0.0
  0
ARC
  5
165
330
1F
100
AcDbEntity
  8
0
  6
Continuous
 62
     7
370
    15
100
AcDbCircle
 10
3090.6842383443
 20
-214.2138643389
 30
0.0
 40
2.886751345947724
100
AcDbArc
 50
330.0
 51
30.0
  0
SPLINE
  5
166
330
1F
100
AcDbEntity
  8
0
  6
Continuous
 62
     7
370
    15
100
AcDbSpline
210
0.0
220
0.0
230
1.0
 70
    24
 71
     3
 72
    10
 73
     6
 74
     0
 42
0.000000001
 43
0.00000001
 40
0.0
 40
0.0
 40
0.0
 40
0.0
 40
0.1522308389023572
 40
0.6523756600650883
 40
1.0
 40
1.0
 40
1.0
 40
1.0
 10
3093.184238344283
 20
-212.7704886659754
 30
0.0
 10
3093.184238344283
 20
-212.9135977777231
 30
0.0
 10
3093.184238344283
 20
-213.5268828513052
 30
0.0
 10
3093.184238344283
 20
-214.523054348913
 30
0.0
 10
3093.184238344283
 20
-215.3274151114809
 30
0.0
 10
3093.184238344283
 20
-215.6572400119233
 30
0.0
  0
CIRCLE
  5
167
330
1F
100
AcDbEntity
  8
0
  6
Continuous
 62
     7
370
    15
100
AcDbCircle
 10
3090.6842383443
 20
-214.2138643389
 30
0.0
 40
4.200000000000273
  0
CIRCLE
  5
168
330
1F
100
AcDbEntity
  8
0
  6
Continuous
 62
     7
370
    15
100
AcDbCircle
 10
3090.6842383443
 20
-214.2138643389
 30
0.0
 40
5.000000000000455
  0
ARC
  5
169
330
1F
100
AcDbEntity
  8
0
  6
Continuous
 62
     7
370
    15
100
AcDbCircle
 10
2440.6842383443
 20
489.8757890991
 30
0.0
 40
2.886751345948198
100
AcDbArc
 50
270.0
 51
330.0
  0
SPLINE
  5
16A
330
1F
100
AcDbEntity
  8
0
  6
Continuous
 62
     7
370
    15
100
AcDbSpline
210
0.0
220
0.0
230
1.0
 70
    24
 71
     3
 72
     9
 73
     5
 74
     0
 42
0.000000001
 43
0.00000001
 40
0.0
 40
0.0
 40
0.0
 40
0.0
 40
0.5346858623657081
 40
1.0
 40
1.0
 40
1.0
 40
1.0
 10
2443.184238344283
 20
488.4324134261634
 30
0.0
 10
2442.73758405434
 20
488.1745374516303
 30
0.0
 10
2441.902225722691
 20
487.6922430939826
 30
0.0
 10
2441.071013256281
 20
487.2123423527472
 30
0.0
 10
2440.684238344283
 20
486.9890377531892
 30
0.0
  0
ARC
  5
16B
330
1F
100
AcDbEntity
  8
0
  6
Continuous
 62
     7
370
    15
100
AcDbCircle
 10
2440.6842383443
 20
489.8757890991
 30
0.0
 40
2.886751345948198
100
AcDbArc
 50
210.0
 51
270.0
  0
SPLINE
  5
16C
330
1F
100
AcDbEntity
  8
0
  6
Continuous
 62
     7
370
    15
100
AcDbSpline
210
0.0
220
0.0
230
1.0
 70
    24
 71
     3
 72
     9
 73
     5
 74
     0
 42
0.000000001
 43
0.00000001
 40
0.0
 40
0.0
 40
0.0
 40
0.0
 40
0.5346858623657081
 40
1.0
 40
1.0
 40
1.0
 40
1.0
 10
2440.684238344283
 20
486.9890377531892
 30
0.0
 10
2440.23758405434
 20
487.2469137277223
 30
0.0
 10
2439.402225722691
 20
487.7292080853701
 30
0.0
 10
2438.571013256281
 20
488.2091088266054
 30
0.0
 10
2438.184238344283
 20
488.4324134261634
 30
0.0
  0
ARC
  5
16D
330
1F
100
AcDbEntity
  8
0
  6
Continuous
 62
     7
370
    15
100
AcDbCircle
 10
2440.6842383443
 20
489.8757890991
 30
0.0
 40
2.886751345948198
100
AcDbArc
 50
30.0
 51
90.0
  0
SPLINE
  5
16E
330
1F
100
AcDbEntity
  8
0
  6
Continuous
 62
     7
370
    15
100
AcDbSpline
210
0.0
220
0.0
230
1.0
 70
    24
 71
     3
 72
     9
 73
     5
 74
     0
 42
0.000000001
 43
0.00000001
 40
0.0
 40
0.0
 40
0.0
 40
0.0
 40
0.5346858623657081
 40
1.0
 40
1.0
 40
1.0
 40
1.0
 10
2440.684238344283
 20
492.7625404450856
 30
0.0
 10
2441.130892634226
 20
492.5046644705525
 30
0.0
 10
2441.966250965876
 20
492.0223701129048
 30
0.0
 10
2442.797463432285
 20
491.5424693716694
 30
0.0
 10
2443.184238344283
 20
491.3191647721114
 30
0.0
  0
ARC
  5
16F
330
1F
100
AcDbEntity
  8
0
  6
Continuous
 62
     7
370
    15
100
AcDbCircle
 10
2440.6842383443
 20
489.8757890991
 30
0.0
 40
2.886751345948198
100
AcDbArc
 50
90.0
 51
150.0
  0
SPLINE
  5
170
330
1F
100
AcDbEntity
  8
0
  6
Continuous
 62
     7
370
    15
100
AcDbSpline
210
0.0
220
0.0
230
1.0
 70
    24
 71
     3
 72
     9
 73
     5
 74
     0
 42
0.000000001
 43
0.00000001
 40
0.0
 40
0.0
 40
0.0
 40
0.0
 40
0.5346858623657081
 40
1.0
 40
1.0
 40
1.0
 40
1.0
 10
2438.184238344283
 20
491.3191647721114
 30
0.0
 10
2438.630892634226
 20
491.5770407466445
 30
0.0
 10
2439.466250965875
 20
492.0593351042923
 30
0.0
 10
2440.297463432285
 20
492.5392358455276
 30
0.0
 10
2440.684238344283
 20
492.7625404450856
 30
0.0
  0
ARC
  5
171
330
1F
100
AcDbEntity
  8
0
  6
Continuous
 62
     7
370
    15
100
AcDbCircle
 10
2440.6842383443
 20
489.8757890991
 30
0.0
 40
2.886751345948103
100
AcDbArc
 50
150.0
 51
210.0
  0
SPLINE
  5
172
330
1F
100
AcDbEntity
  8
0
  6
Continuous
 62
     7
370
    15
100
AcDbSpline
210
0.0
220
0.0
230
1.0
 70
    24
 71
     3
 72
    10
 73
     6
 74
     0
 42
0.000000001
 43
0.00000001
 40
0.0
 40
0.0
 40
0.0
 40
0.0
 40
0.3476243397033723
 40
0.8477691611544885
 40
0.9999999999999999
 40
0.9999999999999999
 40
0.9999999999999999
 40
0.9999999999999999
 10
2438.184238344283
 20
488.4324134261634
 30
0.0
 10
2438.184238344283
 20
488.7622383263808
 30
0.0
 10
2438.184238344283
 20
489.5665990889893
 30
0.0
 10
2438.184238344283
 20
490.5627705866214
 30
0.0
 10
2438.184238344284
 20
491.176055660418
 30
0.0
 10
2438.184238344283
 20
491.3191647721114
 30
0.0
  0
ARC
  5
173
330
1F
100
AcDbEntity
  8
0
  6
Continuous
 62
     7
370
    15
100
AcDbCircle
 10
2440.6842383443
 20
489.8757890991
 30
0.0
 40
2.886751345948103
100
AcDbArc
 50
330.0
 51
30.0
  0
SPLINE
  5
174
330
1F
100
AcDbEntity
  8
0
  6
Continuous
 62
     7
370
    15
100
AcDbSpline
210
0.0
220
0.0
230
1.0
 70
    24
 71
     3
 72
    10
 73
     6
 74
     0
 42
0.000000001
 43
0.00000001
 40
0.0
 40
0.0
 40
0.0
 40
0.0
 40
0.1522308389023572
 40
0.6523756600650883
 40
1.0
 40
1.0
 40
1.0
 40
1.0
 10
2443.184238344283
 20
491.3191647721114
 30
0.0
 10
2443.184238344283
 20
491.1760556603639
 30
0.0
 10
2443.184238344283
 20
490.5627705867818
 30
0.0
 10
2443.184238344284
 20
489.5665990891738
 30
0.0
 10
2443.184238344283
 20
488.7622383266059
 30
0.0
 10
2443.184238344283
 20
488.4324134261634
 30
0.0
  0
CIRCLE
  5
175
330
1F
100
AcDbEntity
  8
0
  6
Continuous
 62
     7
370
    15
100
AcDbCircle
 10
2440.6842383443
 20
489.8757890991
 30
0.0
 40
4.200000000000273
  0
CIRCLE
  5
176
330
1F
100
AcDbEntity
  8
0
  6
Continuous
 62
     7
370
    15
100
AcDbCircle
 10
2440.6842383443
 20
489.8757890991
 30
0.0
 40
5.0
  0
ARC
  5
177
330
1F
100
AcDbEntity
  8
0
  6
Continuous
 62
     7
370
    15
100
AcDbCircle
 10
3090.6842383443
 20
535.7861356611
 30
0.0
 40
2.886751345948142
100
AcDbArc
 50
90.0
 51
150.0
  0
SPLINE
  5
178
330
1F
100
AcDbEntity
  8
0
  6
Continuous
 62
     7
370
    15
100
AcDbSpline
210
0.0
220
0.0
230
1.0
 70
    24
 71
     3
 72
     9
 73
     5
 74
     0
 42
0.000000001
 43
0.00000001
 40
0.0
 40
0.0
 40
0.0
 40
0.0
 40
0.5346858623657081
 40
1.0
 40
1.0
 40
1.0
 40
1.0
 10
3088.184238344284
 20
537.2295113340248
 30
0.0
 10
3088.630892634226
 20
537.4873873085577
 30
0.0
 10
3089.466250965876
 20
537.9696816662056
 30
0.0
 10
3090.297463432285
 20
538.4495824074409
 30
0.0
 10
3090.684238344284
 20
538.6728870069988
 30
0.0
  0
ARC
  5
179
330
1F
100
AcDbEntity
  8
0
  6
Continuous
 62
     7
370
    15
100
AcDbCircle
 10
3090.6842383443
 20
535.7861356611
 30
0.0
 40
2.886751345948142
100
AcDbArc
 50
270.0
 51
330.0
  0
SPLINE
  5
17A
330
1F
100
AcDbEntity
  8
0
  6
Continuous
 62
     7
370
    15
100
AcDbSpline
210
0.0
220
0.0
230
1.0
 70
    24
 71
     3
 72
     9
 73
     5
 74
     0
 42
0.000000001
 43
0.00000001
 40
0.0
 40
0.0
 40
0.0
 40
0.0
 40
0.5346858623657081
 40
1.0
 40
1.0
 40
1.0
 40
1.0
 10
3093.184238344283
 20
534.3427599880766
 30
0.0
 10
3092.73758405434
 20
534.0848840135437
 30
0.0
 10
3091.902225722691
 20
533.6025896558958
 30
0.0
 10
3091.071013256281
 20
533.1226889146606
 30
0.0
 10
3090.684238344284
 20
532.8993843151026
 30
0.0
  0
ARC
  5
17B
330
1F
100
AcDbEntity
  8
0
  6
Continuous
 62
     7
370
    15
100
AcDbCircle
 10
3090.6842383443
 20
535.7861356611
 30
0.0
 40
2.886751345948142
100
AcDbArc
 50
210.0
 51
270.0
  0
SPLINE
  5
17C
330
1F
100
AcDbEntity
  8
0
  6
Continuous
 62
     7
370
    15
100
AcDbSpline
210
0.0
220
0.0
230
1.0
 70
    24
 71
     3
 72
     9
 73
     5
 74
     0
 42
0.000000001
 43
0.00000001
 40
0.0
 40
0.0
 40
0.0
 40
0.0
 40
0.5346858623657081
 40
1.0
 40
1.0
 40
1.0
 40
1.0
 10
3090.684238344284
 20
532.8993843151026
 30
0.0
 10
3090.23758405434
 20
533.1572602896355
 30
0.0
 10
3089.402225722691
 20
533.6395546472834
 30
0.0
 10
3088.571013256281
 20
534.1194553885186
 30
0.0
 10
3088.184238344284
 20
534.3427599880766
 30
0.0
  0
ARC
  5
17D
330
1F
100
AcDbEntity
  8
0
  6
Continuous
 62
     7
370
    15
100
AcDbCircle
 10
3090.6842383443
 20
535.7861356611
 30
0.0
 40
2.886751345948142
100
AcDbArc
 50
30.0
 51
90.0
  0
SPLINE
  5
17E
330
1F
100
AcDbEntity
  8
0
  6
Continuous
 62
     7
370
    15
100
AcDbSpline
210
0.0
220
0.0
230
1.0
 70
    24
 71
     3
 72
     9
 73
     5
 74
     0
 42
0.000000001
 43
0.00000001
 40
0.0
 40
0.0
 40
0.0
 40
0.0
 40
0.5346858623657081
 40
1.0
 40
1.0
 40
1.0
 40
1.0
 10
3090.684238344284
 20
538.6728870069988
 30
0.0
 10
3091.130892634226
 20
538.4150110324658
 30
0.0
 10
3091.966250965876
 20
537.932716674818
 30
0.0
 10
3092.797463432285
 20
537.4528159335828
 30
0.0
 10
3093.184238344283
 20
537.2295113340248
 30
0.0
  0
ARC
  5
17F
330
1F
100
AcDbEntity
  8
0
  6
Continuous
 62
     7
370
    15
100
AcDbCircle
 10
3090.6842383443
 20
535.7861356611
 30
0.0
 40
2.886751345948132
100
AcDbArc
 50
150.0
 51
210.0
  0
SPLINE
  5
180
330
1F
100
AcDbEntity
  8
0
  6
Continuous
 62
     7
370
    15
100
AcDbSpline
210
0.0
220
0.0
230
1.0
 70
    24
 71
     3
 72
    10
 73
     6
 74
     0
 42
0.000000001
 43
0.00000001
 40
0.0
 40
0.0
 40
0.0
 40
0.0
 40
0.3476243397033723
 40
0.8477691611544885
 40
0.9999999999999999
 40
0.9999999999999999
 40
0.9999999999999999
 40
0.9999999999999999
 10
3088.184238344284
 20
534.3427599880766
 30
0.0
 10
3088.184238344284
 20
534.6725848882941
 30
0.0
 10
3088.184238344284
 20
535.4769456509025
 30
0.0
 10
3088.184238344284
 20
536.4731171485346
 30
0.0
 10
3088.184238344284
 20
537.0864022223312
 30
0.0
 10
3088.184238344284
 20
537.2295113340248
 30
0.0
  0
ARC
  5
181
330
1F
100
AcDbEntity
  8
0
  6
Continuous
 62
     7
370
    15
100
AcDbCircle
 10
3090.6842383443
 20
535.7861356611
 30
0.0
 40
2.886751345947738
100
AcDbArc
 50
330.0
 51
30.0
  0
SPLINE
  5
182
330
1F
100
AcDbEntity
  8
0
  6
Continuous
 62
     7
370
    15
100
AcDbSpline
210
0.0
220
0.0
230
1.0
 70
    24
 71
     3
 72
    10
 73
     6
 74
     0
 42
0.000000001
 43
0.00000001
 40
0.0
 40
0.0
 40
0.0
 40
0.0
 40
0.1522308389023572
 40
0.6523756600650883
 40
1.0
 40
1.0
 40
1.0
 40
1.0
 10
3093.184238344283
 20
537.2295113340248
 30
0.0
 10
3093.184238344283
 20
537.0864022222772
 30
0.0
 10
3093.184238344283
 20
536.4731171486951
 30
0.0
 10
3093.184238344283
 20
535.476945651087
 30
0.0
 10
3093.184238344283
 20
534.6725848885192
 30
0.0
 10
3093.184238344283
 20
534.3427599880766
 30
0.0
  0
CIRCLE
  5
183
330
1F
100
AcDbEntity
  8
0
  6
Continuous
 62
     7
370
    15
100
AcDbCircle
 10
3090.6842383443
 20
535.7861356611
 30
0.0
 40
4.200000000000273
  0
CIRCLE
  5
184
330
1F
100
AcDbEntity
  8
0
  6
Continuous
 62
     7
370
    15
100
AcDbCircle
 10
3090.6842383443
 20
535.7861356611
 30
0.0
 40
5.000000000000455
  0
ARC
  5
185
330
1F
100
AcDbEntity
  8
0
  6
Continuous
 62
     7
370
    15
100
AcDbCircle
 10
3280.6842383443
 20
535.7861356611
 30
0.0
 40
2.886751345948142
100
AcDbArc
 50
210.0
 51
270.0
  0
SPLINE
  5
186
330
1F
100
AcDbEntity
  8
0
  6
Continuous
 62
     7
370
    15
100
AcDbSpline
210
0.0
220
0.0
230
1.0
 70
    24
 71
     3
 72
     9
 73
     5
 74
     0
 42
0.000000001
 43
0.00000001
 40
0.0
 40
0.0
 40
0.0
 40
0.0
 40
0.5346858623657081
 40
1.0
 40
1.0
 40
1.0
 40
1.0
 10
3280.684238344283
 20
532.8993843151027
 30
0.0
 10
3280.23758405434
 20
533.1572602896357
 30
0.0
 10
3279.402225722691
 20
533.6395546472834
 30
0.0
 10
3278.571013256281
 20
534.1194553885188
 30
0.0
 10
3278.184238344284
 20
534.3427599880768
 30
0.0
  0
ARC
  5
187
330
1F
100
AcDbEntity
  8
0
  6
Continuous
 62
     7
370
    15
100
AcDbCircle
 10
3280.6842383443
 20
535.7861356611
 30
0.0
 40
2.886751345948142
100
AcDbArc
 50
30.0
 51
90.0
  0
SPLINE
  5
188
330
1F
100
AcDbEntity
  8
0
  6
Continuous
 62
     7
370
    15
100
AcDbSpline
210
0.0
220
0.0
230
1.0
 70
    24
 71
     3
 72
     9
 73
     5
 74
     0
 42
0.000000001
 43
0.00000001
 40
0.0
 40
0.0
 40
0.0
 40
0.0
 40
0.5346858623657081
 40
1.0
 40
1.0
 40
1.0
 40
1.0
 10
3280.684238344283
 20
538.672887006999
 30
0.0
 10
3281.130892634226
 20
538.4150110324659
 30
0.0
 10
3281.966250965875
 20
537.9327166748183
 30
0.0
 10
3282.797463432285
 20
537.4528159335829
 30
0.0
 10
3283.184238344283
 20
537.2295113340249
 30
0.0
  0
ARC
  5
189
330
1F
100
AcDbEntity
  8
0
  6
Continuous
 62
     7
370
    15
100
AcDbCircle
 10
3280.6842383443
 20
535.7861356611
 30
0.0
 40
2.886751345948142
100
AcDbArc
 50
90.0
 51
150.0
  0
SPLINE
  5
18A
330
1F
100
AcDbEntity
  8
0
  6
Continuous
 62
     7
370
    15
100
AcDbSpline
210
0.0
220
0.0
230
1.0
 70
    24
 71
     3
 72
     9
 73
     5
 74
     0
 42
0.000000001
 43
0.00000001
 40
0.0
 40
0.0
 40
0.0
 40
0.0
 40
0.5346858623657081
 40
1.0
 40
1.0
 40
1.0
 40
1.0
 10
3278.184238344284
 20
537.2295113340249
 30
0.0
 10
3278.630892634226
 20
537.4873873085579
 30
0.0
 10
3279.466250965876
 20
537.9696816662057
 30
0.0
 10
3280.297463432285
 20
538.449582407441
 30
0.0
 10
3280.684238344283
 20
538.672887006999
 30
0.0
  0
ARC
  5
18B
330
1F
100
AcDbEntity
  8
0
  6
Continuous
 62
     7
370
    15
100
AcDbCircle
 10
3280.6842383443
 20
535.7861356611
 30
0.0
 40
2.886751345948142
100
AcDbArc
 50
270.0
 51
330.0
  0
SPLINE
  5
18C
330
1F
100
AcDbEntity
  8
0
  6
Continuous
 62
     7
370
    15
100
AcDbSpline
210
0.0
220
0.0
230
1.0
 70
    24
 71
     3
 72
     9
 73
     5
 74
     0
 42
0.000000001
 43
0.00000001
 40
0.0
 40
0.0
 40
0.0
 40
0.0
 40
0.5346858623657081
 40
1.0
 40
1.0
 40
1.0
 40
1.0
 10
3283.184238344283
 20
534.3427599880768
 30
0.0
 10
3282.73758405434
 20
534.0848840135437
 30
0.0
 10
3281.902225722691
 20
533.602589655896
 30
0.0
 10
3281.071013256281
 20
533.1226889146607
 30
0.0
 10
3280.684238344283
 20
532.8993843151027
 30
0.0
  0
ARC
  5
18D
330
1F
100
AcDbEntity
  8
0
  6
Continuous
 62
     7
370
    15
100
AcDbCircle
 10
3280.6842383443
 20
535.7861356611
 30
0.0
 40
2.886751345947738
100
AcDbArc
 50
150.0
 51
210.0
  0
SPLINE
  5
18E
330
1F
100
AcDbEntity
  8
0
  6
Continuous
 62
     7
370
    15
100
AcDbSpline
210
0.0
220
0.0
230
1.0
 70
    24
 71
     3
 72
    10
 73
     6
 74
     0
 42
0.000000001
 43
0.00000001
 40
0.0
 40
0.0
 40
0.0
 40
0.0
 40
0.3476243397033723
 40
0.8477691611544885
 40
0.9999999999999999
 40
0.9999999999999999
 40
0.9999999999999999
 40
0.9999999999999999
 10
3278.184238344284
 20
534.3427599880768
 30
0.0
 10
3278.184238344284
 20
534.6725848882942
 30
0.0
 10
3278.184238344284
 20
535.4769456509026
 30
0.0
 10
3278.184238344284
 20
536.4731171485347
 30
0.0
 10
3278.184238344284
 20
537.0864022223313
 30
0.0
 10
3278.184238344284
 20
537.2295113340249
 30
0.0
  0
ARC
  5
18F
330
1F
100
AcDbEntity
  8
0
  6
Continuous
 62
     7
370
    15
100
AcDbCircle
 10
3280.6842383443
 20
535.7861356611
 30
0.0
 40
2.886751345948132
100
AcDbArc
 50
330.0
 51
30.0
  0
SPLINE
  5
190
330
1F
100
AcDbEntity
  8
0
  6
Continuous
 62
     7
370
    15
100
AcDbSpline
210
0.0
220
0.0
230
1.0
 70
    24
 71
     3
 72
    10
 73
     6
 74
     0
 42
0.000000001
 43
0.00000001
 40
0.0
 40
0.0
 40
0.0
 40
0.0
 40
0.1522308389023572
 40
0.6523756600650883
 40
1.0
 40
1.0
 40
1.0
 40
1.0
 10
3283.184238344283
 20
537.2295113340249
 30
0.0
 10
3283.184238344283
 20
537.0864022222773
 30
0.0
 10
3283.184238344283
 20
536.4731171486952
 30
0.0
 10
3283.184238344283
 20
535.4769456510871
 30
0.0
 10
3283.184238344283
 20
534.6725848885192
 30
0.0
 10
3283.184238344283
 20
534.3427599880768
 30
0.0
  0
CIRCLE
  5
191
330
1F
100
AcDbEntity
  8
0
  6
Continuous
 62
     7
370
    15
100
AcDbCircle
 10
3280.6842383443
 20
535.7861356611
 30
0.0
 40
4.199999999999818
  0
CIRCLE
  5
192
330
1F
100
AcDbEntity
  8
0
  6
Continuous
 62
     7
370
    15
100
AcDbCircle
 10
3280.6842383443
 20
535.7861356611
 30
0.0
 40
5.0
  0
ARC
  5
193
330
1F
100
AcDbEntity
  8
0
  6
Continuous
 62
     7
370
    15
100
AcDbCircle
 10
3280.6842383443
 20
864.8757890991
 30
0.0
 40
2.886751345948255
100
AcDbArc
 50
270.0
 51
330.0
  0
SPLINE
  5
194
330
1F
100
AcDbEntity
  8
0
  6
Continuous
 62
     7
370
    15
100
AcDbSpline
210
0.0
220
0.0
230
1.0
 70
    24
 71
     3
 72
     9
 73
     5
 74
     0
 42
0.000000001
 43
0.00000001
 40
0.0
 40
0.0
 40
0.0
 40
0.0
 40
0.5346858623657081
 40
1.0
 40
1.0
 40
1.0
 40
1.0
 10
3283.184238344283
 20
863.4324134261635
 30
0.0
 10
3282.73758405434
 20
863.1745374516304
 30
0.0
 10
3281.902225722691
 20
862.6922430939827
 30
0.0
 10
3281.071013256281
 20
862.2123423527473
 30
0.0
 10
3280.684238344283
 20
861.9890377531893
 30
0.0
  0
ARC
  5
195
330
1F
100
AcDbEntity
  8
0
  6
Continuous
 62
     7
370
    15
100
AcDbCircle
 10
3280.6842383443
 20
864.8757890991
 30
0.0
 40
2.886751345948142
100
AcDbArc
 50
90.0
 51
150.0
  0
SPLINE
  5
196
330
1F
100
AcDbEntity
  8
0
  6
Continuous
 62
     7
370
    15
100
AcDbSpline
210
0.0
220
0.0
230
1.0
 70
    24
 71
     3
 72
     9
 73
     5
 74
     0
 42
0.000000001
 43
0.00000001
 40
0.0
 40
0.0
 40
0.0
 40
0.0
 40
0.5346858623657081
 40
1.0
 40
1.0
 40
1.0
 40
1.0
 10
3278.184238344284
 20
866.3191647721115
 30
0.0
 10
3278.630892634226
 20
866.5770407466446
 30
0.0
 10
3279.466250965876
 20
867.0593351042925
 30
0.0
 10
3280.297463432285
 20
867.5392358455277
 30
0.0
 10
3280.684238344283
 20
867.7625404450857
 30
0.0
  0
ARC
  5
197
330
1F
100
AcDbEntity
  8
0
  6
Continuous
 62
     7
370
    15
100
AcDbCircle
 10
3280.6842383443
 20
864.8757890991
 30
0.0
 40
2.886751345948142
100
AcDbArc
 50
30.0
 51
90.0
  0
SPLINE
  5
198
330
1F
100
AcDbEntity
  8
0
  6
Continuous
 62
     7
370
    15
100
AcDbSpline
210
0.0
220
0.0
230
1.0
 70
    24
 71
     3
 72
     9
 73
     5
 74
     0
 42
0.000000001
 43
0.00000001
 40
0.0
 40
0.0
 40
0.0
 40
0.0
 40
0.5346858623657081
 40
1.0
 40
1.0
 40
1.0
 40
1.0
 10
3280.684238344283
 20
867.7625404450857
 30
0.0
 10
3281.130892634226
 20
867.5046644705526
 30
0.0
 10
3281.966250965875
 20
867.0223701129049
 30
0.0
 10
3282.797463432285
 20
866.5424693716695
 30
0.0
 10
3283.184238344283
 20
866.3191647721115
 30
0.0
  0
ARC
  5
199
330
1F
100
AcDbEntity
  8
0
  6
Continuous
 62
     7
370
    15
100
AcDbCircle
 10
3280.6842383443
 20
864.8757890991
 30
0.0
 40
2.886751345948255
100
AcDbArc
 50
210.0
 51
270.0
  0
SPLINE
  5
19A
330
1F
100
AcDbEntity
  8
0
  6
Continuous
 62
     7
370
    15
100
AcDbSpline
210
0.0
220
0.0
230
1.0
 70
    24
 71
     3
 72
     9
 73
     5
 74
     0
 42
0.000000001
 43
0.00000001
 40
0.0
 40
0.0
 40
0.0
 40
0.0
 40
0.5346858623657081
 40
1.0
 40
1.0
 40
1.0
 40
1.0
 10
3280.684238344283
 20
861.9890377531893
 30
0.0
 10
3280.23758405434
 20
862.2469137277224
 30
0.0
 10
3279.402225722691
 20
862.7292080853703
 30
0.0
 10
3278.571013256281
 20
863.2091088266055
 30
0.0
 10
3278.184238344284
 20
863.4324134261635
 30
0.0
  0
ARC
  5
19B
330
1F
100
AcDbEntity
  8
0
  6
Continuous
 62
     7
370
    15
100
AcDbCircle
 10
3280.6842383443
 20
864.8757890991
 30
0.0
 40
2.886751345947738
100
AcDbArc
 50
150.0
 51
210.0
  0
SPLINE
  5
19C
330
1F
100
AcDbEntity
  8
0
  6
Continuous
 62
     7
370
    15
100
AcDbSpline
210
0.0
220
0.0
230
1.0
 70
    24
 71
     3
 72
    10
 73
     6
 74
     0
 42
0.000000001
 43
0.00000001
 40
0.0
 40
0.0
 40
0.0
 40
0.0
 40
0.3476243397033723
 40
0.8477691611544885
 40
0.9999999999999999
 40
0.9999999999999999
 40
0.9999999999999999
 40
0.9999999999999999
 10
3278.184238344284
 20
863.4324134261636
 30
0.0
 10
3278.184238344284
 20
863.7622383263808
 30
0.0
 10
3278.184238344284
 20
864.5665990889895
 30
0.0
 10
3278.184238344283
 20
865.5627705866214
 30
0.0
 10
3278.184238344284
 20
866.176055660418
 30
0.0
 10
3278.184238344284
 20
866.3191647721115
 30
0.0
  0
ARC
  5
19D
330
1F
100
AcDbEntity
  8
0
  6
Continuous
 62
     7
370
    15
100
AcDbCircle
 10
3280.6842383443
 20
864.8757890991
 30
0.0
 40
2.886751345948132
100
AcDbArc
 50
330.0
 51
30.0
  0
SPLINE
  5
19E
330
1F
100
AcDbEntity
  8
0
  6
Continuous
 62
     7
370
    15
100
AcDbSpline
210
0.0
220
0.0
230
1.0
 70
    24
 71
     3
 72
    10
 73
     6
 74
     0
 42
0.000000001
 43
0.00000001
 40
0.0
 40
0.0
 40
0.0
 40
0.0
 40
0.1522308389023572
 40
0.6523756600650883
 40
1.0
 40
1.0
 40
1.0
 40
1.0
 10
3283.184238344283
 20
866.3191647721117
 30
0.0
 10
3283.184238344283
 20
866.1760556603641
 30
0.0
 10
3283.184238344283
 20
865.5627705867821
 30
0.0
 10
3283.184238344283
 20
864.5665990891739
 30
0.0
 10
3283.184238344283
 20
863.7622383266059
 30
0.0
 10
3283.184238344283
 20
863.4324134261635
 30
0.0
  0
CIRCLE
  5
19F
330
1F
100
AcDbEntity
  8
0
  6
Continuous
 62
     7
370
    15
100
AcDbCircle
 10
3280.6842383443
 20
864.8757890991
 30
0.0
 40
4.200000000000273
  0
CIRCLE
  5
1A0
330
1F
100
AcDbEntity
  8
0
  6
Continuous
 62
     7
370
    15
100
AcDbCircle
 10
3280.6842383443
 20
864.8757890991
 30
0.0
 40
5.0
  0
ARC
  5
1A1
330
1F
100
AcDbEntity
  8
0
  6
Continuous
 62
     7
370
    15
100
AcDbCircle
 10
2995.6842383443
 20
700.3309623801
 30
0.0
 40
2.886751345948028
100
AcDbArc
 50
90.0
 51
150.0
  0
SPLINE
  5
1A2
330
1F
100
AcDbEntity
  8
0
  6
Continuous
 62
     7
370
    15
100
AcDbSpline
210
0.0
220
0.0
230
1.0
 70
    24
 71
     3
 72
     9
 73
     5
 74
     0
 42
0.000000001
 43
0.00000001
 40
0.0
 40
0.0
 40
0.0
 40
0.0
 40
0.5346858623657081
 40
1.0
 40
1.0
 40
1.0
 40
1.0
 10
2993.184238344283
 20
701.774338053068
 30
0.0
 10
2993.630892634226
 20
702.0322140276012
 30
0.0
 10
2994.466250965875
 20
702.514508385249
 30
0.0
 10
2995.297463432285
 20
702.9944091264844
 30
0.0
 10
2995.684238344283
 20
703.2177137260422
 30
0.0
  0
ARC
  5
1A3
330
1F
100
AcDbEntity
  8
0
  6
Continuous
 62
     7
370
    15
100
AcDbCircle
 10
2995.6842383443
 20
700.3309623801
 30
0.0
 40
2.886751345948028
100
AcDbArc
 50
30.0
 51
90.0
  0
SPLINE
  5
1A4
330
1F
100
AcDbEntity
  8
0
  6
Continuous
 62
     7
370
    15
100
AcDbSpline
210
0.0
220
0.0
230
1.0
 70
    24
 71
     3
 72
     9
 73
     5
 74
     0
 42
0.000000001
 43
0.00000001
 40
0.0
 40
0.0
 40
0.0
 40
0.0
 40
0.5346858623657081
 40
1.0
 40
1.0
 40
1.0
 40
1.0
 10
2995.684238344283
 20
703.2177137260422
 30
0.0
 10
2996.130892634226
 20
702.9598377515092
 30
0.0
 10
2996.966250965875
 20
702.4775433938614
 30
0.0
 10
2997.797463432285
 20
701.9976426526262
 30
0.0
 10
2998.184238344283
 20
701.774338053068
 30
0.0
  0
ARC
  5
1A5
330
1F
100
AcDbEntity
  8
0
  6
Continuous
 62
     7
370
    15
100
AcDbCircle
 10
2995.6842383443
 20
700.3309623801
 30
0.0
 40
2.886751345948369
100
AcDbArc
 50
270.0
 51
330.0
  0
SPLINE
  5
1A6
330
1F
100
AcDbEntity
  8
0
  6
Continuous
 62
     7
370
    15
100
AcDbSpline
210
0.0
220
0.0
230
1.0
 70
    24
 71
     3
 72
     9
 73
     5
 74
     0
 42
0.000000001
 43
0.00000001
 40
0.0
 40
0.0
 40
0.0
 40
0.0
 40
0.5346858623657081
 40
1.0
 40
1.0
 40
1.0
 40
1.0
 10
2998.184238344283
 20
698.88758670712
 30
0.0
 10
2997.737584054341
 20
698.629710732587
 30
0.0
 10
2996.902225722691
 20
698.1474163749392
 30
0.0
 10
2996.071013256282
 20
697.6675156337038
 30
0.0
 10
2995.684238344283
 20
697.4442110341458
 30
0.0
  0
ARC
  5
1A7
330
1F
100
AcDbEntity
  8
0
  6
Continuous
 62
     7
370
    15
100
AcDbCircle
 10
2995.6842383443
 20
700.3309623801
 30
0.0
 40
2.886751345948369
100
AcDbArc
 50
210.0
 51
270.0
  0
SPLINE
  5
1A8
330
1F
100
AcDbEntity
  8
0
  6
Continuous
 62
     7
370
    15
100
AcDbSpline
210
0.0
220
0.0
230
1.0
 70
    24
 71
     3
 72
     9
 73
     5
 74
     0
 42
0.000000001
 43
0.00000001
 40
0.0
 40
0.0
 40
0.0
 40
0.0
 40
0.5346858623657081
 40
1.0
 40
1.0
 40
1.0
 40
1.0
 10
2995.684238344283
 20
697.4442110341458
 30
0.0
 10
2995.237584054341
 20
697.702087008679
 30
0.0
 10
2994.402225722691
 20
698.1843813663269
 30
0.0
 10
2993.571013256282
 20
698.6642821075621
 30
0.0
 10
2993.184238344283
 20
698.88758670712
 30
0.0
  0
ARC
  5
1A9
330
1F
100
AcDbEntity
  8
0
  6
Continuous
 62
     7
370
    15
100
AcDbCircle
 10
2995.6842383443
 20
700.3309623801
 30
0.0
 40
2.886751345948189
100
AcDbArc
 50
150.0
 51
210.0
  0
SPLINE
  5
1AA
330
1F
100
AcDbEntity
  8
0
  6
Continuous
 62
     7
370
    15
100
AcDbSpline
210
0.0
220
0.0
230
1.0
 70
    24
 71
     3
 72
    10
 73
     6
 74
     0
 42
0.000000001
 43
0.00000001
 40
0.0
 40
0.0
 40
0.0
 40
0.0
 40
0.3476243397033723
 40
0.8477691611544885
 40
0.9999999999999999
 40
0.9999999999999999
 40
0.9999999999999999
 40
0.9999999999999999
 10
2993.184238344283
 20
698.8875867071201
 30
0.0
 10
2993.184238344283
 20
699.2174116073376
 30
0.0
 10
2993.184238344283
 20
700.021772369946
 30
0.0
 10
2993.184238344283
 20
701.0179438675781
 30
0.0
 10
2993.184238344283
 20
701.6312289413746
 30
0.0
 10
2993.184238344283
 20
701.774338053068
 30
0.0
  0
ARC
  5
1AB
330
1F
100
AcDbEntity
  8
0
  6
Continuous
 62
     7
370
    15
100
AcDbCircle
 10
2995.6842383443
 20
700.3309623801
 30
0.0
 40
2.886751345948189
100
AcDbArc
 50
330.0
 51
30.0
  0
SPLINE
  5
1AC
330
1F
100
AcDbEntity
  8
0
  6
Continuous
 62
     7
370
    15
100
AcDbSpline
210
0.0
220
0.0
230
1.0
 70
    24
 71
     3
 72
    10
 73
     6
 74
     0
 42
0.000000001
 43
0.00000001
 40
0.0
 40
0.0
 40
0.0
 40
0.0
 40
0.1522308389023572
 40
0.6523756600650883
 40
1.0
 40
1.0
 40
1.0
 40
1.0
 10
2998.184238344283
 20
701.7743380530682
 30
0.0
 10
2998.184238344283
 20
701.6312289413207
 30
0.0
 10
2998.184238344283
 20
701.0179438677386
 30
0.0
 10
2998.184238344283
 20
700.0217723701305
 30
0.0
 10
2998.184238344283
 20
699.2174116075624
 30
0.0
 10
2998.184238344283
 20
698.88758670712
 30
0.0
  0
CIRCLE
  5
1AD
330
1F
100
AcDbEntity
  8
0
  6
Continuous
 62
     7
370
    15
100
AcDbCircle
 10
2995.6842383443
 20
700.3309623801
 30
0.0
 40
4.199999999999818
  0
CIRCLE
  5
1AE
330
1F
100
AcDbEntity
  8
0
  6
Continuous
 62
     7
370
    15
100
AcDbCircle
 10
2995.6842383443
 20
700.3309623801
 30
0.0
 40
5.0
  0
ARC
  5
1AF
330
1F
100
AcDbEntity
  8
0
  6
Continuous
 62
     7
370
    15
100
AcDbCircle
 10
3930.6842383443
 20
489.8757890991
 30
0.0
 40
2.886751345948198
100
AcDbArc
 50
30.0
 51
90.0
  0
SPLINE
  5
1B0
330
1F
100
AcDbEntity
  8
0
  6
Continuous
 62
     7
370
    15
100
AcDbSpline
210
0.0
220
0.0
230
1.0
 70
    24
 71
     3
 72
     9
 73
     5
 74
     0
 42
0.000000001
 43
0.00000001
 40
0.0
 40
0.0
 40
0.0
 40
0.0
 40
0.5346858623657081
 40
1.0
 40
1.0
 40
1.0
 40
1.0
 10
3930.684238344283
 20
492.7625404450857
 30
0.0
 10
3931.130892634226
 20
492.5046644705527
 30
0.0
 10
3931.966250965876
 20
492.0223701129049
 30
0.0
 10
3932.797463432285
 20
491.5424693716695
 30
0.0
 10
3933.184238344283
 20
491.3191647721115
 30
0.0
  0
ARC
  5
1B1
330
1F
100
AcDbEntity
  8
0
  6
Continuous
 62
     7
370
    15
100
AcDbCircle
 10
3930.6842383443
 20
489.8757890991
 30
0.0
 40
2.886751345948198
100
AcDbArc
 50
210.0
 51
270.0
  0
SPLINE
  5
1B2
330
1F
100
AcDbEntity
  8
0
  6
Continuous
 62
     7
370
    15
100
AcDbSpline
210
0.0
220
0.0
230
1.0
 70
    24
 71
     3
 72
     9
 73
     5
 74
     0
 42
0.000000001
 43
0.00000001
 40
0.0
 40
0.0
 40
0.0
 40
0.0
 40
0.5346858623657081
 40
1.0
 40
1.0
 40
1.0
 40
1.0
 10
3930.684238344283
 20
486.9890377531893
 30
0.0
 10
3930.23758405434
 20
487.2469137277224
 30
0.0
 10
3929.402225722691
 20
487.7292080853701
 30
0.0
 10
3928.571013256281
 20
488.2091088266055
 30
0.0
 10
3928.184238344283
 20
488.4324134261635
 30
0.0
  0
ARC
  5
1B3
330
1F
100
AcDbEntity
  8
0
  6
Continuous
 62
     7
370
    15
100
AcDbCircle
 10
3930.6842383443
 20
489.8757890991
 30
0.0
 40
2.886751345948198
100
AcDbArc
 50
270.0
 51
330.0
  0
SPLINE
  5
1B4
330
1F
100
AcDbEntity
  8
0
  6
Continuous
 62
     7
370
    15
100
AcDbSpline
210
0.0
220
0.0
230
1.0
 70
    24
 71
     3
 72
     9
 73
     5
 74
     0
 42
0.000000001
 43
0.00000001
 40
0.0
 40
0.0
 40
0.0
 40
0.0
 40
0.5346858623657081
 40
1.0
 40
1.0
 40
1.0
 40
1.0
 10
3933.184238344283
 20
488.4324134261635
 30
0.0
 10
3932.73758405434
 20
488.1745374516304
 30
0.0
 10
3931.902225722691
 20
487.6922430939826
 30
0.0
 10
3931.071013256282
 20
487.2123423527472
 30
0.0
 10
3930.684238344283
 20
486.9890377531893
 30
0.0
  0
ARC
  5
1B5
330
1F
100
AcDbEntity
  8
0
  6
Continuous
 62
     7
370
    15
100
AcDbCircle
 10
3930.6842383443
 20
489.8757890991
 30
0.0
 40
2.886751345948198
100
AcDbArc
 50
90.0
 51
150.0
  0
SPLINE
  5
1B6
330
1F
100
AcDbEntity
  8
0
  6
Continuous
 62
     7
370
    15
100
AcDbSpline
210
0.0
220
0.0
230
1.0
 70
    24
 71
     3
 72
     9
 73
     5
 74
     0
 42
0.000000001
 43
0.00000001
 40
0.0
 40
0.0
 40
0.0
 40
0.0
 40
0.5346858623657081
 40
1.0
 40
1.0
 40
1.0
 40
1.0
 10
3928.184238344283
 20
491.3191647721115
 30
0.0
 10
3928.630892634226
 20
491.5770407466446
 30
0.0
 10
3929.466250965876
 20
492.0593351042924
 30
0.0
 10
3930.297463432285
 20
492.5392358455277
 30
0.0
 10
3930.684238344283
 20
492.7625404450857
 30
0.0
  0
ARC
  5
1B7
330
1F
100
AcDbEntity
  8
0
  6
Continuous
 62
     7
370
    15
100
AcDbCircle
 10
3930.6842383443
 20
489.8757890991
 30
0.0
 40
2.886751345948103
100
AcDbArc
 50
150.0
 51
210.0
  0
SPLINE
  5
1B8
330
1F
100
AcDbEntity
  8
0
  6
Continuous
 62
     7
370
    15
100
AcDbSpline
210
0.0
220
0.0
230
1.0
 70
    24
 71
     3
 72
    10
 73
     6
 74
     0
 42
0.000000001
 43
0.00000001
 40
0.0
 40
0.0
 40
0.0
 40
0.0
 40
0.3476243397033723
 40
0.8477691611544885
 40
0.9999999999999999
 40
0.9999999999999999
 40
0.9999999999999999
 40
0.9999999999999999
 10
3928.184238344283
 20
488.4324134261635
 30
0.0
 10
3928.184238344283
 20
488.7622383263808
 30
0.0
 10
3928.184238344283
 20
489.5665990889893
 30
0.0
 10
3928.184238344283
 20
490.5627705866214
 30
0.0
 10
3928.184238344283
 20
491.176055660418
 30
0.0
 10
3928.184238344283
 20
491.3191647721115
 30
0.0
  0
ARC
  5
1B9
330
1F
100
AcDbEntity
  8
0
  6
Continuous
 62
     7
370
    15
100
AcDbCircle
 10
3930.6842383443
 20
489.8757890991
 30
0.0
 40
2.886751345948103
100
AcDbArc
 50
330.0
 51
30.0
  0
SPLINE
  5
1BA
330
1F
100
AcDbEntity
  8
0
  6
Continuous
 62
     7
370
    15
100
AcDbSpline
210
0.0
220
0.0
230
1.0
 70
    24
 71
     3
 72
    10
 73
     6
 74
     0
 42
0.000000001
 43
0.00000001
 40
0.0
 40
0.0
 40
0.0
 40
0.0
 40
0.1522308389023572
 40
0.6523756600650883
 40
1.0
 40
1.0
 40
1.0
 40
1.0
 10
3933.184238344283
 20
491.3191647721115
 30
0.0
 10
3933.184238344283
 20
491.1760556603639
 30
0.0
 10
3933.184238344283
 20
490.5627705867819
 30
0.0
 10
3933.184238344283
 20
489.5665990891738
 30
0.0
 10
3933.184238344283
 20
488.7622383266059
 30
0.0
 10
3933.184238344283
 20
488.4324134261635
 30
0.0
  0
CIRCLE
  5
1BB
330
1F
100
AcDbEntity
  8
0
  6
Continuous
 62
     7
370
    15
100
AcDbCircle
 10
3930.6842383443
 20
489.8757890991
 30
0.0
 40
4.199999999999818
  0
CIRCLE
  5
1BC
330
1F
100
AcDbEntity
  8
0
  6
Continuous
 62
     7
370
    15
100
AcDbCircle
 10
3930.6842383443
 20
489.8757890991
 30
0.0
 40
4.999999999999545
  0
ARC
  5
1BD
330
1F
100
AcDbEntity
  8
0
  6
Continuous
 62
     7
370
    15
100
AcDbCircle
 10
3930.6842383443
 20
160.7861356611
 30
0.0
 40
2.88675134594817
100
AcDbArc
 50
90.0
 51
150.0
  0
SPLINE
  5
1BE
330
1F
100
AcDbEntity
  8
0
  6
Continuous
 62
     7
370
    15
100
AcDbSpline
210
0.0
220
0.0
230
1.0
 70
    24
 71
     3
 72
     9
 73
     5
 74
     0
 42
0.000000001
 43
0.00000001
 40
0.0
 40
0.0
 40
0.0
 40
0.0
 40
0.5346858623657081
 40
1.0
 40
1.0
 40
1.0
 40
1.0
 10
3928.184238344283
 20
162.2295113340249
 30
0.0
 10
3928.630892634226
 20
162.4873873085579
 30
0.0
 10
3929.466250965876
 20
162.9696816662057
 30
0.0
 10
3930.297463432285
 20
163.449582407441
 30
0.0
 10
3930.684238344283
 20
163.672887006999
 30
0.0
  0
ARC
  5
1BF
330
1F
100
AcDbEntity
  8
0
  6
Continuous
 62
     7
370
    15
100
AcDbCircle
 10
3930.6842383443
 20
160.7861356611
 30
0.0
 40
2.88675134594817
100
AcDbArc
 50
30.0
 51
90.0
  0
SPLINE
  5
1C0
330
1F
100
AcDbEntity
  8
0
  6
Continuous
 62
     7
370
    15
100
AcDbSpline
210
0.0
220
0.0
230
1.0
 70
    24
 71
     3
 72
     9
 73
     5
 74
     0
 42
0.000000001
 43
0.00000001
 40
0.0
 40
0.0
 40
0.0
 40
0.0
 40
0.5346858623657081
 40
1.0
 40
1.0
 40
1.0
 40
1.0
 10
3930.684238344283
 20
163.672887006999
 30
0.0
 10
3931.130892634226
 20
163.415011032466
 30
0.0
 10
3931.966250965876
 20
162.9327166748182
 30
0.0
 10
3932.797463432285
 20
162.4528159335829
 30
0.0
 10
3933.184238344283
 20
162.2295113340249
 30
0.0
  0
ARC
  5
1C1
330
1F
100
AcDbEntity
  8
0
  6
Continuous
 62
     7
370
    15
100
AcDbCircle
 10
3930.6842383443
 20
160.7861356611
 30
0.0
 40
2.88675134594817
100
AcDbArc
 50
210.0
 51
270.0
  0
SPLINE
  5
1C2
330
1F
100
AcDbEntity
  8
0
  6
Continuous
 62
     7
370
    15
100
AcDbSpline
210
0.0
220
0.0
230
1.0
 70
    24
 71
     3
 72
     9
 73
     5
 74
     0
 42
0.000000001
 43
0.00000001
 40
0.0
 40
0.0
 40
0.0
 40
0.0
 40
0.5346858623657081
 40
1.0
 40
1.0
 40
1.0
 40
1.0
 10
3930.684238344283
 20
157.8993843151027
 30
0.0
 10
3930.237584054341
 20
158.1572602896357
 30
0.0
 10
3929.402225722691
 20
158.6395546472835
 30
0.0
 10
3928.571013256282
 20
159.1194553885188
 30
0.0
 10
3928.184238344283
 20
159.3427599880768
 30
0.0
  0
ARC
  5
1C3
330
1F
100
AcDbEntity
  8
0
  6
Continuous
 62
     7
370
    15
100
AcDbCircle
 10
3930.6842383443
 20
160.7861356611
 30
0.0
 40
2.88675134594817
100
AcDbArc
 50
270.0
 51
330.0
  0
SPLINE
  5
1C4
330
1F
100
AcDbEntity
  8
0
  6
Continuous
 62
     7
370
    15
100
AcDbSpline
210
0.0
220
0.0
230
1.0
 70
    24
 71
     3
 72
     9
 73
     5
 74
     0
 42
0.000000001
 43
0.00000001
 40
0.0
 40
0.0
 40
0.0
 40
0.0
 40
0.5346858623657081
 40
1.0
 40
1.0
 40
1.0
 40
1.0
 10
3933.184238344283
 20
159.3427599880768
 30
0.0
 10
3932.73758405434
 20
159.0848840135438
 30
0.0
 10
3931.902225722691
 20
158.602589655896
 30
0.0
 10
3931.071013256282
 20
158.1226889146606
 30
0.0
 10
3930.684238344283
 20
157.8993843151027
 30
0.0
  0
ARC
  5
1C5
330
1F
100
AcDbEntity
  8
0
  6
Continuous
 62
     7
370
    15
100
AcDbCircle
 10
3930.6842383443
 20
160.7861356611
 30
0.0
 40
2.886751345948118
100
AcDbArc
 50
150.0
 51
210.0
  0
SPLINE
  5
1C6
330
1F
100
AcDbEntity
  8
0
  6
Continuous
 62
     7
370
    15
100
AcDbSpline
210
0.0
220
0.0
230
1.0
 70
    24
 71
     3
 72
    10
 73
     6
 74
     0
 42
0.000000001
 43
0.00000001
 40
0.0
 40
0.0
 40
0.0
 40
0.0
 40
0.3476243397033723
 40
0.8477691611544885
 40
0.9999999999999999
 40
0.9999999999999999
 40
0.9999999999999999
 40
0.9999999999999999
 10
3928.184238344283
 20
159.3427599880768
 30
0.0
 10
3928.184238344283
 20
159.6725848882941
 30
0.0
 10
3928.184238344283
 20
160.4769456509026
 30
0.0
 10
3928.184238344283
 20
161.4731171485347
 30
0.0
 10
3928.184238344283
 20
162.0864022223314
 30
0.0
 10
3928.184238344283
 20
162.2295113340249
 30
0.0
  0
ARC
  5
1C7
330
1F
100
AcDbEntity
  8
0
  6
Continuous
 62
     7
370
    15
100
AcDbCircle
 10
3930.6842383443
 20
160.7861356611
 30
0.0
 40
2.886751345948118
100
AcDbArc
 50
330.0
 51
30.0
  0
SPLINE
  5
1C8
330
1F
100
AcDbEntity
  8
0
  6
Continuous
 62
     7
370
    15
100
AcDbSpline
210
0.0
220
0.0
230
1.0
 70
    24
 71
     3
 72
    10
 73
     6
 74
     0
 42
0.000000001
 43
0.00000001
 40
0.0
 40
0.0
 40
0.0
 40
0.0
 40
0.1522308389023572
 40
0.6523756600650883
 40
1.0
 40
1.0
 40
1.0
 40
1.0
 10
3933.184238344283
 20
162.2295113340248
 30
0.0
 10
3933.184238344284
 20
162.0864022222772
 30
0.0
 10
3933.184238344284
 20
161.4731171486951
 30
0.0
 10
3933.184238344283
 20
160.4769456510872
 30
0.0
 10
3933.184238344283
 20
159.6725848885192
 30
0.0
 10
3933.184238344283
 20
159.3427599880768
 30
0.0
  0
CIRCLE
  5
1C9
330
1F
100
AcDbEntity
  8
0
  6
Continuous
 62
     7
370
    15
100
AcDbCircle
 10
3930.6842383443
 20
160.7861356611
 30
0.0
 40
4.199999999999818
  0
CIRCLE
  5
1CA
330
1F
100
AcDbEntity
  8
0
  6
Continuous
 62
     7
370
    15
100
AcDbCircle
 10
3930.6842383443
 20
160.7861356611
 30
0.0
 40
4.999999999999545
  0
ARC
  5
1CB
330
1F
100
AcDbEntity
  8
0
  6
Continuous
 62
     7
370
    15
100
AcDbCircle
 10
3179.6842383443
 20
947.2580771326
 30
0.0
 40
3.000000000000096
100
AcDbArc
 50
0.0
 51
91.3919372266
  0
LINE
  5
1CC
330
1F
100
AcDbEntity
  8
0
  6
Continuous
 62
     7
370
    15
100
AcDbLine
 10
3182.6842383443
 20
947.2580771326
 30
0.0
 11
3182.6842383443
 21
895.4753533662
 31
0.0
  0
ARC
  5
1CD
330
1F
100
AcDbEntity
  8
0
  6
Continuous
 62
     7
370
    15
100
AcDbCircle
 10
3179.6842383443
 20
895.4753533662
 30
0.0
 40
3.000000000000178
100
AcDbArc
 50
240.0
 51
0.0
  0
LINE
  5
1CE
330
1F
100
AcDbEntity
  8
0
  6
Continuous
 62
     7
370
    15
100
AcDbLine
 10
3178.1842383443
 20
892.8772771548
 30
0.0
 11
3108.7867951831
 21
932.943909645
 31
0.0
  0
ARC
  5
1CF
330
1F
100
AcDbEntity
  8
0
  6
Continuous
 62
     7
370
    15
100
AcDbCircle
 10
3185.6842383443
 20
700.3309623801
 30
0.0
 40
250.0000000000001
100
AcDbArc
 50
91.3919372266
 51
107.773373982
  0
ARC
  5
1D0
330
1F
100
AcDbEntity
  8
0
  6
Continuous
 62
     7
370
    15
100
AcDbCircle
 10
3110.2867951831
 20
935.5419858564
 30
0.0
 40
3.00000000000008
100
AcDbArc
 50
107.773373982
 51
240.0
  0
ARC
  5
1D1
330
1F
100
AcDbEntity
  8
0
  6
Continuous
 62
     7
370
    15
100
AcDbCircle
 10
3191.6842383443
 20
947.2580771326
 30
0.0
 40
3.000000000000455
100
AcDbArc
 50
88.6080627734
 51
180.0
  0
ARC
  5
1D2
330
1F
100
AcDbEntity
  8
0
  6
Continuous
 62
     7
370
    15
100
AcDbCircle
 10
3185.6842383443
 20
700.3309623801
 30
0.0
 40
250.0
100
AcDbArc
 50
72.226626018
 51
88.6080627734
  0
ARC
  5
1D3
330
1F
100
AcDbEntity
  8
0
  6
Continuous
 62
     7
370
    15
100
AcDbCircle
 10
3261.0816815055
 20
935.5419858564
 30
0.0
 40
2.999999999999975
100
AcDbArc
 50
300.0
 51
72.226626018
  0
LINE
  5
1D4
330
1F
100
AcDbEntity
  8
0
  6
Continuous
 62
     7
370
    15
100
AcDbLine
 10
3262.5816815055
 20
932.943909645
 30
0.0
 11
3193.1842383443
 21
892.8772771548
 31
0.0
  0
ARC
  5
1D5
330
1F
100
AcDbEntity
  8
0
  6
Continuous
 62
     7
370
    15
100
AcDbCircle
 10
3191.6842383443
 20
895.4753533662
 30
0.0
 40
3.000000000000455
100
AcDbArc
 50
180.0
 51
300.0
  0
LINE
  5
1D6
330
1F
100
AcDbEntity
  8
0
  6
Continuous
 62
     7
370
    15
100
AcDbLine
 10
3188.6842383443
 20
895.4753533662
 30
0.0
 11
3188.6842383443
 21
947.2580771326
 31
0.0
  0
CIRCLE
  5
1D7
330
1F
100
AcDbEntity
  8
0
  6
Continuous
 62
     7
370
    15
100
AcDbCircle
 10
3280.6842383443
 20
864.8757890991
 30
0.0
 40
5.5
  0
ARC
  5
1D8
330
1F
100
AcDbEntity
  8
0
  6
Continuous
 62
     7
370
    15
100
AcDbCircle
 10
3324.6842383443
 20
904.5073567062
 30
0.0
 40
3.000000000000016
100
AcDbArc
 50
0.0
 51
55.7535968103
  0
LINE
  5
1D9
330
1F
100
AcDbEntity
  8
0
  6
Continuous
 62
     7
370
    15
100
AcDbLine
 10
3327.6842383443
 20
904.5073567062
 30
0.0
 11
3327.6842383443
 21
811.7595643337
 31
0.0
  0
ARC
  5
1DA
330
1F
100
AcDbEntity
  8
0
  6
Continuous
 62
     7
370
    15
100
AcDbCircle
 10
3324.6842383443
 20
811.7595643337
 30
0.0
 40
3.000000000000178
100
AcDbArc
 50
240.0
 51
0.0
  0
LINE
  5
1DB
330
1F
100
AcDbEntity
  8
0
  6
Continuous
 62
     7
370
    15
100
AcDbLine
 10
3323.1842383443
 20
809.1614881223
 30
0.0
 11
3196.1842383443
 21
882.4849723094
 31
0.0
  0
ARC
  5
1DC
330
1F
100
AcDbEntity
  8
0
  6
Continuous
 62
     7
370
    15
100
AcDbCircle
 10
3197.6842383443
 20
885.0830485208
 30
0.0
 40
2.999999999999951
100
AcDbArc
 50
120.0
 51
240.0
  0
LINE
  5
1DD
330
1F
100
AcDbEntity
  8
0
  6
Continuous
 62
     7
370
    15
100
AcDbLine
 10
3196.1842383443
 20
887.6811247321
 30
0.0
 11
3274.4258300612
 21
932.8539287717
 31
0.0
  0
ARC
  5
1DE
330
1F
100
AcDbEntity
  8
0
  6
Continuous
 62
     7
370
    15
100
AcDbCircle
 10
3275.9258300612
 20
930.2558525603
 30
0.0
 40
3.00000000000008
100
AcDbArc
 50
68.5708408004
 51
120.0
  0
ARC
  5
1DF
330
1F
100
AcDbEntity
  8
0
  6
Continuous
 62
     7
370
    15
100
AcDbCircle
 10
3185.6842383443
 20
700.3309623801
 30
0.0
 40
250.0000000000001
100
AcDbArc
 50
55.7535968103
 51
68.5708408004
  0
CIRCLE
  5
1E0
330
1F
100
AcDbEntity
  8
0
  6
Continuous
 62
     7
370
    15
100
AcDbCircle
 10
3090.6842383443
 20
864.8757890991
 30
0.0
 40
5.500000000000455
  0
ARC
  5
1E1
330
1F
100
AcDbEntity
  8
0
  6
Continuous
 62
     7
370
    15
100
AcDbCircle
 10
3173.6842383443
 20
885.0830485208
 30
0.0
 40
3.000000000000049
100
AcDbArc
 50
300.0
 51
60.0
  0
LINE
  5
1E2
330
1F
100
AcDbEntity
  8
0
  6
Continuous
 62
     7
370
    15
100
AcDbLine
 10
3175.1842383443
 20
882.4849723094
 30
0.0
 11
3048.1842383443
 21
809.1614881223
 31
0.0
  0
ARC
  5
1E3
330
1F
100
AcDbEntity
  8
0
  6
Continuous
 62
     7
370
    15
100
AcDbCircle
 10
3046.6842383443
 20
811.7595643337
 30
0.0
 40
3.000000000000455
100
AcDbArc
 50
180.0
 51
300.0
  0
LINE
  5
1E4
330
1F
100
AcDbEntity
  8
0
  6
Continuous
 62
     7
370
    15
100
AcDbLine
 10
3043.6842383443
 20
811.7595643337
 30
0.0
 11
3043.6842383443
 21
904.5073567062
 31
0.0
  0
ARC
  5
1E5
330
1F
100
AcDbEntity
  8
0
  6
Continuous
 62
     7
370
    15
100
AcDbCircle
 10
3046.6842383443
 20
904.5073567062
 30
0.0
 40
3.000000000000455
100
AcDbArc
 50
124.2464031897
 51
180.0
  0
ARC
  5
1E6
330
1F
100
AcDbEntity
  8
0
  6
Continuous
 62
     7
370
    15
100
AcDbCircle
 10
3095.4426466274
 20
930.2558525603
 30
0.0
 40
3.000000000000049
100
AcDbArc
 50
60.0
 51
111.4291591996
  0
LINE
  5
1E7
330
1F
100
AcDbEntity
  8
0
  6
Continuous
 62
     7
370
    15
100
AcDbLine
 10
3096.9426466274
 20
932.8539287717
 30
0.0
 11
3175.1842383443
 21
887.6811247321
 31
0.0
  0
ARC
  5
1E8
330
1F
100
AcDbEntity
  8
0
  6
Continuous
 62
     7
370
    15
100
AcDbCircle
 10
3185.6842383443
 20
700.3309623801
 30
0.0
 40
250.0
100
AcDbArc
 50
111.4291591996
 51
124.2464031897
  0
ARC
  5
1E9
330
1F
100
AcDbEntity
  8
0
  6
Continuous
 62
     7
370
    15
100
AcDbCircle
 10
3396.5293926032
 20
828.9906721791
 30
0.0
 40
3.000000000000049
100
AcDbArc
 50
300.0
 51
31.3919372266
  0
LINE
  5
1EA
330
1F
100
AcDbEntity
  8
0
  6
Continuous
 62
     7
370
    15
100
AcDbLine
 10
3398.0293926032
 20
826.3925959677
 30
0.0
 11
3347.1842383443
 21
797.0371324694
 31
0.0
  0
ARC
  5
1EB
330
1F
100
AcDbEntity
  8
0
  6
Continuous
 62
     7
370
    15
100
AcDbCircle
 10
3345.6842383443
 20
799.6352086807
 30
0.0
 40
3.000000000000178
100
AcDbArc
 50
240.0
 51
300.0
  0
LINE
  5
1EC
330
1F
100
AcDbEntity
  8
0
  6
Continuous
 62
     7
370
    15
100
AcDbLine
 10
3344.1842383443
 20
797.0371324694
 30
0.0
 11
3335.1842383443
 21
802.2332848921
 31
0.0
  0
ARC
  5
1ED
330
1F
100
AcDbEntity
  8
0
  6
Continuous
 62
     7
370
    15
100
AcDbCircle
 10
3336.6842383443
 20
804.8313611034
 30
0.0
 40
3.000000000000455
100
AcDbArc
 50
180.0
 51
240.0
  0
LINE
  5
1EE
330
1F
100
AcDbEntity
  8
0
  6
Continuous
 62
     7
370
    15
100
AcDbLine
 10
3333.6842383443
 20
804.8313611034
 30
0.0
 11
3333.6842383443
 21
895.799629946
 31
0.0
  0
ARC
  5
1EF
330
1F
100
AcDbEntity
  8
0
  6
Continuous
 62
     7
370
    15
100
AcDbCircle
 10
3336.6842383443
 20
895.799629946
 30
0.0
 40
3.000000000000455
100
AcDbArc
 50
52.3138303773
 51
180.0
  0
ARC
  5
1F0
330
1F
100
AcDbEntity
  8
0
  6
Continuous
 62
     7
370
    15
100
AcDbCircle
 10
3185.6842383443
 20
700.3309623801
 30
0.0
 40
250.0
100
AcDbArc
 50
31.3919372266
 51
52.3138303773
  0
ARC
  5
1F1
330
1F
100
AcDbEntity
  8
0
  6
Continuous
 62
     7
370
    15
100
AcDbCircle
 10
3034.6842383443
 20
895.799629946
 30
0.0
 40
3.000000000000119
100
AcDbArc
 50
0.0
 51
127.6861696227
  0
LINE
  5
1F2
330
1F
100
AcDbEntity
  8
0
  6
Continuous
 62
     7
370
    15
100
AcDbLine
 10
3037.6842383443
 20
895.799629946
 30
0.0
 11
3037.6842383443
 21
804.8313611034
 31
0.0
  0
ARC
  5
1F3
330
1F
100
AcDbEntity
  8
0
  6
Continuous
 62
     7
370
    15
100
AcDbCircle
 10
3034.6842383443
 20
804.8313611034
 30
0.0
 40
3.000000000000049
100
AcDbArc
 50
300.0
 51
0.0
  0
LINE
  5
1F4
330
1F
100
AcDbEntity
  8
0
  6
Continuous
 62
     7
370
    15
100
AcDbLine
 10
3036.1842383443
 20
802.2332848921
 30
0.0
 11
3027.1842383443
 21
797.0371324694
 31
0.0
  0
ARC
  5
1F5
330
1F
100
AcDbEntity
  8
0
  6
Continuous
 62
     7
370
    15
100
AcDbCircle
 10
3025.6842383443
 20
799.6352086807
 30
0.0
 40
3.000000000000049
100
AcDbArc
 50
240.0
 51
300.0
  0
LINE
  5
1F6
330
1F
100
AcDbEntity
  8
0
  6
Continuous
 62
     7
370
    15
100
AcDbLine
 10
3024.1842383443
 20
797.0371324694
 30
0.0
 11
2973.3390840854
 21
826.3925959677
 31
0.0
  0
ARC
  5
1F7
330
1F
100
AcDbEntity
  8
0
  6
Continuous
 62
     7
370
    15
100
AcDbCircle
 10
2974.8390840854
 20
828.9906721791
 30
0.0
 40
3.000000000000187
100
AcDbArc
 50
148.6080627734
 51
240.0
  0
ARC
  5
1F8
330
1F
100
AcDbEntity
  8
0
  6
Continuous
 62
     7
370
    15
100
AcDbCircle
 10
3185.6842383443
 20
700.3309623801
 30
0.0
 40
250.0000000000001
100
AcDbArc
 50
127.6861696227
 51
148.6080627734
  0
ARC
  5
1F9
330
1F
100
AcDbEntity
  8
0
  6
Continuous
 62
     7
370
    15
100
AcDbCircle
 10
3324.6842383443
 20
797.9031578731
 30
0.0
 40
3.000000000000049
100
AcDbArc
 50
0.0
 51
60.0
  0
LINE
  5
1FA
330
1F
100
AcDbEntity
  8
0
  6
Continuous
 62
     7
370
    15
100
AcDbLine
 10
3327.6842383443
 20
797.9031578731
 30
0.0
 11
3327.6842383443
 21
787.5108530277
 31
0.0
  0
ARC
  5
1FB
330
1F
100
AcDbEntity
  8
0
  6
Continuous
 62
     7
370
    15
100
AcDbCircle
 10
3324.6842383443
 20
787.5108530277
 30
0.0
 40
3.0
100
AcDbArc
 50
300.0
 51
0.0
  0
LINE
  5
1FC
330
1F
100
AcDbEntity
  8
0
  6
Continuous
 62
     7
370
    15
100
AcDbLine
 10
3326.1842383443
 20
784.9127768164
 30
0.0
 11
3193.1842383443
 21
708.1251910142
 31
0.0
  0
ARC
  5
1FD
330
1F
100
AcDbEntity
  8
0
  6
Continuous
 62
     7
370
    15
100
AcDbCircle
 10
3191.6842383443
 20
710.7232672255
 30
0.0
 40
3.000000000000455
100
AcDbArc
 50
180.0
 51
300.0
  0
LINE
  5
1FE
330
1F
100
AcDbEntity
  8
0
  6
Continuous
 62
     7
370
    15
100
AcDbLine
 10
3188.6842383443
 20
710.7232672255
 30
0.0
 11
3188.6842383443
 21
874.6907436754
 31
0.0
  0
ARC
  5
1FF
330
1F
100
AcDbEntity
  8
0
  6
Continuous
 62
     7
370
    15
100
AcDbCircle
 10
3191.6842383443
 20
874.6907436754
 30
0.0
 40
3.000000000000455
100
AcDbArc
 50
60.0
 51
180.0
  0
LINE
  5
200
330
1F
100
AcDbEntity
  8
0
  6
Continuous
 62
     7
370
    15
100
AcDbLine
 10
3193.1842383443
 20
877.2888198867
 30
0.0
 11
3326.1842383443
 21
800.5012340845
 31
0.0
  0
ARC
  5
201
330
1F
100
AcDbEntity
  8
0
  6
Continuous
 62
     7
370
    15
100
AcDbCircle
 10
3179.6842383443
 20
710.7232672255
 30
0.0
 40
3.000000000000178
100
AcDbArc
 50
240.0
 51
0.0
  0
LINE
  5
202
330
1F
100
AcDbEntity
  8
0
  6
Continuous
 62
     7
370
    15
100
AcDbLine
 10
3178.1842383443
 20
708.1251910142
 30
0.0
 11
3045.1842383443
 21
784.9127768164
 31
0.0
  0
ARC
  5
203
330
1F
100
AcDbEntity
  8
0
  6
Continuous
 62
     7
370
    15
100
AcDbCircle
 10
3046.6842383443
 20
787.5108530277
 30
0.0
 40
3.000000000000455
100
AcDbArc
 50
180.0
 51
240.0
  0
LINE
  5
204
330
1F
100
AcDbEntity
  8
0
  6
Continuous
 62
     7
370
    15
100
AcDbLine
 10
3043.6842383443
 20
787.5108530277
 30
0.0
 11
3043.6842383443
 21
797.9031578731
 31
0.0
  0
ARC
  5
205
330
1F
100
AcDbEntity
  8
0
  6
Continuous
 62
     7
370
    15
100
AcDbCircle
 10
3046.6842383443
 20
797.9031578731
 30
0.0
 40
3.000000000000455
100
AcDbArc
 50
120.0
 51
180.0
  0
LINE
  5
206
330
1F
100
AcDbEntity
  8
0
  6
Continuous
 62
     7
370
    15
100
AcDbLine
 10
3045.1842383443
 20
800.5012340845
 30
0.0
 11
3178.1842383443
 21
877.2888198867
 31
0.0
  0
ARC
  5
207
330
1F
100
AcDbEntity
  8
0
  6
Continuous
 62
     7
370
    15
100
AcDbCircle
 10
3179.6842383443
 20
874.6907436754
 30
0.0
 40
3.000000000000178
100
AcDbArc
 50
0.0
 51
120.0
  0
LINE
  5
208
330
1F
100
AcDbEntity
  8
0
  6
Continuous
 62
     7
370
    15
100
AcDbLine
 10
3182.6842383443
 20
874.6907436754
 30
0.0
 11
3182.6842383443
 21
710.7232672255
 31
0.0
  0
LINE
  5
209
330
1F
100
AcDbEntity
  8
0
  6
Continuous
 62
     7
370
    15
100
AcDbLine
 10
2970.3390840854
 20
821.196443545
 30
0.0
 11
3015.1842383443
 21
795.3050816618
 31
0.0
  0
ARC
  5
20A
330
1F
100
AcDbEntity
  8
0
  6
Continuous
 62
     7
370
    15
100
AcDbCircle
 10
3013.6842383443
 20
792.7070054504
 30
0.0
 40
3.000000000000277
100
AcDbArc
 50
300.0
 51
60.0
  0
LINE
  5
20B
330
1F
100
AcDbEntity
  8
0
  6
Continuous
 62
     7
370
    15
100
AcDbLine
 10
3015.1842383443
 20
790.1089292391
 30
0.0
 11
2945.7867951831
 21
750.0422967489
 31
0.0
  0
ARC
  5
20C
330
1F
100
AcDbEntity
  8
0
  6
Continuous
 62
     7
370
    15
100
AcDbCircle
 10
2944.2867951831
 20
752.6403729603
 30
0.0
 40
3.000000000000478
100
AcDbArc
 50
167.773373982
 51
300.0
  0
ARC
  5
20D
330
1F
100
AcDbEntity
  8
0
  6
Continuous
 62
     7
370
    15
100
AcDbCircle
 10
2968.8390840854
 20
818.5983673336
 30
0.0
 40
3.000000000000277
100
AcDbArc
 50
60.0
 51
151.3919372266
  0
ARC
  5
20E
330
1F
100
AcDbEntity
  8
0
  6
Continuous
 62
     7
370
    15
100
AcDbCircle
 10
3185.6842383443
 20
700.3309623801
 30
0.0
 40
250.0000000000001
100
AcDbArc
 50
151.3919372266
 51
167.773373982
  0
ARC
  5
20F
330
1F
100
AcDbEntity
  8
0
  6
Continuous
 62
     7
370
    15
100
AcDbCircle
 10
3427.0816815055
 20
752.6403729603
 30
0.0
 40
3.000000000000049
100
AcDbArc
 50
240.0
 51
12.226626018
  0
LINE
  5
210
330
1F
100
AcDbEntity
  8
0
  6
Continuous
 62
     7
370
    15
100
AcDbLine
 10
3425.5816815055
 20
750.0422967489
 30
0.0
 11
3356.1842383443
 21
790.1089292391
 31
0.0
  0
ARC
  5
211
330
1F
100
AcDbEntity
  8
0
  6
Continuous
 62
     7
370
    15
100
AcDbCircle
 10
3357.6842383443
 20
792.7070054504
 30
0.0
 40
3.000000000000049
100
AcDbArc
 50
120.0
 51
240.0
  0
LINE
  5
212
330
1F
100
AcDbEntity
  8
0
  6
Continuous
 62
     7
370
    15
100
AcDbLine
 10
3356.1842383443
 20
795.3050816618
 30
0.0
 11
3401.0293926032
 21
821.196443545
 31
0.0
  0
ARC
  5
213
330
1F
100
AcDbEntity
  8
0
  6
Continuous
 62
     7
370
    15
100
AcDbCircle
 10
3402.5293926032
 20
818.5983673336
 30
0.0
 40
3.000000000000049
100
AcDbArc
 50
28.6080627734
 51
120.0
  0
ARC
  5
214
330
1F
100
AcDbEntity
  8
0
  6
Continuous
 62
     7
370
    15
100
AcDbCircle
 10
3185.6842383443
 20
700.3309623801
 30
0.0
 40
250.0
100
AcDbArc
 50
12.226626018
 51
28.6080627734
  0
CIRCLE
  5
215
330
1F
100
AcDbEntity
  8
0
  6
Continuous
 62
     7
370
    15
100
AcDbCircle
 10
2995.6842383443
 20
700.3309623801
 30
0.0
 40
5.5
  0
ARC
  5
216
330
1F
100
AcDbEntity
  8
0
  6
Continuous
 62
     7
370
    15
100
AcDbCircle
 10
3025.6842383443
 20
614.88312254
 30
0.0
 40
2.999999999999951
100
AcDbArc
 50
240.0
 51
300.0
  0
LINE
  5
217
330
1F
100
AcDbEntity
  8
0
  6
Continuous
 62
     7
370
    15
100
AcDbLine
 10
3024.1842383443
 20
612.2850463287
 30
0.0
 11
2939.9426466274
 21
660.9219519834
 31
0.0
  0
ARC
  5
218
330
1F
100
AcDbEntity
  8
0
  6
Continuous
 62
     7
370
    15
100
AcDbCircle
 10
2941.4426466274
 20
663.5200281947
 30
0.0
 40
3.000000000000629
100
AcDbArc
 50
188.5708408004
 51
240.0
  0
ARC
  5
219
330
1F
100
AcDbEntity
  8
0
  6
Continuous
 62
     7
370
    15
100
AcDbCircle
 10
2941.4426466274
 20
737.1418965654
 30
0.0
 40
3.000000000000213
100
AcDbArc
 50
120.0
 51
171.4291591996
  0
LINE
  5
21A
330
1F
100
AcDbEntity
  8
0
  6
Continuous
 62
     7
370
    15
100
AcDbLine
 10
2939.9426466274
 20
739.7399727768
 30
0.0
 11
3024.1842383443
 21
788.3768784315
 31
0.0
  0
ARC
  5
21B
330
1F
100
AcDbEntity
  8
0
  6
Continuous
 62
     7
370
    15
100
AcDbCircle
 10
3025.6842383443
 20
785.7788022202
 30
0.0
 40
3.000000000000049
100
AcDbArc
 50
60.0
 51
120.0
  0
LINE
  5
21C
330
1F
100
AcDbEntity
  8
0
  6
Continuous
 62
     7
370
    15
100
AcDbLine
 10
3027.1842383443
 20
788.3768784315
 30
0.0
 11
3036.1842383443
 21
783.1807260088
 31
0.0
  0
ARC
  5
21D
330
1F
100
AcDbEntity
  8
0
  6
Continuous
 62
     7
370
    15
100
AcDbCircle
 10
3034.6842383443
 20
780.5826497975
 30
0.0
 40
3.000000000000049
100
AcDbArc
 50
0.0
 51
60.0
  0
LINE
  5
21E
330
1F
100
AcDbEntity
  8
0
  6
Continuous
 62
     7
370
    15
100
AcDbLine
 10
3037.6842383443
 20
780.5826497975
 30
0.0
 11
3037.6842383443
 21
620.0792749627
 31
0.0
  0
ARC
  5
21F
330
1F
100
AcDbEntity
  8
0
  6
Continuous
 62
     7
370
    15
100
AcDbCircle
 10
3034.6842383443
 20
620.0792749627
 30
0.0
 40
3.000000000000049
100
AcDbArc
 50
300.0
 51
0.0
  0
LINE
  5
220
330
1F
100
AcDbEntity
  8
0
  6
Continuous
 62
     7
370
    15
100
AcDbLine
 10
3036.1842383443
 20
617.4811987514
 30
0.0
 11
3027.1842383443
 21
612.2850463287
 31
0.0
  0
ARC
  5
221
330
1F
100
AcDbEntity
  8
0
  6
Continuous
 62
     7
370
    15
100
AcDbCircle
 10
3185.6842383443
 20
700.3309623801
 30
0.0
 40
250.0000000000003
100
AcDbArc
 50
171.4291591996
 51
188.5708408004
  0
CIRCLE
  5
222
330
1F
100
AcDbEntity
  8
0
  6
Continuous
 62
     7
370
    15
100
AcDbCircle
 10
3375.6842383443
 20
700.3309623801
 30
0.0
 40
5.5
  0
ARC
  5
223
330
1F
100
AcDbEntity
  8
0
  6
Continuous
 62
     7
370
    15
100
AcDbCircle
 10
3345.6842383443
 20
785.7788022202
 30
0.0
 40
3.000000000000277
100
AcDbArc
 50
60.0
 51
120.0
  0
LINE
  5
224
330
1F
100
AcDbEntity
  8
0
  6
Continuous
 62
     7
370
    15
100
AcDbLine
 10
3347.1842383443
 20
788.3768784315
 30
0.0
 11
3431.4258300612
 21
739.7399727768
 31
0.0
  0
ARC
  5
225
330
1F
100
AcDbEntity
  8
0
  6
Continuous
 62
     7
370
    15
100
AcDbCircle
 10
3429.9258300612
 20
737.1418965654
 30
0.0
 40
3.000000000000629
100
AcDbArc
 50
8.5708408004
 51
60.0
  0
ARC
  5
226
330
1F
100
AcDbEntity
  8
0
  6
Continuous
 62
     7
370
    15
100
AcDbCircle
 10
3429.9258300612
 20
663.5200281947
 30
0.0
 40
3.000000000000179
100
AcDbArc
 50
300.0
 51
351.4291591996
  0
LINE
  5
227
330
1F
100
AcDbEntity
  8
0
  6
Continuous
 62
     7
370
    15
100
AcDbLine
 10
3431.4258300612
 20
660.9219519834
 30
0.0
 11
3347.1842383443
 21
612.2850463287
 31
0.0
  0
ARC
  5
228
330
1F
100
AcDbEntity
  8
0
  6
Continuous
 62
     7
370
    15
100
AcDbCircle
 10
3345.6842383443
 20
614.88312254
 30
0.0
 40
3.00000000000008
100
AcDbArc
 50
240.0
 51
300.0
  0
LINE
  5
229
330
1F
100
AcDbEntity
  8
0
  6
Continuous
 62
     7
370
    15
100
AcDbLine
 10
3344.1842383443
 20
612.2850463287
 30
0.0
 11
3335.1842383443
 21
617.4811987514
 31
0.0
  0
ARC
  5
22A
330
1F
100
AcDbEntity
  8
0
  6
Continuous
 62
     7
370
    15
100
AcDbCircle
 10
3336.6842383443
 20
620.0792749627
 30
0.0
 40
3.000000000000455
100
AcDbArc
 50
180.0
 51
240.0
  0
ARC
  5
22B
330
1F
100
AcDbEntity
  8
0
  6
Continuous
 62
     7
370
    15
100
AcDbCircle
 10
3336.6842383443
 20
780.5826497975
 30
0.0
 40
3.000000000000455
100
AcDbArc
 50
120.0
 51
180.0
  0
LINE
  5
22C
330
1F
100
AcDbEntity
  8
0
  6
Continuous
 62
     7
370
    15
100
AcDbLine
 10
3335.1842383443
 20
783.1807260088
 30
0.0
 11
3344.1842383443
 21
788.3768784315
 31
0.0
  0
LINE
  5
22D
330
1F
100
AcDbEntity
  8
0
  6
Continuous
 62
     7
370
    15
100
AcDbLine
 10
3333.6842383443
 20
620.0792749627
 30
0.0
 11
3333.6842383443
 21
780.5826497975
 31
0.0
  0
ARC
  5
22E
330
1F
100
AcDbEntity
  8
0
  6
Continuous
 62
     7
370
    15
100
AcDbCircle
 10
3185.6842383443
 20
700.3309623801
 30
0.0
 40
250.0000000000003
100
AcDbArc
 50
351.4291591996
 51
8.5708408004
  0
ARC
  5
22F
330
1F
100
AcDbEntity
  8
0
  6
Continuous
 62
     7
370
    15
100
AcDbCircle
 10
3046.6842383443
 20
627.007478193
 30
0.0
 40
3.000000000000455
100
AcDbArc
 50
180.0
 51
300.0
  0
LINE
  5
230
330
1F
100
AcDbEntity
  8
0
  6
Continuous
 62
     7
370
    15
100
AcDbLine
 10
3048.1842383443
 20
776.2525227785
 30
0.0
 11
3175.1842383443
 21
702.9290385914
 31
0.0
  0
ARC
  5
231
330
1F
100
AcDbEntity
  8
0
  6
Continuous
 62
     7
370
    15
100
AcDbCircle
 10
3173.6842383443
 20
700.3309623801
 30
0.0
 40
3.000000000000049
100
AcDbArc
 50
300.0
 51
60.0
  0
LINE
  5
232
330
1F
100
AcDbEntity
  8
0
  6
Continuous
 62
     7
370
    15
100
AcDbLine
 10
3175.1842383443
 20
697.7328861687
 30
0.0
 11
3048.1842383443
 21
624.4094019817
 31
0.0
  0
LINE
  5
233
330
1F
100
AcDbEntity
  8
0
  6
Continuous
 62
     7
370
    15
100
AcDbLine
 10
3043.6842383443
 20
627.007478193
 30
0.0
 11
3043.6842383443
 21
773.6544465672
 31
0.0
  0
ARC
  5
234
330
1F
100
AcDbEntity
  8
0
  6
Continuous
 62
     7
370
    15
100
AcDbCircle
 10
3046.6842383443
 20
773.6544465672
 30
0.0
 40
3.000000000000455
100
AcDbArc
 50
60.0
 51
180.0
  0
ARC
  5
235
330
1F
100
AcDbEntity
  8
0
  6
Continuous
 62
     7
370
    15
100
AcDbCircle
 10
3324.6842383443
 20
627.007478193
 30
0.0
 40
3.000000000000178
100
AcDbArc
 50
240.0
 51
0.0
  0
LINE
  5
236
330
1F
100
AcDbEntity
  8
0
  6
Continuous
 62
     7
370
    15
100
AcDbLine
 10
3323.1842383443
 20
624.4094019817
 30
0.0
 11
3196.1842383443
 21
697.7328861687
 31
0.0
  0
ARC
  5
237
330
1F
100
AcDbEntity
  8
0
  6
Continuous
 62
     7
370
    15
100
AcDbCircle
 10
3197.6842383443
 20
700.3309623801
 30
0.0
 40
3.000000000000049
100
AcDbArc
 50
120.0
 51
240.0
  0
LINE
  5
238
330
1F
100
AcDbEntity
  8
0
  6
Continuous
 62
     7
370
    15
100
AcDbLine
 10
3327.6842383443
 20
773.6544465672
 30
0.0
 11
3327.6842383443
 21
627.007478193
 31
0.0
  0
ARC
  5
239
330
1F
100
AcDbEntity
  8
0
  6
Continuous
 62
     7
370
    15
100
AcDbCircle
 10
3324.6842383443
 20
773.6544465672
 30
0.0
 40
3.000000000000178
100
AcDbArc
 50
0.0
 51
120.0
  0
LINE
  5
23A
330
1F
100
AcDbEntity
  8
0
  6
Continuous
 62
     7
370
    15
100
AcDbLine
 10
3196.1842383443
 20
702.9290385914
 30
0.0
 11
3323.1842383443
 21
776.2525227785
 31
0.0
  0
ARC
  5
23B
330
1F
100
AcDbEntity
  8
0
  6
Continuous
 62
     7
370
    15
100
AcDbCircle
 10
3046.6842383443
 20
602.758766887
 30
0.0
 40
3.000000000000455
100
AcDbArc
 50
180.0
 51
240.0
  0
LINE
  5
23C
330
1F
100
AcDbEntity
  8
0
  6
Continuous
 62
     7
370
    15
100
AcDbLine
 10
3043.6842383443
 20
602.758766887
 30
0.0
 11
3043.6842383443
 21
613.1510717325
 31
0.0
  0
ARC
  5
23D
330
1F
100
AcDbEntity
  8
0
  6
Continuous
 62
     7
370
    15
100
AcDbCircle
 10
3046.6842383443
 20
613.1510717325
 30
0.0
 40
3.000000000000455
100
AcDbArc
 50
120.0
 51
180.0
  0
ARC
  5
23E
330
1F
100
AcDbEntity
  8
0
  6
Continuous
 62
     7
370
    15
100
AcDbCircle
 10
3179.6842383443
 20
525.9711810848
 30
0.0
 40
3.000000000000277
100
AcDbArc
 50
240.0
 51
0.0
  0
LINE
  5
23F
330
1F
100
AcDbEntity
  8
0
  6
Continuous
 62
     7
370
    15
100
AcDbLine
 10
3178.1842383443
 20
523.3731048735
 30
0.0
 11
3045.1842383443
 21
600.1606906757
 31
0.0
  0
ARC
  5
240
330
1F
100
AcDbEntity
  8
0
  6
Continuous
 62
     7
370
    15
100
AcDbCircle
 10
3179.6842383443
 20
689.9386575347
 30
0.0
 40
3.000000000000178
100
AcDbArc
 50
0.0
 51
120.0
  0
LINE
  5
241
330
1F
100
AcDbEntity
  8
0
  6
Continuous
 62
     7
370
    15
100
AcDbLine
 10
3045.1842383443
 20
615.7491479438
 30
0.0
 11
3178.1842383443
 21
692.536733746
 31
0.0
  0
LINE
  5
242
330
1F
100
AcDbEntity
  8
0
  6
Continuous
 62
     7
370
    15
100
AcDbLine
 10
3182.6842383443
 20
689.9386575347
 30
0.0
 11
3182.6842383443
 21
525.9711810848
 31
0.0
  0
ARC
  5
243
330
1F
100
AcDbEntity
  8
0
  6
Continuous
 62
     7
370
    15
100
AcDbCircle
 10
3191.6842383443
 20
525.9711810848
 30
0.0
 40
3.000000000000455
100
AcDbArc
 50
180.0
 51
300.0
  0
LINE
  5
244
330
1F
100
AcDbEntity
  8
0
  6
Continuous
 62
     7
370
    15
100
AcDbLine
 10
3193.1842383443
 20
692.536733746
 30
0.0
 11
3326.1842383443
 21
615.7491479438
 31
0.0
  0
ARC
  5
245
330
1F
100
AcDbEntity
  8
0
  6
Continuous
 62
     7
370
    15
100
AcDbCircle
 10
3324.6842383443
 20
613.1510717325
 30
0.0
 40
3.000000000000049
100
AcDbArc
 50
0.0
 51
60.0
  0
LINE
  5
246
330
1F
100
AcDbEntity
  8
0
  6
Continuous
 62
     7
370
    15
100
AcDbLine
 10
3327.6842383443
 20
613.1510717325
 30
0.0
 11
3327.6842383443
 21
602.758766887
 31
0.0
  0
ARC
  5
247
330
1F
100
AcDbEntity
  8
0
  6
Continuous
 62
     7
370
    15
100
AcDbCircle
 10
3324.6842383443
 20
602.758766887
 30
0.0
 40
3.0
100
AcDbArc
 50
300.0
 51
0.0
  0
LINE
  5
248
330
1F
100
AcDbEntity
  8
0
  6
Continuous
 62
     7
370
    15
100
AcDbLine
 10
3326.1842383443
 20
600.1606906757
 30
0.0
 11
3193.1842383443
 21
523.3731048735
 31
0.0
  0
ARC
  5
249
330
1F
100
AcDbEntity
  8
0
  6
Continuous
 62
     7
370
    15
100
AcDbCircle
 10
3191.6842383443
 20
689.9386575347
 30
0.0
 40
3.000000000000455
100
AcDbArc
 50
60.0
 51
180.0
  0
LINE
  5
24A
330
1F
100
AcDbEntity
  8
0
  6
Continuous
 62
     7
370
    15
100
AcDbLine
 10
3188.6842383443
 20
525.9711810848
 30
0.0
 11
3188.6842383443
 21
689.9386575347
 31
0.0
  0
ARC
  5
24B
330
1F
100
AcDbEntity
  8
0
  6
Continuous
 62
     7
370
    15
100
AcDbCircle
 10
3402.5293926032
 20
582.0635574265
 30
0.0
 40
2.999999999999951
100
AcDbArc
 50
240.0
 51
331.3919372266
  0
LINE
  5
24C
330
1F
100
AcDbEntity
  8
0
  6
Continuous
 62
     7
370
    15
100
AcDbLine
 10
3401.0293926032
 20
579.4654812152
 30
0.0
 11
3356.1842383443
 21
605.3568430984
 31
0.0
  0
ARC
  5
24D
330
1F
100
AcDbEntity
  8
0
  6
Continuous
 62
     7
370
    15
100
AcDbCircle
 10
3357.6842383443
 20
607.9549193098
 30
0.0
 40
3.000000000000049
100
AcDbArc
 50
120.0
 51
240.0
  0
LINE
  5
24E
330
1F
100
AcDbEntity
  8
0
  6
Continuous
 62
     7
370
    15
100
AcDbLine
 10
3356.1842383443
 20
610.5529955211
 30
0.0
 11
3425.5816815055
 21
650.6196280113
 31
0.0
  0
ARC
  5
24F
330
1F
100
AcDbEntity
  8
0
  6
Continuous
 62
     7
370
    15
100
AcDbCircle
 10
3427.0816815055
 20
648.0215517999
 30
0.0
 40
3.000000000000454
100
AcDbArc
 50
347.773373982
 51
120.0
  0
ARC
  5
250
330
1F
100
AcDbEntity
  8
0
  6
Continuous
 62
     7
370
    15
100
AcDbCircle
 10
3185.6842383443
 20
700.3309623801
 30
0.0
 40
250.0000000000002
100
AcDbArc
 50
331.3919372266
 51
347.773373982
  0
ARC
  5
251
330
1F
100
AcDbEntity
  8
0
  6
Continuous
 62
     7
370
    15
100
AcDbCircle
 10
2968.8390840854
 20
582.0635574265
 30
0.0
 40
3.000000000000307
100
AcDbArc
 50
208.6080627734
 51
300.0
  0
LINE
  5
252
330
1F
100
AcDbEntity
  8
0
  6
Continuous
 62
     7
370
    15
100
AcDbLine
 10
2945.7867951831
 20
650.6196280113
 30
0.0
 11
3015.1842383443
 21
610.5529955211
 31
0.0
  0
ARC
  5
253
330
1F
100
AcDbEntity
  8
0
  6
Continuous
 62
     7
370
    15
100
AcDbCircle
 10
3013.6842383443
 20
607.9549193098
 30
0.0
 40
3.000000000000049
100
AcDbArc
 50
300.0
 51
60.0
  0
LINE
  5
254
330
1F
100
AcDbEntity
  8
0
  6
Continuous
 62
     7
370
    15
100
AcDbLine
 10
3015.1842383443
 20
605.3568430984
 30
0.0
 11
2970.3390840854
 21
579.4654812152
 31
0.0
  0
ARC
  5
255
330
1F
100
AcDbEntity
  8
0
  6
Continuous
 62
     7
370
    15
100
AcDbCircle
 10
2944.2867951831
 20
648.0215517999
 30
0.0
 40
3.000000000000033
100
AcDbArc
 50
60.0
 51
192.226626018
  0
ARC
  5
256
330
1F
100
AcDbEntity
  8
0
  6
Continuous
 62
     7
370
    15
100
AcDbCircle
 10
3185.6842383443
 20
700.3309623801
 30
0.0
 40
250.0000000000001
100
AcDbArc
 50
192.226626018
 51
208.6080627734
  0
ARC
  5
257
330
1F
100
AcDbEntity
  8
0
  6
Continuous
 62
     7
370
    15
100
AcDbCircle
 10
2974.8390840854
 20
571.6712525811
 30
0.0
 40
3.000000000000049
100
AcDbArc
 50
120.0
 51
211.3919372266
  0
LINE
  5
258
330
1F
100
AcDbEntity
  8
0
  6
Continuous
 62
     7
370
    15
100
AcDbLine
 10
3027.1842383443
 20
603.6247922908
 30
0.0
 11
3036.1842383443
 21
598.4286398681
 31
0.0
  0
ARC
  5
259
330
1F
100
AcDbEntity
  8
0
  6
Continuous
 62
     7
370
    15
100
AcDbCircle
 10
3034.6842383443
 20
595.8305636568
 30
0.0
 40
3.000000000000246
100
AcDbArc
 50
0.0
 51
60.0
  0
LINE
  5
25A
330
1F
100
AcDbEntity
  8
0
  6
Continuous
 62
     7
370
    15
100
AcDbLine
 10
3037.6842383443
 20
595.8305636568
 30
0.0
 11
3037.6842383443
 21
504.8622948142
 31
0.0
  0
ARC
  5
25B
330
1F
100
AcDbEntity
  8
0
  6
Continuous
 62
     7
370
    15
100
AcDbCircle
 10
3034.6842383443
 20
504.8622948142
 30
0.0
 40
3.00000000000021
100
AcDbArc
 50
232.3138303773
 51
0.0
  0
LINE
  5
25C
330
1F
100
AcDbEntity
  8
0
  6
Continuous
 62
     7
370
    15
100
AcDbLine
 10
2973.3390840854
 20
574.2693287925
 30
0.0
 11
3024.1842383443
 21
603.6247922908
 31
0.0
  0
ARC
  5
25D
330
1F
100
AcDbEntity
  8
0
  6
Continuous
 62
     7
370
    15
100
AcDbCircle
 10
3025.6842383443
 20
601.0267160795
 30
0.0
 40
3.000000000000148
100
AcDbArc
 50
60.0
 51
120.0
  0
ARC
  5
25E
330
1F
100
AcDbEntity
  8
0
  6
Continuous
 62
     7
370
    15
100
AcDbCircle
 10
3185.6842383443
 20
700.3309623801
 30
0.0
 40
250.0000000000001
100
AcDbArc
 50
211.3919372266
 51
232.3138303773
  0
ARC
  5
25F
330
1F
100
AcDbEntity
  8
0
  6
Continuous
 62
     7
370
    15
100
AcDbCircle
 10
3345.6842383443
 20
601.0267160795
 30
0.0
 40
3.000000000000277
100
AcDbArc
 50
60.0
 51
120.0
  0
ARC
  5
260
330
1F
100
AcDbEntity
  8
0
  6
Continuous
 62
     7
370
    15
100
AcDbCircle
 10
3396.5293926032
 20
571.6712525811
 30
0.0
 40
3.000000000000305
100
AcDbArc
 50
328.6080627734
 51
60.0
  0
ARC
  5
261
330
1F
100
AcDbEntity
  8
0
  6
Continuous
 62
     7
370
    15
100
AcDbCircle
 10
3336.6842383443
 20
504.8622948142
 30
0.0
 40
3.000000000000455
100
AcDbArc
 50
180.0
 51
307.6861696227
  0
LINE
  5
262
330
1F
100
AcDbEntity
  8
0
  6
Continuous
 62
     7
370
    15
100
AcDbLine
 10
3333.6842383443
 20
504.8622948142
 30
0.0
 11
3333.6842383443
 21
595.8305636568
 31
0.0
  0
ARC
  5
263
330
1F
100
AcDbEntity
  8
0
  6
Continuous
 62
     7
370
    15
100
AcDbCircle
 10
3336.6842383443
 20
595.8305636568
 30
0.0
 40
3.000000000000455
100
AcDbArc
 50
120.0
 51
180.0
  0
LINE
  5
264
330
1F
100
AcDbEntity
  8
0
  6
Continuous
 62
     7
370
    15
100
AcDbLine
 10
3335.1842383443
 20
598.4286398681
 30
0.0
 11
3344.1842383443
 21
603.6247922908
 31
0.0
  0
LINE
  5
265
330
1F
100
AcDbEntity
  8
0
  6
Continuous
 62
     7
370
    15
100
AcDbLine
 10
3347.1842383443
 20
603.6247922908
 30
0.0
 11
3398.0293926032
 21
574.2693287925
 31
0.0
  0
ARC
  5
266
330
1F
100
AcDbEntity
  8
0
  6
Continuous
 62
     7
370
    15
100
AcDbCircle
 10
3185.6842383443
 20
700.3309623801
 30
0.0
 40
250.0000000000003
100
AcDbArc
 50
307.6861696227
 51
328.6080627734
  0
CIRCLE
  5
267
330
1F
100
AcDbEntity
  8
0
  6
Continuous
 62
     7
370
    15
100
AcDbCircle
 10
3280.6842383443
 20
535.7861356611
 30
0.0
 40
5.5
  0
ARC
  5
268
330
1F
100
AcDbEntity
  8
0
  6
Continuous
 62
     7
370
    15
100
AcDbCircle
 10
3324.6842383443
 20
496.154568054
 30
0.0
 40
3.000000000000016
100
AcDbArc
 50
304.2464031897
 51
0.0
  0
ARC
  5
269
330
1F
100
AcDbEntity
  8
0
  6
Continuous
 62
     7
370
    15
100
AcDbCircle
 10
3275.9258300612
 20
470.4060721998
 30
0.0
 40
3.000000000000227
100
AcDbArc
 50
240.0
 51
291.4291591996
  0
LINE
  5
26A
330
1F
100
AcDbEntity
  8
0
  6
Continuous
 62
     7
370
    15
100
AcDbLine
 10
3274.4258300612
 20
467.8079959885
 30
0.0
 11
3196.1842383443
 21
512.9808000281
 31
0.0
  0
ARC
  5
26B
330
1F
100
AcDbEntity
  8
0
  6
Continuous
 62
     7
370
    15
100
AcDbCircle
 10
3197.6842383443
 20
515.5788762394
 30
0.0
 40
3.000000000000049
100
AcDbArc
 50
120.0
 51
240.0
  0
LINE
  5
26C
330
1F
100
AcDbEntity
  8
0
  6
Continuous
 62
     7
370
    15
100
AcDbLine
 10
3196.1842383443
 20
518.1769524508
 30
0.0
 11
3323.1842383443
 21
591.5004366379
 31
0.0
  0
ARC
  5
26D
330
1F
100
AcDbEntity
  8
0
  6
Continuous
 62
     7
370
    15
100
AcDbCircle
 10
3324.6842383443
 20
588.9023604265
 30
0.0
 40
3.000000000000178
100
AcDbArc
 50
0.0
 51
120.0
  0
LINE
  5
26E
330
1F
100
AcDbEntity
  8
0
  6
Continuous
 62
     7
370
    15
100
AcDbLine
 10
3327.6842383443
 20
588.9023604265
 30
0.0
 11
3327.6842383443
 21
496.154568054
 31
0.0
  0
ARC
  5
26F
330
1F
100
AcDbEntity
  8
0
  6
Continuous
 62
     7
370
    15
100
AcDbCircle
 10
3185.6842383443
 20
700.3309623801
 30
0.0
 40
250.0000000000003
100
AcDbArc
 50
291.4291591996
 51
304.2464031897
  0
CIRCLE
  5
270
330
1F
100
AcDbEntity
  8
0
  6
Continuous
 62
     7
370
    15
100
AcDbCircle
 10
3090.6842383443
 20
535.7861356611
 30
0.0
 40
5.500000000000455
  0
ARC
  5
271
330
1F
100
AcDbEntity
  8
0
  6
Continuous
 62
     7
370
    15
100
AcDbCircle
 10
3095.4426466274
 20
470.4060721998
 30
0.0
 40
3.000000000000227
100
AcDbArc
 50
248.5708408004
 51
300.0
  0
ARC
  5
272
330
1F
100
AcDbEntity
  8
0
  6
Continuous
 62
     7
370
    15
100
AcDbCircle
 10
3046.6842383443
 20
496.154568054
 30
0.0
 40
3.000000000000455
100
AcDbArc
 50
180.0
 51
235.7535968103
  0
LINE
  5
273
330
1F
100
AcDbEntity
  8
0
  6
Continuous
 62
     7
370
    15
100
AcDbLine
 10
3043.6842383443
 20
496.154568054
 30
0.0
 11
3043.6842383443
 21
588.9023604265
 31
0.0
  0
ARC
  5
274
330
1F
100
AcDbEntity
  8
0
  6
Continuous
 62
     7
370
    15
100
AcDbCircle
 10
3173.6842383443
 20
515.5788762394
 30
0.0
 40
3.000000000000049
100
AcDbArc
 50
300.0
 51
60.0
  0
LINE
  5
275
330
1F
100
AcDbEntity
  8
0
  6
Continuous
 62
     7
370
    15
100
AcDbLine
 10
3175.1842383443
 20
512.9808000281
 30
0.0
 11
3096.9426466274
 21
467.8079959885
 31
0.0
  0
ARC
  5
276
330
1F
100
AcDbEntity
  8
0
  6
Continuous
 62
     7
370
    15
100
AcDbCircle
 10
3046.6842383443
 20
588.9023604265
 30
0.0
 40
3.000000000000455
100
AcDbArc
 50
60.0
 51
180.0
  0
LINE
  5
277
330
1F
100
AcDbEntity
  8
0
  6
Continuous
 62
     7
370
    15
100
AcDbLine
 10
3048.1842383443
 20
591.5004366378
 30
0.0
 11
3175.1842383443
 21
518.1769524508
 31
0.0
  0
ARC
  5
278
330
1F
100
AcDbEntity
  8
0
  6
Continuous
 62
     7
370
    15
100
AcDbCircle
 10
3185.6842383443
 20
700.3309623801
 30
0.0
 40
250.0000000000003
100
AcDbArc
 50
235.7535968103
 51
248.5708408004
  0
ARC
  5
279
330
1F
100
AcDbEntity
  8
0
  6
Continuous
 62
     7
370
    15
100
AcDbCircle
 10
3191.6842383443
 20
453.4038476276
 30
0.0
 40
3.000000000000455
100
AcDbArc
 50
180.0
 51
271.3919372266
  0
LINE
  5
27A
330
1F
100
AcDbEntity
  8
0
  6
Continuous
 62
     7
370
    15
100
AcDbLine
 10
3188.6842383443
 20
453.4038476276
 30
0.0
 11
3188.6842383443
 21
505.186571394
 31
0.0
  0
LINE
  5
27B
330
1F
100
AcDbEntity
  8
0
  6
Continuous
 62
     7
370
    15
100
AcDbLine
 10
3193.1842383443
 20
507.7846476054
 30
0.0
 11
3262.5816815055
 21
467.7180151152
 31
0.0
  0
ARC
  5
27C
330
1F
100
AcDbEntity
  8
0
  6
Continuous
 62
     7
370
    15
100
AcDbCircle
 10
3261.0816815055
 20
465.1199389038
 30
0.0
 40
3.000000000000099
100
AcDbArc
 50
287.773373982
 51
60.0
  0
ARC
  5
27D
330
1F
100
AcDbEntity
  8
0
  6
Continuous
 62
     7
370
    15
100
AcDbCircle
 10
3191.6842383443
 20
505.186571394
 30
0.0
 40
3.000000000000455
100
AcDbArc
 50
60.0
 51
180.0
  0
ARC
  5
27E
330
1F
100
AcDbEntity
  8
0
  6
Continuous
 62
     7
370
    15
100
AcDbCircle
 10
3185.6842383443
 20
700.3309623801
 30
0.0
 40
250.0000000000001
100
AcDbArc
 50
271.3919372266
 51
287.773373982
  0
ARC
  5
27F
330
1F
100
AcDbEntity
  8
0
  6
Continuous
 62
     7
370
    15
100
AcDbCircle
 10
3110.2867951831
 20
465.1199389038
 30
0.0
 40
3.000000000000049
100
AcDbArc
 50
120.0
 51
252.226626018
  0
LINE
  5
280
330
1F
100
AcDbEntity
  8
0
  6
Continuous
 62
     7
370
    15
100
AcDbLine
 10
3108.7867951831
 20
467.7180151152
 30
0.0
 11
3178.1842383443
 21
507.7846476054
 31
0.0
  0
ARC
  5
281
330
1F
100
AcDbEntity
  8
0
  6
Continuous
 62
     7
370
    15
100
AcDbCircle
 10
3179.6842383443
 20
505.186571394
 30
0.0
 40
3.00000000000008
100
AcDbArc
 50
0.0
 51
120.0
  0
LINE
  5
282
330
1F
100
AcDbEntity
  8
0
  6
Continuous
 62
     7
370
    15
100
AcDbLine
 10
3182.6842383443
 20
505.186571394
 30
0.0
 11
3182.6842383443
 21
453.4038476276
 31
0.0
  0
ARC
  5
283
330
1F
100
AcDbEntity
  8
0
  6
Continuous
 62
     7
370
    15
100
AcDbCircle
 10
3179.6842383443
 20
453.4038476276
 30
0.0
 40
3.000000000000039
100
AcDbArc
 50
268.6080627734
 51
0.0
  0
ARC
  5
284
330
1F
100
AcDbEntity
  8
0
  6
Continuous
 62
     7
370
    15
100
AcDbCircle
 10
3185.6842383443
 20
700.3309623801
 30
0.0
 40
250.0000000000002
100
AcDbArc
 50
252.226626018
 51
268.6080627734
  0
ARC
  5
285
330
1F
100
AcDbEntity
  8
0
  6
Continuous
 62
     7
370
    15
100
AcDbCircle
 10
3185.6842383443
 20
700.3309623801
 30
0.0
 40
250.0
100
AcDbArc
 50
124.2464031897
 51
127.6861696227
  0
ARC
  5
286
330
1F
100
AcDbEntity
  8
0
  6
Continuous
 62
     7
370
    15
100
AcDbCircle
 10
3185.6842383443
 20
700.3309623801
 30
0.0
 40
250.0000000000001
100
AcDbArc
 50
148.6080627734
 51
151.3919372266
  0
ARC
  5
287
330
1F
100
AcDbEntity
  8
0
  6
Continuous
 62
     7
370
    15
100
AcDbCircle
 10
3185.6842383443
 20
700.3309623801
 30
0.0
 40
250.0000000000001
100
AcDbArc
 50
167.773373982
 51
171.4291591996
  0
ARC
  5
288
330
1F
100
AcDbEntity
  8
0
  6
Continuous
 62
     7
370
    15
100
AcDbCircle
 10
3185.6842383443
 20
700.3309623801
 30
0.0
 40
250.0000000000003
100
AcDbArc
 50
188.5708408004
 51
192.226626018
  0
ARC
  5
289
330
1F
100
AcDbEntity
  8
0
  6
Continuous
 62
     7
370
    15
100
AcDbCircle
 10
3185.6842383443
 20
700.3309623801
 30
0.0
 40
250.0000000000001
100
AcDbArc
 50
208.6080627734
 51
211.3919372266
  0
ARC
  5
28A
330
1F
100
AcDbEntity
  8
0
  6
Continuous
 62
     7
370
    15
100
AcDbCircle
 10
3185.6842383443
 20
700.3309623801
 30
0.0
 40
250.0000000000001
100
AcDbArc
 50
232.3138303773
 51
235.7535968103
  0
ARC
  5
28B
330
1F
100
AcDbEntity
  8
0
  6
Continuous
 62
     7
370
    15
100
AcDbCircle
 10
3185.6842383443
 20
700.3309623801
 30
0.0
 40
250.0000000000003
100
AcDbArc
 50
248.5708408004
 51
252.226626018
  0
ARC
  5
28C
330
1F
100
AcDbEntity
  8
0
  6
Continuous
 62
     7
370
    15
100
AcDbCircle
 10
3185.6842383443
 20
700.3309623801
 30
0.0
 40
250.0000000000002
100
AcDbArc
 50
268.6080627734
 51
271.3919372266
  0
ARC
  5
28D
330
1F
100
AcDbEntity
  8
0
  6
Continuous
 62
     7
370
    15
100
AcDbCircle
 10
3185.6842383443
 20
700.3309623801
 30
0.0
 40
250.0000000000003
100
AcDbArc
 50
287.773373982
 51
291.4291591996
  0
ARC
  5
28E
330
1F
100
AcDbEntity
  8
0
  6
Continuous
 62
     7
370
    15
100
AcDbCircle
 10
3185.6842383443
 20
700.3309623801
 30
0.0
 40
250.0000000000002
100
AcDbArc
 50
304.2464031897
 51
307.6861696227
  0
ARC
  5
28F
330
1F
100
AcDbEntity
  8
0
  6
Continuous
 62
     7
370
    15
100
AcDbCircle
 10
3185.6842383443
 20
700.3309623801
 30
0.0
 40
250.0000000000003
100
AcDbArc
 50
328.6080627734
 51
331.3919372266
  0
ARC
  5
290
330
1F
100
AcDbEntity
  8
0
  6
Continuous
 62
     7
370
    15
100
AcDbCircle
 10
3185.6842383443
 20
700.3309623801
 30
0.0
 40
250.0000000000002
100
AcDbArc
 50
347.773373982
 51
351.4291591996
  0
ARC
  5
291
330
1F
100
AcDbEntity
  8
0
  6
Continuous
 62
     7
370
    15
100
AcDbCircle
 10
3185.6842383443
 20
700.3309623801
 30
0.0
 40
250.0000000000003
100
AcDbArc
 50
8.5708408004
 51
12.226626018
  0
ARC
  5
292
330
1F
100
AcDbEntity
  8
0
  6
Continuous
 62
     7
370
    15
100
AcDbCircle
 10
3185.6842383443
 20
700.3309623801
 30
0.0
 40
250.0
100
AcDbArc
 50
28.6080627734
 51
31.3919372266
  0
ARC
  5
293
330
1F
100
AcDbEntity
  8
0
  6
Continuous
 62
     7
370
    15
100
AcDbCircle
 10
3185.6842383443
 20
700.3309623801
 30
0.0
 40
250.0000000000001
100
AcDbArc
 50
52.3138303773
 51
55.7535968103
  0
ARC
  5
294
330
1F
100
AcDbEntity
  8
0
  6
Continuous
 62
     7
370
    15
100
AcDbCircle
 10
3185.6842383443
 20
700.3309623801
 30
0.0
 40
250.0000000000001
100
AcDbArc
 50
68.5708408004
 51
72.226626018
  0
ARC
  5
295
330
1F
100
AcDbEntity
  8
0
  6
Continuous
 62
     7
370
    15
100
AcDbCircle
 10
3185.6842383443
 20
700.3309623801
 30
0.0
 40
250.0000000000001
100
AcDbArc
 50
88.6080627734
 51
91.3919372266
  0
ARC
  5
296
330
1F
100
AcDbEntity
  8
0
  6
Continuous
 62
     7
370
    15
100
AcDbCircle
 10
3185.6842383443
 20
700.3309623801
 30
0.0
 40
249.9999999999998
100
AcDbArc
 50
107.773373982
 51
111.4291591996
  0
ARC
  5
297
330
1F
100
AcDbEntity
  8
0
  6
Continuous
 62
     7
370
    15
100
AcDbCircle
 10
2529.6842383443
 20
572.2580771326
 30
0.0
 40
3.000000000000107
100
AcDbArc
 50
0.0
 51
91.3919372266
  0
LINE
  5
298
330
1F
100
AcDbEntity
  8
0
  6
Continuous
 62
     7
370
    15
100
AcDbLine
 10
2532.6842383443
 20
572.2580771326
 30
0.0
 11
2532.6842383443
 21
520.4753533662
 31
0.0
  0
ARC
  5
299
330
1F
100
AcDbEntity
  8
0
  6
Continuous
 62
     7
370
    15
100
AcDbCircle
 10
2529.6842383443
 20
520.4753533662
 30
0.0
 40
3.0
100
AcDbArc
 50
240.0
 51
0.0
  0
LINE
  5
29A
330
1F
100
AcDbEntity
  8
0
  6
Continuous
 62
     7
370
    15
100
AcDbLine
 10
2528.1842383443
 20
517.8772771548
 30
0.0
 11
2458.7867951831
 21
557.943909645
 31
0.0
  0
ARC
  5
29B
330
1F
100
AcDbEntity
  8
0
  6
Continuous
 62
     7
370
    15
100
AcDbCircle
 10
2460.2867951831
 20
560.5419858564
 30
0.0
 40
3.000000000000114
100
AcDbArc
 50
107.773373982
 51
240.0
  0
ARC
  5
29C
330
1F
100
AcDbEntity
  8
0
  6
Continuous
 62
     7
370
    15
100
AcDbCircle
 10
2535.6842383443
 20
325.3309623801
 30
0.0
 40
250.0000000000002
100
AcDbArc
 50
91.3919372266
 51
107.773373982
  0
ARC
  5
29D
330
1F
100
AcDbEntity
  8
0
  6
Continuous
 62
     7
370
    15
100
AcDbCircle
 10
2611.0816815055
 20
560.5419858564
 30
0.0
 40
3.000000000000114
100
AcDbArc
 50
300.0
 51
72.226626018
  0
LINE
  5
29E
330
1F
100
AcDbEntity
  8
0
  6
Continuous
 62
     7
370
    15
100
AcDbLine
 10
2612.5816815055
 20
557.943909645
 30
0.0
 11
2543.1842383443
 21
517.8772771548
 31
0.0
  0
ARC
  5
29F
330
1F
100
AcDbEntity
  8
0
  6
Continuous
 62
     7
370
    15
100
AcDbCircle
 10
2541.6842383443
 20
520.4753533662
 30
0.0
 40
2.999999999999951
100
AcDbArc
 50
180.0
 51
300.0
  0
LINE
  5
2A0
330
1F
100
AcDbEntity
  8
0
  6
Continuous
 62
     7
370
    15
100
AcDbLine
 10
2538.6842383443
 20
520.4753533662
 30
0.0
 11
2538.6842383443
 21
572.2580771326
 31
0.0
  0
ARC
  5
2A1
330
1F
100
AcDbEntity
  8
0
  6
Continuous
 62
     7
370
    15
100
AcDbCircle
 10
2541.6842383443
 20
572.2580771326
 30
0.0
 40
3.000000000000107
100
AcDbArc
 50
88.6080627734
 51
180.0
  0
ARC
  5
2A2
330
1F
100
AcDbEntity
  8
0
  6
Continuous
 62
     7
370
    15
100
AcDbCircle
 10
2535.6842383443
 20
325.3309623801
 30
0.0
 40
250.0000000000002
100
AcDbArc
 50
72.226626018
 51
88.6080627734
  0
CIRCLE
  5
2A3
330
1F
100
AcDbEntity
  8
0
  6
Continuous
 62
     7
370
    15
100
AcDbCircle
 10
2630.6842383443
 20
489.8757890991
 30
0.0
 40
5.5
  0
ARC
  5
2A4
330
1F
100
AcDbEntity
  8
0
  6
Continuous
 62
     7
370
    15
100
AcDbCircle
 10
2625.9258300612
 20
555.2558525603
 30
0.0
 40
3.00000000000008
100
AcDbArc
 50
68.5708408004
 51
120.0
  0
ARC
  5
2A5
330
1F
100
AcDbEntity
  8
0
  6
Continuous
 62
     7
370
    15
100
AcDbCircle
 10
2674.6842383443
 20
529.5073567062
 30
0.0
 40
3.000000000000109
100
AcDbArc
 50
0.0
 51
55.7535968103
  0
LINE
  5
2A6
330
1F
100
AcDbEntity
  8
0
  6
Continuous
 62
     7
370
    15
100
AcDbLine
 10
2677.6842383443
 20
529.5073567062
 30
0.0
 11
2677.6842383443
 21
436.7595643337
 31
0.0
  0
ARC
  5
2A7
330
1F
100
AcDbEntity
  8
0
  6
Continuous
 62
     7
370
    15
100
AcDbCircle
 10
2674.6842383443
 20
436.7595643337
 30
0.0
 40
3.000000000000049
100
AcDbArc
 50
240.0
 51
0.0
  0
LINE
  5
2A8
330
1F
100
AcDbEntity
  8
0
  6
Continuous
 62
     7
370
    15
100
AcDbLine
 10
2673.1842383443
 20
434.1614881223
 30
0.0
 11
2546.1842383443
 21
507.4849723094
 31
0.0
  0
ARC
  5
2A9
330
1F
100
AcDbEntity
  8
0
  6
Continuous
 62
     7
370
    15
100
AcDbCircle
 10
2547.6842383443
 20
510.0830485208
 30
0.0
 40
3.000000000000049
100
AcDbArc
 50
120.0
 51
240.0
  0
LINE
  5
2AA
330
1F
100
AcDbEntity
  8
0
  6
Continuous
 62
     7
370
    15
100
AcDbLine
 10
2546.1842383443
 20
512.6811247321
 30
0.0
 11
2624.4258300612
 21
557.8539287717
 31
0.0
  0
ARC
  5
2AB
330
1F
100
AcDbEntity
  8
0
  6
Continuous
 62
     7
370
    15
100
AcDbCircle
 10
2535.6842383443
 20
325.3309623801
 30
0.0
 40
250.0000000000002
100
AcDbArc
 50
55.7535968103
 51
68.5708408004
  0
CIRCLE
  5
2AC
330
1F
100
AcDbEntity
  8
0
  6
Continuous
 62
     7
370
    15
100
AcDbCircle
 10
2440.6842383443
 20
489.8757890991
 30
0.0
 40
5.499999999999545
  0
ARC
  5
2AD
330
1F
100
AcDbEntity
  8
0
  6
Continuous
 62
     7
370
    15
100
AcDbCircle
 10
2523.6842383443
 20
510.0830485208
 30
0.0
 40
3.000000000000049
100
AcDbArc
 50
300.0
 51
60.0
  0
LINE
  5
2AE
330
1F
100
AcDbEntity
  8
0
  6
Continuous
 62
     7
370
    15
100
AcDbLine
 10
2525.1842383443
 20
507.4849723094
 30
0.0
 11
2398.1842383443
 21
434.1614881223
 31
0.0
  0
ARC
  5
2AF
330
1F
100
AcDbEntity
  8
0
  6
Continuous
 62
     7
370
    15
100
AcDbCircle
 10
2396.6842383443
 20
436.7595643337
 30
0.0
 40
3.000000000000455
100
AcDbArc
 50
180.0
 51
300.0
  0
LINE
  5
2B0
330
1F
100
AcDbEntity
  8
0
  6
Continuous
 62
     7
370
    15
100
AcDbLine
 10
2393.6842383443
 20
436.7595643337
 30
0.0
 11
2393.6842383443
 21
529.5073567062
 31
0.0
  0
ARC
  5
2B1
330
1F
100
AcDbEntity
  8
0
  6
Continuous
 62
     7
370
    15
100
AcDbCircle
 10
2396.6842383443
 20
529.5073567062
 30
0.0
 40
3.000000000000455
100
AcDbArc
 50
124.2464031897
 51
180.0
  0
ARC
  5
2B2
330
1F
100
AcDbEntity
  8
0
  6
Continuous
 62
     7
370
    15
100
AcDbCircle
 10
2445.4426466274
 20
555.2558525603
 30
0.0
 40
2.999999999999951
100
AcDbArc
 50
60.0
 51
111.4291591996
  0
LINE
  5
2B3
330
1F
100
AcDbEntity
  8
0
  6
Continuous
 62
     7
370
    15
100
AcDbLine
 10
2446.9426466274
 20
557.8539287717
 30
0.0
 11
2525.1842383443
 21
512.6811247321
 31
0.0
  0
ARC
  5
2B4
330
1F
100
AcDbEntity
  8
0
  6
Continuous
 62
     7
370
    15
100
AcDbCircle
 10
2535.6842383443
 20
325.3309623801
 30
0.0
 40
250.0000000000001
100
AcDbArc
 50
111.4291591996
 51
124.2464031897
  0
ARC
  5
2B5
330
1F
100
AcDbEntity
  8
0
  6
Continuous
 62
     7
370
    15
100
AcDbCircle
 10
2746.5293926032
 20
453.9906721791
 30
0.0
 40
3.0
100
AcDbArc
 50
300.0
 51
31.3919372266
  0
LINE
  5
2B6
330
1F
100
AcDbEntity
  8
0
  6
Continuous
 62
     7
370
    15
100
AcDbLine
 10
2748.0293926032
 20
451.3925959677
 30
0.0
 11
2697.1842383443
 21
422.0371324694
 31
0.0
  0
ARC
  5
2B7
330
1F
100
AcDbEntity
  8
0
  6
Continuous
 62
     7
370
    15
100
AcDbCircle
 10
2695.6842383443
 20
424.6352086807
 30
0.0
 40
3.000000000000227
100
AcDbArc
 50
240.0
 51
300.0
  0
LINE
  5
2B8
330
1F
100
AcDbEntity
  8
0
  6
Continuous
 62
     7
370
    15
100
AcDbLine
 10
2694.1842383443
 20
422.0371324694
 30
0.0
 11
2685.1842383443
 21
427.2332848921
 31
0.0
  0
ARC
  5
2B9
330
1F
100
AcDbEntity
  8
0
  6
Continuous
 62
     7
370
    15
100
AcDbCircle
 10
2686.6842383443
 20
429.8313611034
 30
0.0
 40
3.0
100
AcDbArc
 50
180.0
 51
240.0
  0
LINE
  5
2BA
330
1F
100
AcDbEntity
  8
0
  6
Continuous
 62
     7
370
    15
100
AcDbLine
 10
2683.6842383443
 20
429.8313611034
 30
0.0
 11
2683.6842383443
 21
520.799629946
 31
0.0
  0
ARC
  5
2BB
330
1F
100
AcDbEntity
  8
0
  6
Continuous
 62
     7
370
    15
100
AcDbCircle
 10
2686.6842383443
 20
520.799629946
 30
0.0
 40
3.0
100
AcDbArc
 50
52.3138303773
 51
180.0
  0
ARC
  5
2BC
330
1F
100
AcDbEntity
  8
0
  6
Continuous
 62
     7
370
    15
100
AcDbCircle
 10
2535.6842383443
 20
325.3309623801
 30
0.0
 40
250.0000000000001
100
AcDbArc
 50
31.3919372266
 51
52.3138303773
  0
ARC
  5
2BD
330
1F
100
AcDbEntity
  8
0
  6
Continuous
 62
     7
370
    15
100
AcDbCircle
 10
2384.6842383443
 20
520.799629946
 30
0.0
 40
3.0
100
AcDbArc
 50
0.0
 51
127.6861696227
  0
LINE
  5
2BE
330
1F
100
AcDbEntity
  8
0
  6
Continuous
 62
     7
370
    15
100
AcDbLine
 10
2387.6842383443
 20
520.799629946
 30
0.0
 11
2387.6842383443
 21
429.8313611034
 31
0.0
  0
ARC
  5
2BF
330
1F
100
AcDbEntity
  8
0
  6
Continuous
 62
     7
370
    15
100
AcDbCircle
 10
2384.6842383443
 20
429.8313611034
 30
0.0
 40
3.000000000000049
100
AcDbArc
 50
300.0
 51
0.0
  0
LINE
  5
2C0
330
1F
100
AcDbEntity
  8
0
  6
Continuous
 62
     7
370
    15
100
AcDbLine
 10
2386.1842383443
 20
427.2332848921
 30
0.0
 11
2377.1842383443
 21
422.0371324694
 31
0.0
  0
ARC
  5
2C1
330
1F
100
AcDbEntity
  8
0
  6
Continuous
 62
     7
370
    15
100
AcDbCircle
 10
2375.6842383443
 20
424.6352086807
 30
0.0
 40
2.999999999999951
100
AcDbArc
 50
240.0
 51
300.0
  0
LINE
  5
2C2
330
1F
100
AcDbEntity
  8
0
  6
Continuous
 62
     7
370
    15
100
AcDbLine
 10
2374.1842383443
 20
422.0371324694
 30
0.0
 11
2323.3390840854
 21
451.3925959677
 31
0.0
  0
ARC
  5
2C3
330
1F
100
AcDbEntity
  8
0
  6
Continuous
 62
     7
370
    15
100
AcDbCircle
 10
2324.8390840854
 20
453.9906721791
 30
0.0
 40
3.000000000000277
100
AcDbArc
 50
148.6080627734
 51
240.0
  0
ARC
  5
2C4
330
1F
100
AcDbEntity
  8
0
  6
Continuous
 62
     7
370
    15
100
AcDbCircle
 10
2535.6842383443
 20
325.3309623801
 30
0.0
 40
250.0000000000001
100
AcDbArc
 50
127.6861696227
 51
148.6080627734
  0
ARC
  5
2C5
330
1F
100
AcDbEntity
  8
0
  6
Continuous
 62
     7
370
    15
100
AcDbCircle
 10
2529.6842383443
 20
335.7232672255
 30
0.0
 40
3.000000000000049
100
AcDbArc
 50
240.0
 51
0.0
  0
LINE
  5
2C6
330
1F
100
AcDbEntity
  8
0
  6
Continuous
 62
     7
370
    15
100
AcDbLine
 10
2528.1842383443
 20
333.1251910142
 30
0.0
 11
2395.1842383443
 21
409.9127768164
 31
0.0
  0
ARC
  5
2C7
330
1F
100
AcDbEntity
  8
0
  6
Continuous
 62
     7
370
    15
100
AcDbCircle
 10
2396.6842383443
 20
412.5108530277
 30
0.0
 40
3.000000000000455
100
AcDbArc
 50
180.0
 51
240.0
  0
LINE
  5
2C8
330
1F
100
AcDbEntity
  8
0
  6
Continuous
 62
     7
370
    15
100
AcDbLine
 10
2393.6842383443
 20
412.5108530277
 30
0.0
 11
2393.6842383443
 21
422.9031578731
 31
0.0
  0
ARC
  5
2C9
330
1F
100
AcDbEntity
  8
0
  6
Continuous
 62
     7
370
    15
100
AcDbCircle
 10
2396.6842383443
 20
422.9031578731
 30
0.0
 40
3.000000000000455
100
AcDbArc
 50
120.0
 51
180.0
  0
LINE
  5
2CA
330
1F
100
AcDbEntity
  8
0
  6
Continuous
 62
     7
370
    15
100
AcDbLine
 10
2395.1842383443
 20
425.5012340845
 30
0.0
 11
2528.1842383443
 21
502.2888198867
 31
0.0
  0
ARC
  5
2CB
330
1F
100
AcDbEntity
  8
0
  6
Continuous
 62
     7
370
    15
100
AcDbCircle
 10
2529.6842383443
 20
499.6907436754
 30
0.0
 40
3.0
100
AcDbArc
 50
0.0
 51
120.0
  0
LINE
  5
2CC
330
1F
100
AcDbEntity
  8
0
  6
Continuous
 62
     7
370
    15
100
AcDbLine
 10
2532.6842383443
 20
499.6907436754
 30
0.0
 11
2532.6842383443
 21
335.7232672255
 31
0.0
  0
ARC
  5
2CD
330
1F
100
AcDbEntity
  8
0
  6
Continuous
 62
     7
370
    15
100
AcDbCircle
 10
2674.6842383443
 20
422.9031578731
 30
0.0
 40
2.999999999999773
100
AcDbArc
 50
0.0
 51
60.0
  0
LINE
  5
2CE
330
1F
100
AcDbEntity
  8
0
  6
Continuous
 62
     7
370
    15
100
AcDbLine
 10
2677.6842383443
 20
422.9031578731
 30
0.0
 11
2677.6842383443
 21
412.5108530277
 31
0.0
  0
ARC
  5
2CF
330
1F
100
AcDbEntity
  8
0
  6
Continuous
 62
     7
370
    15
100
AcDbCircle
 10
2674.6842383443
 20
412.5108530277
 30
0.0
 40
2.999999999999951
100
AcDbArc
 50
300.0
 51
0.0
  0
LINE
  5
2D0
330
1F
100
AcDbEntity
  8
0
  6
Continuous
 62
     7
370
    15
100
AcDbLine
 10
2676.1842383443
 20
409.9127768164
 30
0.0
 11
2543.1842383443
 21
333.1251910142
 31
0.0
  0
ARC
  5
2D1
330
1F
100
AcDbEntity
  8
0
  6
Continuous
 62
     7
370
    15
100
AcDbCircle
 10
2541.6842383443
 20
335.7232672255
 30
0.0
 40
3.0
100
AcDbArc
 50
180.0
 51
300.0
  0
ARC
  5
2D2
330
1F
100
AcDbEntity
  8
0
  6
Continuous
 62
     7
370
    15
100
AcDbCircle
 10
2541.6842383443
 20
499.6907436754
 30
0.0
 40
3.000000000000049
100
AcDbArc
 50
60.0
 51
180.0
  0
LINE
  5
2D3
330
1F
100
AcDbEntity
  8
0
  6
Continuous
 62
     7
370
    15
100
AcDbLine
 10
2538.6842383443
 20
335.7232672255
 30
0.0
 11
2538.6842383443
 21
499.6907436754
 31
0.0
  0
LINE
  5
2D4
330
1F
100
AcDbEntity
  8
0
  6
Continuous
 62
     7
370
    15
100
AcDbLine
 10
2543.1842383443
 20
502.2888198867
 30
0.0
 11
2676.1842383443
 21
425.5012340845
 31
0.0
  0
ARC
  5
2D5
330
1F
100
AcDbEntity
  8
0
  6
Continuous
 62
     7
370
    15
100
AcDbCircle
 10
2752.5293926032
 20
443.5983673336
 30
0.0
 40
3.000000000000092
100
AcDbArc
 50
28.6080627734
 51
120.0
  0
ARC
  5
2D6
330
1F
100
AcDbEntity
  8
0
  6
Continuous
 62
     7
370
    15
100
AcDbCircle
 10
2777.0816815055
 20
377.6403729603
 30
0.0
 40
3.0
100
AcDbArc
 50
240.0
 51
12.226626018
  0
LINE
  5
2D7
330
1F
100
AcDbEntity
  8
0
  6
Continuous
 62
     7
370
    15
100
AcDbLine
 10
2775.5816815055
 20
375.0422967489
 30
0.0
 11
2706.1842383443
 21
415.1089292391
 31
0.0
  0
ARC
  5
2D8
330
1F
100
AcDbEntity
  8
0
  6
Continuous
 62
     7
370
    15
100
AcDbCircle
 10
2707.6842383443
 20
417.7070054504
 30
0.0
 40
3.000000000000049
100
AcDbArc
 50
120.0
 51
240.0
  0
LINE
  5
2D9
330
1F
100
AcDbEntity
  8
0
  6
Continuous
 62
     7
370
    15
100
AcDbLine
 10
2706.1842383443
 20
420.3050816618
 30
0.0
 11
2751.0293926032
 21
446.196443545
 31
0.0
  0
ARC
  5
2DA
330
1F
100
AcDbEntity
  8
0
  6
Continuous
 62
     7
370
    15
100
AcDbCircle
 10
2535.6842383443
 20
325.3309623801
 30
0.0
 40
250.0
100
AcDbArc
 50
12.226626018
 51
28.6080627734
  0
ARC
  5
2DB
330
1F
100
AcDbEntity
  8
0
  6
Continuous
 62
     7
370
    15
100
AcDbCircle
 10
2318.8390840854
 20
443.5983673336
 30
0.0
 40
3.000000000000092
100
AcDbArc
 50
60.0
 51
151.3919372266
  0
LINE
  5
2DC
330
1F
100
AcDbEntity
  8
0
  6
Continuous
 62
     7
370
    15
100
AcDbLine
 10
2320.3390840854
 20
446.196443545
 30
0.0
 11
2365.1842383443
 21
420.3050816618
 31
0.0
  0
ARC
  5
2DD
330
1F
100
AcDbEntity
  8
0
  6
Continuous
 62
     7
370
    15
100
AcDbCircle
 10
2363.6842383443
 20
417.7070054504
 30
0.0
 40
3.000000000000099
100
AcDbArc
 50
300.0
 51
60.0
  0
LINE
  5
2DE
330
1F
100
AcDbEntity
  8
0
  6
Continuous
 62
     7
370
    15
100
AcDbLine
 10
2365.1842383443
 20
415.1089292391
 30
0.0
 11
2295.7867951831
 21
375.0422967489
 31
0.0
  0
ARC
  5
2DF
330
1F
100
AcDbEntity
  8
0
  6
Continuous
 62
     7
370
    15
100
AcDbCircle
 10
2294.2867951831
 20
377.6403729603
 30
0.0
 40
3.000000000000045
100
AcDbArc
 50
167.773373982
 51
300.0
  0
ARC
  5
2E0
330
1F
100
AcDbEntity
  8
0
  6
Continuous
 62
     7
370
    15
100
AcDbCircle
 10
2535.6842383443
 20
325.3309623801
 30
0.0
 40
250.0000000000002
100
AcDbArc
 50
151.3919372266
 51
167.773373982
  0
CIRCLE
  5
2E1
330
1F
100
AcDbEntity
  8
0
  6
Continuous
 62
     7
370
    15
100
AcDbCircle
 10
2725.6842383443
 20
325.3309623801
 30
0.0
 40
5.5
  0
ARC
  5
2E2
330
1F
100
AcDbEntity
  8
0
  6
Continuous
 62
     7
370
    15
100
AcDbCircle
 10
2695.6842383443
 20
410.7788022202
 30
0.0
 40
3.000000000000227
100
AcDbArc
 50
60.0
 51
120.0
  0
LINE
  5
2E3
330
1F
100
AcDbEntity
  8
0
  6
Continuous
 62
     7
370
    15
100
AcDbLine
 10
2697.1842383443
 20
413.3768784315
 30
0.0
 11
2781.4258300612
 21
364.7399727768
 31
0.0
  0
ARC
  5
2E4
330
1F
100
AcDbEntity
  8
0
  6
Continuous
 62
     7
370
    15
100
AcDbCircle
 10
2779.9258300612
 20
362.1418965654
 30
0.0
 40
3.000000000000049
100
AcDbArc
 50
8.5708408004
 51
60.0
  0
ARC
  5
2E5
330
1F
100
AcDbEntity
  8
0
  6
Continuous
 62
     7
370
    15
100
AcDbCircle
 10
2779.9258300612
 20
288.5200281947
 30
0.0
 40
2.999999999999951
100
AcDbArc
 50
300.0
 51
351.4291591996
  0
LINE
  5
2E6
330
1F
100
AcDbEntity
  8
0
  6
Continuous
 62
     7
370
    15
100
AcDbLine
 10
2781.4258300612
 20
285.9219519834
 30
0.0
 11
2697.1842383443
 21
237.2850463287
 31
0.0
  0
ARC
  5
2E7
330
1F
100
AcDbEntity
  8
0
  6
Continuous
 62
     7
370
    15
100
AcDbCircle
 10
2695.6842383443
 20
239.88312254
 30
0.0
 40
3.000000000000203
100
AcDbArc
 50
240.0
 51
300.0
  0
LINE
  5
2E8
330
1F
100
AcDbEntity
  8
0
  6
Continuous
 62
     7
370
    15
100
AcDbLine
 10
2694.1842383443
 20
237.2850463287
 30
0.0
 11
2685.1842383443
 21
242.4811987514
 31
0.0
  0
ARC
  5
2E9
330
1F
100
AcDbEntity
  8
0
  6
Continuous
 62
     7
370
    15
100
AcDbCircle
 10
2686.6842383443
 20
245.0792749627
 30
0.0
 40
3.000000000000025
100
AcDbArc
 50
180.0
 51
240.0
  0
LINE
  5
2EA
330
1F
100
AcDbEntity
  8
0
  6
Continuous
 62
     7
370
    15
100
AcDbLine
 10
2683.6842383443
 20
245.0792749627
 30
0.0
 11
2683.6842383443
 21
405.5826497975
 31
0.0
  0
ARC
  5
2EB
330
1F
100
AcDbEntity
  8
0
  6
Continuous
 62
     7
370
    15
100
AcDbCircle
 10
2686.6842383443
 20
405.5826497975
 30
0.0
 40
3.0
100
AcDbArc
 50
120.0
 51
180.0
  0
LINE
  5
2EC
330
1F
100
AcDbEntity
  8
0
  6
Continuous
 62
     7
370
    15
100
AcDbLine
 10
2685.1842383443
 20
408.1807260088
 30
0.0
 11
2694.1842383443
 21
413.3768784315
 31
0.0
  0
ARC
  5
2ED
330
1F
100
AcDbEntity
  8
0
  6
Continuous
 62
     7
370
    15
100
AcDbCircle
 10
2535.6842383443
 20
325.3309623801
 30
0.0
 40
250.0000000000001
100
AcDbArc
 50
351.4291591996
 51
8.5708408004
  0
CIRCLE
  5
2EE
330
1F
100
AcDbEntity
  8
0
  6
Continuous
 62
     7
370
    15
100
AcDbCircle
 10
2345.6842383443
 20
325.3309623801
 30
0.0
 40
5.500000000000455
  0
ARC
  5
2EF
330
1F
100
AcDbEntity
  8
0
  6
Continuous
 62
     7
370
    15
100
AcDbCircle
 10
2375.6842383443
 20
239.88312254
 30
0.0
 40
3.000000000000252
100
AcDbArc
 50
240.0
 51
300.0
  0
LINE
  5
2F0
330
1F
100
AcDbEntity
  8
0
  6
Continuous
 62
     7
370
    15
100
AcDbLine
 10
2374.1842383443
 20
237.2850463287
 30
0.0
 11
2289.9426466274
 21
285.9219519834
 31
0.0
  0
ARC
  5
2F1
330
1F
100
AcDbEntity
  8
0
  6
Continuous
 62
     7
370
    15
100
AcDbCircle
 10
2291.4426466274
 20
288.5200281947
 30
0.0
 40
3.000000000000196
100
AcDbArc
 50
188.5708408004
 51
240.0
  0
ARC
  5
2F2
330
1F
100
AcDbEntity
  8
0
  6
Continuous
 62
     7
370
    15
100
AcDbCircle
 10
2291.4426466274
 20
362.1418965654
 30
0.0
 40
3.000000000000646
100
AcDbArc
 50
120.0
 51
171.4291591996
  0
ARC
  5
2F3
330
1F
100
AcDbEntity
  8
0
  6
Continuous
 62
     7
370
    15
100
AcDbCircle
 10
2384.6842383443
 20
405.5826497975
 30
0.0
 40
3.0
100
AcDbArc
 50
0.0
 51
60.0
  0
LINE
  5
2F4
330
1F
100
AcDbEntity
  8
0
  6
Continuous
 62
     7
370
    15
100
AcDbLine
 10
2387.6842383443
 20
405.5826497975
 30
0.0
 11
2387.6842383443
 21
245.0792749627
 31
0.0
  0
ARC
  5
2F5
330
1F
100
AcDbEntity
  8
0
  6
Continuous
 62
     7
370
    15
100
AcDbCircle
 10
2384.6842383443
 20
245.0792749627
 30
0.0
 40
3.000000000000025
100
AcDbArc
 50
300.0
 51
0.0
  0
LINE
  5
2F6
330
1F
100
AcDbEntity
  8
0
  6
Continuous
 62
     7
370
    15
100
AcDbLine
 10
2386.1842383443
 20
242.4811987514
 30
0.0
 11
2377.1842383443
 21
237.2850463287
 31
0.0
  0
LINE
  5
2F7
330
1F
100
AcDbEntity
  8
0
  6
Continuous
 62
     7
370
    15
100
AcDbLine
 10
2377.1842383443
 20
413.3768784315
 30
0.0
 11
2386.1842383443
 21
408.1807260088
 31
0.0
  0
LINE
  5
2F8
330
1F
100
AcDbEntity
  8
0
  6
Continuous
 62
     7
370
    15
100
AcDbLine
 10
2289.9426466274
 20
364.7399727768
 30
0.0
 11
2374.1842383443
 21
413.3768784315
 31
0.0
  0
ARC
  5
2F9
330
1F
100
AcDbEntity
  8
0
  6
Continuous
 62
     7
370
    15
100
AcDbCircle
 10
2375.6842383443
 20
410.7788022202
 30
0.0
 40
3.000000000000099
100
AcDbArc
 50
60.0
 51
120.0
  0
ARC
  5
2FA
330
1F
100
AcDbEntity
  8
0
  6
Continuous
 62
     7
370
    15
100
AcDbCircle
 10
2535.6842383443
 20
325.3309623801
 30
0.0
 40
250.0000000000005
100
AcDbArc
 50
171.4291591996
 51
188.5708408004
  0
ARC
  5
2FB
330
1F
100
AcDbEntity
  8
0
  6
Continuous
 62
     7
370
    15
100
AcDbCircle
 10
2674.6842383443
 20
252.007478193
 30
0.0
 40
3.0
100
AcDbArc
 50
240.0
 51
0.0
  0
LINE
  5
2FC
330
1F
100
AcDbEntity
  8
0
  6
Continuous
 62
     7
370
    15
100
AcDbLine
 10
2673.1842383443
 20
249.4094019817
 30
0.0
 11
2546.1842383443
 21
322.7328861687
 31
0.0
  0
ARC
  5
2FD
330
1F
100
AcDbEntity
  8
0
  6
Continuous
 62
     7
370
    15
100
AcDbCircle
 10
2547.6842383443
 20
325.3309623801
 30
0.0
 40
3.0
100
AcDbArc
 50
120.0
 51
240.0
  0
LINE
  5
2FE
330
1F
100
AcDbEntity
  8
0
  6
Continuous
 62
     7
370
    15
100
AcDbLine
 10
2546.1842383443
 20
327.9290385914
 30
0.0
 11
2673.1842383443
 21
401.2525227785
 31
0.0
  0
ARC
  5
2FF
330
1F
100
AcDbEntity
  8
0
  6
Continuous
 62
     7
370
    15
100
AcDbCircle
 10
2674.6842383443
 20
398.6544465672
 30
0.0
 40
3.0
100
AcDbArc
 50
0.0
 51
120.0
  0
LINE
  5
300
330
1F
100
AcDbEntity
  8
0
  6
Continuous
 62
     7
370
    15
100
AcDbLine
 10
2677.6842383443
 20
398.6544465672
 30
0.0
 11
2677.6842383443
 21
252.007478193
 31
0.0
  0
ARC
  5
301
330
1F
100
AcDbEntity
  8
0
  6
Continuous
 62
     7
370
    15
100
AcDbCircle
 10
2396.6842383443
 20
252.007478193
 30
0.0
 40
3.000000000000455
100
AcDbArc
 50
180.0
 51
300.0
  0
ARC
  5
302
330
1F
100
AcDbEntity
  8
0
  6
Continuous
 62
     7
370
    15
100
AcDbCircle
 10
2396.6842383443
 20
398.6544465672
 30
0.0
 40
3.000000000000455
100
AcDbArc
 50
60.0
 51
180.0
  0
LINE
  5
303
330
1F
100
AcDbEntity
  8
0
  6
Continuous
 62
     7
370
    15
100
AcDbLine
 10
2398.1842383443
 20
401.2525227785
 30
0.0
 11
2525.1842383443
 21
327.9290385914
 31
0.0
  0
ARC
  5
304
330
1F
100
AcDbEntity
  8
0
  6
Continuous
 62
     7
370
    15
100
AcDbCircle
 10
2523.6842383443
 20
325.3309623801
 30
0.0
 40
3.000000000000049
100
AcDbArc
 50
300.0
 51
60.0
  0
LINE
  5
305
330
1F
100
AcDbEntity
  8
0
  6
Continuous
 62
     7
370
    15
100
AcDbLine
 10
2525.1842383443
 20
322.7328861687
 30
0.0
 11
2398.1842383443
 21
249.4094019817
 31
0.0
  0
LINE
  5
306
330
1F
100
AcDbEntity
  8
0
  6
Continuous
 62
     7
370
    15
100
AcDbLine
 10
2393.6842383443
 20
252.007478193
 30
0.0
 11
2393.6842383443
 21
398.6544465672
 31
0.0
  0
ARC
  5
307
330
1F
100
AcDbEntity
  8
0
  6
Continuous
 62
     7
370
    15
100
AcDbCircle
 10
2541.6842383443
 20
150.9711810848
 30
0.0
 40
3.0
100
AcDbArc
 50
180.0
 51
300.0
  0
LINE
  5
308
330
1F
100
AcDbEntity
  8
0
  6
Continuous
 62
     7
370
    15
100
AcDbLine
 10
2538.6842383443
 20
150.9711810848
 30
0.0
 11
2538.6842383443
 21
314.9386575347
 31
0.0
  0
ARC
  5
309
330
1F
100
AcDbEntity
  8
0
  6
Continuous
 62
     7
370
    15
100
AcDbCircle
 10
2541.6842383443
 20
314.9386575347
 30
0.0
 40
3.0
100
AcDbArc
 50
60.0
 51
180.0
  0
ARC
  5
30A
330
1F
100
AcDbEntity
  8
0
  6
Continuous
 62
     7
370
    15
100
AcDbCircle
 10
2674.6842383443
 20
238.1510717325
 30
0.0
 40
3.000000000000074
100
AcDbArc
 50
0.0
 51
60.0
  0
LINE
  5
30B
330
1F
100
AcDbEntity
  8
0
  6
Continuous
 62
     7
370
    15
100
AcDbLine
 10
2677.6842383443
 20
238.1510717325
 30
0.0
 11
2677.6842383443
 21
227.758766887
 31
0.0
  0
ARC
  5
30C
330
1F
100
AcDbEntity
  8
0
  6
Continuous
 62
     7
370
    15
100
AcDbCircle
 10
2674.6842383443
 20
227.758766887
 30
0.0
 40
2.999999999999902
100
AcDbArc
 50
300.0
 51
0.0
  0
LINE
  5
30D
330
1F
100
AcDbEntity
  8
0
  6
Continuous
 62
     7
370
    15
100
AcDbLine
 10
2676.1842383443
 20
225.1606906757
 30
0.0
 11
2543.1842383443
 21
148.3731048735
 31
0.0
  0
LINE
  5
30E
330
1F
100
AcDbEntity
  8
0
  6
Continuous
 62
     7
370
    15
100
AcDbLine
 10
2543.1842383443
 20
317.536733746
 30
0.0
 11
2676.1842383443
 21
240.7491479438
 31
0.0
  0
ARC
  5
30F
330
1F
100
AcDbEntity
  8
0
  6
Continuous
 62
     7
370
    15
100
AcDbCircle
 10
2396.6842383443
 20
227.758766887
 30
0.0
 40
3.000000000000455
100
AcDbArc
 50
180.0
 51
240.0
  0
LINE
  5
310
330
1F
100
AcDbEntity
  8
0
  6
Continuous
 62
     7
370
    15
100
AcDbLine
 10
2393.6842383443
 20
227.758766887
 30
0.0
 11
2393.6842383443
 21
238.1510717325
 31
0.0
  0
ARC
  5
311
330
1F
100
AcDbEntity
  8
0
  6
Continuous
 62
     7
370
    15
100
AcDbCircle
 10
2396.6842383443
 20
238.1510717325
 30
0.0
 40
3.000000000000455
100
AcDbArc
 50
120.0
 51
180.0
  0
ARC
  5
312
330
1F
100
AcDbEntity
  8
0
  6
Continuous
 62
     7
370
    15
100
AcDbCircle
 10
2529.6842383443
 20
314.9386575347
 30
0.0
 40
3.0
100
AcDbArc
 50
0.0
 51
120.0
  0
LINE
  5
313
330
1F
100
AcDbEntity
  8
0
  6
Continuous
 62
     7
370
    15
100
AcDbLine
 10
2532.6842383443
 20
314.9386575347
 30
0.0
 11
2532.6842383443
 21
150.9711810848
 31
0.0
  0
ARC
  5
314
330
1F
100
AcDbEntity
  8
0
  6
Continuous
 62
     7
370
    15
100
AcDbCircle
 10
2529.6842383443
 20
150.9711810848
 30
0.0
 40
3.0
100
AcDbArc
 50
240.0
 51
0.0
  0
LINE
  5
315
330
1F
100
AcDbEntity
  8
0
  6
Continuous
 62
     7
370
    15
100
AcDbLine
 10
2528.1842383443
 20
148.3731048735
 30
0.0
 11
2395.1842383443
 21
225.1606906757
 31
0.0
  0
LINE
  5
316
330
1F
100
AcDbEntity
  8
0
  6
Continuous
 62
     7
370
    15
100
AcDbLine
 10
2395.1842383443
 20
240.7491479438
 30
0.0
 11
2528.1842383443
 21
317.536733746
 31
0.0
  0
ARC
  5
317
330
1F
100
AcDbEntity
  8
0
  6
Continuous
 62
     7
370
    15
100
AcDbCircle
 10
2752.5293926032
 20
207.0635574265
 30
0.0
 40
3.000000000000079
100
AcDbArc
 50
240.0
 51
331.3919372266
  0
LINE
  5
318
330
1F
100
AcDbEntity
  8
0
  6
Continuous
 62
     7
370
    15
100
AcDbLine
 10
2751.0293926032
 20
204.4654812152
 30
0.0
 11
2706.1842383443
 21
230.3568430984
 31
0.0
  0
ARC
  5
319
330
1F
100
AcDbEntity
  8
0
  6
Continuous
 62
     7
370
    15
100
AcDbCircle
 10
2707.6842383443
 20
232.9549193098
 30
0.0
 40
3.000000000000227
100
AcDbArc
 50
120.0
 51
240.0
  0
LINE
  5
31A
330
1F
100
AcDbEntity
  8
0
  6
Continuous
 62
     7
370
    15
100
AcDbLine
 10
2706.1842383443
 20
235.5529955211
 30
0.0
 11
2775.5816815055
 21
275.6196280113
 31
0.0
  0
ARC
  5
31B
330
1F
100
AcDbEntity
  8
0
  6
Continuous
 62
     7
370
    15
100
AcDbCircle
 10
2777.0816815055
 20
273.0215517999
 30
0.0
 40
3.0
100
AcDbArc
 50
347.773373982
 51
120.0
  0
ARC
  5
31C
330
1F
100
AcDbEntity
  8
0
  6
Continuous
 62
     7
370
    15
100
AcDbCircle
 10
2535.6842383443
 20
325.3309623801
 30
0.0
 40
250.0
100
AcDbArc
 50
331.3919372266
 51
347.773373982
  0
ARC
  5
31D
330
1F
100
AcDbEntity
  8
0
  6
Continuous
 62
     7
370
    15
100
AcDbCircle
 10
2318.8390840854
 20
207.0635574265
 30
0.0
 40
3.000000000000203
100
AcDbArc
 50
208.6080627734
 51
300.0
  0
ARC
  5
31E
330
1F
100
AcDbEntity
  8
0
  6
Continuous
 62
     7
370
    15
100
AcDbCircle
 10
2363.6842383443
 20
232.9549193098
 30
0.0
 40
2.999999999999951
100
AcDbArc
 50
300.0
 51
60.0
  0
LINE
  5
31F
330
1F
100
AcDbEntity
  8
0
  6
Continuous
 62
     7
370
    15
100
AcDbLine
 10
2365.1842383443
 20
230.3568430984
 30
0.0
 11
2320.3390840854
 21
204.4654812152
 31
0.0
  0
ARC
  5
320
330
1F
100
AcDbEntity
  8
0
  6
Continuous
 62
     7
370
    15
100
AcDbCircle
 10
2294.2867951831
 20
273.0215517999
 30
0.0
 40
3.000000000000502
100
AcDbArc
 50
60.0
 51
192.226626018
  0
LINE
  5
321
330
1F
100
AcDbEntity
  8
0
  6
Continuous
 62
     7
370
    15
100
AcDbLine
 10
2295.7867951831
 20
275.6196280113
 30
0.0
 11
2365.1842383443
 21
235.5529955211
 31
0.0
  0
ARC
  5
322
330
1F
100
AcDbEntity
  8
0
  6
Continuous
 62
     7
370
    15
100
AcDbCircle
 10
2535.6842383443
 20
325.3309623801
 30
0.0
 40
250.0000000000001
100
AcDbArc
 50
192.226626018
 51
208.6080627734
  0
ARC
  5
323
330
1F
100
AcDbEntity
  8
0
  6
Continuous
 62
     7
370
    15
100
AcDbCircle
 10
2324.8390840854
 20
196.6712525811
 30
0.0
 40
3.000000000000201
100
AcDbArc
 50
120.0
 51
211.3919372266
  0
LINE
  5
324
330
1F
100
AcDbEntity
  8
0
  6
Continuous
 62
     7
370
    15
100
AcDbLine
 10
2323.3390840854
 20
199.2693287925
 30
0.0
 11
2374.1842383443
 21
228.6247922908
 31
0.0
  0
ARC
  5
325
330
1F
100
AcDbEntity
  8
0
  6
Continuous
 62
     7
370
    15
100
AcDbCircle
 10
2375.6842383443
 20
226.0267160795
 30
0.0
 40
3.000000000000049
100
AcDbArc
 50
60.0
 51
120.0
  0
LINE
  5
326
330
1F
100
AcDbEntity
  8
0
  6
Continuous
 62
     7
370
    15
100
AcDbLine
 10
2377.1842383443
 20
228.6247922908
 30
0.0
 11
2386.1842383443
 21
223.4286398681
 31
0.0
  0
ARC
  5
327
330
1F
100
AcDbEntity
  8
0
  6
Continuous
 62
     7
370
    15
100
AcDbCircle
 10
2384.6842383443
 20
220.8305636568
 30
0.0
 40
3.000000000000099
100
AcDbArc
 50
0.0
 51
60.0
  0
LINE
  5
328
330
1F
100
AcDbEntity
  8
0
  6
Continuous
 62
     7
370
    15
100
AcDbLine
 10
2387.6842383443
 20
220.8305636568
 30
0.0
 11
2387.6842383443
 21
129.8622948142
 31
0.0
  0
ARC
  5
329
330
1F
100
AcDbEntity
  8
0
  6
Continuous
 62
     7
370
    15
100
AcDbCircle
 10
2384.6842383443
 20
129.8622948142
 30
0.0
 40
3.0
100
AcDbArc
 50
232.3138303773
 51
0.0
  0
ARC
  5
32A
330
1F
100
AcDbEntity
  8
0
  6
Continuous
 62
     7
370
    15
100
AcDbCircle
 10
2535.6842383443
 20
325.3309623801
 30
0.0
 40
250.0000000000002
100
AcDbArc
 50
211.3919372266
 51
232.3138303773
  0
ARC
  5
32B
330
1F
100
AcDbEntity
  8
0
  6
Continuous
 62
     7
370
    15
100
AcDbCircle
 10
2746.5293926032
 20
196.6712525811
 30
0.0
 40
3.000000000000216
100
AcDbArc
 50
328.6080627734
 51
60.0
  0
ARC
  5
32C
330
1F
100
AcDbEntity
  8
0
  6
Continuous
 62
     7
370
    15
100
AcDbCircle
 10
2686.6842383443
 20
129.8622948142
 30
0.0
 40
3.0
100
AcDbArc
 50
180.0
 51
307.6861696227
  0
LINE
  5
32D
330
1F
100
AcDbEntity
  8
0
  6
Continuous
 62
     7
370
    15
100
AcDbLine
 10
2683.6842383443
 20
129.8622948142
 30
0.0
 11
2683.6842383443
 21
220.8305636568
 31
0.0
  0
LINE
  5
32E
330
1F
100
AcDbEntity
  8
0
  6
Continuous
 62
     7
370
    15
100
AcDbLine
 10
2685.1842383443
 20
223.4286398681
 30
0.0
 11
2694.1842383443
 21
228.6247922908
 31
0.0
  0
LINE
  5
32F
330
1F
100
AcDbEntity
  8
0
  6
Continuous
 62
     7
370
    15
100
AcDbLine
 10
2697.1842383443
 20
228.6247922908
 30
0.0
 11
2748.0293926032
 21
199.2693287925
 31
0.0
  0
ARC
  5
330
330
1F
100
AcDbEntity
  8
0
  6
Continuous
 62
     7
370
    15
100
AcDbCircle
 10
2686.6842383443
 20
220.8305636568
 30
0.0
 40
3.0
100
AcDbArc
 50
120.0
 51
180.0
  0
ARC
  5
331
330
1F
100
AcDbEntity
  8
0
  6
Continuous
 62
     7
370
    15
100
AcDbCircle
 10
2695.6842383443
 20
226.0267160795
 30
0.0
 40
3.0
100
AcDbArc
 50
60.0
 51
120.0
  0
ARC
  5
332
330
1F
100
AcDbEntity
  8
0
  6
Continuous
 62
     7
370
    15
100
AcDbCircle
 10
2535.6842383443
 20
325.3309623801
 30
0.0
 40
250.0000000000002
100
AcDbArc
 50
307.6861696227
 51
328.6080627734
  0
CIRCLE
  5
333
330
1F
100
AcDbEntity
  8
0
  6
Continuous
 62
     7
370
    15
100
AcDbCircle
 10
2440.6842383443
 20
160.7861356611
 30
0.0
 40
5.499999999999545
  0
ARC
  5
334
330
1F
100
AcDbEntity
  8
0
  6
Continuous
 62
     7
370
    15
100
AcDbCircle
 10
2445.4426466274
 20
95.4060721998
 30
0.0
 40
3.000000000000067
100
AcDbArc
 50
248.5708408004
 51
300.0
  0
ARC
  5
335
330
1F
100
AcDbEntity
  8
0
  6
Continuous
 62
     7
370
    15
100
AcDbCircle
 10
2396.6842383443
 20
121.154568054
 30
0.0
 40
3.000000000000455
100
AcDbArc
 50
180.0
 51
235.7535968103
  0
ARC
  5
336
330
1F
100
AcDbEntity
  8
0
  6
Continuous
 62
     7
370
    15
100
AcDbCircle
 10
2396.6842383443
 20
213.9023604265
 30
0.0
 40
3.000000000000455
100
AcDbArc
 50
60.0
 51
180.0
  0
ARC
  5
337
330
1F
100
AcDbEntity
  8
0
  6
Continuous
 62
     7
370
    15
100
AcDbCircle
 10
2523.6842383443
 20
140.5788762394
 30
0.0
 40
3.0
100
AcDbArc
 50
300.0
 51
60.0
  0
LINE
  5
338
330
1F
100
AcDbEntity
  8
0
  6
Continuous
 62
     7
370
    15
100
AcDbLine
 10
2525.1842383443
 20
137.9808000281
 30
0.0
 11
2446.9426466274
 21
92.8079959885
 31
0.0
  0
LINE
  5
339
330
1F
100
AcDbEntity
  8
0
  6
Continuous
 62
     7
370
    15
100
AcDbLine
 10
2398.1842383443
 20
216.5004366378
 30
0.0
 11
2525.1842383443
 21
143.1769524508
 31
0.0
  0
LINE
  5
33A
330
1F
100
AcDbEntity
  8
0
  6
Continuous
 62
     7
370
    15
100
AcDbLine
 10
2393.6842383443
 20
121.154568054
 30
0.0
 11
2393.6842383443
 21
213.9023604265
 31
0.0
  0
ARC
  5
33B
330
1F
100
AcDbEntity
  8
0
  6
Continuous
 62
     7
370
    15
100
AcDbCircle
 10
2535.6842383443
 20
325.3309623801
 30
0.0
 40
250.0000000000001
100
AcDbArc
 50
235.7535968103
 51
248.5708408004
  0
CIRCLE
  5
33C
330
1F
100
AcDbEntity
  8
0
  6
Continuous
 62
     7
370
    15
100
AcDbCircle
 10
2630.6842383443
 20
160.7861356611
 30
0.0
 40
5.500000000000455
  0
ARC
  5
33D
330
1F
100
AcDbEntity
  8
0
  6
Continuous
 62
     7
370
    15
100
AcDbCircle
 10
2674.6842383443
 20
121.154568054
 30
0.0
 40
3.000000000000051
100
AcDbArc
 50
304.2464031897
 51
0.0
  0
ARC
  5
33E
330
1F
100
AcDbEntity
  8
0
  6
Continuous
 62
     7
370
    15
100
AcDbCircle
 10
2625.9258300612
 20
95.4060721998
 30
0.0
 40
3.000000000000054
100
AcDbArc
 50
240.0
 51
291.4291591996
  0
LINE
  5
33F
330
1F
100
AcDbEntity
  8
0
  6
Continuous
 62
     7
370
    15
100
AcDbLine
 10
2624.4258300612
 20
92.8079959885
 30
0.0
 11
2546.1842383443
 21
137.9808000281
 31
0.0
  0
ARC
  5
340
330
1F
100
AcDbEntity
  8
0
  6
Continuous
 62
     7
370
    15
100
AcDbCircle
 10
2547.6842383443
 20
140.5788762394
 30
0.0
 40
3.000000000000025
100
AcDbArc
 50
120.0
 51
240.0
  0
ARC
  5
341
330
1F
100
AcDbEntity
  8
0
  6
Continuous
 62
     7
370
    15
100
AcDbCircle
 10
2674.6842383443
 20
213.9023604265
 30
0.0
 40
2.999999999999976
100
AcDbArc
 50
0.0
 51
120.0
  0
LINE
  5
342
330
1F
100
AcDbEntity
  8
0
  6
Continuous
 62
     7
370
    15
100
AcDbLine
 10
2677.6842383443
 20
213.9023604265
 30
0.0
 11
2677.6842383443
 21
121.154568054
 31
0.0
  0
LINE
  5
343
330
1F
100
AcDbEntity
  8
0
  6
Continuous
 62
     7
370
    15
100
AcDbLine
 10
2546.1842383443
 20
143.1769524508
 30
0.0
 11
2673.1842383443
 21
216.5004366379
 31
0.0
  0
ARC
  5
344
330
1F
100
AcDbEntity
  8
0
  6
Continuous
 62
     7
370
    15
100
AcDbCircle
 10
2535.6842383443
 20
325.3309623801
 30
0.0
 40
250.0000000000002
100
AcDbArc
 50
291.4291591996
 51
304.2464031897
  0
ARC
  5
345
330
1F
100
AcDbEntity
  8
0
  6
Continuous
 62
     7
370
    15
100
AcDbCircle
 10
2541.6842383443
 20
78.4038476276
 30
0.0
 40
3.000000000000011
100
AcDbArc
 50
180.0
 51
271.3919372266
  0
ARC
  5
346
330
1F
100
AcDbEntity
  8
0
  6
Continuous
 62
     7
370
    15
100
AcDbCircle
 10
2541.6842383443
 20
130.186571394
 30
0.0
 40
3.0
100
AcDbArc
 50
60.0
 51
180.0
  0
LINE
  5
347
330
1F
100
AcDbEntity
  8
0
  6
Continuous
 62
     7
370
    15
100
AcDbLine
 10
2543.1842383443
 20
132.7846476054
 30
0.0
 11
2612.5816815055
 21
92.7180151152
 31
0.0
  0
ARC
  5
348
330
1F
100
AcDbEntity
  8
0
  6
Continuous
 62
     7
370
    15
100
AcDbCircle
 10
2611.0816815055
 20
90.1199389038
 30
0.0
 40
3.000000000000099
100
AcDbArc
 50
287.773373982
 51
60.0
  0
LINE
  5
349
330
1F
100
AcDbEntity
  8
0
  6
Continuous
 62
     7
370
    15
100
AcDbLine
 10
2538.6842383443
 20
78.4038476276
 30
0.0
 11
2538.6842383443
 21
130.186571394
 31
0.0
  0
ARC
  5
34A
330
1F
100
AcDbEntity
  8
0
  6
Continuous
 62
     7
370
    15
100
AcDbCircle
 10
2535.6842383443
 20
325.3309623801
 30
0.0
 40
250.0
100
AcDbArc
 50
271.3919372266
 51
287.773373982
  0
ARC
  5
34B
330
1F
100
AcDbEntity
  8
0
  6
Continuous
 62
     7
370
    15
100
AcDbCircle
 10
2460.2867951831
 20
90.1199389038
 30
0.0
 40
3.00000000000024
100
AcDbArc
 50
120.0
 51
252.226626018
  0
LINE
  5
34C
330
1F
100
AcDbEntity
  8
0
  6
Continuous
 62
     7
370
    15
100
AcDbLine
 10
2458.7867951831
 20
92.7180151152
 30
0.0
 11
2528.1842383443
 21
132.7846476054
 31
0.0
  0
ARC
  5
34D
330
1F
100
AcDbEntity
  8
0
  6
Continuous
 62
     7
370
    15
100
AcDbCircle
 10
2529.6842383443
 20
130.186571394
 30
0.0
 40
3.0
100
AcDbArc
 50
0.0
 51
120.0
  0
ARC
  5
34E
330
1F
100
AcDbEntity
  8
0
  6
Continuous
 62
     7
370
    15
100
AcDbCircle
 10
2529.6842383443
 20
78.4038476276
 30
0.0
 40
3.000000000000022
100
AcDbArc
 50
268.6080627734
 51
0.0
  0
LINE
  5
34F
330
1F
100
AcDbEntity
  8
0
  6
Continuous
 62
     7
370
    15
100
AcDbLine
 10
2532.6842383443
 20
130.186571394
 30
0.0
 11
2532.6842383443
 21
78.4038476276
 31
0.0
  0
ARC
  5
350
330
1F
100
AcDbEntity
  8
0
  6
Continuous
 62
     7
370
    15
100
AcDbCircle
 10
2535.6842383443
 20
325.3309623801
 30
0.0
 40
250.0000000000001
100
AcDbArc
 50
252.226626018
 51
268.6080627734
  0
ARC
  5
351
330
1F
100
AcDbEntity
  8
0
  6
Continuous
 62
     7
370
    15
100
AcDbCircle
 10
2535.6842383443
 20
325.3309623801
 30
0.0
 40
250.0000000000001
100
AcDbArc
 50
124.2464031897
 51
127.6861696227
  0
ARC
  5
352
330
1F
100
AcDbEntity
  8
0
  6
Continuous
 62
     7
370
    15
100
AcDbCircle
 10
2535.6842383443
 20
325.3309623801
 30
0.0
 40
250.0000000000001
100
AcDbArc
 50
148.6080627734
 51
151.3919372266
  0
ARC
  5
353
330
1F
100
AcDbEntity
  8
0
  6
Continuous
 62
     7
370
    15
100
AcDbCircle
 10
2535.6842383443
 20
325.3309623801
 30
0.0
 40
250.0000000000005
100
AcDbArc
 50
167.773373982
 51
171.4291591996
  0
ARC
  5
354
330
1F
100
AcDbEntity
  8
0
  6
Continuous
 62
     7
370
    15
100
AcDbCircle
 10
2535.6842383443
 20
325.3309623801
 30
0.0
 40
250.0000000000003
100
AcDbArc
 50
188.5708408004
 51
192.226626018
  0
ARC
  5
355
330
1F
100
AcDbEntity
  8
0
  6
Continuous
 62
     7
370
    15
100
AcDbCircle
 10
2535.6842383443
 20
325.3309623801
 30
0.0
 40
250.0000000000002
100
AcDbArc
 50
208.6080627734
 51
211.3919372266
  0
ARC
  5
356
330
1F
100
AcDbEntity
  8
0
  6
Continuous
 62
     7
370
    15
100
AcDbCircle
 10
2535.6842383443
 20
325.3309623801
 30
0.0
 40
250.0000000000001
100
AcDbArc
 50
232.3138303773
 51
235.7535968103
  0
ARC
  5
357
330
1F
100
AcDbEntity
  8
0
  6
Continuous
 62
     7
370
    15
100
AcDbCircle
 10
2535.6842383443
 20
325.3309623801
 30
0.0
 40
250.0000000000001
100
AcDbArc
 50
248.5708408004
 51
252.226626018
  0
ARC
  5
358
330
1F
100
AcDbEntity
  8
0
  6
Continuous
 62
     7
370
    15
100
AcDbCircle
 10
2535.6842383443
 20
325.3309623801
 30
0.0
 40
250.0000000000001
100
AcDbArc
 50
268.6080627734
 51
271.3919372266
  0
ARC
  5
359
330
1F
100
AcDbEntity
  8
0
  6
Continuous
 62
     7
370
    15
100
AcDbCircle
 10
2535.6842383443
 20
325.3309623801
 30
0.0
 40
250.0000000000001
100
AcDbArc
 50
287.773373982
 51
291.4291591996
  0
ARC
  5
35A
330
1F
100
AcDbEntity
  8
0
  6
Continuous
 62
     7
370
    15
100
AcDbCircle
 10
2535.6842383443
 20
325.3309623801
 30
0.0
 40
250.0000000000002
100
AcDbArc
 50
304.2464031897
 51
307.6861696227
  0
ARC
  5
35B
330
1F
100
AcDbEntity
  8
0
  6
Continuous
 62
     7
370
    15
100
AcDbCircle
 10
2535.6842383443
 20
325.3309623801
 30
0.0
 40
250.0000000000002
100
AcDbArc
 50
328.6080627734
 51
331.3919372266
  0
ARC
  5
35C
330
1F
100
AcDbEntity
  8
0
  6
Continuous
 62
     7
370
    15
100
AcDbCircle
 10
2535.6842383443
 20
325.3309623801
 30
0.0
 40
250.0000000000001
100
AcDbArc
 50
347.773373982
 51
351.4291591996
  0
ARC
  5
35D
330
1F
100
AcDbEntity
  8
0
  6
Continuous
 62
     7
370
    15
100
AcDbCircle
 10
2535.6842383443
 20
325.3309623801
 30
0.0
 40
249.9999999999999
100
AcDbArc
 50
8.5708408004
 51
12.226626018
  0
ARC
  5
35E
330
1F
100
AcDbEntity
  8
0
  6
Continuous
 62
     7
370
    15
100
AcDbCircle
 10
2535.6842383443
 20
325.3309623801
 30
0.0
 40
250.0
100
AcDbArc
 50
28.6080627734
 51
31.3919372266
  0
ARC
  5
35F
330
1F
100
AcDbEntity
  8
0
  6
Continuous
 62
     7
370
    15
100
AcDbCircle
 10
2535.6842383443
 20
325.3309623801
 30
0.0
 40
250.0000000000002
100
AcDbArc
 50
52.3138303773
 51
55.7535968103
  0
ARC
  5
360
330
1F
100
AcDbEntity
  8
0
  6
Continuous
 62
     7
370
    15
100
AcDbCircle
 10
2535.6842383443
 20
325.3309623801
 30
0.0
 40
250.0000000000002
100
AcDbArc
 50
68.5708408004
 51
72.226626018
  0
ARC
  5
361
330
1F
100
AcDbEntity
  8
0
  6
Continuous
 62
     7
370
    15
100
AcDbCircle
 10
2535.6842383443
 20
325.3309623801
 30
0.0
 40
250.0000000000002
100
AcDbArc
 50
88.6080627734
 51
91.3919372266
  0
ARC
  5
362
330
1F
100
AcDbEntity
  8
0
  6
Continuous
 62
     7
370
    15
100
AcDbCircle
 10
2535.6842383443
 20
325.3309623801
 30
0.0
 40
250.0
100
AcDbArc
 50
107.773373982
 51
111.4291591996
  0
ARC
  5
363
330
1F
100
AcDbEntity
  8
0
  6
Continuous
 62
     7
370
    15
100
AcDbCircle
 10
3829.6842383443
 20
572.2580771326
 30
0.0
 40
3.000000000000455
100
AcDbArc
 50
0.0
 51
91.3919372266
  0
LINE
  5
364
330
1F
100
AcDbEntity
  8
0
  6
Continuous
 62
     7
370
    15
100
AcDbLine
 10
3832.6842383443
 20
572.2580771326
 30
0.0
 11
3832.6842383443
 21
520.4753533662
 31
0.0
  0
ARC
  5
365
330
1F
100
AcDbEntity
  8
0
  6
Continuous
 62
     7
370
    15
100
AcDbCircle
 10
3829.6842383443
 20
520.4753533662
 30
0.0
 40
3.000000000000455
100
AcDbArc
 50
240.0
 51
0.0
  0
LINE
  5
366
330
1F
100
AcDbEntity
  8
0
  6
Continuous
 62
     7
370
    15
100
AcDbLine
 10
3828.1842383443
 20
517.8772771548
 30
0.0
 11
3758.7867951831
 21
557.943909645
 31
0.0
  0
ARC
  5
367
330
1F
100
AcDbEntity
  8
0
  6
Continuous
 62
     7
370
    15
100
AcDbCircle
 10
3760.2867951831
 20
560.5419858564
 30
0.0
 40
3.000000000000178
100
AcDbArc
 50
107.773373982
 51
240.0
  0
ARC
  5
368
330
1F
100
AcDbEntity
  8
0
  6
Continuous
 62
     7
370
    15
100
AcDbCircle
 10
3835.6842383443
 20
325.3309623801
 30
0.0
 40
250.0000000000002
100
AcDbArc
 50
91.3919372266
 51
107.773373982
  0
ARC
  5
369
330
1F
100
AcDbEntity
  8
0
  6
Continuous
 62
     7
370
    15
100
AcDbCircle
 10
3835.6842383443
 20
325.3309623801
 30
0.0
 40
250.0000000000001
100
AcDbArc
 50
72.226626018
 51
88.6080627734
  0
ARC
  5
36A
330
1F
100
AcDbEntity
  8
0
  6
Continuous
 62
     7
370
    15
100
AcDbCircle
 10
3911.0816815055
 20
560.5419858564
 30
0.0
 40
2.999999999999975
100
AcDbArc
 50
300.0
 51
72.226626018
  0
LINE
  5
36B
330
1F
100
AcDbEntity
  8
0
  6
Continuous
 62
     7
370
    15
100
AcDbLine
 10
3912.5816815055
 20
557.943909645
 30
0.0
 11
3843.1842383443
 21
517.8772771548
 31
0.0
  0
ARC
  5
36C
330
1F
100
AcDbEntity
  8
0
  6
Continuous
 62
     7
370
    15
100
AcDbCircle
 10
3841.6842383443
 20
520.4753533662
 30
0.0
 40
3.0
100
AcDbArc
 50
180.0
 51
300.0
  0
LINE
  5
36D
330
1F
100
AcDbEntity
  8
0
  6
Continuous
 62
     7
370
    15
100
AcDbLine
 10
3838.6842383443
 20
520.4753533662
 30
0.0
 11
3838.6842383443
 21
572.2580771326
 31
0.0
  0
ARC
  5
36E
330
1F
100
AcDbEntity
  8
0
  6
Continuous
 62
     7
370
    15
100
AcDbCircle
 10
3841.6842383443
 20
572.2580771326
 30
0.0
 40
3.000000000000096
100
AcDbArc
 50
88.6080627734
 51
180.0
  0
CIRCLE
  5
36F
330
1F
100
AcDbEntity
  8
0
  6
Continuous
 62
     7
370
    15
100
AcDbCircle
 10
3930.6842383443
 20
489.8757890991
 30
0.0
 40
5.5
  0
ARC
  5
370
330
1F
100
AcDbEntity
  8
0
  6
Continuous
 62
     7
370
    15
100
AcDbCircle
 10
3925.9258300612
 20
555.2558525603
 30
0.0
 40
3.00000000000008
100
AcDbArc
 50
68.5708408004
 51
120.0
  0
ARC
  5
371
330
1F
100
AcDbEntity
  8
0
  6
Continuous
 62
     7
370
    15
100
AcDbCircle
 10
3974.6842383443
 20
529.5073567062
 30
0.0
 40
3.000000000000109
100
AcDbArc
 50
0.0
 51
55.7535968103
  0
LINE
  5
372
330
1F
100
AcDbEntity
  8
0
  6
Continuous
 62
     7
370
    15
100
AcDbLine
 10
3977.6842383443
 20
529.5073567062
 30
0.0
 11
3977.6842383443
 21
436.7595643337
 31
0.0
  0
ARC
  5
373
330
1F
100
AcDbEntity
  8
0
  6
Continuous
 62
     7
370
    15
100
AcDbCircle
 10
3974.6842383443
 20
436.7595643337
 30
0.0
 40
3.000000000000049
100
AcDbArc
 50
240.0
 51
0.0
  0
LINE
  5
374
330
1F
100
AcDbEntity
  8
0
  6
Continuous
 62
     7
370
    15
100
AcDbLine
 10
3973.1842383443
 20
434.1614881223
 30
0.0
 11
3846.1842383443
 21
507.4849723094
 31
0.0
  0
ARC
  5
375
330
1F
100
AcDbEntity
  8
0
  6
Continuous
 62
     7
370
    15
100
AcDbCircle
 10
3847.6842383443
 20
510.0830485208
 30
0.0
 40
3.0
100
AcDbArc
 50
120.0
 51
240.0
  0
LINE
  5
376
330
1F
100
AcDbEntity
  8
0
  6
Continuous
 62
     7
370
    15
100
AcDbLine
 10
3846.1842383443
 20
512.6811247321
 30
0.0
 11
3924.4258300612
 21
557.8539287717
 31
0.0
  0
ARC
  5
377
330
1F
100
AcDbEntity
  8
0
  6
Continuous
 62
     7
370
    15
100
AcDbCircle
 10
3835.6842383443
 20
325.3309623801
 30
0.0
 40
250.0000000000002
100
AcDbArc
 50
55.7535968103
 51
68.5708408004
  0
CIRCLE
  5
378
330
1F
100
AcDbEntity
  8
0
  6
Continuous
 62
     7
370
    15
100
AcDbCircle
 10
3740.6842383443
 20
489.8757890991
 30
0.0
 40
5.5
  0
ARC
  5
379
330
1F
100
AcDbEntity
  8
0
  6
Continuous
 62
     7
370
    15
100
AcDbCircle
 10
3823.6842383443
 20
510.0830485208
 30
0.0
 40
3.0
100
AcDbArc
 50
300.0
 51
60.0
  0
LINE
  5
37A
330
1F
100
AcDbEntity
  8
0
  6
Continuous
 62
     7
370
    15
100
AcDbLine
 10
3825.1842383443
 20
507.4849723094
 30
0.0
 11
3698.1842383443
 21
434.1614881223
 31
0.0
  0
ARC
  5
37B
330
1F
100
AcDbEntity
  8
0
  6
Continuous
 62
     7
370
    15
100
AcDbCircle
 10
3696.6842383443
 20
436.7595643337
 30
0.0
 40
3.0
100
AcDbArc
 50
180.0
 51
300.0
  0
LINE
  5
37C
330
1F
100
AcDbEntity
  8
0
  6
Continuous
 62
     7
370
    15
100
AcDbLine
 10
3693.6842383443
 20
436.7595643337
 30
0.0
 11
3693.6842383443
 21
529.5073567062
 31
0.0
  0
ARC
  5
37D
330
1F
100
AcDbEntity
  8
0
  6
Continuous
 62
     7
370
    15
100
AcDbCircle
 10
3696.6842383443
 20
529.5073567062
 30
0.0
 40
3.0
100
AcDbArc
 50
124.2464031897
 51
180.0
  0
LINE
  5
37E
330
1F
100
AcDbEntity
  8
0
  6
Continuous
 62
     7
370
    15
100
AcDbLine
 10
3746.9426466274
 20
557.8539287717
 30
0.0
 11
3825.1842383443
 21
512.6811247321
 31
0.0
  0
ARC
  5
37F
330
1F
100
AcDbEntity
  8
0
  6
Continuous
 62
     7
370
    15
100
AcDbCircle
 10
3745.4426466274
 20
555.2558525603
 30
0.0
 40
2.999999999999974
100
AcDbArc
 50
60.0
 51
111.4291591996
  0
ARC
  5
380
330
1F
100
AcDbEntity
  8
0
  6
Continuous
 62
     7
370
    15
100
AcDbCircle
 10
3835.6842383443
 20
325.3309623801
 30
0.0
 40
250.0
100
AcDbArc
 50
111.4291591996
 51
124.2464031897
  0
ARC
  5
381
330
1F
100
AcDbEntity
  8
0
  6
Continuous
 62
     7
370
    15
100
AcDbCircle
 10
4046.5293926032
 20
453.9906721791
 30
0.0
 40
3.0
100
AcDbArc
 50
300.0
 51
31.3919372266
  0
LINE
  5
382
330
1F
100
AcDbEntity
  8
0
  6
Continuous
 62
     7
370
    15
100
AcDbLine
 10
4048.0293926032
 20
451.3925959677
 30
0.0
 11
3997.1842383443
 21
422.0371324694
 31
0.0
  0
ARC
  5
383
330
1F
100
AcDbEntity
  8
0
  6
Continuous
 62
     7
370
    15
100
AcDbCircle
 10
3995.6842383443
 20
424.6352086807
 30
0.0
 40
3.0
100
AcDbArc
 50
240.0
 51
300.0
  0
LINE
  5
384
330
1F
100
AcDbEntity
  8
0
  6
Continuous
 62
     7
370
    15
100
AcDbLine
 10
3994.1842383443
 20
422.0371324694
 30
0.0
 11
3985.1842383443
 21
427.2332848921
 31
0.0
  0
ARC
  5
385
330
1F
100
AcDbEntity
  8
0
  6
Continuous
 62
     7
370
    15
100
AcDbCircle
 10
3986.6842383443
 20
429.8313611034
 30
0.0
 40
3.0
100
AcDbArc
 50
180.0
 51
240.0
  0
ARC
  5
386
330
1F
100
AcDbEntity
  8
0
  6
Continuous
 62
     7
370
    15
100
AcDbCircle
 10
3986.6842383443
 20
520.799629946
 30
0.0
 40
3.00000000000021
100
AcDbArc
 50
52.3138303773
 51
180.0
  0
LINE
  5
387
330
1F
100
AcDbEntity
  8
0
  6
Continuous
 62
     7
370
    15
100
AcDbLine
 10
3983.6842383443
 20
429.8313611034
 30
0.0
 11
3983.6842383443
 21
520.799629946
 31
0.0
  0
ARC
  5
388
330
1F
100
AcDbEntity
  8
0
  6
Continuous
 62
     7
370
    15
100
AcDbCircle
 10
3835.6842383443
 20
325.3309623801
 30
0.0
 40
250.0000000000001
100
AcDbArc
 50
31.3919372266
 51
52.3138303773
  0
ARC
  5
389
330
1F
100
AcDbEntity
  8
0
  6
Continuous
 62
     7
370
    15
100
AcDbCircle
 10
3684.6842383443
 20
520.799629946
 30
0.0
 40
3.00000000000003
100
AcDbArc
 50
0.0
 51
127.6861696227
  0
LINE
  5
38A
330
1F
100
AcDbEntity
  8
0
  6
Continuous
 62
     7
370
    15
100
AcDbLine
 10
3687.6842383443
 20
520.799629946
 30
0.0
 11
3687.6842383443
 21
429.8313611034
 31
0.0
  0
ARC
  5
38B
330
1F
100
AcDbEntity
  8
0
  6
Continuous
 62
     7
370
    15
100
AcDbCircle
 10
3684.6842383443
 20
429.8313611034
 30
0.0
 40
3.000000000000049
100
AcDbArc
 50
300.0
 51
0.0
  0
LINE
  5
38C
330
1F
100
AcDbEntity
  8
0
  6
Continuous
 62
     7
370
    15
100
AcDbLine
 10
3686.1842383443
 20
427.2332848921
 30
0.0
 11
3677.1842383443
 21
422.0371324694
 31
0.0
  0
ARC
  5
38D
330
1F
100
AcDbEntity
  8
0
  6
Continuous
 62
     7
370
    15
100
AcDbCircle
 10
3675.6842383443
 20
424.6352086807
 30
0.0
 40
3.000000000000178
100
AcDbArc
 50
240.0
 51
300.0
  0
LINE
  5
38E
330
1F
100
AcDbEntity
  8
0
  6
Continuous
 62
     7
370
    15
100
AcDbLine
 10
3674.1842383443
 20
422.0371324694
 30
0.0
 11
3623.3390840854
 21
451.3925959677
 31
0.0
  0
ARC
  5
38F
330
1F
100
AcDbEntity
  8
0
  6
Continuous
 62
     7
370
    15
100
AcDbCircle
 10
3624.8390840854
 20
453.9906721791
 30
0.0
 40
3.000000000000187
100
AcDbArc
 50
148.6080627734
 51
240.0
  0
ARC
  5
390
330
1F
100
AcDbEntity
  8
0
  6
Continuous
 62
     7
370
    15
100
AcDbCircle
 10
3835.6842383443
 20
325.3309623801
 30
0.0
 40
250.0000000000001
100
AcDbArc
 50
127.6861696227
 51
148.6080627734
  0
ARC
  5
391
330
1F
100
AcDbEntity
  8
0
  6
Continuous
 62
     7
370
    15
100
AcDbCircle
 10
3829.6842383443
 20
335.7232672255
 30
0.0
 40
3.000000000000455
100
AcDbArc
 50
240.0
 51
0.0
  0
LINE
  5
392
330
1F
100
AcDbEntity
  8
0
  6
Continuous
 62
     7
370
    15
100
AcDbLine
 10
3828.1842383443
 20
333.1251910142
 30
0.0
 11
3695.1842383443
 21
409.9127768164
 31
0.0
  0
ARC
  5
393
330
1F
100
AcDbEntity
  8
0
  6
Continuous
 62
     7
370
    15
100
AcDbCircle
 10
3696.6842383443
 20
412.5108530277
 30
0.0
 40
3.000000000000049
100
AcDbArc
 50
180.0
 51
240.0
  0
LINE
  5
394
330
1F
100
AcDbEntity
  8
0
  6
Continuous
 62
     7
370
    15
100
AcDbLine
 10
3693.6842383443
 20
412.5108530277
 30
0.0
 11
3693.6842383443
 21
422.9031578731
 31
0.0
  0
ARC
  5
395
330
1F
100
AcDbEntity
  8
0
  6
Continuous
 62
     7
370
    15
100
AcDbCircle
 10
3696.6842383443
 20
422.9031578731
 30
0.0
 40
3.0
100
AcDbArc
 50
120.0
 51
180.0
  0
ARC
  5
396
330
1F
100
AcDbEntity
  8
0
  6
Continuous
 62
     7
370
    15
100
AcDbCircle
 10
3829.6842383443
 20
499.6907436754
 30
0.0
 40
3.000000000000455
100
AcDbArc
 50
0.0
 51
120.0
  0
LINE
  5
397
330
1F
100
AcDbEntity
  8
0
  6
Continuous
 62
     7
370
    15
100
AcDbLine
 10
3832.6842383443
 20
499.6907436754
 30
0.0
 11
3832.6842383443
 21
335.7232672255
 31
0.0
  0
LINE
  5
398
330
1F
100
AcDbEntity
  8
0
  6
Continuous
 62
     7
370
    15
100
AcDbLine
 10
3695.1842383443
 20
425.5012340845
 30
0.0
 11
3828.1842383443
 21
502.2888198867
 31
0.0
  0
ARC
  5
399
330
1F
100
AcDbEntity
  8
0
  6
Continuous
 62
     7
370
    15
100
AcDbCircle
 10
3974.6842383443
 20
422.9031578731
 30
0.0
 40
3.0
100
AcDbArc
 50
0.0
 51
60.0
  0
LINE
  5
39A
330
1F
100
AcDbEntity
  8
0
  6
Continuous
 62
     7
370
    15
100
AcDbLine
 10
3977.6842383443
 20
422.9031578731
 30
0.0
 11
3977.6842383443
 21
412.5108530277
 31
0.0
  0
ARC
  5
39B
330
1F
100
AcDbEntity
  8
0
  6
Continuous
 62
     7
370
    15
100
AcDbCircle
 10
3974.6842383443
 20
412.5108530277
 30
0.0
 40
3.0
100
AcDbArc
 50
300.0
 51
0.0
  0
LINE
  5
39C
330
1F
100
AcDbEntity
  8
0
  6
Continuous
 62
     7
370
    15
100
AcDbLine
 10
3976.1842383443
 20
409.9127768164
 30
0.0
 11
3843.1842383443
 21
333.1251910142
 31
0.0
  0
ARC
  5
39D
330
1F
100
AcDbEntity
  8
0
  6
Continuous
 62
     7
370
    15
100
AcDbCircle
 10
3841.6842383443
 20
335.7232672255
 30
0.0
 40
3.0
100
AcDbArc
 50
180.0
 51
300.0
  0
LINE
  5
39E
330
1F
100
AcDbEntity
  8
0
  6
Continuous
 62
     7
370
    15
100
AcDbLine
 10
3838.6842383443
 20
335.7232672255
 30
0.0
 11
3838.6842383443
 21
499.6907436754
 31
0.0
  0
LINE
  5
39F
330
1F
100
AcDbEntity
  8
0
  6
Continuous
 62
     7
370
    15
100
AcDbLine
 10
3843.1842383443
 20
502.2888198867
 30
0.0
 11
3976.1842383443
 21
425.5012340845
 31
0.0
  0
ARC
  5
3A0
330
1F
100
AcDbEntity
  8
0
  6
Continuous
 62
     7
370
    15
100
AcDbCircle
 10
3841.6842383443
 20
499.6907436754
 30
0.0
 40
3.000000000000049
100
AcDbArc
 50
60.0
 51
180.0
  0
ARC
  5
3A1
330
1F
100
AcDbEntity
  8
0
  6
Continuous
 62
     7
370
    15
100
AcDbCircle
 10
4077.0816815055
 20
377.6403729603
 30
0.0
 40
3.000000000000502
100
AcDbArc
 50
240.0
 51
12.226626018
  0
LINE
  5
3A2
330
1F
100
AcDbEntity
  8
0
  6
Continuous
 62
     7
370
    15
100
AcDbLine
 10
4075.5816815055
 20
375.0422967489
 30
0.0
 11
4006.1842383443
 21
415.1089292391
 31
0.0
  0
ARC
  5
3A3
330
1F
100
AcDbEntity
  8
0
  6
Continuous
 62
     7
370
    15
100
AcDbCircle
 10
4007.6842383443
 20
417.7070054504
 30
0.0
 40
3.000000000000049
100
AcDbArc
 50
120.0
 51
240.0
  0
ARC
  5
3A4
330
1F
100
AcDbEntity
  8
0
  6
Continuous
 62
     7
370
    15
100
AcDbCircle
 10
4052.5293926032
 20
443.5983673336
 30
0.0
 40
2.999999999999773
100
AcDbArc
 50
28.6080627734
 51
120.0
  0
LINE
  5
3A5
330
1F
100
AcDbEntity
  8
0
  6
Continuous
 62
     7
370
    15
100
AcDbLine
 10
4006.1842383443
 20
420.3050816618
 30
0.0
 11
4051.0293926032
 21
446.196443545
 31
0.0
  0
ARC
  5
3A6
330
1F
100
AcDbEntity
  8
0
  6
Continuous
 62
     7
370
    15
100
AcDbCircle
 10
3835.6842383443
 20
325.3309623801
 30
0.0
 40
250.0000000000001
100
AcDbArc
 50
12.226626018
 51
28.6080627734
  0
LINE
  5
3A7
330
1F
100
AcDbEntity
  8
0
  6
Continuous
 62
     7
370
    15
100
AcDbLine
 10
3620.3390840854
 20
446.196443545
 30
0.0
 11
3665.1842383443
 21
420.3050816618
 31
0.0
  0
ARC
  5
3A8
330
1F
100
AcDbEntity
  8
0
  6
Continuous
 62
     7
370
    15
100
AcDbCircle
 10
3663.6842383443
 20
417.7070054504
 30
0.0
 40
3.000000000000129
100
AcDbArc
 50
300.0
 51
60.0
  0
LINE
  5
3A9
330
1F
100
AcDbEntity
  8
0
  6
Continuous
 62
     7
370
    15
100
AcDbLine
 10
3665.1842383443
 20
415.1089292391
 30
0.0
 11
3595.7867951831
 21
375.0422967489
 31
0.0
  0
ARC
  5
3AA
330
1F
100
AcDbEntity
  8
0
  6
Continuous
 62
     7
370
    15
100
AcDbCircle
 10
3594.2867951831
 20
377.6403729603
 30
0.0
 40
3.000000000000178
100
AcDbArc
 50
167.773373982
 51
300.0
  0
ARC
  5
3AB
330
1F
100
AcDbEntity
  8
0
  6
Continuous
 62
     7
370
    15
100
AcDbCircle
 10
3618.8390840854
 20
443.5983673336
 30
0.0
 40
3.000000000000092
100
AcDbArc
 50
60.0
 51
151.3919372266
  0
ARC
  5
3AC
330
1F
100
AcDbEntity
  8
0
  6
Continuous
 62
     7
370
    15
100
AcDbCircle
 10
3835.6842383443
 20
325.3309623801
 30
0.0
 40
250.0000000000001
100
AcDbArc
 50
151.3919372266
 51
167.773373982
  0
CIRCLE
  5
3AD
330
1F
100
AcDbEntity
  8
0
  6
Continuous
 62
     7
370
    15
100
AcDbCircle
 10
4025.6842383443
 20
325.3309623801
 30
0.0
 40
5.499999999999545
  0
ARC
  5
3AE
330
1F
100
AcDbEntity
  8
0
  6
Continuous
 62
     7
370
    15
100
AcDbCircle
 10
3995.6842383443
 20
410.7788022202
 30
0.0
 40
3.0
100
AcDbArc
 50
60.0
 51
120.0
  0
LINE
  5
3AF
330
1F
100
AcDbEntity
  8
0
  6
Continuous
 62
     7
370
    15
100
AcDbLine
 10
3997.1842383443
 20
413.3768784315
 30
0.0
 11
4081.4258300612
 21
364.7399727768
 31
0.0
  0
ARC
  5
3B0
330
1F
100
AcDbEntity
  8
0
  6
Continuous
 62
     7
370
    15
100
AcDbCircle
 10
4079.9258300612
 20
362.1418965654
 30
0.0
 40
3.000000000000049
100
AcDbArc
 50
8.5708408004
 51
60.0
  0
ARC
  5
3B1
330
1F
100
AcDbEntity
  8
0
  6
Continuous
 62
     7
370
    15
100
AcDbCircle
 10
4079.9258300612
 20
288.5200281947
 30
0.0
 40
3.000000000000637
100
AcDbArc
 50
300.0
 51
351.4291591996
  0
LINE
  5
3B2
330
1F
100
AcDbEntity
  8
0
  6
Continuous
 62
     7
370
    15
100
AcDbLine
 10
4081.4258300612
 20
285.9219519834
 30
0.0
 11
3997.1842383443
 21
237.2850463287
 31
0.0
  0
ARC
  5
3B3
330
1F
100
AcDbEntity
  8
0
  6
Continuous
 62
     7
370
    15
100
AcDbCircle
 10
3995.6842383443
 20
239.88312254
 30
0.0
 40
2.999999999999976
100
AcDbArc
 50
240.0
 51
300.0
  0
LINE
  5
3B4
330
1F
100
AcDbEntity
  8
0
  6
Continuous
 62
     7
370
    15
100
AcDbLine
 10
3994.1842383443
 20
237.2850463287
 30
0.0
 11
3985.1842383443
 21
242.4811987514
 31
0.0
  0
ARC
  5
3B5
330
1F
100
AcDbEntity
  8
0
  6
Continuous
 62
     7
370
    15
100
AcDbCircle
 10
3986.6842383443
 20
245.0792749627
 30
0.0
 40
3.000000000000025
100
AcDbArc
 50
180.0
 51
240.0
  0
LINE
  5
3B6
330
1F
100
AcDbEntity
  8
0
  6
Continuous
 62
     7
370
    15
100
AcDbLine
 10
3983.6842383443
 20
245.0792749627
 30
0.0
 11
3983.6842383443
 21
405.5826497975
 31
0.0
  0
ARC
  5
3B7
330
1F
100
AcDbEntity
  8
0
  6
Continuous
 62
     7
370
    15
100
AcDbCircle
 10
3986.6842383443
 20
405.5826497975
 30
0.0
 40
3.0
100
AcDbArc
 50
120.0
 51
180.0
  0
LINE
  5
3B8
330
1F
100
AcDbEntity
  8
0
  6
Continuous
 62
     7
370
    15
100
AcDbLine
 10
3985.1842383443
 20
408.1807260088
 30
0.0
 11
3994.1842383443
 21
413.3768784315
 31
0.0
  0
ARC
  5
3B9
330
1F
100
AcDbEntity
  8
0
  6
Continuous
 62
     7
370
    15
100
AcDbCircle
 10
3835.6842383443
 20
325.3309623801
 30
0.0
 40
250.0000000000005
100
AcDbArc
 50
351.4291591996
 51
8.5708408004
  0
CIRCLE
  5
3BA
330
1F
100
AcDbEntity
  8
0
  6
Continuous
 62
     7
370
    15
100
AcDbCircle
 10
3645.6842383443
 20
325.3309623801
 30
0.0
 40
5.5
  0
ARC
  5
3BB
330
1F
100
AcDbEntity
  8
0
  6
Continuous
 62
     7
370
    15
100
AcDbCircle
 10
3675.6842383443
 20
239.88312254
 30
0.0
 40
3.000000000000203
100
AcDbArc
 50
240.0
 51
300.0
  0
LINE
  5
3BC
330
1F
100
AcDbEntity
  8
0
  6
Continuous
 62
     7
370
    15
100
AcDbLine
 10
3674.1842383443
 20
237.2850463287
 30
0.0
 11
3589.9426466274
 21
285.9219519834
 31
0.0
  0
ARC
  5
3BD
330
1F
100
AcDbEntity
  8
0
  6
Continuous
 62
     7
370
    15
100
AcDbCircle
 10
3591.4426466274
 20
288.5200281947
 30
0.0
 40
2.999999999999951
100
AcDbArc
 50
188.5708408004
 51
240.0
  0
ARC
  5
3BE
330
1F
100
AcDbEntity
  8
0
  6
Continuous
 62
     7
370
    15
100
AcDbCircle
 10
3591.4426466274
 20
362.1418965654
 30
0.0
 40
3.000000000000227
100
AcDbArc
 50
120.0
 51
171.4291591996
  0
LINE
  5
3BF
330
1F
100
AcDbEntity
  8
0
  6
Continuous
 62
     7
370
    15
100
AcDbLine
 10
3677.1842383443
 20
413.3768784315
 30
0.0
 11
3686.1842383443
 21
408.1807260088
 31
0.0
  0
ARC
  5
3C0
330
1F
100
AcDbEntity
  8
0
  6
Continuous
 62
     7
370
    15
100
AcDbCircle
 10
3684.6842383443
 20
405.5826497975
 30
0.0
 40
3.0
100
AcDbArc
 50
0.0
 51
60.0
  0
LINE
  5
3C1
330
1F
100
AcDbEntity
  8
0
  6
Continuous
 62
     7
370
    15
100
AcDbLine
 10
3687.6842383443
 20
405.5826497975
 30
0.0
 11
3687.6842383443
 21
245.0792749627
 31
0.0
  0
ARC
  5
3C2
330
1F
100
AcDbEntity
  8
0
  6
Continuous
 62
     7
370
    15
100
AcDbCircle
 10
3684.6842383443
 20
245.0792749627
 30
0.0
 40
3.000000000000025
100
AcDbArc
 50
300.0
 51
0.0
  0
LINE
  5
3C3
330
1F
100
AcDbEntity
  8
0
  6
Continuous
 62
     7
370
    15
100
AcDbLine
 10
3686.1842383443
 20
242.4811987514
 30
0.0
 11
3677.1842383443
 21
237.2850463287
 31
0.0
  0
LINE
  5
3C4
330
1F
100
AcDbEntity
  8
0
  6
Continuous
 62
     7
370
    15
100
AcDbLine
 10
3589.9426466274
 20
364.7399727768
 30
0.0
 11
3674.1842383443
 21
413.3768784315
 31
0.0
  0
ARC
  5
3C5
330
1F
100
AcDbEntity
  8
0
  6
Continuous
 62
     7
370
    15
100
AcDbCircle
 10
3675.6842383443
 20
410.7788022202
 30
0.0
 40
3.000000000000277
100
AcDbArc
 50
60.0
 51
120.0
  0
ARC
  5
3C6
330
1F
100
AcDbEntity
  8
0
  6
Continuous
 62
     7
370
    15
100
AcDbCircle
 10
3835.6842383443
 20
325.3309623801
 30
0.0
 40
250.0000000000001
100
AcDbArc
 50
171.4291591996
 51
188.5708408004
  0
ARC
  5
3C7
330
1F
100
AcDbEntity
  8
0
  6
Continuous
 62
     7
370
    15
100
AcDbCircle
 10
3974.6842383443
 20
252.007478193
 30
0.0
 40
3.0
100
AcDbArc
 50
240.0
 51
0.0
  0
LINE
  5
3C8
330
1F
100
AcDbEntity
  8
0
  6
Continuous
 62
     7
370
    15
100
AcDbLine
 10
3973.1842383443
 20
249.4094019817
 30
0.0
 11
3846.1842383443
 21
322.7328861687
 31
0.0
  0
ARC
  5
3C9
330
1F
100
AcDbEntity
  8
0
  6
Continuous
 62
     7
370
    15
100
AcDbCircle
 10
3847.6842383443
 20
325.3309623801
 30
0.0
 40
3.0
100
AcDbArc
 50
120.0
 51
240.0
  0
LINE
  5
3CA
330
1F
100
AcDbEntity
  8
0
  6
Continuous
 62
     7
370
    15
100
AcDbLine
 10
3846.1842383443
 20
327.9290385914
 30
0.0
 11
3973.1842383443
 21
401.2525227785
 31
0.0
  0
LINE
  5
3CB
330
1F
100
AcDbEntity
  8
0
  6
Continuous
 62
     7
370
    15
100
AcDbLine
 10
3977.6842383443
 20
398.6544465672
 30
0.0
 11
3977.6842383443
 21
252.007478193
 31
0.0
  0
ARC
  5
3CC
330
1F
100
AcDbEntity
  8
0
  6
Continuous
 62
     7
370
    15
100
AcDbCircle
 10
3974.6842383443
 20
398.6544465672
 30
0.0
 40
3.0
100
AcDbArc
 50
0.0
 51
120.0
  0
ARC
  5
3CD
330
1F
100
AcDbEntity
  8
0
  6
Continuous
 62
     7
370
    15
100
AcDbCircle
 10
3696.6842383443
 20
252.007478193
 30
0.0
 40
3.0
100
AcDbArc
 50
180.0
 51
300.0
  0
LINE
  5
3CE
330
1F
100
AcDbEntity
  8
0
  6
Continuous
 62
     7
370
    15
100
AcDbLine
 10
3693.6842383443
 20
252.007478193
 30
0.0
 11
3693.6842383443
 21
398.6544465672
 31
0.0
  0
ARC
  5
3CF
330
1F
100
AcDbEntity
  8
0
  6
Continuous
 62
     7
370
    15
100
AcDbCircle
 10
3696.6842383443
 20
398.6544465672
 30
0.0
 40
3.0
100
AcDbArc
 50
60.0
 51
180.0
  0
LINE
  5
3D0
330
1F
100
AcDbEntity
  8
0
  6
Continuous
 62
     7
370
    15
100
AcDbLine
 10
3698.1842383443
 20
401.2525227785
 30
0.0
 11
3825.1842383443
 21
327.9290385914
 31
0.0
  0
ARC
  5
3D1
330
1F
100
AcDbEntity
  8
0
  6
Continuous
 62
     7
370
    15
100
AcDbCircle
 10
3823.6842383443
 20
325.3309623801
 30
0.0
 40
3.000000000000049
100
AcDbArc
 50
300.0
 51
60.0
  0
LINE
  5
3D2
330
1F
100
AcDbEntity
  8
0
  6
Continuous
 62
     7
370
    15
100
AcDbLine
 10
3825.1842383443
 20
322.7328861687
 30
0.0
 11
3698.1842383443
 21
249.4094019817
 31
0.0
  0
ARC
  5
3D3
330
1F
100
AcDbEntity
  8
0
  6
Continuous
 62
     7
370
    15
100
AcDbCircle
 10
3696.6842383443
 20
227.758766887
 30
0.0
 40
3.000000000000049
100
AcDbArc
 50
180.0
 51
240.0
  0
LINE
  5
3D4
330
1F
100
AcDbEntity
  8
0
  6
Continuous
 62
     7
370
    15
100
AcDbLine
 10
3693.6842383443
 20
227.758766887
 30
0.0
 11
3693.6842383443
 21
238.1510717325
 31
0.0
  0
ARC
  5
3D5
330
1F
100
AcDbEntity
  8
0
  6
Continuous
 62
     7
370
    15
100
AcDbCircle
 10
3696.6842383443
 20
238.1510717325
 30
0.0
 40
3.000000000000025
100
AcDbArc
 50
120.0
 51
180.0
  0
LINE
  5
3D6
330
1F
100
AcDbEntity
  8
0
  6
Continuous
 62
     7
370
    15
100
AcDbLine
 10
3695.1842383443
 20
240.7491479438
 30
0.0
 11
3828.1842383443
 21
317.536733746
 31
0.0
  0
ARC
  5
3D7
330
1F
100
AcDbEntity
  8
0
  6
Continuous
 62
     7
370
    15
100
AcDbCircle
 10
3829.6842383443
 20
314.9386575347
 30
0.0
 40
3.000000000000455
100
AcDbArc
 50
0.0
 51
120.0
  0
LINE
  5
3D8
330
1F
100
AcDbEntity
  8
0
  6
Continuous
 62
     7
370
    15
100
AcDbLine
 10
3832.6842383443
 20
314.9386575347
 30
0.0
 11
3832.6842383443
 21
150.9711810848
 31
0.0
  0
ARC
  5
3D9
330
1F
100
AcDbEntity
  8
0
  6
Continuous
 62
     7
370
    15
100
AcDbCircle
 10
3829.6842383443
 20
150.9711810848
 30
0.0
 40
3.000000000000455
100
AcDbArc
 50
240.0
 51
0.0
  0
LINE
  5
3DA
330
1F
100
AcDbEntity
  8
0
  6
Continuous
 62
     7
370
    15
100
AcDbLine
 10
3828.1842383443
 20
148.3731048735
 30
0.0
 11
3695.1842383443
 21
225.1606906757
 31
0.0
  0
ARC
  5
3DB
330
1F
100
AcDbEntity
  8
0
  6
Continuous
 62
     7
370
    15
100
AcDbCircle
 10
3841.6842383443
 20
150.9711810848
 30
0.0
 40
2.999999999999926
100
AcDbArc
 50
180.0
 51
300.0
  0
LINE
  5
3DC
330
1F
100
AcDbEntity
  8
0
  6
Continuous
 62
     7
370
    15
100
AcDbLine
 10
3838.6842383443
 20
150.9711810848
 30
0.0
 11
3838.6842383443
 21
314.9386575347
 31
0.0
  0
LINE
  5
3DD
330
1F
100
AcDbEntity
  8
0
  6
Continuous
 62
     7
370
    15
100
AcDbLine
 10
3843.1842383443
 20
317.536733746
 30
0.0
 11
3976.1842383443
 21
240.7491479438
 31
0.0
  0
ARC
  5
3DE
330
1F
100
AcDbEntity
  8
0
  6
Continuous
 62
     7
370
    15
100
AcDbCircle
 10
3974.6842383443
 20
238.1510717325
 30
0.0
 40
3.000000000000074
100
AcDbArc
 50
0.0
 51
60.0
  0
LINE
  5
3DF
330
1F
100
AcDbEntity
  8
0
  6
Continuous
 62
     7
370
    15
100
AcDbLine
 10
3977.6842383443
 20
238.1510717325
 30
0.0
 11
3977.6842383443
 21
227.758766887
 31
0.0
  0
ARC
  5
3E0
330
1F
100
AcDbEntity
  8
0
  6
Continuous
 62
     7
370
    15
100
AcDbCircle
 10
3974.6842383443
 20
227.758766887
 30
0.0
 40
3.0
100
AcDbArc
 50
300.0
 51
0.0
  0
LINE
  5
3E1
330
1F
100
AcDbEntity
  8
0
  6
Continuous
 62
     7
370
    15
100
AcDbLine
 10
3976.1842383443
 20
225.1606906757
 30
0.0
 11
3843.1842383443
 21
148.3731048735
 31
0.0
  0
ARC
  5
3E2
330
1F
100
AcDbEntity
  8
0
  6
Continuous
 62
     7
370
    15
100
AcDbCircle
 10
3841.6842383443
 20
314.9386575347
 30
0.0
 40
3.0
100
AcDbArc
 50
60.0
 51
180.0
  0
ARC
  5
3E3
330
1F
100
AcDbEntity
  8
0
  6
Continuous
 62
     7
370
    15
100
AcDbCircle
 10
3618.8390840854
 20
207.0635574265
 30
0.0
 40
3.000000000000092
100
AcDbArc
 50
208.6080627734
 51
300.0
  0
ARC
  5
3E4
330
1F
100
AcDbEntity
  8
0
  6
Continuous
 62
     7
370
    15
100
AcDbCircle
 10
3594.2867951831
 20
273.0215517999
 30
0.0
 40
3.000000000000326
100
AcDbArc
 50
60.0
 51
192.226626018
  0
LINE
  5
3E5
330
1F
100
AcDbEntity
  8
0
  6
Continuous
 62
     7
370
    15
100
AcDbLine
 10
3595.7867951831
 20
275.6196280113
 30
0.0
 11
3665.1842383443
 21
235.5529955211
 31
0.0
  0
ARC
  5
3E6
330
1F
100
AcDbEntity
  8
0
  6
Continuous
 62
     7
370
    15
100
AcDbCircle
 10
3663.6842383443
 20
232.9549193098
 30
0.0
 40
3.000000000000302
100
AcDbArc
 50
300.0
 51
60.0
  0
LINE
  5
3E7
330
1F
100
AcDbEntity
  8
0
  6
Continuous
 62
     7
370
    15
100
AcDbLine
 10
3665.1842383443
 20
230.3568430984
 30
0.0
 11
3620.3390840854
 21
204.4654812152
 31
0.0
  0
ARC
  5
3E8
330
1F
100
AcDbEntity
  8
0
  6
Continuous
 62
     7
370
    15
100
AcDbCircle
 10
3835.6842383443
 20
325.3309623801
 30
0.0
 40
250.0000000000001
100
AcDbArc
 50
192.226626018
 51
208.6080627734
  0
ARC
  5
3E9
330
1F
100
AcDbEntity
  8
0
  6
Continuous
 62
     7
370
    15
100
AcDbCircle
 10
4052.5293926032
 20
207.0635574265
 30
0.0
 40
3.000000000000877
100
AcDbArc
 50
240.0
 51
331.3919372266
  0
LINE
  5
3EA
330
1F
100
AcDbEntity
  8
0
  6
Continuous
 62
     7
370
    15
100
AcDbLine
 10
4051.0293926032
 20
204.4654812152
 30
0.0
 11
4006.1842383443
 21
230.3568430984
 31
0.0
  0
ARC
  5
3EB
330
1F
100
AcDbEntity
  8
0
  6
Continuous
 62
     7
370
    15
100
AcDbCircle
 10
4007.6842383443
 20
232.9549193098
 30
0.0
 40
3.0
100
AcDbArc
 50
120.0
 51
240.0
  0
LINE
  5
3EC
330
1F
100
AcDbEntity
  8
0
  6
Continuous
 62
     7
370
    15
100
AcDbLine
 10
4006.1842383443
 20
235.5529955211
 30
0.0
 11
4075.5816815055
 21
275.6196280113
 31
0.0
  0
ARC
  5
3ED
330
1F
100
AcDbEntity
  8
0
  6
Continuous
 62
     7
370
    15
100
AcDbCircle
 10
4077.0816815055
 20
273.0215517999
 30
0.0
 40
3.0
100
AcDbArc
 50
347.773373982
 51
120.0
  0
ARC
  5
3EE
330
1F
100
AcDbEntity
  8
0
  6
Continuous
 62
     7
370
    15
100
AcDbCircle
 10
3835.6842383443
 20
325.3309623801
 30
0.0
 40
250.0000000000004
100
AcDbArc
 50
331.3919372266
 51
347.773373982
  0
ARC
  5
3EF
330
1F
100
AcDbEntity
  8
0
  6
Continuous
 62
     7
370
    15
100
AcDbCircle
 10
3624.8390840854
 20
196.6712525811
 30
0.0
 40
3.000000000000201
100
AcDbArc
 50
120.0
 51
211.3919372266
  0
LINE
  5
3F0
330
1F
100
AcDbEntity
  8
0
  6
Continuous
 62
     7
370
    15
100
AcDbLine
 10
3623.3390840854
 20
199.2693287925
 30
0.0
 11
3674.1842383443
 21
228.6247922908
 31
0.0
  0
ARC
  5
3F1
330
1F
100
AcDbEntity
  8
0
  6
Continuous
 62
     7
370
    15
100
AcDbCircle
 10
3675.6842383443
 20
226.0267160795
 30
0.0
 40
3.000000000000129
100
AcDbArc
 50
60.0
 51
120.0
  0
LINE
  5
3F2
330
1F
100
AcDbEntity
  8
0
  6
Continuous
 62
     7
370
    15
100
AcDbLine
 10
3677.1842383443
 20
228.6247922908
 30
0.0
 11
3686.1842383443
 21
223.4286398681
 31
0.0
  0
ARC
  5
3F3
330
1F
100
AcDbEntity
  8
0
  6
Continuous
 62
     7
370
    15
100
AcDbCircle
 10
3684.6842383443
 20
220.8305636568
 30
0.0
 40
3.0
100
AcDbArc
 50
0.0
 51
60.0
  0
LINE
  5
3F4
330
1F
100
AcDbEntity
  8
0
  6
Continuous
 62
     7
370
    15
100
AcDbLine
 10
3687.6842383443
 20
220.8305636568
 30
0.0
 11
3687.6842383443
 21
129.8622948142
 31
0.0
  0
ARC
  5
3F5
330
1F
100
AcDbEntity
  8
0
  6
Continuous
 62
     7
370
    15
100
AcDbCircle
 10
3684.6842383443
 20
129.8622948142
 30
0.0
 40
3.000000000000108
100
AcDbArc
 50
232.3138303773
 51
0.0
  0
ARC
  5
3F6
330
1F
100
AcDbEntity
  8
0
  6
Continuous
 62
     7
370
    15
100
AcDbCircle
 10
3835.6842383443
 20
325.3309623801
 30
0.0
 40
250.0
100
AcDbArc
 50
211.3919372266
 51
232.3138303773
  0
ARC
  5
3F7
330
1F
100
AcDbEntity
  8
0
  6
Continuous
 62
     7
370
    15
100
AcDbCircle
 10
4046.5293926032
 20
196.6712525811
 30
0.0
 40
2.999999999999828
100
AcDbArc
 50
328.6080627734
 51
60.0
  0
ARC
  5
3F8
330
1F
100
AcDbEntity
  8
0
  6
Continuous
 62
     7
370
    15
100
AcDbCircle
 10
3986.6842383443
 20
129.8622948142
 30
0.0
 40
3.00000000000003
100
AcDbArc
 50
180.0
 51
307.6861696227
  0
LINE
  5
3F9
330
1F
100
AcDbEntity
  8
0
  6
Continuous
 62
     7
370
    15
100
AcDbLine
 10
3983.6842383443
 20
129.8622948142
 30
0.0
 11
3983.6842383443
 21
220.8305636568
 31
0.0
  0
LINE
  5
3FA
330
1F
100
AcDbEntity
  8
0
  6
Continuous
 62
     7
370
    15
100
AcDbLine
 10
3985.1842383443
 20
223.4286398681
 30
0.0
 11
3994.1842383443
 21
228.6247922908
 31
0.0
  0
LINE
  5
3FB
330
1F
100
AcDbEntity
  8
0
  6
Continuous
 62
     7
370
    15
100
AcDbLine
 10
3997.1842383443
 20
228.6247922908
 30
0.0
 11
4048.0293926032
 21
199.2693287925
 31
0.0
  0
ARC
  5
3FC
330
1F
100
AcDbEntity
  8
0
  6
Continuous
 62
     7
370
    15
100
AcDbCircle
 10
3986.6842383443
 20
220.8305636568
 30
0.0
 40
3.0
100
AcDbArc
 50
120.0
 51
180.0
  0
ARC
  5
3FD
330
1F
100
AcDbEntity
  8
0
  6
Continuous
 62
     7
370
    15
100
AcDbCircle
 10
3995.6842383443
 20
226.0267160795
 30
0.0
 40
3.0
100
AcDbArc
 50
60.0
 51
120.0
  0
ARC
  5
3FE
330
1F
100
AcDbEntity
  8
0
  6
Continuous
 62
     7
370
    15
100
AcDbCircle
 10
3835.6842383443
 20
325.3309623801
 30
0.0
 40
250.0000000000002
100
AcDbArc
 50
307.6861696227
 51
328.6080627734
  0
CIRCLE
  5
3FF
330
1F
100
AcDbEntity
  8
0
  6
Continuous
 62
     7
370
    15
100
AcDbCircle
 10
3740.6842383443
 20
160.7861356611
 30
0.0
 40
5.5
  0
ARC
  5
400
330
1F
100
AcDbEntity
  8
0
  6
Continuous
 62
     7
370
    15
100
AcDbCircle
 10
3745.4426466274
 20
95.4060721998
 30
0.0
 40
3.000000000000067
100
AcDbArc
 50
248.5708408004
 51
300.0
  0
ARC
  5
401
330
1F
100
AcDbEntity
  8
0
  6
Continuous
 62
     7
370
    15
100
AcDbCircle
 10
3696.6842383443
 20
121.154568054
 30
0.0
 40
3.0
100
AcDbArc
 50
180.0
 51
235.7535968103
  0
LINE
  5
402
330
1F
100
AcDbEntity
  8
0
  6
Continuous
 62
     7
370
    15
100
AcDbLine
 10
3693.6842383443
 20
121.154568054
 30
0.0
 11
3693.6842383443
 21
213.9023604265
 31
0.0
  0
ARC
  5
403
330
1F
100
AcDbEntity
  8
0
  6
Continuous
 62
     7
370
    15
100
AcDbCircle
 10
3696.6842383443
 20
213.9023604265
 30
0.0
 40
3.0
100
AcDbArc
 50
60.0
 51
180.0
  0
LINE
  5
404
330
1F
100
AcDbEntity
  8
0
  6
Continuous
 62
     7
370
    15
100
AcDbLine
 10
3698.1842383443
 20
216.5004366378
 30
0.0
 11
3825.1842383443
 21
143.1769524508
 31
0.0
  0
ARC
  5
405
330
1F
100
AcDbEntity
  8
0
  6
Continuous
 62
     7
370
    15
100
AcDbCircle
 10
3823.6842383443
 20
140.5788762394
 30
0.0
 40
3.000000000000025
100
AcDbArc
 50
300.0
 51
60.0
  0
LINE
  5
406
330
1F
100
AcDbEntity
  8
0
  6
Continuous
 62
     7
370
    15
100
AcDbLine
 10
3825.1842383443
 20
137.9808000281
 30
0.0
 11
3746.9426466274
 21
92.8079959885
 31
0.0
  0
ARC
  5
407
330
1F
100
AcDbEntity
  8
0
  6
Continuous
 62
     7
370
    15
100
AcDbCircle
 10
3835.6842383443
 20
325.3309623801
 30
0.0
 40
250.0
100
AcDbArc
 50
235.7535968103
 51
248.5708408004
  0
CIRCLE
  5
408
330
1F
100
AcDbEntity
  8
0
  6
Continuous
 62
     7
370
    15
100
AcDbCircle
 10
3930.6842383443
 20
160.7861356611
 30
0.0
 40
5.5
  0
ARC
  5
409
330
1F
100
AcDbEntity
  8
0
  6
Continuous
 62
     7
370
    15
100
AcDbCircle
 10
3974.6842383443
 20
121.154568054
 30
0.0
 40
3.000000000000051
100
AcDbArc
 50
304.2464031897
 51
0.0
  0
ARC
  5
40A
330
1F
100
AcDbEntity
  8
0
  6
Continuous
 62
     7
370
    15
100
AcDbCircle
 10
3925.9258300612
 20
95.4060721998
 30
0.0
 40
3.000000000000054
100
AcDbArc
 50
240.0
 51
291.4291591996
  0
LINE
  5
40B
330
1F
100
AcDbEntity
  8
0
  6
Continuous
 62
     7
370
    15
100
AcDbLine
 10
3924.4258300612
 20
92.8079959885
 30
0.0
 11
3846.1842383443
 21
137.9808000281
 31
0.0
  0
ARC
  5
40C
330
1F
100
AcDbEntity
  8
0
  6
Continuous
 62
     7
370
    15
100
AcDbCircle
 10
3847.6842383443
 20
140.5788762394
 30
0.0
 40
3.000000000000025
100
AcDbArc
 50
120.0
 51
240.0
  0
ARC
  5
40D
330
1F
100
AcDbEntity
  8
0
  6
Continuous
 62
     7
370
    15
100
AcDbCircle
 10
3974.6842383443
 20
213.9023604265
 30
0.0
 40
3.0
100
AcDbArc
 50
0.0
 51
120.0
  0
LINE
  5
40E
330
1F
100
AcDbEntity
  8
0
  6
Continuous
 62
     7
370
    15
100
AcDbLine
 10
3977.6842383443
 20
213.9023604265
 30
0.0
 11
3977.6842383443
 21
121.154568054
 31
0.0
  0
LINE
  5
40F
330
1F
100
AcDbEntity
  8
0
  6
Continuous
 62
     7
370
    15
100
AcDbLine
 10
3846.1842383443
 20
143.1769524508
 30
0.0
 11
3973.1842383443
 21
216.5004366379
 31
0.0
  0
ARC
  5
410
330
1F
100
AcDbEntity
  8
0
  6
Continuous
 62
     7
370
    15
100
AcDbCircle
 10
3835.6842383443
 20
325.3309623801
 30
0.0
 40
250.0000000000002
100
AcDbArc
 50
291.4291591996
 51
304.2464031897
  0
ARC
  5
411
330
1F
100
AcDbEntity
  8
0
  6
Continuous
 62
     7
370
    15
100
AcDbCircle
 10
3760.2867951831
 20
90.1199389038
 30
0.0
 40
3.000000000000012
100
AcDbArc
 50
120.0
 51
252.226626018
  0
ARC
  5
412
330
1F
100
AcDbEntity
  8
0
  6
Continuous
 62
     7
370
    15
100
AcDbCircle
 10
3829.6842383443
 20
130.186571394
 30
0.0
 40
3.000000000000455
100
AcDbArc
 50
0.0
 51
120.0
  0
ARC
  5
413
330
1F
100
AcDbEntity
  8
0
  6
Continuous
 62
     7
370
    15
100
AcDbCircle
 10
3829.6842383443
 20
78.4038476276
 30
0.0
 40
3.000000000000455
100
AcDbArc
 50
268.6080627734
 51
0.0
  0
LINE
  5
414
330
1F
100
AcDbEntity
  8
0
  6
Continuous
 62
     7
370
    15
100
AcDbLine
 10
3832.6842383443
 20
130.186571394
 30
0.0
 11
3832.6842383443
 21
78.4038476276
 31
0.0
  0
LINE
  5
415
330
1F
100
AcDbEntity
  8
0
  6
Continuous
 62
     7
370
    15
100
AcDbLine
 10
3758.7867951831
 20
92.7180151152
 30
0.0
 11
3828.1842383443
 21
132.7846476054
 31
0.0
  0
ARC
  5
416
330
1F
100
AcDbEntity
  8
0
  6
Continuous
 62
     7
370
    15
100
AcDbCircle
 10
3835.6842383443
 20
325.3309623801
 30
0.0
 40
250.0000000000001
100
AcDbArc
 50
252.226626018
 51
268.6080627734
  0
ARC
  5
417
330
1F
100
AcDbEntity
  8
0
  6
Continuous
 62
     7
370
    15
100
AcDbCircle
 10
3841.6842383443
 20
78.4038476276
 30
0.0
 40
3.000000000000022
100
AcDbArc
 50
180.0
 51
271.3919372266
  0
LINE
  5
418
330
1F
100
AcDbEntity
  8
0
  6
Continuous
 62
     7
370
    15
100
AcDbLine
 10
3838.6842383443
 20
78.4038476276
 30
0.0
 11
3838.6842383443
 21
130.186571394
 31
0.0
  0
ARC
  5
419
330
1F
100
AcDbEntity
  8
0
  6
Continuous
 62
     7
370
    15
100
AcDbCircle
 10
3911.0816815055
 20
90.1199389038
 30
0.0
 40
3.000000000000326
100
AcDbArc
 50
287.773373982
 51
60.0
  0
LINE
  5
41A
330
1F
100
AcDbEntity
  8
0
  6
Continuous
 62
     7
370
    15
100
AcDbLine
 10
3843.1842383443
 20
132.7846476054
 30
0.0
 11
3912.5816815055
 21
92.7180151152
 31
0.0
  0
ARC
  5
41B
330
1F
100
AcDbEntity
  8
0
  6
Continuous
 62
     7
370
    15
100
AcDbCircle
 10
3841.6842383443
 20
130.186571394
 30
0.0
 40
3.000000000000025
100
AcDbArc
 50
60.0
 51
180.0
  0
ARC
  5
41C
330
1F
100
AcDbEntity
  8
0
  6
Continuous
 62
     7
370
    15
100
AcDbCircle
 10
3835.6842383443
 20
325.3309623801
 30
0.0
 40
250.0000000000001
100
AcDbArc
 50
271.3919372266
 51
287.773373982
  0
ARC
  5
41D
330
1F
100
AcDbEntity
  8
0
  6
Continuous
 62
     7
370
    15
100
AcDbCircle
 10
3835.6842383443
 20
325.3309623801
 30
0.0
 40
249.9999999999999
100
AcDbArc
 50
124.2464031897
 51
127.6861696227
  0
ARC
  5
41E
330
1F
100
AcDbEntity
  8
0
  6
Continuous
 62
     7
370
    15
100
AcDbCircle
 10
3835.6842383443
 20
325.3309623801
 30
0.0
 40
250.0000000000001
100
AcDbArc
 50
148.6080627734
 51
151.3919372266
  0
ARC
  5
41F
330
1F
100
AcDbEntity
  8
0
  6
Continuous
 62
     7
370
    15
100
AcDbCircle
 10
3835.6842383443
 20
325.3309623801
 30
0.0
 40
250.0000000000001
100
AcDbArc
 50
167.773373982
 51
171.4291591996
  0
ARC
  5
420
330
1F
100
AcDbEntity
  8
0
  6
Continuous
 62
     7
370
    15
100
AcDbCircle
 10
3835.6842383443
 20
325.3309623801
 30
0.0
 40
249.9999999999999
100
AcDbArc
 50
188.5708408004
 51
192.226626018
  0
ARC
  5
421
330
1F
100
AcDbEntity
  8
0
  6
Continuous
 62
     7
370
    15
100
AcDbCircle
 10
3835.6842383443
 20
325.3309623801
 30
0.0
 40
250.0000000000001
100
AcDbArc
 50
208.6080627734
 51
211.3919372266
  0
ARC
  5
422
330
1F
100
AcDbEntity
  8
0
  6
Continuous
 62
     7
370
    15
100
AcDbCircle
 10
3835.6842383443
 20
325.3309623801
 30
0.0
 40
250.0
100
AcDbArc
 50
232.3138303773
 51
235.7535968103
  0
ARC
  5
423
330
1F
100
AcDbEntity
  8
0
  6
Continuous
 62
     7
370
    15
100
AcDbCircle
 10
3835.6842383443
 20
325.3309623801
 30
0.0
 40
250.0
100
AcDbArc
 50
248.5708408004
 51
252.226626018
  0
ARC
  5
424
330
1F
100
AcDbEntity
  8
0
  6
Continuous
 62
     7
370
    15
100
AcDbCircle
 10
3835.6842383443
 20
325.3309623801
 30
0.0
 40
250.0000000000001
100
AcDbArc
 50
268.6080627734
 51
271.3919372266
  0
ARC
  5
425
330
1F
100
AcDbEntity
  8
0
  6
Continuous
 62
     7
370
    15
100
AcDbCircle
 10
3835.6842383443
 20
325.3309623801
 30
0.0
 40
250.0000000000001
100
AcDbArc
 50
287.773373982
 51
291.4291591996
  0
ARC
  5
426
330
1F
100
AcDbEntity
  8
0
  6
Continuous
 62
     7
370
    15
100
AcDbCircle
 10
3835.6842383443
 20
325.3309623801
 30
0.0
 40
250.0000000000002
100
AcDbArc
 50
304.2464031897
 51
307.6861696227
  0
ARC
  5
427
330
1F
100
AcDbEntity
  8
0
  6
Continuous
 62
     7
370
    15
100
AcDbCircle
 10
3835.6842383443
 20
325.3309623801
 30
0.0
 40
250.0000000000004
100
AcDbArc
 50
328.6080627734
 51
331.3919372266
  0
ARC
  5
428
330
1F
100
AcDbEntity
  8
0
  6
Continuous
 62
     7
370
    15
100
AcDbCircle
 10
3835.6842383443
 20
325.3309623801
 30
0.0
 40
250.0000000000005
100
AcDbArc
 50
347.773373982
 51
351.4291591996
  0
ARC
  5
429
330
1F
100
AcDbEntity
  8
0
  6
Continuous
 62
     7
370
    15
100
AcDbCircle
 10
3835.6842383443
 20
325.3309623801
 30
0.0
 40
250.0000000000001
100
AcDbArc
 50
8.5708408004
 51
12.226626018
  0
ARC
  5
42A
330
1F
100
AcDbEntity
  8
0
  6
Continuous
 62
     7
370
    15
100
AcDbCircle
 10
3835.6842383443
 20
325.3309623801
 30
0.0
 40
250.0000000000001
100
AcDbArc
 50
28.6080627734
 51
31.3919372266
  0
ARC
  5
42B
330
1F
100
AcDbEntity
  8
0
  6
Continuous
 62
     7
370
    15
100
AcDbCircle
 10
3835.6842383443
 20
325.3309623801
 30
0.0
 40
250.0000000000002
100
AcDbArc
 50
52.3138303773
 51
55.7535968103
  0
ARC
  5
42C
330
1F
100
AcDbEntity
  8
0
  6
Continuous
 62
     7
370
    15
100
AcDbCircle
 10
3835.6842383443
 20
325.3309623801
 30
0.0
 40
250.0000000000001
100
AcDbArc
 50
68.5708408004
 51
72.226626018
  0
ARC
  5
42D
330
1F
100
AcDbEntity
  8
0
  6
Continuous
 62
     7
370
    15
100
AcDbCircle
 10
3835.6842383443
 20
325.3309623801
 30
0.0
 40
250.0000000000002
100
AcDbArc
 50
88.6080627734
 51
91.3919372266
  0
ARC
  5
42E
330
1F
100
AcDbEntity
  8
0
  6
Continuous
 62
     7
370
    15
100
AcDbCircle
 10
3835.6842383443
 20
325.3309623801
 30
0.0
 40
250.0
100
AcDbArc
 50
107.773373982
 51
111.4291591996
  0
ARC
  5
42F
330
1F
100
AcDbEntity
  8
0
  6
Continuous
 62
     7
370
    15
100
AcDbCircle
 10
3179.6842383443
 20
197.2580771326
 30
0.0
 40
3.000000000000011
100
AcDbArc
 50
0.0
 51
91.3919372266
  0
LINE
  5
430
330
1F
100
AcDbEntity
  8
0
  6
Continuous
 62
     7
370
    15
100
AcDbLine
 10
3182.6842383443
 20
197.2580771326
 30
0.0
 11
3182.6842383443
 21
145.4753533662
 31
0.0
  0
ARC
  5
431
330
1F
100
AcDbEntity
  8
0
  6
Continuous
 62
     7
370
    15
100
AcDbCircle
 10
3179.6842383443
 20
145.4753533662
 30
0.0
 40
3.000000000000227
100
AcDbArc
 50
240.0
 51
0.0
  0
LINE
  5
432
330
1F
100
AcDbEntity
  8
0
  6
Continuous
 62
     7
370
    15
100
AcDbLine
 10
3178.1842383443
 20
142.8772771548
 30
0.0
 11
3108.7867951831
 21
182.943909645
 31
0.0
  0
ARC
  5
433
330
1F
100
AcDbEntity
  8
0
  6
Continuous
 62
     7
370
    15
100
AcDbCircle
 10
3110.2867951831
 20
185.5419858564
 30
0.0
 40
3.000000000000129
100
AcDbArc
 50
107.773373982
 51
240.0
  0
ARC
  5
434
330
1F
100
AcDbEntity
  8
0
  6
Continuous
 62
     7
370
    15
100
AcDbCircle
 10
3185.6842383443
 20
-49.6690376199
 30
0.0
 40
250.0000000000001
100
AcDbArc
 50
91.3919372266
 51
107.773373982
  0
ARC
  5
435
330
1F
100
AcDbEntity
  8
0
  6
Continuous
 62
     7
370
    15
100
AcDbCircle
 10
3261.0816815055
 20
185.5419858564
 30
0.0
 40
3.0
100
AcDbArc
 50
300.0
 51
72.226626018
  0
LINE
  5
436
330
1F
100
AcDbEntity
  8
0
  6
Continuous
 62
     7
370
    15
100
AcDbLine
 10
3262.5816815055
 20
182.943909645
 30
0.0
 11
3193.1842383443
 21
142.8772771548
 31
0.0
  0
ARC
  5
437
330
1F
100
AcDbEntity
  8
0
  6
Continuous
 62
     7
370
    15
100
AcDbCircle
 10
3191.6842383443
 20
145.4753533662
 30
0.0
 40
3.000000000000455
100
AcDbArc
 50
180.0
 51
300.0
  0
ARC
  5
438
330
1F
100
AcDbEntity
  8
0
  6
Continuous
 62
     7
370
    15
100
AcDbCircle
 10
3185.6842383443
 20
-49.6690376199
 30
0.0
 40
250.0000000000001
100
AcDbArc
 50
72.226626018
 51
88.6080627734
  0
LINE
  5
439
330
1F
100
AcDbEntity
  8
0
  6
Continuous
 62
     7
370
    15
100
AcDbLine
 10
3188.6842383443
 20
145.4753533662
 30
0.0
 11
3188.6842383443
 21
197.2580771326
 31
0.0
  0
ARC
  5
43A
330
1F
100
AcDbEntity
  8
0
  6
Continuous
 62
     7
370
    15
100
AcDbCircle
 10
3191.6842383443
 20
197.2580771326
 30
0.0
 40
3.000000000000455
100
AcDbArc
 50
88.6080627734
 51
180.0
  0
CIRCLE
  5
43B
330
1F
100
AcDbEntity
  8
0
  6
Continuous
 62
     7
370
    15
100
AcDbCircle
 10
3280.6842383443
 20
114.8757890991
 30
0.0
 40
5.5
  0
ARC
  5
43C
330
1F
100
AcDbEntity
  8
0
  6
Continuous
 62
     7
370
    15
100
AcDbCircle
 10
3275.9258300612
 20
180.2558525603
 30
0.0
 40
3.000000000000054
100
AcDbArc
 50
68.5708408004
 51
120.0
  0
ARC
  5
43D
330
1F
100
AcDbEntity
  8
0
  6
Continuous
 62
     7
370
    15
100
AcDbCircle
 10
3324.6842383443
 20
154.5073567062
 30
0.0
 40
3.000000000000039
100
AcDbArc
 50
0.0
 51
55.7535968103
  0
LINE
  5
43E
330
1F
100
AcDbEntity
  8
0
  6
Continuous
 62
     7
370
    15
100
AcDbLine
 10
3327.6842383443
 20
154.5073567062
 30
0.0
 11
3327.6842383443
 21
61.7595643337
 31
0.0
  0
ARC
  5
43F
330
1F
100
AcDbEntity
  8
0
  6
Continuous
 62
     7
370
    15
100
AcDbCircle
 10
3324.6842383443
 20
61.7595643337
 30
0.0
 40
3.00000000000024
100
AcDbArc
 50
240.0
 51
0.0
  0
LINE
  5
440
330
1F
100
AcDbEntity
  8
0
  6
Continuous
 62
     7
370
    15
100
AcDbLine
 10
3323.1842383443
 20
59.1614881223
 30
0.0
 11
3196.1842383443
 21
132.4849723094
 31
0.0
  0
ARC
  5
441
330
1F
100
AcDbEntity
  8
0
  6
Continuous
 62
     7
370
    15
100
AcDbCircle
 10
3197.6842383443
 20
135.0830485208
 30
0.0
 40
2.999999999999926
100
AcDbArc
 50
120.0
 51
240.0
  0
LINE
  5
442
330
1F
100
AcDbEntity
  8
0
  6
Continuous
 62
     7
370
    15
100
AcDbLine
 10
3196.1842383443
 20
137.6811247321
 30
0.0
 11
3274.4258300612
 21
182.8539287717
 31
0.0
  0
ARC
  5
443
330
1F
100
AcDbEntity
  8
0
  6
Continuous
 62
     7
370
    15
100
AcDbCircle
 10
3185.6842383443
 20
-49.6690376199
 30
0.0
 40
250.0000000000002
100
AcDbArc
 50
55.7535968103
 51
68.5708408004
  0
CIRCLE
  5
444
330
1F
100
AcDbEntity
  8
0
  6
Continuous
 62
     7
370
    15
100
AcDbCircle
 10
3090.6842383443
 20
114.8757890991
 30
0.0
 40
5.500000000000455
  0
ARC
  5
445
330
1F
100
AcDbEntity
  8
0
  6
Continuous
 62
     7
370
    15
100
AcDbCircle
 10
3173.6842383443
 20
135.0830485208
 30
0.0
 40
3.000000000000025
100
AcDbArc
 50
300.0
 51
60.0
  0
LINE
  5
446
330
1F
100
AcDbEntity
  8
0
  6
Continuous
 62
     7
370
    15
100
AcDbLine
 10
3175.1842383443
 20
132.4849723094
 30
0.0
 11
3048.1842383443
 21
59.1614881223
 31
0.0
  0
ARC
  5
447
330
1F
100
AcDbEntity
  8
0
  6
Continuous
 62
     7
370
    15
100
AcDbCircle
 10
3046.6842383443
 20
61.7595643337
 30
0.0
 40
3.000000000000455
100
AcDbArc
 50
180.0
 51
300.0
  0
LINE
  5
448
330
1F
100
AcDbEntity
  8
0
  6
Continuous
 62
     7
370
    15
100
AcDbLine
 10
3043.6842383443
 20
61.7595643337
 30
0.0
 11
3043.6842383443
 21
154.5073567062
 31
0.0
  0
ARC
  5
449
330
1F
100
AcDbEntity
  8
0
  6
Continuous
 62
     7
370
    15
100
AcDbCircle
 10
3046.6842383443
 20
154.5073567062
 30
0.0
 40
3.000000000000455
100
AcDbArc
 50
124.2464031897
 51
180.0
  0
ARC
  5
44A
330
1F
100
AcDbEntity
  8
0
  6
Continuous
 62
     7
370
    15
100
AcDbCircle
 10
3095.4426466274
 20
180.2558525603
 30
0.0
 40
3.000000000000123
100
AcDbArc
 50
60.0
 51
111.4291591996
  0
LINE
  5
44B
330
1F
100
AcDbEntity
  8
0
  6
Continuous
 62
     7
370
    15
100
AcDbLine
 10
3096.9426466274
 20
182.8539287717
 30
0.0
 11
3175.1842383443
 21
137.6811247321
 31
0.0
  0
ARC
  5
44C
330
1F
100
AcDbEntity
  8
0
  6
Continuous
 62
     7
370
    15
100
AcDbCircle
 10
3185.6842383443
 20
-49.6690376199
 30
0.0
 40
250.0000000000001
100
AcDbArc
 50
111.4291591996
 51
124.2464031897
  0
ARC
  5
44D
330
1F
100
AcDbEntity
  8
0
  6
Continuous
 62
     7
370
    15
100
AcDbCircle
 10
3396.5293926032
 20
78.9906721791
 30
0.0
 40
3.000000000000012
100
AcDbArc
 50
300.0
 51
31.3919372266
  0
LINE
  5
44E
330
1F
100
AcDbEntity
  8
0
  6
Continuous
 62
     7
370
    15
100
AcDbLine
 10
3398.0293926032
 20
76.3925959677
 30
0.0
 11
3347.1842383443
 21
47.0371324694
 31
0.0
  0
ARC
  5
44F
330
1F
100
AcDbEntity
  8
0
  6
Continuous
 62
     7
370
    15
100
AcDbCircle
 10
3345.6842383443
 20
49.6352086807
 30
0.0
 40
3.00000000000024
100
AcDbArc
 50
240.0
 51
300.0
  0
LINE
  5
450
330
1F
100
AcDbEntity
  8
0
  6
Continuous
 62
     7
370
    15
100
AcDbLine
 10
3344.1842383443
 20
47.0371324694
 30
0.0
 11
3335.1842383443
 21
52.2332848921
 31
0.0
  0
ARC
  5
451
330
1F
100
AcDbEntity
  8
0
  6
Continuous
 62
     7
370
    15
100
AcDbCircle
 10
3336.6842383443
 20
54.8313611034
 30
0.0
 40
3.000000000000455
100
AcDbArc
 50
180.0
 51
240.0
  0
LINE
  5
452
330
1F
100
AcDbEntity
  8
0
  6
Continuous
 62
     7
370
    15
100
AcDbLine
 10
3333.6842383443
 20
54.8313611034
 30
0.0
 11
3333.6842383443
 21
145.799629946
 31
0.0
  0
ARC
  5
453
330
1F
100
AcDbEntity
  8
0
  6
Continuous
 62
     7
370
    15
100
AcDbCircle
 10
3336.6842383443
 20
145.799629946
 30
0.0
 40
3.000000000000455
100
AcDbArc
 50
52.3138303773
 51
180.0
  0
ARC
  5
454
330
1F
100
AcDbEntity
  8
0
  6
Continuous
 62
     7
370
    15
100
AcDbCircle
 10
3185.6842383443
 20
-49.6690376199
 30
0.0
 40
250.0
100
AcDbArc
 50
31.3919372266
 51
52.3138303773
  0
ARC
  5
455
330
1F
100
AcDbEntity
  8
0
  6
Continuous
 62
     7
370
    15
100
AcDbCircle
 10
3034.6842383443
 20
145.799629946
 30
0.0
 40
3.000000000000119
100
AcDbArc
 50
0.0
 51
127.6861696227
  0
LINE
  5
456
330
1F
100
AcDbEntity
  8
0
  6
Continuous
 62
     7
370
    15
100
AcDbLine
 10
3037.6842383443
 20
145.799629946
 30
0.0
 11
3037.6842383443
 21
54.8313611034
 31
0.0
  0
ARC
  5
457
330
1F
100
AcDbEntity
  8
0
  6
Continuous
 62
     7
370
    15
100
AcDbCircle
 10
3034.6842383443
 20
54.8313611034
 30
0.0
 40
3.000000000000006
100
AcDbArc
 50
300.0
 51
0.0
  0
LINE
  5
458
330
1F
100
AcDbEntity
  8
0
  6
Continuous
 62
     7
370
    15
100
AcDbLine
 10
3036.1842383443
 20
52.2332848921
 30
0.0
 11
3027.1842383443
 21
47.0371324694
 31
0.0
  0
ARC
  5
459
330
1F
100
AcDbEntity
  8
0
  6
Continuous
 62
     7
370
    15
100
AcDbCircle
 10
3025.6842383443
 20
49.6352086807
 30
0.0
 40
2.999999999999963
100
AcDbArc
 50
240.0
 51
300.0
  0
LINE
  5
45A
330
1F
100
AcDbEntity
  8
0
  6
Continuous
 62
     7
370
    15
100
AcDbLine
 10
3024.1842383443
 20
47.0371324694
 30
0.0
 11
2973.3390840854
 21
76.3925959677
 31
0.0
  0
ARC
  5
45B
330
1F
100
AcDbEntity
  8
0
  6
Continuous
 62
     7
370
    15
100
AcDbCircle
 10
2974.8390840854
 20
78.9906721791
 30
0.0
 40
3.000000000000209
100
AcDbArc
 50
148.6080627734
 51
240.0
  0
ARC
  5
45C
330
1F
100
AcDbEntity
  8
0
  6
Continuous
 62
     7
370
    15
100
AcDbCircle
 10
3185.6842383443
 20
-49.6690376199
 30
0.0
 40
250.0000000000002
100
AcDbArc
 50
127.6861696227
 51
148.6080627734
  0
ARC
  5
45D
330
1F
100
AcDbEntity
  8
0
  6
Continuous
 62
     7
370
    15
100
AcDbCircle
 10
3324.6842383443
 20
47.9031578731
 30
0.0
 40
3.000000000000012
100
AcDbArc
 50
0.0
 51
60.0
  0
LINE
  5
45E
330
1F
100
AcDbEntity
  8
0
  6
Continuous
 62
     7
370
    15
100
AcDbLine
 10
3327.6842383443
 20
47.9031578731
 30
0.0
 11
3327.6842383443
 21
37.5108530277
 31
0.0
  0
ARC
  5
45F
330
1F
100
AcDbEntity
  8
0
  6
Continuous
 62
     7
370
    15
100
AcDbCircle
 10
3324.6842383443
 20
37.5108530277
 30
0.0
 40
3.0
100
AcDbArc
 50
300.0
 51
0.0
  0
LINE
  5
460
330
1F
100
AcDbEntity
  8
0
  6
Continuous
 62
     7
370
    15
100
AcDbLine
 10
3326.1842383443
 20
34.9127768164
 30
0.0
 11
3193.1842383443
 21
-41.8748089858
 31
0.0
  0
ARC
  5
461
330
1F
100
AcDbEntity
  8
0
  6
Continuous
 62
     7
370
    15
100
AcDbCircle
 10
3191.6842383443
 20
-39.2767327745
 30
0.0
 40
3.000000000000455
100
AcDbArc
 50
180.0
 51
300.0
  0
LINE
  5
462
330
1F
100
AcDbEntity
  8
0
  6
Continuous
 62
     7
370
    15
100
AcDbLine
 10
3188.6842383443
 20
-39.2767327745
 30
0.0
 11
3188.6842383443
 21
124.6907436754
 31
0.0
  0
ARC
  5
463
330
1F
100
AcDbEntity
  8
0
  6
Continuous
 62
     7
370
    15
100
AcDbCircle
 10
3191.6842383443
 20
124.6907436754
 30
0.0
 40
3.000000000000455
100
AcDbArc
 50
60.0
 51
180.0
  0
LINE
  5
464
330
1F
100
AcDbEntity
  8
0
  6
Continuous
 62
     7
370
    15
100
AcDbLine
 10
3193.1842383443
 20
127.2888198867
 30
0.0
 11
3326.1842383443
 21
50.5012340845
 31
0.0
  0
ARC
  5
465
330
1F
100
AcDbEntity
  8
0
  6
Continuous
 62
     7
370
    15
100
AcDbCircle
 10
3179.6842383443
 20
-39.2767327745
 30
0.0
 40
3.00000000000024
100
AcDbArc
 50
240.0
 51
0.0
  0
LINE
  5
466
330
1F
100
AcDbEntity
  8
0
  6
Continuous
 62
     7
370
    15
100
AcDbLine
 10
3178.1842383443
 20
-41.8748089858
 30
0.0
 11
3045.1842383443
 21
34.9127768164
 31
0.0
  0
ARC
  5
467
330
1F
100
AcDbEntity
  8
0
  6
Continuous
 62
     7
370
    15
100
AcDbCircle
 10
3046.6842383443
 20
37.5108530277
 30
0.0
 40
3.000000000000455
100
AcDbArc
 50
180.0
 51
240.0
  0
LINE
  5
468
330
1F
100
AcDbEntity
  8
0
  6
Continuous
 62
     7
370
    15
100
AcDbLine
 10
3043.6842383443
 20
37.5108530277
 30
0.0
 11
3043.6842383443
 21
47.9031578731
 31
0.0
  0
ARC
  5
469
330
1F
100
AcDbEntity
  8
0
  6
Continuous
 62
     7
370
    15
100
AcDbCircle
 10
3046.6842383443
 20
47.9031578731
 30
0.0
 40
3.000000000000455
100
AcDbArc
 50
120.0
 51
180.0
  0
LINE
  5
46A
330
1F
100
AcDbEntity
  8
0
  6
Continuous
 62
     7
370
    15
100
AcDbLine
 10
3045.1842383443
 20
50.5012340845
 30
0.0
 11
3178.1842383443
 21
127.2888198867
 31
0.0
  0
LINE
  5
46B
330
1F
100
AcDbEntity
  8
0
  6
Continuous
 62
     7
370
    15
100
AcDbLine
 10
3182.6842383443
 20
124.6907436754
 30
0.0
 11
3182.6842383443
 21
-39.2767327745
 31
0.0
  0
ARC
  5
46C
330
1F
100
AcDbEntity
  8
0
  6
Continuous
 62
     7
370
    15
100
AcDbCircle
 10
3179.6842383443
 20
124.6907436754
 30
0.0
 40
3.000000000000141
100
AcDbArc
 50
0.0
 51
120.0
  0
LINE
  5
46D
330
1F
100
AcDbEntity
  8
0
  6
Continuous
 62
     7
370
    15
100
AcDbLine
 10
2970.3390840854
 20
71.196443545
 30
0.0
 11
3015.1842383443
 21
45.3050816618
 31
0.0
  0
ARC
  5
46E
330
1F
100
AcDbEntity
  8
0
  6
Continuous
 62
     7
370
    15
100
AcDbCircle
 10
3013.6842383443
 20
42.7070054504
 30
0.0
 40
3.000000000000141
100
AcDbArc
 50
300.0
 51
60.0
  0
LINE
  5
46F
330
1F
100
AcDbEntity
  8
0
  6
Continuous
 62
     7
370
    15
100
AcDbLine
 10
3015.1842383443
 20
40.1089292391
 30
0.0
 11
2945.7867951831
 21
0.0422967489
 31
0.0
  0
ARC
  5
470
330
1F
100
AcDbEntity
  8
0
  6
Continuous
 62
     7
370
    15
100
AcDbCircle
 10
2944.2867951831
 20
2.6403729603
 30
0.0
 40
3.000000000000485
100
AcDbArc
 50
167.773373982
 51
300.0
  0
ARC
  5
471
330
1F
100
AcDbEntity
  8
0
  6
Continuous
 62
     7
370
    15
100
AcDbCircle
 10
2968.8390840854
 20
68.5983673336
 30
0.0
 40
3.000000000000289
100
AcDbArc
 50
60.0
 51
151.3919372266
  0
ARC
  5
472
330
1F
100
AcDbEntity
  8
0
  6
Continuous
 62
     7
370
    15
100
AcDbCircle
 10
3185.6842383443
 20
-49.6690376199
 30
0.0
 40
250.0000000000002
100
AcDbArc
 50
151.3919372266
 51
167.773373982
  0
ARC
  5
473
330
1F
100
AcDbEntity
  8
0
  6
Continuous
 62
     7
370
    15
100
AcDbCircle
 10
3427.0816815055
 20
2.6403729603
 30
0.0
 40
3.000000000000011
100
AcDbArc
 50
240.0
 51
12.226626018
  0
LINE
  5
474
330
1F
100
AcDbEntity
  8
0
  6
Continuous
 62
     7
370
    15
100
AcDbLine
 10
3425.5816815055
 20
0.0422967489
 30
0.0
 11
3356.1842383443
 21
40.1089292391
 31
0.0
  0
ARC
  5
475
330
1F
100
AcDbEntity
  8
0
  6
Continuous
 62
     7
370
    15
100
AcDbCircle
 10
3357.6842383443
 20
42.7070054504
 30
0.0
 40
3.000000000000012
100
AcDbArc
 50
120.0
 51
240.0
  0
LINE
  5
476
330
1F
100
AcDbEntity
  8
0
  6
Continuous
 62
     7
370
    15
100
AcDbLine
 10
3356.1842383443
 20
45.3050816618
 30
0.0
 11
3401.0293926032
 21
71.196443545
 31
0.0
  0
ARC
  5
477
330
1F
100
AcDbEntity
  8
0
  6
Continuous
 62
     7
370
    15
100
AcDbCircle
 10
3402.5293926032
 20
68.5983673336
 30
0.0
 40
3.000000000000012
100
AcDbArc
 50
28.6080627734
 51
120.0
  0
ARC
  5
478
330
1F
100
AcDbEntity
  8
0
  6
Continuous
 62
     7
370
    15
100
AcDbCircle
 10
3185.6842383443
 20
-49.6690376199
 30
0.0
 40
250.0
100
AcDbArc
 50
12.226626018
 51
28.6080627734
  0
CIRCLE
  5
479
330
1F
100
AcDbEntity
  8
0
  6
Continuous
 62
     7
370
    15
100
AcDbCircle
 10
2995.6842383443
 20
-49.6690376199
 30
0.0
 40
5.5
  0
ARC
  5
47A
330
1F
100
AcDbEntity
  8
0
  6
Continuous
 62
     7
370
    15
100
AcDbCircle
 10
3025.6842383443
 20
-135.11687746
 30
0.0
 40
3.000000000000025
100
AcDbArc
 50
240.0
 51
300.0
  0
LINE
  5
47B
330
1F
100
AcDbEntity
  8
0
  6
Continuous
 62
     7
370
    15
100
AcDbLine
 10
3024.1842383443
 20
-137.7149536713
 30
0.0
 11
2939.9426466274
 21
-89.0780480166
 31
0.0
  0
ARC
  5
47C
330
1F
100
AcDbEntity
  8
0
  6
Continuous
 62
     7
370
    15
100
AcDbCircle
 10
2941.4426466274
 20
-86.4799718053
 30
0.0
 40
3.000000000000643
100
AcDbArc
 50
188.5708408004
 51
240.0
  0
ARC
  5
47D
330
1F
100
AcDbEntity
  8
0
  6
Continuous
 62
     7
370
    15
100
AcDbCircle
 10
2941.4426466274
 20
-12.8581034346
 30
0.0
 40
3.000000000000194
100
AcDbArc
 50
120.0
 51
171.4291591996
  0
LINE
  5
47E
330
1F
100
AcDbEntity
  8
0
  6
Continuous
 62
     7
370
    15
100
AcDbLine
 10
2939.9426466274
 20
-10.2600272232
 30
0.0
 11
3024.1842383443
 21
38.3768784315
 31
0.0
  0
ARC
  5
47F
330
1F
100
AcDbEntity
  8
0
  6
Continuous
 62
     7
370
    15
100
AcDbCircle
 10
3025.6842383443
 20
35.7788022202
 30
0.0
 40
3.000000000000105
100
AcDbArc
 50
60.0
 51
120.0
  0
LINE
  5
480
330
1F
100
AcDbEntity
  8
0
  6
Continuous
 62
     7
370
    15
100
AcDbLine
 10
3027.1842383443
 20
38.3768784315
 30
0.0
 11
3036.1842383443
 21
33.1807260088
 31
0.0
  0
ARC
  5
481
330
1F
100
AcDbEntity
  8
0
  6
Continuous
 62
     7
370
    15
100
AcDbCircle
 10
3034.6842383443
 20
30.5826497975
 30
0.0
 40
3.000000000000059
100
AcDbArc
 50
0.0
 51
60.0
  0
LINE
  5
482
330
1F
100
AcDbEntity
  8
0
  6
Continuous
 62
     7
370
    15
100
AcDbLine
 10
3037.6842383443
 20
30.5826497975
 30
0.0
 11
3037.6842383443
 21
-129.9207250373
 31
0.0
  0
ARC
  5
483
330
1F
100
AcDbEntity
  8
0
  6
Continuous
 62
     7
370
    15
100
AcDbCircle
 10
3034.6842383443
 20
-129.9207250373
 30
0.0
 40
3.000000000000025
100
AcDbArc
 50
300.0
 51
0.0
  0
LINE
  5
484
330
1F
100
AcDbEntity
  8
0
  6
Continuous
 62
     7
370
    15
100
AcDbLine
 10
3036.1842383443
 20
-132.5188012486
 30
0.0
 11
3027.1842383443
 21
-137.7149536713
 31
0.0
  0
ARC
  5
485
330
1F
100
AcDbEntity
  8
0
  6
Continuous
 62
     7
370
    15
100
AcDbCircle
 10
3185.6842383443
 20
-49.6690376199
 30
0.0
 40
250.0000000000003
100
AcDbArc
 50
171.4291591996
 51
188.5708408004
  0
CIRCLE
  5
486
330
1F
100
AcDbEntity
  8
0
  6
Continuous
 62
     7
370
    15
100
AcDbCircle
 10
3375.6842383443
 20
-49.6690376199
 30
0.0
 40
5.5
  0
LINE
  5
487
330
1F
100
AcDbEntity
  8
0
  6
Continuous
 62
     7
370
    15
100
AcDbLine
 10
3347.1842383443
 20
38.3768784315
 30
0.0
 11
3431.4258300612
 21
-10.2600272232
 31
0.0
  0
ARC
  5
488
330
1F
100
AcDbEntity
  8
0
  6
Continuous
 62
     7
370
    15
100
AcDbCircle
 10
3429.9258300612
 20
-12.8581034346
 30
0.0
 40
3.000000000000643
100
AcDbArc
 50
8.5708408004
 51
60.0
  0
ARC
  5
489
330
1F
100
AcDbEntity
  8
0
  6
Continuous
 62
     7
370
    15
100
AcDbCircle
 10
3429.9258300612
 20
-86.4799718053
 30
0.0
 40
3.000000000000191
100
AcDbArc
 50
300.0
 51
351.4291591996
  0
LINE
  5
48A
330
1F
100
AcDbEntity
  8
0
  6
Continuous
 62
     7
370
    15
100
AcDbLine
 10
3431.4258300612
 20
-89.0780480166
 30
0.0
 11
3347.1842383443
 21
-137.7149536713
 31
0.0
  0
ARC
  5
48B
330
1F
100
AcDbEntity
  8
0
  6
Continuous
 62
     7
370
    15
100
AcDbCircle
 10
3345.6842383443
 20
-135.11687746
 30
0.0
 40
3.000000000000203
100
AcDbArc
 50
240.0
 51
300.0
  0
LINE
  5
48C
330
1F
100
AcDbEntity
  8
0
  6
Continuous
 62
     7
370
    15
100
AcDbLine
 10
3344.1842383443
 20
-137.7149536713
 30
0.0
 11
3335.1842383443
 21
-132.5188012486
 31
0.0
  0
ARC
  5
48D
330
1F
100
AcDbEntity
  8
0
  6
Continuous
 62
     7
370
    15
100
AcDbCircle
 10
3336.6842383443
 20
-129.9207250373
 30
0.0
 40
3.000000000000455
100
AcDbArc
 50
180.0
 51
240.0
  0
LINE
  5
48E
330
1F
100
AcDbEntity
  8
0
  6
Continuous
 62
     7
370
    15
100
AcDbLine
 10
3335.1842383443
 20
33.1807260088
 30
0.0
 11
3344.1842383443
 21
38.3768784315
 31
0.0
  0
ARC
  5
48F
330
1F
100
AcDbEntity
  8
0
  6
Continuous
 62
     7
370
    15
100
AcDbCircle
 10
3336.6842383443
 20
30.5826497975
 30
0.0
 40
3.000000000000455
100
AcDbArc
 50
120.0
 51
180.0
  0
ARC
  5
490
330
1F
100
AcDbEntity
  8
0
  6
Continuous
 62
     7
370
    15
100
AcDbCircle
 10
3345.6842383443
 20
35.7788022202
 30
0.0
 40
3.000000000000234
100
AcDbArc
 50
60.0
 51
120.0
  0
LINE
  5
491
330
1F
100
AcDbEntity
  8
0
  6
Continuous
 62
     7
370
    15
100
AcDbLine
 10
3333.6842383443
 20
-129.9207250373
 30
0.0
 11
3333.6842383443
 21
30.5826497975
 31
0.0
  0
ARC
  5
492
330
1F
100
AcDbEntity
  8
0
  6
Continuous
 62
     7
370
    15
100
AcDbCircle
 10
3185.6842383443
 20
-49.6690376199
 30
0.0
 40
250.0000000000003
100
AcDbArc
 50
351.4291591996
 51
8.5708408004
  0
ARC
  5
493
330
1F
100
AcDbEntity
  8
0
  6
Continuous
 62
     7
370
    15
100
AcDbCircle
 10
3324.6842383443
 20
-122.992521807
 30
0.0
 40
3.00000000000024
100
AcDbArc
 50
240.0
 51
0.0
  0
LINE
  5
494
330
1F
100
AcDbEntity
  8
0
  6
Continuous
 62
     7
370
    15
100
AcDbLine
 10
3323.1842383443
 20
-125.5905980183
 30
0.0
 11
3196.1842383443
 21
-52.2671138313
 31
0.0
  0
ARC
  5
495
330
1F
100
AcDbEntity
  8
0
  6
Continuous
 62
     7
370
    15
100
AcDbCircle
 10
3197.6842383443
 20
-49.6690376199
 30
0.0
 40
3.000000000000012
100
AcDbArc
 50
120.0
 51
240.0
  0
ARC
  5
496
330
1F
100
AcDbEntity
  8
0
  6
Continuous
 62
     7
370
    15
100
AcDbCircle
 10
3324.6842383443
 20
23.6544465672
 30
0.0
 40
3.000000000000191
100
AcDbArc
 50
0.0
 51
120.0
  0
LINE
  5
497
330
1F
100
AcDbEntity
  8
0
  6
Continuous
 62
     7
370
    15
100
AcDbLine
 10
3196.1842383443
 20
-47.0709614086
 30
0.0
 11
3323.1842383443
 21
26.2525227785
 31
0.0
  0
LINE
  5
498
330
1F
100
AcDbEntity
  8
0
  6
Continuous
 62
     7
370
    15
100
AcDbLine
 10
3327.6842383443
 20
23.6544465672
 30
0.0
 11
3327.6842383443
 21
-122.992521807
 31
0.0
  0
ARC
  5
499
330
1F
100
AcDbEntity
  8
0
  6
Continuous
 62
     7
370
    15
100
AcDbCircle
 10
3046.6842383443
 20
-122.992521807
 30
0.0
 40
3.000000000000455
100
AcDbArc
 50
180.0
 51
300.0
  0
ARC
  5
49A
330
1F
100
AcDbEntity
  8
0
  6
Continuous
 62
     7
370
    15
100
AcDbCircle
 10
3173.6842383443
 20
-49.6690376199
 30
0.0
 40
3.000000000000012
100
AcDbArc
 50
300.0
 51
60.0
  0
LINE
  5
49B
330
1F
100
AcDbEntity
  8
0
  6
Continuous
 62
     7
370
    15
100
AcDbLine
 10
3175.1842383443
 20
-52.2671138313
 30
0.0
 11
3048.1842383443
 21
-125.5905980183
 31
0.0
  0
LINE
  5
49C
330
1F
100
AcDbEntity
  8
0
  6
Continuous
 62
     7
370
    15
100
AcDbLine
 10
3048.1842383443
 20
26.2525227785
 30
0.0
 11
3175.1842383443
 21
-47.0709614086
 31
0.0
  0
LINE
  5
49D
330
1F
100
AcDbEntity
  8
0
  6
Continuous
 62
     7
370
    15
100
AcDbLine
 10
3043.6842383443
 20
-122.992521807
 30
0.0
 11
3043.6842383443
 21
23.6544465672
 31
0.0
  0
ARC
  5
49E
330
1F
100
AcDbEntity
  8
0
  6
Continuous
 62
     7
370
    15
100
AcDbCircle
 10
3046.6842383443
 20
23.6544465672
 30
0.0
 40
3.000000000000455
100
AcDbArc
 50
60.0
 51
180.0
  0
ARC
  5
49F
330
1F
100
AcDbEntity
  8
0
  6
Continuous
 62
     7
370
    15
100
AcDbCircle
 10
3191.6842383443
 20
-224.0288189152
 30
0.0
 40
3.000000000000455
100
AcDbArc
 50
180.0
 51
300.0
  0
LINE
  5
4A0
330
1F
100
AcDbEntity
  8
0
  6
Continuous
 62
     7
370
    15
100
AcDbLine
 10
3188.6842383443
 20
-224.0288189152
 30
0.0
 11
3188.6842383443
 21
-60.0613424653
 31
0.0
  0
ARC
  5
4A1
330
1F
100
AcDbEntity
  8
0
  6
Continuous
 62
     7
370
    15
100
AcDbCircle
 10
3191.6842383443
 20
-60.0613424653
 30
0.0
 40
3.000000000000455
100
AcDbArc
 50
60.0
 51
180.0
  0
LINE
  5
4A2
330
1F
100
AcDbEntity
  8
0
  6
Continuous
 62
     7
370
    15
100
AcDbLine
 10
3193.1842383443
 20
-57.463266254
 30
0.0
 11
3326.1842383443
 21
-134.2508520562
 31
0.0
  0
ARC
  5
4A3
330
1F
100
AcDbEntity
  8
0
  6
Continuous
 62
     7
370
    15
100
AcDbCircle
 10
3324.6842383443
 20
-136.8489282675
 30
0.0
 40
3.000000000000074
100
AcDbArc
 50
0.0
 51
60.0
  0
LINE
  5
4A4
330
1F
100
AcDbEntity
  8
0
  6
Continuous
 62
     7
370
    15
100
AcDbLine
 10
3327.6842383443
 20
-136.8489282675
 30
0.0
 11
3327.6842383443
 21
-147.241233113
 31
0.0
  0
ARC
  5
4A5
330
1F
100
AcDbEntity
  8
0
  6
Continuous
 62
     7
370
    15
100
AcDbCircle
 10
3324.6842383443
 20
-147.241233113
 30
0.0
 40
3.0
100
AcDbArc
 50
300.0
 51
0.0
  0
LINE
  5
4A6
330
1F
100
AcDbEntity
  8
0
  6
Continuous
 62
     7
370
    15
100
AcDbLine
 10
3326.1842383443
 20
-149.8393093243
 30
0.0
 11
3193.1842383443
 21
-226.6268951265
 31
0.0
  0
ARC
  5
4A7
330
1F
100
AcDbEntity
  8
0
  6
Continuous
 62
     7
370
    15
100
AcDbCircle
 10
3046.6842383443
 20
-147.241233113
 30
0.0
 40
3.000000000000455
100
AcDbArc
 50
180.0
 51
240.0
  0
LINE
  5
4A8
330
1F
100
AcDbEntity
  8
0
  6
Continuous
 62
     7
370
    15
100
AcDbLine
 10
3043.6842383443
 20
-147.241233113
 30
0.0
 11
3043.6842383443
 21
-136.8489282675
 31
0.0
  0
ARC
  5
4A9
330
1F
100
AcDbEntity
  8
0
  6
Continuous
 62
     7
370
    15
100
AcDbCircle
 10
3046.6842383443
 20
-136.8489282675
 30
0.0
 40
3.000000000000455
100
AcDbArc
 50
120.0
 51
180.0
  0
ARC
  5
4AA
330
1F
100
AcDbEntity
  8
0
  6
Continuous
 62
     7
370
    15
100
AcDbCircle
 10
3179.6842383443
 20
-60.0613424653
 30
0.0
 40
3.000000000000191
100
AcDbArc
 50
0.0
 51
120.0
  0
ARC
  5
4AB
330
1F
100
AcDbEntity
  8
0
  6
Continuous
 62
     7
370
    15
100
AcDbCircle
 10
3179.6842383443
 20
-224.0288189152
 30
0.0
 40
3.000000000000227
100
AcDbArc
 50
240.0
 51
0.0
  0
LINE
  5
4AC
330
1F
100
AcDbEntity
  8
0
  6
Continuous
 62
     7
370
    15
100
AcDbLine
 10
3178.1842383443
 20
-226.6268951265
 30
0.0
 11
3045.1842383443
 21
-149.8393093243
 31
0.0
  0
LINE
  5
4AD
330
1F
100
AcDbEntity
  8
0
  6
Continuous
 62
     7
370
    15
100
AcDbLine
 10
3045.1842383443
 20
-134.2508520562
 30
0.0
 11
3178.1842383443
 21
-57.463266254
 31
0.0
  0
LINE
  5
4AE
330
1F
100
AcDbEntity
  8
0
  6
Continuous
 62
     7
370
    15
100
AcDbLine
 10
3182.6842383443
 20
-60.0613424653
 30
0.0
 11
3182.6842383443
 21
-224.0288189152
 31
0.0
  0
ARC
  5
4AF
330
1F
100
AcDbEntity
  8
0
  6
Continuous
 62
     7
370
    15
100
AcDbCircle
 10
3402.5293926032
 20
-167.9364425735
 30
0.0
 40
3.0
100
AcDbArc
 50
240.0
 51
331.3919372266
  0
LINE
  5
4B0
330
1F
100
AcDbEntity
  8
0
  6
Continuous
 62
     7
370
    15
100
AcDbLine
 10
3401.0293926032
 20
-170.5345187848
 30
0.0
 11
3356.1842383443
 21
-144.6431569016
 31
0.0
  0
ARC
  5
4B1
330
1F
100
AcDbEntity
  8
0
  6
Continuous
 62
     7
370
    15
100
AcDbCircle
 10
3357.6842383443
 20
-142.0450806902
 30
0.0
 40
3.0
100
AcDbArc
 50
120.0
 51
240.0
  0
ARC
  5
4B2
330
1F
100
AcDbEntity
  8
0
  6
Continuous
 62
     7
370
    15
100
AcDbCircle
 10
3427.0816815055
 20
-101.9784482001
 30
0.0
 40
3.000000000000484
100
AcDbArc
 50
347.773373982
 51
120.0
  0
LINE
  5
4B3
330
1F
100
AcDbEntity
  8
0
  6
Continuous
 62
     7
370
    15
100
AcDbLine
 10
3356.1842383443
 20
-139.4470044789
 30
0.0
 11
3425.5816815055
 21
-99.3803719887
 31
0.0
  0
ARC
  5
4B4
330
1F
100
AcDbEntity
  8
0
  6
Continuous
 62
     7
370
    15
100
AcDbCircle
 10
3185.6842383443
 20
-49.6690376199
 30
0.0
 40
250.0000000000002
100
AcDbArc
 50
331.3919372266
 51
347.773373982
  0
ARC
  5
4B5
330
1F
100
AcDbEntity
  8
0
  6
Continuous
 62
     7
370
    15
100
AcDbCircle
 10
2968.8390840854
 20
-167.9364425735
 30
0.0
 40
3.00000000000043
100
AcDbArc
 50
208.6080627734
 51
300.0
  0
LINE
  5
4B6
330
1F
100
AcDbEntity
  8
0
  6
Continuous
 62
     7
370
    15
100
AcDbLine
 10
2945.7867951831
 20
-99.3803719887
 30
0.0
 11
3015.1842383443
 21
-139.4470044789
 31
0.0
  0
ARC
  5
4B7
330
1F
100
AcDbEntity
  8
0
  6
Continuous
 62
     7
370
    15
100
AcDbCircle
 10
3013.6842383443
 20
-142.0450806902
 30
0.0
 40
2.999999999999951
100
AcDbArc
 50
300.0
 51
60.0
  0
LINE
  5
4B8
330
1F
100
AcDbEntity
  8
0
  6
Continuous
 62
     7
370
    15
100
AcDbLine
 10
3015.1842383443
 20
-144.6431569016
 30
0.0
 11
2970.3390840854
 21
-170.5345187848
 31
0.0
  0
ARC
  5
4B9
330
1F
100
AcDbEntity
  8
0
  6
Continuous
 62
     7
370
    15
100
AcDbCircle
 10
2944.2867951831
 20
-101.9784482001
 30
0.0
 40
3.000000000000052
100
AcDbArc
 50
60.0
 51
192.226626018
  0
ARC
  5
4BA
330
1F
100
AcDbEntity
  8
0
  6
Continuous
 62
     7
370
    15
100
AcDbCircle
 10
3185.6842383443
 20
-49.6690376199
 30
0.0
 40
250.0
100
AcDbArc
 50
192.226626018
 51
208.6080627734
  0
LINE
  5
4BB
330
1F
100
AcDbEntity
  8
0
  6
Continuous
 62
     7
370
    15
100
AcDbLine
 10
3347.1842383443
 20
-146.3752077092
 30
0.0
 11
3398.0293926032
 21
-175.7306712075
 31
0.0
  0
ARC
  5
4BC
330
1F
100
AcDbEntity
  8
0
  6
Continuous
 62
     7
370
    15
100
AcDbCircle
 10
3396.5293926032
 20
-178.3287474189
 30
0.0
 40
3.000000000000216
100
AcDbArc
 50
328.6080627734
 51
60.0
  0
ARC
  5
4BD
330
1F
100
AcDbEntity
  8
0
  6
Continuous
 62
     7
370
    15
100
AcDbCircle
 10
3336.6842383443
 20
-245.1377051858
 30
0.0
 40
3.000000000000455
100
AcDbArc
 50
180.0
 51
307.6861696227
  0
LINE
  5
4BE
330
1F
100
AcDbEntity
  8
0
  6
Continuous
 62
     7
370
    15
100
AcDbLine
 10
3333.6842383443
 20
-245.1377051858
 30
0.0
 11
3333.6842383443
 21
-154.1694363432
 31
0.0
  0
ARC
  5
4BF
330
1F
100
AcDbEntity
  8
0
  6
Continuous
 62
     7
370
    15
100
AcDbCircle
 10
3336.6842383443
 20
-154.1694363432
 30
0.0
 40
3.000000000000455
100
AcDbArc
 50
120.0
 51
180.0
  0
LINE
  5
4C0
330
1F
100
AcDbEntity
  8
0
  6
Continuous
 62
     7
370
    15
100
AcDbLine
 10
3335.1842383443
 20
-151.5713601319
 30
0.0
 11
3344.1842383443
 21
-146.3752077092
 31
0.0
  0
ARC
  5
4C1
330
1F
100
AcDbEntity
  8
0
  6
Continuous
 62
     7
370
    15
100
AcDbCircle
 10
3345.6842383443
 20
-148.9732839205
 30
0.0
 40
3.000000000000227
100
AcDbArc
 50
60.0
 51
120.0
  0
ARC
  5
4C2
330
1F
100
AcDbEntity
  8
0
  6
Continuous
 62
     7
370
    15
100
AcDbCircle
 10
3185.6842383443
 20
-49.6690376199
 30
0.0
 40
250.0000000000001
100
AcDbArc
 50
307.6861696227
 51
328.6080627734
  0
ARC
  5
4C3
330
1F
100
AcDbEntity
  8
0
  6
Continuous
 62
     7
370
    15
100
AcDbCircle
 10
2974.8390840854
 20
-178.3287474189
 30
0.0
 40
3.0
100
AcDbArc
 50
120.0
 51
211.3919372266
  0
ARC
  5
4C4
330
1F
100
AcDbEntity
  8
0
  6
Continuous
 62
     7
370
    15
100
AcDbCircle
 10
3034.6842383443
 20
-154.1694363432
 30
0.0
 40
3.000000000000099
100
AcDbArc
 50
0.0
 51
60.0
  0
LINE
  5
4C5
330
1F
100
AcDbEntity
  8
0
  6
Continuous
 62
     7
370
    15
100
AcDbLine
 10
3037.6842383443
 20
-154.1694363432
 30
0.0
 11
3037.6842383443
 21
-245.1377051858
 31
0.0
  0
ARC
  5
4C6
330
1F
100
AcDbEntity
  8
0
  6
Continuous
 62
     7
370
    15
100
AcDbCircle
 10
3034.6842383443
 20
-245.1377051858
 30
0.0
 40
3.000000000000119
100
AcDbArc
 50
232.3138303773
 51
0.0
  0
LINE
  5
4C7
330
1F
100
AcDbEntity
  8
0
  6
Continuous
 62
     7
370
    15
100
AcDbLine
 10
2973.3390840854
 20
-175.7306712075
 30
0.0
 11
3024.1842383443
 21
-146.3752077092
 31
0.0
  0
ARC
  5
4C8
330
1F
100
AcDbEntity
  8
0
  6
Continuous
 62
     7
370
    15
100
AcDbCircle
 10
3025.6842383443
 20
-148.9732839205
 30
0.0
 40
3.000000000000049
100
AcDbArc
 50
60.0
 51
120.0
  0
LINE
  5
4C9
330
1F
100
AcDbEntity
  8
0
  6
Continuous
 62
     7
370
    15
100
AcDbLine
 10
3027.1842383443
 20
-146.3752077092
 30
0.0
 11
3036.1842383443
 21
-151.5713601319
 31
0.0
  0
ARC
  5
4CA
330
1F
100
AcDbEntity
  8
0
  6
Continuous
 62
     7
370
    15
100
AcDbCircle
 10
3185.6842383443
 20
-49.6690376199
 30
0.0
 40
250.0
100
AcDbArc
 50
211.3919372266
 51
232.3138303773
  0
CIRCLE
  5
4CB
330
1F
100
AcDbEntity
  8
0
  6
Continuous
 62
     7
370
    15
100
AcDbCircle
 10
3090.6842383443
 20
-214.2138643389
 30
0.0
 40
5.500000000000455
  0
ARC
  5
4CC
330
1F
100
AcDbEntity
  8
0
  6
Continuous
 62
     7
370
    15
100
AcDbCircle
 10
3095.4426466274
 20
-279.5939278002
 30
0.0
 40
3.000000000000227
100
AcDbArc
 50
248.5708408004
 51
300.0
  0
ARC
  5
4CD
330
1F
100
AcDbEntity
  8
0
  6
Continuous
 62
     7
370
    15
100
AcDbCircle
 10
3046.6842383443
 20
-253.845431946
 30
0.0
 40
3.000000000000455
100
AcDbArc
 50
180.0
 51
235.7535968103
  0
ARC
  5
4CE
330
1F
100
AcDbEntity
  8
0
  6
Continuous
 62
     7
370
    15
100
AcDbCircle
 10
3046.6842383443
 20
-161.0976395735
 30
0.0
 40
3.000000000000455
100
AcDbArc
 50
60.0
 51
180.0
  0
LINE
  5
4CF
330
1F
100
AcDbEntity
  8
0
  6
Continuous
 62
     7
370
    15
100
AcDbLine
 10
3048.1842383443
 20
-158.4995633622
 30
0.0
 11
3175.1842383443
 21
-231.8230475492
 31
0.0
  0
ARC
  5
4D0
330
1F
100
AcDbEntity
  8
0
  6
Continuous
 62
     7
370
    15
100
AcDbCircle
 10
3173.6842383443
 20
-234.4211237606
 30
0.0
 40
3.0
100
AcDbArc
 50
300.0
 51
60.0
  0
LINE
  5
4D1
330
1F
100
AcDbEntity
  8
0
  6
Continuous
 62
     7
370
    15
100
AcDbLine
 10
3175.1842383443
 20
-237.0191999719
 30
0.0
 11
3096.9426466274
 21
-282.1920040115
 31
0.0
  0
LINE
  5
4D2
330
1F
100
AcDbEntity
  8
0
  6
Continuous
 62
     7
370
    15
100
AcDbLine
 10
3043.6842383443
 20
-253.845431946
 30
0.0
 11
3043.6842383443
 21
-161.0976395735
 31
0.0
  0
ARC
  5
4D3
330
1F
100
AcDbEntity
  8
0
  6
Continuous
 62
     7
370
    15
100
AcDbCircle
 10
3185.6842383443
 20
-49.6690376199
 30
0.0
 40
250.0000000000001
100
AcDbArc
 50
235.7535968103
 51
248.5708408004
  0
CIRCLE
  5
4D4
330
1F
100
AcDbEntity
  8
0
  6
Continuous
 62
     7
370
    15
100
AcDbCircle
 10
3280.6842383443
 20
-214.2138643389
 30
0.0
 40
5.5
  0
ARC
  5
4D5
330
1F
100
AcDbEntity
  8
0
  6
Continuous
 62
     7
370
    15
100
AcDbCircle
 10
3324.6842383443
 20
-253.845431946
 30
0.0
 40
3.000000000000016
100
AcDbArc
 50
304.2464031897
 51
0.0
  0
ARC
  5
4D6
330
1F
100
AcDbEntity
  8
0
  6
Continuous
 62
     7
370
    15
100
AcDbCircle
 10
3275.9258300612
 20
-279.5939278002
 30
0.0
 40
3.000000000000227
100
AcDbArc
 50
240.0
 51
291.4291591996
  0
LINE
  5
4D7
330
1F
100
AcDbEntity
  8
0
  6
Continuous
 62
     7
370
    15
100
AcDbLine
 10
3274.4258300612
 20
-282.1920040115
 30
0.0
 11
3196.1842383443
 21
-237.0191999719
 31
0.0
  0
ARC
  5
4D8
330
1F
100
AcDbEntity
  8
0
  6
Continuous
 62
     7
370
    15
100
AcDbCircle
 10
3197.6842383443
 20
-234.4211237606
 30
0.0
 40
3.000000000000025
100
AcDbArc
 50
120.0
 51
240.0
  0
LINE
  5
4D9
330
1F
100
AcDbEntity
  8
0
  6
Continuous
 62
     7
370
    15
100
AcDbLine
 10
3327.6842383443
 20
-161.0976395735
 30
0.0
 11
3327.6842383443
 21
-253.845431946
 31
0.0
  0
ARC
  5
4DA
330
1F
100
AcDbEntity
  8
0
  6
Continuous
 62
     7
370
    15
100
AcDbCircle
 10
3324.6842383443
 20
-161.0976395735
 30
0.0
 40
3.000000000000203
100
AcDbArc
 50
0.0
 51
120.0
  0
LINE
  5
4DB
330
1F
100
AcDbEntity
  8
0
  6
Continuous
 62
     7
370
    15
100
AcDbLine
 10
3196.1842383443
 20
-231.8230475492
 30
0.0
 11
3323.1842383443
 21
-158.4995633621
 31
0.0
  0
ARC
  5
4DC
330
1F
100
AcDbEntity
  8
0
  6
Continuous
 62
     7
370
    15
100
AcDbCircle
 10
3185.6842383443
 20
-49.6690376199
 30
0.0
 40
250.0000000000001
100
AcDbArc
 50
291.4291591996
 51
304.2464031897
  0
ARC
  5
4DD
330
1F
100
AcDbEntity
  8
0
  6
Continuous
 62
     7
370
    15
100
AcDbCircle
 10
3110.2867951831
 20
-284.8800610962
 30
0.0
 40
3.000000000000049
100
AcDbArc
 50
120.0
 51
252.226626018
  0
LINE
  5
4DE
330
1F
100
AcDbEntity
  8
0
  6
Continuous
 62
     7
370
    15
100
AcDbLine
 10
3182.6842383443
 20
-244.813428606
 30
0.0
 11
3182.6842383443
 21
-296.5961523724
 31
0.0
  0
ARC
  5
4DF
330
1F
100
AcDbEntity
  8
0
  6
Continuous
 62
     7
370
    15
100
AcDbCircle
 10
3179.6842383443
 20
-296.5961523724
 30
0.0
 40
3.000000000000039
100
AcDbArc
 50
268.6080627734
 51
0.0
  0
ARC
  5
4E0
330
1F
100
AcDbEntity
  8
0
  6
Continuous
 62
     7
370
    15
100
AcDbCircle
 10
3179.6842383443
 20
-244.813428606
 30
0.0
 40
3.000000000000129
100
AcDbArc
 50
0.0
 51
120.0
  0
LINE
  5
4E1
330
1F
100
AcDbEntity
  8
0
  6
Continuous
 62
     7
370
    15
100
AcDbLine
 10
3108.7867951831
 20
-282.2819848848
 30
0.0
 11
3178.1842383443
 21
-242.2153523946
 31
0.0
  0
ARC
  5
4E2
330
1F
100
AcDbEntity
  8
0
  6
Continuous
 62
     7
370
    15
100
AcDbCircle
 10
3185.6842383443
 20
-49.6690376199
 30
0.0
 40
250.0
100
AcDbArc
 50
252.226626018
 51
268.6080627734
  0
ARC
  5
4E3
330
1F
100
AcDbEntity
  8
0
  6
Continuous
 62
     7
370
    15
100
AcDbCircle
 10
3191.6842383443
 20
-296.5961523724
 30
0.0
 40
3.000000000000455
100
AcDbArc
 50
180.0
 51
271.3919372266
  0
LINE
  5
4E4
330
1F
100
AcDbEntity
  8
0
  6
Continuous
 62
     7
370
    15
100
AcDbLine
 10
3188.6842383443
 20
-296.5961523724
 30
0.0
 11
3188.6842383443
 21
-244.813428606
 31
0.0
  0
ARC
  5
4E5
330
1F
100
AcDbEntity
  8
0
  6
Continuous
 62
     7
370
    15
100
AcDbCircle
 10
3261.0816815055
 20
-284.8800610962
 30
0.0
 40
3.000000000000099
100
AcDbArc
 50
287.773373982
 51
60.0
  0
ARC
  5
4E6
330
1F
100
AcDbEntity
  8
0
  6
Continuous
 62
     7
370
    15
100
AcDbCircle
 10
3191.6842383443
 20
-244.813428606
 30
0.0
 40
3.000000000000455
100
AcDbArc
 50
60.0
 51
180.0
  0
LINE
  5
4E7
330
1F
100
AcDbEntity
  8
0
  6
Continuous
 62
     7
370
    15
100
AcDbLine
 10
3193.1842383443
 20
-242.2153523946
 30
0.0
 11
3262.5816815055
 21
-282.2819848848
 31
0.0
  0
ARC
  5
4E8
330
1F
100
AcDbEntity
  8
0
  6
Continuous
 62
     7
370
    15
100
AcDbCircle
 10
3185.6842383443
 20
-49.6690376199
 30
0.0
 40
249.9999999999999
100
AcDbArc
 50
271.3919372266
 51
287.773373982
  0
ARC
  5
4E9
330
1F
100
AcDbEntity
  8
0
  6
Continuous
 62
     7
370
    15
100
AcDbCircle
 10
3185.6842383443
 20
-49.6690376199
 30
0.0
 40
250.0000000000001
100
AcDbArc
 50
124.2464031897
 51
127.6861696227
  0
ARC
  5
4EA
330
1F
100
AcDbEntity
  8
0
  6
Continuous
 62
     7
370
    15
100
AcDbCircle
 10
3185.6842383443
 20
-49.6690376199
 30
0.0
 40
250.0000000000002
100
AcDbArc
 50
148.6080627734
 51
151.3919372266
  0
ARC
  5
4EB
330
1F
100
AcDbEntity
  8
0
  6
Continuous
 62
     7
370
    15
100
AcDbCircle
 10
3185.6842383443
 20
-49.6690376199
 30
0.0
 40
250.0000000000002
100
AcDbArc
 50
167.773373982
 51
171.4291591996
  0
ARC
  5
4EC
330
1F
100
AcDbEntity
  8
0
  6
Continuous
 62
     7
370
    15
100
AcDbCircle
 10
3185.6842383443
 20
-49.6690376199
 30
0.0
 40
250.0000000000003
100
AcDbArc
 50
188.5708408004
 51
192.226626018
  0
ARC
  5
4ED
330
1F
100
AcDbEntity
  8
0
  6
Continuous
 62
     7
370
    15
100
AcDbCircle
 10
3185.6842383443
 20
-49.6690376199
 30
0.0
 40
250.0
100
AcDbArc
 50
208.6080627734
 51
211.3919372266
  0
ARC
  5
4EE
330
1F
100
AcDbEntity
  8
0
  6
Continuous
 62
     7
370
    15
100
AcDbCircle
 10
3185.6842383443
 20
-49.6690376199
 30
0.0
 40
250.0
100
AcDbArc
 50
232.3138303773
 51
235.7535968103
  0
ARC
  5
4EF
330
1F
100
AcDbEntity
  8
0
  6
Continuous
 62
     7
370
    15
100
AcDbCircle
 10
3185.6842383443
 20
-49.6690376199
 30
0.0
 40
250.0000000000001
100
AcDbArc
 50
248.5708408004
 51
252.226626018
  0
ARC
  5
4F0
330
1F
100
AcDbEntity
  8
0
  6
Continuous
 62
     7
370
    15
100
AcDbCircle
 10
3185.6842383443
 20
-49.6690376199
 30
0.0
 40
250.0
100
AcDbArc
 50
268.6080627734
 51
271.3919372266
  0
ARC
  5
4F1
330
1F
100
AcDbEntity
  8
0
  6
Continuous
 62
     7
370
    15
100
AcDbCircle
 10
3185.6842383443
 20
-49.6690376199
 30
0.0
 40
250.0000000000001
100
AcDbArc
 50
287.773373982
 51
291.4291591996
  0
ARC
  5
4F2
330
1F
100
AcDbEntity
  8
0
  6
Continuous
 62
     7
370
    15
100
AcDbCircle
 10
3185.6842383443
 20
-49.6690376199
 30
0.0
 40
250.0000000000001
100
AcDbArc
 50
304.2464031897
 51
307.6861696227
  0
ARC
  5
4F3
330
1F
100
AcDbEntity
  8
0
  6
Continuous
 62
     7
370
    15
100
AcDbCircle
 10
3185.6842383443
 20
-49.6690376199
 30
0.0
 40
250.0000000000001
100
AcDbArc
 50
328.6080627734
 51
331.3919372266
  0
ARC
  5
4F4
330
1F
100
AcDbEntity
  8
0
  6
Continuous
 62
     7
370
    15
100
AcDbCircle
 10
3185.6842383443
 20
-49.6690376199
 30
0.0
 40
250.0000000000002
100
AcDbArc
 50
347.773373982
 51
351.4291591996
  0
ARC
  5
4F5
330
1F
100
AcDbEntity
  8
0
  6
Continuous
 62
     7
370
    15
100
AcDbCircle
 10
3185.6842383443
 20
-49.6690376199
 30
0.0
 40
250.0000000000003
100
AcDbArc
 50
8.5708408004
 51
12.226626018
  0
ARC
  5
4F6
330
1F
100
AcDbEntity
  8
0
  6
Continuous
 62
     7
370
    15
100
AcDbCircle
 10
3185.6842383443
 20
-49.6690376199
 30
0.0
 40
250.0
100
AcDbArc
 50
28.6080627734
 51
31.3919372266
  0
ARC
  5
4F7
330
1F
100
AcDbEntity
  8
0
  6
Continuous
 62
     7
370
    15
100
AcDbCircle
 10
3185.6842383443
 20
-49.6690376199
 30
0.0
 40
250.0000000000002
100
AcDbArc
 50
52.3138303773
 51
55.7535968103
  0
ARC
  5
4F8
330
1F
100
AcDbEntity
  8
0
  6
Continuous
 62
     7
370
    15
100
AcDbCircle
 10
3185.6842383443
 20
-49.6690376199
 30
0.0
 40
250.0000000000001
100
AcDbArc
 50
68.5708408004
 51
72.226626018
  0
ARC
  5
4F9
330
1F
100
AcDbEntity
  8
0
  6
Continuous
 62
     7
370
    15
100
AcDbCircle
 10
3185.6842383443
 20
-49.6690376199
 30
0.0
 40
250.0000000000001
100
AcDbArc
 50
88.6080627734
 51
91.3919372266
  0
ARC
  5
4FA
330
1F
100
AcDbEntity
  8
0
  6
Continuous
 62
     7
370
    15
100
AcDbCircle
 10
3185.6842383443
 20
-49.6690376199
 30
0.0
 40
249.9999999999999
100
AcDbArc
 50
107.773373982
 51
111.4291591996
  0
ENDSEC
  0
SECTION
  2
OBJECTS
  0
DICTIONARY
  5
C
330
0
100
AcDbDictionary
281
     1
  3
ACAD_GROUP
350
D
  3
ACAD_LAYOUT
350
1A
  3
ACAD_MLINESTYLE
350
17
  3
ACAD_PLOTSETTINGS
350
19
  3
ACAD_PLOTSTYLENAME
350
E
  3
ACAD_SCALELIST
350
47
  0
DICTIONARY
  5
D
102
{ACAD_REACTORS
330
C
102
}
330
C
100
AcDbDictionary
281
     1
  0
DICTIONARY
  5
1A
102
{ACAD_REACTORS
330
C
102
}
330
C
100
AcDbDictionary
281
     1
  3
Layout1
350
1E
  3
Layout2
350
26
  3
Model
350
22
  0
DICTIONARY
  5
17
102
{ACAD_REACTORS
330
C
102
}
330
C
100
AcDbDictionary
281
     1
  3
Standard
350
18
  0
DICTIONARY
  5
19
102
{ACAD_REACTORS
330
C
102
}
330
C
100
AcDbDictionary
281
     1
  0
ACDBDICTIONARYWDFLT
  5
E
102
{ACAD_REACTORS
330
C
102
}
330
C
100
AcDbDictionary
281
     1
  3
Normal
350
F
100
AcDbDictionaryWithDefault
340
F
  0
DICTIONARY
  5
47
102
{ACAD_REACTORS
330
C
102
}
330
C
100
AcDbDictionary
281
     1
  3
A0
350
48
  3
A1
350
49
  3
A2
350
4A
  3
A3
350
4B
  3
A4
350
4C
  3
A5
350
4D
  3
A6
350
4E
  3
A7
350
4F
  3
A8
350
50
  3
A9
350
51
  3
B0
350
52
  3
B1
350
53
  3
B2
350
54
  3
B3
350
55
  3
B4
350
56
  3
B5
350
57
  3
B6
350
58
  3
B7
350
59
  3
B8
350
5A
  3
B9
350
5B
  3
C0
350
5C
  3
C1
350
5D
  3
C2
350
5E
  3
C3
350
5F
  3
C4
350
60
  3
C5
350
61
  3
C6
350
62
  3
C7
350
63
  3
C8
350
64
  3
C9
350
65
  3
D0
350
66
  3
D1
350
67
  3
D2
350
68
  0
LAYOUT
  5
1E
102
{ACAD_REACTORS
330
1A
102
}
330
1A
100
AcDbPlotSettings
  1

  2
none_device
  4

  6

 40
0.0
 41
0.0
 42
0.0
 43
0.0
 44
0.0
 45
0.0
 46
0.0
 47
0.0
 48
0.0
 49
0.0
140
0.0
141
0.0
142
1.0
143
1.0
 70
   688
 72
     1
 73
     0
 74
     5
  7

 75
    16
147
1.0
148
0.0
149
0.0
100
AcDbLayout
  1
Layout1
 70
     1
 71
     1
 10
0.0
 20
0.0
 11
420.0
 21
297.0
 12
0.0
 22
0.0
 32
0.0
 14
1.0000000000E+20
 24
1.0000000000E+20
 34
1.0000000000E+20
 15
-1.0000000000E+20
 25
-1.0000000000E+20
 35
-1.0000000000E+20
146
0.0
 13
0.0
 23
0.0
 33
0.0
 16
1.0
 26
0.0
 36
0.0
 17
0.0
 27
1.0
 37
0.0
 76
     0
330
1B
  0
LAYOUT
  5
26
102
{ACAD_REACTORS
330
1A
102
}
330
1A
100
AcDbPlotSettings
  1

  2
none_device
  4

  6

 40
0.0
 41
0.0
 42
0.0
 43
0.0
 44
0.0
 45
0.0
 46
0.0
 47
0.0
 48
0.0
 49
0.0
140
0.0
141
0.0
142
1.0
143
1.0
 70
   688
 72
     1
 73
     0
 74
     5
  7

 75
    16
147
1.0
148
0.0
149
0.0
100
AcDbLayout
  1
Layout2
 70
     1
 71
     2
 10
0.0
 20
0.0
 11
0.0
 21
0.0
 12
0.0
 22
0.0
 32
0.0
 14
0.0
 24
0.0
 34
0.0
 15
0.0
 25
0.0
 35
0.0
146
0.0
 13
0.0
 23
0.0
 33
0.0
 16
1.0
 26
0.0
 36
0.0
 17
0.0
 27
1.0
 37
0.0
 76
     0
330
23
  0
LAYOUT
  5
22
102
{ACAD_REACTORS
330
1A
102
}
330
1A
100
AcDbPlotSettings
  1

  2
none_device
  4
Letter_(8.50_x_11.00_Inches)
  6

 40
6.35
 41
6.35
 42
6.35000508
 43
6.35000508
 44
215.9
 45
279.4
 46
0.0
 47
0.0
 48
0.0
 49
0.0
140
0.0
141
0.0
142
1.0
143
1.0
 70
  1712
 72
     1
 73
     0
 74
     0
  7

 75
     0
147
1.0
148
0.0
149
0.0
100
AcDbLayout
  1
Model
 70
     1
 71
     0
 10
0.0
 20
0.0
 11
594.0
 21
420.0
 12
0.0
 22
0.0
 32
0.0
 14
0.0
 24
0.0
 34
0.0
 15
594.0
 25
420.0
 35
0.0
146
0.0
 13
0.0
 23
0.0
 33
0.0
 16
1.0
 26
0.0
 36
0.0
 17
0.0
 27
1.0
 37
0.0
 76
     0
330
1F
331
29
  0
MLINESTYLE
  5
18
102
{ACAD_REACTORS
330
17
102
}
330
17
100
AcDbMlineStyle
  2
Standard
 70
     0
  3

 62
   256
 51
90.0
 52
90.0
 71
     2
 49
0.5
 62
   256
  6
BYLAYER
 49
-0.5
 62
   256
  6
BYLAYER
  0
ACDBPLACEHOLDER
  5
F
102
{ACAD_REACTORS
330
E
102
}
330
E
  0
SCALE
  5
48
102
{ACAD_REACTORS
330
47
102
}
330
47
100
AcDbScale
 70
     0
300
1:1
140
1.0
141
1.0
290
     1
  0
SCALE
  5
49
102
{ACAD_REACTORS
330
47
102
}
330
47
100
AcDbScale
 70
     0
300
1:2
140
1.0
141
2.0
290
     0
  0
SCALE
  5
4A
102
{ACAD_REACTORS
330
47
102
}
330
47
100
AcDbScale
 70
     0
300
1:4
140
1.0
141
4.0
290
     0
  0
SCALE
  5
4B
102
{ACAD_REACTORS
330
47
102
}
330
47
100
AcDbScale
 70
     0
300
1:5
140
1.0
141
5.0
290
     0
  0
SCALE
  5
4C
102
{ACAD_REACTORS
330
47
102
}
330
47
100
AcDbScale
 70
     0
300
1:8
140
1.0
141
8.0
290
     0
  0
SCALE
  5
4D
102
{ACAD_REACTORS
330
47
102
}
330
47
100
AcDbScale
 70
     0
300
1:10
140
1.0
141
10.0
290
     0
  0
SCALE
  5
4E
102
{ACAD_REACTORS
330
47
102
}
330
47
100
AcDbScale
 70
     0
300
1:16
140
1.0
141
16.0
290
     0
  0
SCALE
  5
4F
102
{ACAD_REACTORS
330
47
102
}
330
47
100
AcDbScale
 70
     0
300
1:20
140
1.0
141
20.0
290
     0
  0
SCALE
  5
50
102
{ACAD_REACTORS
330
47
102
}
330
47
100
AcDbScale
 70
     0
300
1:30
140
1.0
141
30.0
290
     0
  0
SCALE
  5
51
102
{ACAD_REACTORS
330
47
102
}
330
47
100
AcDbScale
 70
     0
300
1:40
140
1.0
141
40.0
290
     0
  0
SCALE
  5
52
102
{ACAD_REACTORS
330
47
102
}
330
47
100
AcDbScale
 70
     0
300
1:50
140
1.0
141
50.0
290
     0
  0
SCALE
  5
53
102
{ACAD_REACTORS
330
47
102
}
330
47
100
AcDbScale
 70
     0
300
1:100
140
1.0
141
100.0
290
     0
  0
SCALE
  5
54
102
{ACAD_REACTORS
330
47
102
}
330
47
100
AcDbScale
 70
     0
300
2:1
140
2.0
141
1.0
290
     0
  0
SCALE
  5
55
102
{ACAD_REACTORS
330
47
102
}
330
47
100
AcDbScale
 70
     0
300
4:1
140
4.0
141
1.0
290
     0
  0
SCALE
  5
56
102
{ACAD_REACTORS
330
47
102
}
330
47
100
AcDbScale
 70
     0
300
8:1
140
8.0
141
1.0
290
     0
  0
SCALE
  5
57
102
{ACAD_REACTORS
330
47
102
}
330
47
100
AcDbScale
 70
     0
300
10:1
140
10.0
141
1.0
290
     0
  0
SCALE
  5
58
102
{ACAD_REACTORS
330
47
102
}
330
47
100
AcDbScale
 70
     0
300
100:1
140
100.0
141
1.0
290
     0
  0
SCALE
  5
59
102
{ACAD_REACTORS
330
47
102
}
330
47
100
AcDbScale
 70
     0
300
1/128" = 1'-0"
140
0.0078125
141
12.0
290
     0
  0
SCALE
  5
5A
102
{ACAD_REACTORS
330
47
102
}
330
47
100
AcDbScale
 70
     0
300
1/64" = 1'-0"
140
0.015625
141
12.0
290
     0
  0
SCALE
  5
5B
102
{ACAD_REACTORS
330
47
102
}
330
47
100
AcDbScale
 70
     0
300
1/32" = 1'-0"
140
0.03125
141
12.0
290
     0
  0
SCALE
  5
5C
102
{ACAD_REACTORS
330
47
102
}
330
47
100
AcDbScale
 70
     0
300
1/16" = 1'-0"
140
0.0625
141
12.0
290
     0
  0
SCALE
  5
5D
102
{ACAD_REACTORS
330
47
102
}
330
47
100
AcDbScale
 70
     0
300
3/32" = 1'-0"
140
0.09375
141
12.0
290
     0
  0
SCALE
  5
5E
102
{ACAD_REACTORS
330
47
102
}
330
47
100
AcDbScale
 70
     0
300
1/8" = 1'-0"
140
0.125
141
12.0
290
     0
  0
SCALE
  5
5F
102
{ACAD_REACTORS
330
47
102
}
330
47
100
AcDbScale
 70
     0
300
3/16" = 1'-0"
140
0.1875
141
12.0
290
     0
  0
SCALE
  5
60
102
{ACAD_REACTORS
330
47
102
}
330
47
100
AcDbScale
 70
     0
300
1/4" = 1'-0"
140
0.25
141
12.0
290
     0
  0
SCALE
  5
61
102
{ACAD_REACTORS
330
47
102
}
330
47
100
AcDbScale
 70
     0
300
3/8" = 1'-0"
140
0.375
141
12.0
290
     0
  0
SCALE
  5
62
102
{ACAD_REACTORS
330
47
102
}
330
47
100
AcDbScale
 70
     0
300
1/2" = 1'-0"
140
0.5
141
12.0
290
     0
  0
SCALE
  5
63
102
{ACAD_REACTORS
330
47
102
}
330
47
100
AcDbScale
 70
     0
300
3/4" = 1'-0"
140
0.75
141
12.0
290
     0
  0
SCALE
  5
64
102
{ACAD_REACTORS
330
47
102
}
330
47
100
AcDbScale
 70
     0
300
1" = 1'-0"
140
1.0
141
12.0
290
     0
  0
SCALE
  5
65
102
{ACAD_REACTORS
330
47
102
}
330
47
100
AcDbScale
 70
     0
300
1-1/2" = 1'-0"
140
1.5
141
12.0
290
     0
  0
SCALE
  5
66
102
{ACAD_REACTORS
330
47
102
}
330
47
100
AcDbScale
 70
     0
300
3" = 1'-0"
140
3.0
141
12.0
290
     0
  0
SCALE
  5
67
102
{ACAD_REACTORS
330
47
102
}
330
47
100
AcDbScale
 70
     0
300
6" = 1'-0"
140
6.0
141
12.0
290
     0
  0
SCALE
  5
68
102
{ACAD_REACTORS
330
47
102
}
330
47
100
AcDbScale
 70
     0
300
1'-0" = 1'-0"
140
12.0
141
12.0
290
     0
  0
ENDSEC
  0
EOF
