  0
SECTION
  2
HEADER
  9
$ACADVER
  1
AC1015
  9
$ACADMAINTVER
 70
     6
  9
$DWGCODEPAGE
  3
ANSI_1251
  9
$INSBASE
 10
0.0
 20
0.0
 30
0.0
  9
$EXTMIN
 10
-6754.0
 20
-2024.0
 30
0.0
  9
$EXTMAX
 10
6754.0
 20
2024.0
 30
0.0
  9
$LIMMIN
 10
0.0
 20
0.0
  9
$LIMMAX
 10
420.0
 20
297.0
  9
$ORTHOMODE
 70
     0
  9
$REGENMODE
 70
     1
  9
$FILLMODE
 70
     1
  9
$QTEXTMODE
 70
     0
  9
$MIRRTEXT
 70
     1
  9
$LTSCALE
 40
1.0
  9
$ATTMODE
 70
     1
  9
$TEXTSIZE
 40
3.0
  9
$TRACEWID
 40
1.0
  9
$TEXTSTYLE
  7
Standard
  9
$CLAYER
  8
0
  9
$CELTYPE
  6
ByLayer
  9
$CECOLOR
 62
   256
  9
$CELTSCALE
 40
1.0
  9
$DISPSILH
 70
     0
  9
$DIMSCALE
 40
1.0
  9
$DIMASZ
 40
3.0
  9
$DIMEXO
 40
0.0
  9
$DIMDLI
 40
3.75
  9
$DIMRND
 40
0.0
  9
$DIMDLE
 40
0.0
  9
$DIMEXE
 40
2.0
  9
$DIMTP
 40
0.0
  9
$DIMTM
 40
0.0
  9
$DIMTXT
 40
3.0
  9
$DIMCEN
 40
2.5
  9
$DIMTSZ
 40
0.0
  9
$DIMTOL
 70
     0
  9
$DIMLIM
 70
     0
  9
$DIMTIH
 70
     1
  9
$DIMTOH
 70
     1
  9
$DIMSE1
 70
     0
  9
$DIMSE2
 70
     0
  9
$DIMTAD
 70
     1
  9
$DIMZIN
 70
     0
  9
$DIMBLK
  1

  9
$DIMASO
 70
     1
  9
$DIMSHO
 70
     1
  9
$DIMPOST
  1

  9
$DIMAPOST
  1

  9
$DIMALT
 70
     0
  9
$DIMALTD
 70
     3
  9
$DIMALTF
 40
0.0393700787
  9
$DIMLFAC
 40
1.0
  9
$DIMTOFL
 70
     1
  9
$DIMTVP
 40
0.0
  9
$DIMTIX
 70
     0
  9
$DIMSOXD
 70
     0
  9
$DIMSAH
 70
     0
  9
$DIMBLK1
  1

  9
$DIMBLK2
  1

  9
$DIMSTYLE
  2
ISO-25
  9
$DIMCLRD
 70
     0
  9
$DIMCLRE
 70
     0
  9
$DIMCLRT
 70
     0
  9
$DIMTFAC
 40
1.0
  9
$DIMGAP
 40
2.0
  9
$DIMJUST
 70
     0
  9
$DIMSD1
 70
     0
  9
$DIMSD2
 70
     0
  9
$DIMTOLJ
 70
     0
  9
$DIMTZIN
 70
     0
  9
$DIMALTZ
 70
     0
  9
$DIMALTTZ
 70
     0
  9
$DIMUPT
 70
     0
  9
$DIMDEC
 70
     2
  9
$DIMTDEC
 70
     2
  9
$DIMALTU
 70
     2
  9
$DIMALTTD
 70
     3
  9
$DIMTXSTY
  7
Standard
  9
$DIMAUNIT
 70
     0
  9
$DIMADEC
 70
     2
  9
$DIMALTRND
 40
0.0
  9
$DIMAZIN
 70
     0
  9
$DIMDSEP
 70
    44
  9
$DIMATFIT
 70
     3
  9
$DIMFRAC
 70
     0
  9
$DIMLDRBLK
  1

  9
$DIMLUNIT
 70
     2
  9
$DIMLWD
 70
    -2
  9
$DIMLWE
 70
    -2
  9
$DIMTMOVE
 70
     0
  9
$LUNITS
 70
     2
  9
$LUPREC
 70
     2
  9
$SKETCHINC
 40
1.0
  9
$FILLETRAD
 40
10.0
  9
$AUNITS
 70
     1
  9
$AUPREC
 70
     2
  9
$MENU
  1
.
  9
$ELEVATION
 40
0.0
  9
$PELEVATION
 40
0.0
  9
$THICKNESS
 40
0.0
  9
$LIMCHECK
 70
     0
  9
$CHAMFERA
 40
0.0
  9
$CHAMFERB
 40
0.0
  9
$CHAMFERC
 40
0.0
  9
$CHAMFERD
 40
0.0
  9
$SKPOLY
 70
     0
  9
$TDCREATE
 40
2459600.645418114
  9
$TDUCREATE
 40
2459600.520418114
  9
$TDUPDATE
 40
2459600.645492928
  9
$TDUUPDATE
 40
2459600.520492928
  9
$TDINDWG
 40
0.0000000116
  9
$TDUSRTIMER
 40
0.0000000116
  9
$USRTIMER
 70
     1
  9
$ANGBASE
 50
0.0
  9
$ANGDIR
 70
     0
  9
$PDMODE
 70
     0
  9
$PDSIZE
 40
-1.0
  9
$PLINEWID
 40
0.0
  9
$SPLFRAME
 70
     0
  9
$SPLINETYPE
 70
     6
  9
$SPLINESEGS
 70
     8
  9
$HANDSEED
  5
717
  9
$SURFTAB1
 70
     6
  9
$SURFTAB2
 70
     6
  9
$SURFTYPE
 70
     6
  9
$SURFU
 70
     6
  9
$SURFV
 70
     6
  9
$UCSBASE
  2

  9
$UCSNAME
  2

  9
$UCSORG
 10
0.0
 20
0.0
 30
0.0
  9
$UCSXDIR
 10
1.0
 20
0.0
 30
0.0
  9
$UCSYDIR
 10
0.0
 20
1.0
 30
0.0
  9
$UCSORTHOREF
  2

  9
$UCSORTHOVIEW
 70
     0
  9
$UCSORGTOP
 10
0.0
 20
0.0
 30
0.0
  9
$UCSORGBOTTOM
 10
0.0
 20
0.0
 30
0.0
  9
$UCSORGLEFT
 10
0.0
 20
0.0
 30
0.0
  9
$UCSORGRIGHT
 10
0.0
 20
0.0
 30
0.0
  9
$UCSORGFRONT
 10
0.0
 20
0.0
 30
0.0
  9
$UCSORGBACK
 10
0.0
 20
0.0
 30
0.0
  9
$PUCSBASE
  2

  9
$PUCSNAME
  2

  9
$PUCSORG
 10
0.0
 20
0.0
 30
0.0
  9
$PUCSXDIR
 10
1.0
 20
0.0
 30
0.0
  9
$PUCSYDIR
 10
0.0
 20
1.0
 30
0.0
  9
$PUCSORTHOREF
  2

  9
$PUCSORTHOVIEW
 70
     0
  9
$PUCSORGTOP
 10
0.0
 20
0.0
 30
0.0
  9
$PUCSORGBOTTOM
 10
0.0
 20
0.0
 30
0.0
  9
$PUCSORGLEFT
 10
0.0
 20
0.0
 30
0.0
  9
$PUCSORGRIGHT
 10
0.0
 20
0.0
 30
0.0
  9
$PUCSORGFRONT
 10
0.0
 20
0.0
 30
0.0
  9
$PUCSORGBACK
 10
0.0
 20
0.0
 30
0.0
  9
$USERI1
 70
     0
  9
$USERI2
 70
     0
  9
$USERI3
 70
     0
  9
$USERI4
 70
     0
  9
$USERI5
 70
     0
  9
$USERR1
 40
0.0
  9
$USERR2
 40
0.0
  9
$USERR3
 40
0.0
  9
$USERR4
 40
0.0
  9
$USERR5
 40
0.0
  9
$WORLDVIEW
 70
     1
  9
$SHADEDGE
 70
     3
  9
$SHADEDIF
 70
    70
  9
$TILEMODE
 70
     1
  9
$MAXACTVP
 70
    64
  9
$PINSBASE
 10
0.0
 20
0.0
 30
0.0
  9
$PLIMCHECK
 70
     0
  9
$PEXTMIN
 10
1.0000000000E+20
 20
1.0000000000E+20
 30
1.0000000000E+20
  9
$PEXTMAX
 10
-1.0000000000E+20
 20
-1.0000000000E+20
 30
-1.0000000000E+20
  9
$PLIMMIN
 10
0.0
 20
0.0
  9
$PLIMMAX
 10
420.0
 20
297.0
  9
$UNITMODE
 70
     0
  9
$VISRETAIN
 70
     1
  9
$PLINEGEN
 70
     0
  9
$PSLTSCALE
 70
     1
  9
$TREEDEPTH
 70
  3020
  9
$CMLSTYLE
  2
Standard
  9
$CMLJUST
 70
     0
  9
$CMLSCALE
 40
20.0
  9
$PROXYGRAPHICS
 70
     1
  9
$MEASUREMENT
 70
     1
  9
$CELWEIGHT
370
    -1
  9
$ENDCAPS
280
     0
  9
$JOINSTYLE
280
     0
  9
$LWDISPLAY
290
     1
  9
$INSUNITS
 70
     4
  9
$HYPERLINKBASE
  1

  9
$STYLESHEET
  1

  9
$XEDIT
290
     1
  9
$CEPSNTYPE
380
     0
  9
$PSTYLEMODE
290
     1
  9
$FINGERPRINTGUID
  2
{3D012D0D-2C76-42E8-B510-AD9E36540CFB}
  9
$VERSIONGUID
  2
{FAEB1C32-E019-11D5-929B-00C0DF256EC4}
  9
$EXTNAMES
290
     1
  9
$PSVPSCALE
 40
0.0
  9
$OLESTARTUP
290
     0
  0
ENDSEC
  0
SECTION
  2
CLASSES
  0
CLASS
  1
ACDBDICTIONARYWDFLT
  2
AcDbDictionaryWithDefault
  3
ObjectDBX Classes
 90
        0
280
     0
281
     0
  0
CLASS
  1
VISUALSTYLE
  2
AcDbVisualStyle
  3
ObjectDBX Classes
 90
     4095
280
     0
281
     0
  0
CLASS
  1
MATERIAL
  2
AcDbMaterial
  3
ObjectDBX Classes
 90
     1153
280
     0
281
     0
  0
CLASS
  1
SCALE
  2
AcDbScale
  3
ObjectDBX Classes
 90
     1153
280
     0
281
     0
  0
CLASS
  1
SUN
  2
AcDbSun
  3
SCENEOE
 90
     1153
280
     0
281
     0
  0
CLASS
  1
ACDBPLACEHOLDER
  2
AcDbPlaceHolder
  3
ObjectDBX Classes
 90
        0
280
     0
281
     0
  0
CLASS
  1
LAYOUT
  2
AcDbLayout
  3
ObjectDBX Classes
 90
        0
280
     0
281
     0
  0
ENDSEC
  0
SECTION
  2
TABLES
  0
TABLE
  2
VPORT
  5
8
330
0
100
AcDbSymbolTable
 70
     1
  0
VPORT
  5
29
330
8
100
AcDbSymbolTableRecord
100
AcDbViewportTableRecord
  2
*Active
 70
     0
 10
0.0
 20
0.0
 11
1.0
 21
1.0
 12
0.0
 22
0.0
 13
0.0
 23
0.0
 14
10.0
 24
10.0
 15
10.0
 25
10.0
 16
0.0
 26
0.0
 36
1.0
 17
0.0
 27
0.0
 37
0.0
 40
4128.96
 41
3.3369565217
 42
50.0
 43
0.0
 44
0.0
 50
0.0
 51
0.0
 71
     0
 72
   100
 73
     1
 74
     3
 75
     0
 76
     0
 77
     0
 78
     0
281
     0
 65
     1
110
0.0
120
0.0
130
0.0
111
1.0
121
0.0
131
0.0
112
0.0
122
1.0
132
0.0
 79
     0
146
0.0
  0
ENDTAB
  0
TABLE
  2
LTYPE
  5
5
330
0
100
AcDbSymbolTable
 70
     6
  0
LTYPE
  5
14
330
5
100
AcDbSymbolTableRecord
100
AcDbLinetypeTableRecord
  2
ByBlock
 70
     0
  3

 72
    65
 73
     0
 40
0.0
  0
LTYPE
  5
15
330
5
100
AcDbSymbolTableRecord
100
AcDbLinetypeTableRecord
  2
ByLayer
 70
     0
  3

 72
    65
 73
     0
 40
0.0
  0
LTYPE
  5
16
330
5
100
AcDbSymbolTableRecord
100
AcDbLinetypeTableRecord
  2
Continuous
 70
     0
  3
Solid line
 72
    65
 73
     0
 40
0.0
  0
LTYPE
  5
6A
330
5
100
AcDbSymbolTableRecord
100
AcDbLinetypeTableRecord
  2
HIDDEN
 70
     0
  3
Hidden __ __ __ __ __ __ __ __ __ __ __ __ __ __
 72
    65
 73
     2
 40
1.905
 49
1.27
 74
     0
 49
-0.635
 74
     0
  0
LTYPE
  5
6B
330
5
100
AcDbSymbolTableRecord
100
AcDbLinetypeTableRecord
  2
PHANTOM
 70
     0
  3
Phantom ______  __  __  ______  __  __  ______
 72
    65
 73
     6
 40
12.7
 49
6.35
 74
     0
 49
-1.27
 74
     0
 49
1.27
 74
     0
 49
-1.27
 74
     0
 49
1.27
 74
     0
 49
-1.27
 74
     0
  0
LTYPE
  5
6C
330
5
100
AcDbSymbolTableRecord
100
AcDbLinetypeTableRecord
  2
CENTER
 70
     0
  3
Center ____ _ ____ _ ____ _ ____ _ ____ _ ____
 72
    65
 73
     4
 40
10.16
 49
6.35
 74
     0
 49
-1.27
 74
     0
 49
1.27
 74
     0
 49
-1.27
 74
     0
  0
LTYPE
  5
6D
330
5
100
AcDbSymbolTableRecord
100
AcDbLinetypeTableRecord
  2
CENTERX2
 70
     0
  3
Center (2x) ________  __  ________  __  _____
 72
    65
 73
     4
 40
20.32
 49
12.7
 74
     0
 49
-2.54
 74
     0
 49
2.54
 74
     0
 49
-2.54
 74
     0
  0
LTYPE
  5
6E
330
5
100
AcDbSymbolTableRecord
100
AcDbLinetypeTableRecord
  2
DOT2
 70
     0
  3
Dot (.5x) ........................................
 72
    65
 73
     2
 40
0.635
 49
0.0
 74
     0
 49
-0.635
 74
     0
  0
ENDTAB
  0
TABLE
  2
LAYER
  5
2
330
0
100
AcDbSymbolTable
 70
     1
  0
LAYER
  5
10
330
2
100
AcDbSymbolTableRecord
100
AcDbLayerTableRecord
  2
0
 70
     0
 62
     7
  6
Continuous
370
    -3
390
F
  0
ENDTAB
  0
TABLE
  2
STYLE
  5
3
330
0
100
AcDbSymbolTable
 70
     1
  0
STYLE
  5
11
330
3
100
AcDbSymbolTableRecord
100
AcDbTextStyleTableRecord
  2
Standard
 70
     0
 40
0.0
 41
1.0
 50
0.0
 71
     0
 42
3.0
  3
txt
  4

  0
ENDTAB
  0
TABLE
  2
VIEW
  5
6
330
0
100
AcDbSymbolTable
 70
     0
  0
ENDTAB
  0
TABLE
  2
UCS
  5
7
330
0
100
AcDbSymbolTable
 70
     0
  0
ENDTAB
  0
TABLE
  2
APPID
  5
9
330
0
100
AcDbSymbolTable
 70
     1
  0
APPID
  5
12
330
9
100
AcDbSymbolTableRecord
100
AcDbRegAppTableRecord
  2
ACAD
 70
     0
  0
ENDTAB
  0
TABLE
  2
DIMSTYLE
  5
A
330
0
100
AcDbSymbolTable
 70
     1
100
AcDbDimStyleTable
  0
DIMSTYLE
105
27
330
A
100
AcDbSymbolTableRecord
100
AcDbDimStyleTableRecord
  2
ISO-25
 70
     0
 41
2.5
 42
0.625
 43
3.75
 44
1.25
 73
     0
 74
     0
 77
     1
 78
     8
140
2.5
141
2.5
143
0.0393700787
147
0.625
171
     3
172
     1
178
     0
271
     2
272
     2
274
     3
278
    44
283
     0
284
     8
340
11
  0
ENDTAB
  0
TABLE
  2
BLOCK_RECORD
  5
1
330
0
100
AcDbSymbolTable
 70
     1
  0
BLOCK_RECORD
  5
1F
330
1
100
AcDbSymbolTableRecord
100
AcDbBlockTableRecord
  2
*Model_Space
340
22
  0
BLOCK_RECORD
  5
1B
330
1
100
AcDbSymbolTableRecord
100
AcDbBlockTableRecord
  2
*Paper_Space
340
1E
  0
BLOCK_RECORD
  5
23
330
1
100
AcDbSymbolTableRecord
100
AcDbBlockTableRecord
  2
*Paper_Space0
340
26
  0
ENDTAB
  0
ENDSEC
  0
SECTION
  2
BLOCKS
  0
BLOCK
  5
20
330
1F
100
AcDbEntity
  8
0
100
AcDbBlockBegin
  2
*Model_Space
 70
     0
 10
0.0
 20
0.0
 30
0.0
  3
*Model_Space
  1
*Model_Space
  0
ENDBLK
  5
21
330
1F
100
AcDbEntity
  8
0
100
AcDbBlockEnd
  0
BLOCK
  5
1C
330
1B
100
AcDbEntity
 67
     1
  8
0
100
AcDbBlockBegin
  2
*Paper_Space
 70
     0
 10
0.0
 20
0.0
 30
0.0
  3
*Paper_Space
  1
*Paper_Space
  0
ENDBLK
  5
1D
330
1B
100
AcDbEntity
 67
     1
  8
0
100
AcDbBlockEnd
  0
BLOCK
  5
24
330
23
100
AcDbEntity
  8
0
100
AcDbBlockBegin
  2
*Paper_Space0
 70
     0
 10
0.0
 20
0.0
 30
0.0
  3
*Paper_Space0
  1
*Paper_Space0
  0
ENDBLK
  5
25
330
23
100
AcDbEntity
  8
0
100
AcDbBlockEnd
  0
ENDSEC
  0
SECTION
  2
ENTITIES
  0
LWPOLYLINE
  5
90
330
1F
100
AcDbEntity
  8
0
  6
Continuous
 62
     7
370
    15
100
AcDbPolyline
 90
        3
 70
   128
 43
0.0
 10
5036.0
 20
377.7584121967
 10
5036.1077551802
 20
377.7543247821
 10
5037.6595808848
 20
377.7258910202
  0
CIRCLE
  5
198
330
1F
100
AcDbEntity
  8
0
  6
Continuous
 62
   144
370
     0
100
AcDbCircle
 10
-1550.0
 20
0.0
 30
0.0
 40
7.846199999971532
  0
SPLINE
  5
1A9
330
1F
100
AcDbEntity
  8
0
  6
Continuous
 62
   144
370
     0
100
AcDbSpline
210
0.0
220
0.0
230
1.0
 70
    11
 71
     3
 72
    89
 73
    85
 74
     0
 42
0.000000001
 43
0.00000001
 40
0.0
 40
0.0
 40
0.0
 40
0.0
 40
0.031249999999947
 40
0.031249999999947
 40
0.04687499999992
 40
0.04687499999992
 40
0.062499999999893
 40
0.062499999999893
 40
0.0937499999998734
 40
0.0937499999998734
 40
0.1249999999998538
 40
0.1249999999998538
 40
0.1562499999998343
 40
0.1562499999998343
 40
0.1718749999998232
 40
0.1718749999998232
 40
0.1874999999998122
 40
0.2031249999998011
 40
0.2031249999998011
 40
0.2187499999997901
 40
0.2187499999997901
 40
0.249999999999767
 40
0.249999999999767
 40
0.2812499999997439
 40
0.2812499999997439
 40
0.3124999999997208
 40
0.3124999999997208
 40
0.328124999999715
 40
0.328124999999715
 40
0.3437499999997092
 40
0.3437499999997092
 40
0.3749999999997002
 40
0.3749999999997002
 40
0.4062499999996911
 40
0.4062499999996911
 40
0.4218749999996866
 40
0.4218749999996866
 40
0.4374999999996821
 40
0.4374999999996821
 40
0.4687499999996731
 40
0.4687499999996731
 40
0.4999999999996642
 40
0.4999999999996642
 40
0.5312499999996552
 40
0.5312499999996552
 40
0.5624999999996461
 40
0.5624999999996461
 40
0.5781249999996416
 40
0.5781249999996416
 40
0.5937499999996371
 40
0.5937499999996371
 40
0.6249999999996547
 40
0.6249999999996547
 40
0.6562499999996724
 40
0.6562499999996724
 40
0.6874999999996899
 40
0.6874999999996899
 40
0.7031249999996988
 40
0.7031249999996988
 40
0.7187499999997076
 40
0.7187499999997076
 40
0.7499999999997321
 40
0.7499999999997321
 40
0.7812499999997566
 40
0.7812499999997566
 40
0.7968749999997689
 40
0.7968749999997689
 40
0.8124999999997811
 40
0.8124999999997811
 40
0.8437499999998056
 40
0.8437499999998056
 40
0.8593749999998166
 40
0.8593749999998166
 40
0.8749999999998275
 40
0.8749999999998275
 40
0.9062499999998467
 40
0.9062499999998467
 40
0.9374999999998658
 40
0.9374999999998658
 40
0.9531249999998908
 40
0.9531249999998908
 40
0.9687499999999156
 40
0.9687499999999156
 40
1.0
 40
1.0
 40
1.0
 40
1.0
 10
2750.000000000005
 20
-6.000000000015419
 30
0.0
 10
2749.602945046312
 20
-6.000000000015418
 30
0.0
 10
2749.212651410297
 20
-5.960976610146002
 30
0.0
 10
2748.636908661255
 20
-5.84638965426197
 30
0.0
 10
2748.446622544804
 20
-5.798782019777691
 30
0.0
 10
2748.069373293528
 20
-5.684323614244136
 30
0.0
 10
2747.882034679658
 20
-5.617193932616242
 30
0.0
 10
2747.337318410877
 20
-5.391169247358492
 30
0.0
 10
2746.992947651915
 20
-5.206843022562972
 30
0.0
 10
2746.341213906598
 20
-4.771463340364741
 30
0.0
 10
2746.03312306998
 20
-4.518466160846869
 30
0.0
 10
2745.480647017106
 20
-3.965866568687363
 30
0.0
 10
2745.232504460688
 20
-3.664226155109264
 30
0.0
 10
2744.903517926297
 20
-3.172500942588534
 30
0.0
 10
2744.801573121792
 20
-3.00246885038089
 30
0.0
 10
2744.616601555864
 20
-2.65659266927726
 30
0.0
 10
2744.449363687646
 20
-2.303196523393441
 30
0.0
 10
2744.317154707018
 20
-1.934906343979361
 30
0.0
 10
2744.202756668025
 20
-1.559026277453483
 30
0.0
 10
2744.154269440129
 20
-1.366177355228923
 30
0.0
 10
2744.038486429797
 20
-0.7850995672674349
 30
0.0
 10
2744.000224236609
 20
-0.395393864478817
 30
0.0
 10
2743.999777709957
 20
0.3885588617895565
 30
0.0
 10
2744.038872315566
 20
0.7867977736278807
 30
0.0
 10
2744.192199894571
 20
1.556776137427485
 30
0.0
 10
2744.305638953253
 20
1.931088538613915
 30
0.0
 10
2744.531384584354
 20
2.476480992115081
 30
0.0
 10
2744.61644708466
 20
2.656323329600176
 30
0.0
 10
2744.801997890537
 20
3.003243195888897
 30
0.0
 10
2744.902710556323
 20
3.171083116700271
 30
0.0
 10
2745.228159854056
 20
3.6581488275551
 30
0.0
 10
2745.476669599415
 20
3.961777827775494
 30
0.0
 10
2746.035427006058
 20
4.520880715657871
 30
0.0
 10
2746.337739149609
 20
4.768686610662194
 30
0.0
 10
2746.824549674202
 20
5.094570331244699
 30
0.0
 10
2746.992418122561
 20
5.195503322705651
 30
0.0
 10
2747.339674744758
 20
5.38158648189146
 30
0.0
 10
2747.519314077302
 20
5.466698468720781
 30
0.0
 10
2748.063690638164
 20
5.692546463209504
 30
0.0
 10
2748.43765713627
 20
5.806313327550921
 30
0.0
 10
2749.207730287138
 20
5.960410924057733
 30
0.0
 10
2749.605803109802
 20
5.999847440119475
 30
0.0
 10
2750.38953895816
 20
6.000151655836284
 30
0.0
 10
2750.779446809108
 20
5.962285279154087
 30
0.0
 10
2751.555239532968
 20
5.808408824570735
 30
0.0
 10
2751.933264301196
 20
5.693441296789162
 30
0.0
 10
2752.475016384488
 20
5.46923121297489
 30
0.0
 10
2752.651975330448
 20
5.385685682806069
 30
0.0
 10
2752.99855003856
 20
5.200700058025198
 30
0.0
 10
2753.169033496063
 20
5.098624529974172
 30
0.0
 10
2753.660075699011
 20
4.77062128712205
 30
0.0
 10
2753.961852647646
 20
4.522905143966658
 30
0.0
 10
2754.515449706459
 20
3.970347754470302
 30
0.0
 10
2754.768810991855
 20
3.662184582515773
 30
0.0
 10
2755.20411434012
 20
3.011701865627616
 30
0.0
 10
2755.388787399185
 20
2.667567019597129
 30
0.0
 10
2755.615529257022
 20
2.12239652820747
 30
0.0
 10
2755.682818817387
 20
1.935023682448815
 30
0.0
 10
2755.797426740502
 20
1.558393259551836
 30
0.0
 10
2755.845164261051
 20
1.368323888679044
 30
0.0
 10
2755.960223182468
 20
0.7929449080036645
 30
0.0
 10
2755.999670478553
 20
0.4014810005391831
 30
0.0
 10
2756.000325429181
 20
-0.3915706691806388
 30
0.0
 10
2755.961725492493
 20
-0.7817329719460351
 30
0.0
 10
2755.847623055236
 20
-1.357801136320872
 30
0.0
 10
2755.800152483513
 20
-1.548283554594927
 30
0.0
 10
2755.685868803361
 20
-1.926096245885195
 30
0.0
 10
2755.618949616718
 20
-2.113287663604094
 30
0.0
 10
2755.393583861678
 20
-2.657738005160825
 30
0.0
 10
2755.209598952053
 20
-3.002325209938556
 30
0.0
 10
2754.883159932185
 20
-3.491878943162464
 30
0.0
 10
2754.765173500974
 20
-3.651293636177015
 30
0.0
 10
2754.515351321067
 20
-3.956061950896379
 30
0.0
 10
2754.383827950352
 20
-4.101241532692331
 30
0.0
 10
2753.969916178924
 20
-4.515781655794374
 30
0.0
 10
2753.668377513274
 20
-4.764350307488036
 30
0.0
 10
2753.012112619011
 20
-5.204152669048901
 30
0.0
 10
2752.665111976104
 20
-5.389788658824333
 30
0.0
 10
2752.12401309603
 20
-5.614866808396204
 30
0.0
 10
2751.93982713421
 20
-5.681174656249288
 30
0.0
 10
2751.563645202575
 20
-5.79600625136787
 30
0.0
 10
2751.370721880413
 20
-5.844671120423881
 30
0.0
 10
2750.78933983185
 20
-5.960971275446057
 30
0.0
 10
2750.397054953701
 20
-6.000000000015419
 30
0.0
 10
2750.000000000005
 20
-6.000000000015419
 30
0.0
  0
SPLINE
  5
1AA
330
1F
100
AcDbEntity
  8
0
  6
Continuous
 62
   144
370
     0
100
AcDbSpline
210
0.0
220
0.0
230
1.0
 70
    11
 71
     3
 72
    89
 73
    85
 74
     0
 42
0.000000001
 43
0.00000001
 40
0.0
 40
0.0
 40
0.0
 40
0.0
 40
0.0312499999999235
 40
0.0312499999999235
 40
0.0468749999998852
 40
0.0468749999998852
 40
0.0624999999998469
 40
0.0624999999998469
 40
0.0937499999998284
 40
0.0937499999998284
 40
0.1249999999998098
 40
0.1249999999998098
 40
0.1562499999997913
 40
0.1562499999997913
 40
0.171874999999782
 40
0.171874999999782
 40
0.1874999999997727
 40
0.2031249999997635
 40
0.2031249999997635
 40
0.2187499999997542
 40
0.2187499999997542
 40
0.2499999999997358
 40
0.2499999999997358
 40
0.2812499999997173
 40
0.2812499999997173
 40
0.3124999999996988
 40
0.3124999999996988
 40
0.3281249999996906
 40
0.3281249999996906
 40
0.3437499999996824
 40
0.3437499999996824
 40
0.3749999999996995
 40
0.3749999999996995
 40
0.4062499999997167
 40
0.4062499999997167
 40
0.4218749999997253
 40
0.4218749999997253
 40
0.4374999999997338
 40
0.4374999999997338
 40
0.468749999999751
 40
0.468749999999751
 40
0.4999999999997681
 40
0.4999999999997681
 40
0.5312499999997852
 40
0.5312499999997852
 40
0.5624999999998023
 40
0.5624999999998023
 40
0.5781249999998109
 40
0.5781249999998109
 40
0.5937499999998195
 40
0.5937499999998195
 40
0.6249999999998339
 40
0.6249999999998339
 40
0.6562499999998485
 40
0.6562499999998485
 40
0.6874999999998631
 40
0.6874999999998631
 40
0.7031249999998703
 40
0.7031249999998703
 40
0.7187499999998775
 40
0.7187499999998775
 40
0.7499999999998783
 40
0.7499999999998783
 40
0.7812499999998791
 40
0.7812499999998791
 40
0.79687499999988
 40
0.79687499999988
 40
0.8124999999998809
 40
0.8124999999998809
 40
0.8437499999999075
 40
0.8437499999999075
 40
0.8593749999999221
 40
0.8593749999999221
 40
0.8749999999999366
 40
0.8749999999999366
 40
0.9062499999999658
 40
0.9062499999999658
 40
0.937499999999995
 40
0.937499999999995
 40
0.9531249999999803
 40
0.9531249999999803
 40
0.9687499999999657
 40
0.9687499999999657
 40
1.0
 40
1.0
 40
1.0
 40
1.0
 10
4040.000000000007
 20
-6.500000000015238
 30
0.0
 10
4039.569730150255
 20
-6.500000000015235
 30
0.0
 10
4039.14681167055
 20
-6.457700165036836
 30
0.0
 10
4038.52297223218
 20
-6.333509643947392
 30
0.0
 10
4038.316794976
 20
-6.281913377339086
 30
0.0
 10
4037.908049934882
 20
-6.157869741903256
 30
0.0
 10
4037.705102976729
 20
-6.08512916018442
 30
0.0
 10
4037.115041298897
 20
-5.840240600064388
 30
0.0
 10
4036.742021902567
 20
-5.640548312286731
 30
0.0
 10
4036.036069842691
 20
-5.168893910166479
 30
0.0
 10
4035.702444511941
 20
-4.89490084139953
 30
0.0
 10
4035.104119200196
 20
-4.296439062078504
 30
0.0
 10
4034.835339521255
 20
-3.969741141039793
 30
0.0
 10
4034.478931694955
 20
-3.437069306536707
 30
0.0
 10
4034.368532034934
 20
-3.252950419343464
 30
0.0
 10
4034.168170719972
 20
-2.878348203267821
 30
0.0
 10
4033.986993115827
 20
-2.495567110001038
 30
0.0
 10
4033.84372708334
 20
-2.096571681442815
 30
0.0
 10
4033.719748799153
 20
-1.689305743213318
 30
0.0
 10
4033.66719359722
 20
-1.480320282262074
 30
0.0
 10
4033.541724936008
 20
-0.8507781677009533
 30
0.0
 10
4033.500245819911
 20
-0.4285179703953306
 30
0.0
 10
4033.499756337913
 20
0.4210277734326192
 30
0.0
 10
4033.542139452628
 20
0.8526001659824143
 30
0.0
 10
4033.708301232532
 20
1.686836243320557
 30
0.0
 10
4033.831233958481
 20
2.092400979780797
 30
0.0
 10
4034.075892505755
 20
2.683356942396196
 30
0.0
 10
4034.168059192008
 20
2.878168247292752
 30
0.0
 10
4034.36903909438
 20
3.25386928548572
 30
0.0
 10
4034.478127418534
 20
3.435644607419356
 30
0.0
 10
4034.830658307795
 20
3.963184220734196
 30
0.0
 10
4035.100074081401
 20
4.292295685858734
 30
0.0
 10
4035.705013238279
 20
4.897567251119846
 30
0.0
 10
4036.032367954724
 20
5.165932606628947
 30
0.0
 10
4036.559667171729
 20
5.518953792731306
 30
0.0
 10
4036.741522881028
 20
5.628310978297072
 30
0.0
 10
4037.117781074458
 20
5.829954688376294
 30
0.0
 10
4037.31231579631
 20
5.922130052170599
 30
0.0
 10
4037.901883714213
 20
6.166765034142031
 30
0.0
 10
4038.307012586118
 20
6.290062039368767
 30
0.0
 10
4039.14154576105
 20
6.45710021312274
 30
0.0
 10
4039.572850966729
 20
6.499832286545957
 30
0.0
 10
4040.422029445248
 20
6.500166705339231
 30
0.0
 10
4040.844581290732
 20
6.459135231993217
 30
0.0
 10
4041.685499055833
 20
6.292284039569924
 30
0.0
 10
4042.094731899068
 20
6.16777376603737
 30
0.0
 10
4042.681655855432
 20
5.924825365563087
 30
0.0
 10
4042.873386401907
 20
5.834291402136996
 30
0.0
 10
4043.248924453164
 20
5.633808257062367
 30
0.0
 10
4043.433622642551
 20
5.523192173950317
 30
0.0
 10
4043.965233268191
 20
5.168035419432196
 30
0.0
 10
4044.292055361285
 20
4.899771462314941
 30
0.0
 10
4044.891777888588
 20
4.30116364441241
 30
0.0
 10
4045.166167746481
 20
3.967403086241244
 30
0.0
 10
4045.637554508389
 20
3.263059239189459
 30
0.0
 10
4045.837655589625
 20
2.890289957271475
 30
0.0
 10
4046.083423644071
 20
2.299446992611213
 30
0.0
 10
4046.156319070128
 20
2.096468488144911
 30
0.0
 10
4046.280455694728
 20
1.688585467658444
 30
0.0
 10
4046.332179549146
 20
1.482702796326002
 30
0.0
 10
4046.456871037411
 20
0.8593242145078557
 30
0.0
 10
4046.499658771437
 20
0.4345919298004626
 30
0.0
 10
4046.500337173616
 20
-0.424324074130787
 30
0.0
 10
4046.458526614414
 20
-0.8470247908244917
 30
0.0
 10
4046.334842617005
 20
-1.471316850380012
 30
0.0
 10
4046.283378311268
 20
-1.67777599109213
 30
0.0
 10
4046.15944717464
 20
-2.087339402599314
 30
0.0
 10
4046.086970539536
 20
-2.289985584498876
 30
0.0
 10
4045.842863188242
 20
-2.879570639629947
 30
0.0
 10
4045.643550696274
 20
-3.252850330214923
 30
0.0
 10
4045.289762780419
 20
-3.783329837603083
 30
0.0
 10
4045.161847867314
 20
-3.956110312600513
 30
0.0
 10
4044.891424825767
 20
-4.285959097403962
 30
0.0
 10
4044.749032977862
 20
-4.443129097754493
 30
0.0
 10
4044.30081868866
 20
-4.892013923042613
 30
0.0
 10
4043.974167977058
 20
-5.161328440231489
 30
0.0
 10
4043.262802893504
 20
-5.638035088213481
 30
0.0
 10
4042.887593072511
 20
-5.838746519823594
 30
0.0
 10
4042.301401331923
 20
-6.082626125151855
 30
0.0
 10
4042.101809622839
 20
-6.15449766838824
 30
0.0
 10
4041.694031635647
 20
-6.278988935989768
 30
0.0
 10
4041.484904344537
 20
-6.331735462568992
 30
0.0
 10
4040.855247006891
 20
-6.457694021712626
 30
0.0
 10
4040.43026984976
 20
-6.500000000015241
 30
0.0
 10
4040.000000000007
 20
-6.500000000015238
 30
0.0
  0
SPLINE
  5
1AC
330
1F
100
AcDbEntity
  8
0
  6
Continuous
 62
   144
370
     0
100
AcDbSpline
210
0.0
220
0.0
230
1.0
 70
    24
 71
     3
 72
    10
 73
     6
 74
     0
 42
0.000000001
 43
0.00000001
 40
0.0
 40
0.0
 40
0.0
 40
0.0
 40
0.5
 40
0.5
 40
1.0
 40
1.0
 40
1.0
 40
1.0
 10
-1890.907506155621
 20
-8.500050000002188
 30
0.0
 10
-1891.308907601044
 20
-7.80480230229866
 30
0.0
 10
-1891.713241175524
 20
-7.104476008094485
 30
0.0
 10
-1892.530361764414
 20
-5.689181632226346
 30
0.0
 10
-1892.943211969373
 20
-4.974104101320147
 30
0.0
 10
-1893.361259233434
 20
-4.250025000002702
 30
0.0
  0
SPLINE
  5
1AD
330
1F
100
AcDbEntity
  8
0
  6
Continuous
 62
   144
370
     0
100
AcDbSpline
210
0.0
220
0.0
230
1.0
 70
    24
 71
     3
 72
    12
 73
     8
 74
     0
 42
0.000000001
 43
0.00000001
 40
0.0
 40
0.0
 40
0.0
 40
0.0
 40
0.2500000000000272
 40
0.2500000000000272
 40
0.5000000000000544
 40
0.5000000000000544
 40
1.0
 40
1.0
 40
1.0
 40
1.0
 10
-1893.361259233434
 20
-4.250025000002703
 30
0.0
 10
-1893.569501472402
 20
-3.889338861827493
 30
0.0
 10
-1893.778677495352
 20
-3.527035362354232
 30
0.0
 10
-1894.192471340999
 20
-2.810323397832531
 30
0.0
 10
-1894.397984289363
 20
-2.454364529653264
 30
0.0
 10
-1895.010873047252
 20
-1.392810061602396
 30
0.0
 10
-1895.414612972147
 20
-0.6935119986400955
 30
0.0
 10
-1895.815012311249
 20
0.0000000000016244
 30
0.0
  0
SPLINE
  5
1AE
330
1F
100
AcDbEntity
  8
0
  6
Continuous
 62
   144
370
     0
100
AcDbSpline
210
0.0
220
0.0
230
1.0
 70
    24
 71
     3
 72
    10
 73
     6
 74
     0
 42
0.000000001
 43
0.00000001
 40
0.0
 40
0.0
 40
0.0
 40
0.0
 40
0.5
 40
0.5
 40
1.0
 40
1.0
 40
1.0
 40
1.0
 10
-1895.815012311249
 20
-0.0000000000015132
 30
0.0
 10
-1895.413610865977
 20
0.6952476974421382
 30
0.0
 10
-1895.009277291592
 20
1.395573991482705
 30
0.0
 10
-1894.192156702722
 20
2.810868367316196
 30
0.0
 10
-1893.779306497686
 20
3.525945898353707
 30
0.0
 10
-1893.361259233438
 20
4.250024999995816
 30
0.0
  0
SPLINE
  5
1AF
330
1F
100
AcDbEntity
  8
0
  6
Continuous
 62
   144
370
     0
100
AcDbSpline
210
0.0
220
0.0
230
1.0
 70
    24
 71
     3
 72
    12
 73
     8
 74
     0
 42
0.000000001
 43
0.00000001
 40
0.0
 40
0.0
 40
0.0
 40
0.0
 40
0.2499999999999835
 40
0.2499999999999835
 40
0.4999999999999669
 40
0.4999999999999669
 40
1.0
 40
1.0
 40
1.0
 40
1.0
 10
-1893.361259233438
 20
4.250024999995815
 30
0.0
 10
-1893.153016994342
 20
4.610711138392778
 30
0.0
 10
-1892.943840971464
 20
4.973014637742097
 30
0.0
 10
-1892.530047125882
 20
5.689726602150813
 30
0.0
 10
-1892.324534177539
 20
6.045685470293875
 30
0.0
 10
-1891.711645419683
 20
7.107239938287952
 30
0.0
 10
-1891.30790549477
 20
7.806538001280845
 30
0.0
 10
-1890.907506155625
 20
8.500049999997284
 30
0.0
  0
SPLINE
  5
1B0
330
1F
100
AcDbEntity
  8
0
  6
Continuous
 62
   144
370
     0
100
AcDbSpline
210
0.0
220
0.0
230
1.0
 70
     8
 71
     3
 72
    10
 73
     6
 74
     0
 42
0.000000001
 43
0.00000001
 40
0.0
 40
0.0
 40
0.0
 40
0.0
 40
0.5
 40
0.5
 40
1.0
 40
1.0
 40
1.0
 40
1.0
 10
-4861.999999999998
 20
46.3546941556366
 30
0.0
 10
-4861.304752302555
 20
46.58644338811781
 30
0.0
 10
-4860.604426008514
 20
46.77737043742314
 30
0.0
 10
-4859.18913163268
 20
47.04153262444942
 30
0.0
 10
-4858.474054101644
 20
47.11388800001109
 30
0.0
 10
-4857.749975000001
 20
47.11388800001122
 30
0.0
  0
SPLINE
  5
1B3
330
1F
100
AcDbEntity
  8
0
  6
Continuous
 62
   144
370
     0
100
AcDbSpline
210
0.0
220
0.0
230
1.0
 70
     8
 71
     3
 72
    10
 73
     6
 74
     0
 42
0.000000001
 43
0.00000001
 40
0.0
 40
0.0
 40
0.0
 40
0.0
 40
0.5
 40
0.5
 40
1.0
 40
1.0
 40
1.0
 40
1.0
 10
-4862.0
 20
46.35469415563726
 30
0.0
 10
-4862.695247697444
 20
46.58644338811848
 30
0.0
 10
-4863.395573991485
 20
46.77737043742376
 30
0.0
 10
-4864.810868367318
 20
47.04153262444994
 30
0.0
 10
-4865.525945898356
 20
47.11388800001157
 30
0.0
 10
-4866.250024999998
 20
47.11388800001162
 30
0.0
  0
SPLINE
  5
1B4
330
1F
100
AcDbEntity
  8
0
  6
Continuous
 62
   144
370
     0
100
AcDbSpline
210
0.0
220
0.0
230
1.0
 70
     8
 71
     3
 72
    12
 73
     8
 74
     0
 42
0.000000001
 43
0.00000001
 40
0.0
 40
0.0
 40
0.0
 40
0.0
 40
0.2499999999998852
 40
0.2499999999998852
 40
0.4999999999997704
 40
0.4999999999997704
 40
1.0
 40
1.0
 40
1.0
 40
1.0
 10
-4866.250024999998
 20
47.11388800001162
 30
0.0
 10
-4866.610711138396
 20
47.11388800001165
 30
0.0
 10
-4866.973014637746
 20
47.09594346732477
 30
0.0
 10
-4867.689726602153
 20
47.02650023957091
 30
0.0
 10
-4868.045685470296
 20
46.97506829422109
 30
0.0
 10
-4869.107239938289
 20
46.77670071491989
 30
0.0
 10
-4869.80653800128
 20
46.58586482187597
 30
0.0
 10
-4870.50005
 20
46.35469415563717
 30
0.0
  0
SPLINE
  5
1B6
330
1F
100
AcDbEntity
  8
0
  6
Continuous
 62
   144
370
     0
100
AcDbSpline
210
0.0
220
0.0
230
1.0
 70
     8
 71
     3
 72
    10
 73
     6
 74
     0
 42
0.000000001
 43
0.00000001
 40
0.0
 40
0.0
 40
0.0
 40
0.0
 40
0.5
 40
0.5
 40
1.0
 40
1.0
 40
1.0
 40
1.0
 10
-4866.250024999997
 20
39.99999999996001
 30
0.0
 10
-4866.975314597372
 20
39.99999999995984
 30
0.0
 10
-4867.690880336977
 20
40.0725798639099
 30
0.0
 10
-4869.106046873637
 20
40.33690354762661
 30
0.0
 10
-4869.805765781602
 20
40.52776577554518
 30
0.0
 10
-4870.500049901908
 20
40.75919381164211
 30
0.0
  0
SPLINE
  5
1B7
330
1F
100
AcDbEntity
  8
0
  6
Continuous
 62
   144
370
     0
100
AcDbSpline
210
0.0
220
0.0
230
1.0
 70
     8
 71
     3
 72
    10
 73
     6
 74
     0
 42
0.000000001
 43
0.00000001
 40
0.0
 40
0.0
 40
0.0
 40
0.0
 40
0.5
 40
0.5
 40
1.0
 40
1.0
 40
1.0
 40
1.0
 10
-4861.999999962241
 20
40.75919385692411
 30
0.0
 10
-4862.694284101375
 20
40.52776580900301
 30
0.0
 10
-4863.394003045034
 20
40.33690356630414
 30
0.0
 10
-4864.80916962133
 20
40.07257986821063
 30
0.0
 10
-4865.524735381351
 20
39.99999999996018
 30
0.0
 10
-4866.250024999997
 20
39.99999999996001
 30
0.0
  0
CIRCLE
  5
1B8
330
1F
100
AcDbEntity
  8
0
  6
Continuous
 62
   144
370
     0
100
AcDbCircle
 10
1869.3006209836
 20
-181.0223947069
 30
0.0
 40
17.99999999999945
  0
CIRCLE
  5
1EB
330
1F
100
AcDbEntity
  8
0
  6
Continuous
 62
   144
370
     0
100
AcDbCircle
 10
1869.3006209836
 20
181.0223947069
 30
0.0
 40
17.99999999999945
  0
CIRCLE
  5
1EC
330
1F
100
AcDbEntity
  8
0
  6
Continuous
 62
   144
370
     0
100
AcDbCircle
 10
1729.8262881317
 20
168.9017315441
 30
0.0
 40
18.00000000000065
  0
CIRCLE
  5
1ED
330
1F
100
AcDbEntity
  8
0
  6
Continuous
 62
   144
370
     0
100
AcDbCircle
 10
1729.8262881317
 20
-168.9017315441
 30
0.0
 40
18.00000000000065
  0
SPLINE
  5
1F3
330
1F
100
AcDbEntity
  8
0
  6
Continuous
 62
   144
370
     0
100
AcDbSpline
210
0.0
220
0.0
230
1.0
 70
     8
 71
     3
 72
    12
 73
     8
 74
     0
 42
0.000000001
 43
0.00000001
 40
0.0
 40
0.0
 40
0.0
 40
0.0
 40
0.2133042796543905
 40
0.4265541574785092
 40
0.6412132369598635
 40
0.8568129321649499
 40
1.0
 40
1.0
 40
1.0
 40
1.0
 10
-1663.999999999994
 20
-37.59986702105673
 30
0.0
 10
-1663.385486662637
 20
-37.6088736730544
 30
0.0
 10
-1662.156616715442
 20
-37.62688467996341
 30
0.0
 10
-1660.512772215287
 20
-37.75318176291586
 30
0.0
 10
-1659.277230070389
 20
-37.89050890245854
 30
0.0
 10
-1658.568759533168
 20
-37.98993457780125
 30
0.0
 10
-1658.56878192517
 20
-37.99007869009763
 30
0.0
 10
-1658.568790861523
 20
-37.99013620341551
 30
0.0
  0
SPLINE
  5
1F4
330
1F
100
AcDbEntity
  8
0
  6
Continuous
 62
   144
370
     0
100
AcDbSpline
210
0.0
220
0.0
230
1.0
 70
     8
 71
     3
 72
    12
 73
     8
 74
     0
 42
0.000000001
 43
0.00000001
 40
0.0
 40
0.0
 40
0.0
 40
0.0
 40
0.2090282272987357
 40
0.4216196285725594
 40
0.6360883047757531
 40
0.8515674712511678
 40
1.0
 40
1.0
 40
1.0
 40
1.0
 10
-1669.494812096095
 20
-37.99926850707529
 30
0.0
 10
-1669.439066255197
 20
-37.99098757077864
 30
0.0
 10
-1669.326624308778
 20
-37.97428453822295
 30
0.0
 10
-1668.406168037206
 20
-37.85108437220875
 30
0.0
 10
-1667.032514442147
 20
-37.71194651467761
 30
0.0
 10
-1665.473177437136
 20
-37.61486702240666
 30
0.0
 10
-1664.426797926191
 20
-37.60421270902864
 30
0.0
 10
-1663.999999999994
 20
-37.59986702105672
 30
0.0
  0
SPLINE
  5
1F5
330
1F
100
AcDbEntity
  8
0
  6
Continuous
 62
   144
370
     0
100
AcDbSpline
210
0.0
220
0.0
230
1.0
 70
     8
 71
     3
 72
    12
 73
     8
 74
     0
 42
0.000000001
 43
0.00000001
 40
0.0
 40
0.0
 40
0.0
 40
0.0
 40
0.2133042796543656
 40
0.4265541574785076
 40
0.6412132369598624
 40
0.8568129321649494
 40
1.0
 40
1.0
 40
1.0
 40
1.0
 10
-1663.999999999994
 20
37.59986702102613
 30
0.0
 10
-1664.61451333735
 20
37.60887367302382
 30
0.0
 10
-1665.843383284545
 20
37.62688467993281
 30
0.0
 10
-1667.487227784701
 20
37.75318176288527
 30
0.0
 10
-1668.722769929599
 20
37.89050890242792
 30
0.0
 10
-1669.43124046682
 20
37.98993457777065
 30
0.0
 10
-1669.431218074818
 20
37.99007869006702
 30
0.0
 10
-1669.431209138465
 20
37.9901362033849
 30
0.0
  0
SPLINE
  5
1F6
330
1F
100
AcDbEntity
  8
0
  6
Continuous
 62
   144
370
     0
100
AcDbSpline
210
0.0
220
0.0
230
1.0
 70
     8
 71
     3
 72
    12
 73
     8
 74
     0
 42
0.000000001
 43
0.00000001
 40
0.0
 40
0.0
 40
0.0
 40
0.0
 40
0.2090282272987746
 40
0.4216196285725737
 40
0.636088304775774
 40
0.8515674712511763
 40
0.9999999999999999
 40
0.9999999999999999
 40
0.9999999999999999
 40
0.9999999999999999
 10
-1658.505187903892
 20
37.99926850704469
 30
0.0
 10
-1658.56093374479
 20
37.99098757074804
 30
0.0
 10
-1658.673375691208
 20
37.97428453819238
 30
0.0
 10
-1659.593831962781
 20
37.85108437217812
 30
0.0
 10
-1660.967485557841
 20
37.71194651464702
 30
0.0
 10
-1662.526822562852
 20
37.61486702237605
 30
0.0
 10
-1663.573202073797
 20
37.60421270899805
 30
0.0
 10
-1663.999999999994
 20
37.59986702102612
 30
0.0
  0
SPLINE
  5
1F7
330
1F
100
AcDbEntity
  8
0
  6
Continuous
 62
   144
370
     0
100
AcDbSpline
210
0.0
220
0.0
230
1.0
 70
    11
 71
     3
 72
    84
 73
    80
 74
     0
 42
0.000000001
 43
0.00000001
 40
0.0
 40
0.0
 40
0.0
 40
0.0
 40
0.0312500000000113
 40
0.0312500000000113
 40
0.0468750000000165
 40
0.0468750000000165
 40
0.0625000000000216
 40
0.0625000000000216
 40
0.09375000000003
 40
0.09375000000003
 40
0.1250000000000383
 40
0.1250000000000383
 40
0.1562500000000467
 40
0.1562500000000467
 40
0.187500000000055
 40
0.187500000000055
 40
0.2031250000000493
 40
0.2031250000000493
 40
0.2187500000000435
 40
0.2187500000000435
 40
0.2500000000000508
 40
0.2500000000000508
 40
0.2812500000000582
 40
0.2812500000000582
 40
0.3125000000000655
 40
0.3125000000000655
 40
0.3281250000000682
 40
0.3281250000000682
 40
0.3437500000000709
 40
0.3437500000000709
 40
0.3750000000000737
 40
0.3750000000000737
 40
0.4062500000000764
 40
0.4062500000000764
 40
0.4218750000000738
 40
0.4218750000000738
 40
0.4375000000000711
 40
0.4375000000000711
 40
0.4687500000000658
 40
0.4687500000000658
 40
0.5000000000000604
 40
0.5000000000000604
 40
0.531250000000055
 40
0.531250000000055
 40
0.5625000000000495
 40
0.5625000000000495
 40
0.5781250000000469
 40
0.5781250000000469
 40
0.5937500000000442
 40
0.5937500000000442
 40
0.6250000000000413
 40
0.6250000000000413
 40
0.6562500000000385
 40
0.6562500000000385
 40
0.6875000000000356
 40
0.6875000000000356
 40
0.7031250000000243
 40
0.7031250000000243
 40
0.718750000000013
 40
0.718750000000013
 40
0.7500000000000093
 40
0.7500000000000093
 40
0.7812500000000057
 40
0.7812500000000057
 40
0.7968750000000044
 40
0.7968750000000044
 40
0.8125000000000032
 40
0.8125000000000032
 40
0.8437500000000027
 40
0.8437500000000027
 40
0.8750000000000021
 40
0.8750000000000021
 40
0.9062500000000017
 40
0.9062500000000017
 40
0.9375000000000011
 40
0.9375000000000011
 40
0.9687500000000006
 40
0.9687500000000006
 40
1.0
 40
1.0
 40
1.0
 40
1.0
 10
-1719.499999999994
 20
-0.0000000000153022
 30
0.0
 10
-1719.499999999994
 20
0.3638677663703542
 30
0.0
 10
-1719.464247671268
 20
0.7215603564468833
 30
0.0
 10
-1719.359250883657
 20
1.249236949571101
 30
0.0
 10
-1719.315626507276
 20
1.42364123460467
 30
0.0
 10
-1719.210741028672
 20
1.76941161458234
 30
0.0
 10
-1719.149217131065
 20
1.941143905929378
 30
0.0
 10
-1718.942044221848
 20
2.440513432699555
 30
0.0
 10
-1718.773077807331
 20
2.75622969002018
 30
0.0
 10
-1718.373965874491
 20
3.353728729005952
 30
0.0
 10
-1718.141978926605
 20
3.636255490719008
 30
0.0
 10
-1717.635276332473
 20
4.142838327617207
 30
0.0
 10
-1717.358711062891
 20
4.370329818066983
 30
0.0
 10
-1716.757690892758
 20
4.772406485481383
 30
0.0
 10
-1716.438297149408
 20
4.942970565048348
 30
0.0
 10
-1715.94211688538
 20
5.14881003265044
 30
0.0
 10
-1715.773325644616
 20
5.209389012656695
 30
0.0
 10
-1715.428822571187
 20
5.314215256000691
 30
0.0
 10
-1715.252098855367
 20
5.358639744383766
 30
0.0
 10
-1714.719478185222
 20
5.464744912284063
 30
0.0
 10
-1714.362311001533
 20
5.499796432032168
 30
0.0
 10
-1713.643896038677
 20
5.500201816694018
 30
0.0
 10
-1713.278959264187
 20
5.464389577226695
 30
0.0
 10
-1712.573217748787
 20
5.323884446721481
 30
0.0
 10
-1712.230147324433
 20
5.219931205510961
 30
0.0
 10
-1711.730299062855
 20
5.013080163602649
 30
0.0
 10
-1711.565437353438
 20
4.935122773303919
 30
0.0
 10
-1711.247332007668
 20
4.765013220508459
 30
0.0
 10
-1711.09344061857
 20
4.672682386901779
 30
0.0
 10
-1710.646877269854
 20
4.374329715906826
 30
0.0
 10
-1710.368694075574
 20
4.146689063834238
 30
0.0
 10
-1709.855849571439
 20
3.634202819652964
 30
0.0
 10
-1709.628618146499
 20
3.35696570086534
 30
0.0
 10
-1709.329867363303
 20
2.910654679297473
 30
0.0
 10
-1709.237352526784
 20
2.756770778343455
 30
0.0
 10
-1709.066811977436
 20
2.438493799974031
 30
0.0
 10
-1708.988771058497
 20
2.273770531754829
 30
0.0
 10
-1708.781711176958
 20
1.774613619991025
 30
0.0
 10
-1708.677460747272
 20
1.431802558048555
 30
0.0
 10
-1708.536279353432
 20
0.7261124970456072
 30
0.0
 10
-1708.50013773185
 20
0.3612659171299899
 30
0.0
 10
-1708.499863072235
 20
-0.357059949234279
 30
0.0
 10
-1708.534567006905
 20
-0.7143615548730429
 30
0.0
 10
-1708.67550711172
 20
-1.425147611928856
 30
0.0
 10
-1708.780922853302
 20
-1.771892734120772
 30
0.0
 10
-1708.986412883074
 20
-2.268487767698576
 30
0.0
 10
-1709.062978305078
 20
-2.4306837306114
 30
0.0
 10
-1709.232490239494
 20
-2.748318994929122
 30
0.0
 10
-1709.326026671184
 20
-2.904577309954838
 30
0.0
 10
-1709.626849976906
 20
-3.354987777477024
 30
0.0
 10
-1709.854005416764
 20
-3.631700710820674
 30
0.0
 10
-1710.360522687623
 20
-4.139169727119203
 30
0.0
 10
-1710.643054549028
 20
-4.371466464790617
 30
0.0
 10
-1711.239601390448
 20
-4.770639509539564
 30
0.0
 10
-1711.555090591588
 20
-4.939889623199822
 30
0.0
 10
-1712.05464008605
 20
-5.147630297672883
 30
0.0
 10
-1712.226385693285
 20
-5.209305950390949
 30
0.0
 10
-1712.571732410113
 20
-5.314379350915674
 30
0.0
 10
-1712.745982159041
 20
-5.358132037037652
 30
0.0
 10
-1713.273372324494
 20
-5.463567598898195
 30
0.0
 10
-1713.631689608371
 20
-5.499685026312356
 30
0.0
 10
-1714.358842508726
 20
-5.500310899135417
 30
0.0
 10
-1714.716476199812
 20
-5.464922135282952
 30
0.0
 10
-1715.24437199839
 20
-5.36038397431892
 30
0.0
 10
-1715.418901077303
 20
-5.316898377964329
 30
0.0
 10
-1715.765022319124
 20
-5.212234150703556
 30
0.0
 10
-1715.936702271105
 20
-5.150885725758999
 30
0.0
 10
-1716.43596732506
 20
-4.944271531554216
 30
0.0
 10
-1716.751857518489
 20
-4.775616342236098
 30
0.0
 10
-1717.350070986838
 20
-4.376785993559684
 30
0.0
 10
-1717.632626783043
 20
-4.145152320831921
 30
0.0
 10
-1718.139507896102
 20
-3.639057499664451
 30
0.0
 10
-1718.367346411936
 20
-3.362627915310672
 30
0.0
 10
-1718.770318719471
 20
-2.761347586470969
 30
0.0
 10
-1718.94077975538
 20
-2.442736562101303
 30
0.0
 10
-1719.215840528489
 20
-1.7813685986756
 30
0.0
 10
-1719.322063220203
 20
-1.434221624621747
 30
0.0
 10
-1719.464242980391
 20
-0.723461982138395
 30
0.0
 10
-1719.499999999994
 20
-0.3638677664008201
 30
0.0
 10
-1719.499999999994
 20
-0.0000000000153021
 30
0.0
  0
SPLINE
  5
207
330
1F
100
AcDbEntity
  8
0
  6
Continuous
 62
   144
370
     0
100
AcDbSpline
210
0.0
220
0.0
230
1.0
 70
     8
 71
     3
 72
    12
 73
     8
 74
     0
 42
0.000000001
 43
0.00000001
 40
0.0
 40
0.0
 40
0.0
 40
0.0
 40
0.2133042796543905
 40
0.4265541574785092
 40
0.6412132369598635
 40
0.8568129321649499
 40
1.0
 40
1.0
 40
1.0
 40
1.0
 10
1664.000000000006
 20
37.59986702102613
 30
0.0
 10
1663.385486662649
 20
37.6088736730238
 30
0.0
 10
1662.156616715454
 20
37.62688467993281
 30
0.0
 10
1660.512772215299
 20
37.75318176288526
 30
0.0
 10
1659.277230070401
 20
37.89050890242793
 30
0.0
 10
1658.568759533179
 20
37.98993457777065
 30
0.0
 10
1658.568781925182
 20
37.99007869006702
 30
0.0
 10
1658.568790861535
 20
37.99013620338491
 30
0.0
  0
SPLINE
  5
208
330
1F
100
AcDbEntity
  8
0
  6
Continuous
 62
   144
370
     0
100
AcDbSpline
210
0.0
220
0.0
230
1.0
 70
     8
 71
     3
 72
    12
 73
     8
 74
     0
 42
0.000000001
 43
0.00000001
 40
0.0
 40
0.0
 40
0.0
 40
0.0
 40
0.209028227298739
 40
0.4216196285725617
 40
0.6360883047757546
 40
0.8515674712511684
 40
1.0
 40
1.0
 40
1.0
 40
1.0
 10
1669.494812096108
 20
37.9992685070447
 30
0.0
 10
1669.43906625521
 20
37.99098757074804
 30
0.0
 10
1669.326624308791
 20
37.97428453819237
 30
0.0
 10
1668.406168037217
 20
37.85108437217813
 30
0.0
 10
1667.032514442159
 20
37.71194651464702
 30
0.0
 10
1665.473177437147
 20
37.61486702237603
 30
0.0
 10
1664.426797926203
 20
37.60421270899806
 30
0.0
 10
1664.000000000006
 20
37.59986702102612
 30
0.0
  0
SPLINE
  5
209
330
1F
100
AcDbEntity
  8
0
  6
Continuous
 62
   144
370
     0
100
AcDbSpline
210
0.0
220
0.0
230
1.0
 70
     8
 71
     3
 72
    12
 73
     8
 74
     0
 42
0.000000001
 43
0.00000001
 40
0.0
 40
0.0
 40
0.0
 40
0.0
 40
0.2133042796543656
 40
0.4265541574785076
 40
0.6412132369598624
 40
0.8568129321649494
 40
1.0
 40
1.0
 40
1.0
 40
1.0
 10
1664.000000000006
 20
-37.59986702105673
 30
0.0
 10
1664.614513337362
 20
-37.60887367305441
 30
0.0
 10
1665.843383284557
 20
-37.62688467996342
 30
0.0
 10
1667.487227784713
 20
-37.75318176291587
 30
0.0
 10
1668.722769929611
 20
-37.89050890245853
 30
0.0
 10
1669.431240466832
 20
-37.98993457780125
 30
0.0
 10
1669.43121807483
 20
-37.99007869009761
 30
0.0
 10
1669.431209138477
 20
-37.9901362034155
 30
0.0
  0
SPLINE
  5
20A
330
1F
100
AcDbEntity
  8
0
  6
Continuous
 62
   144
370
     0
100
AcDbSpline
210
0.0
220
0.0
230
1.0
 70
     8
 71
     3
 72
    12
 73
     8
 74
     0
 42
0.000000001
 43
0.00000001
 40
0.0
 40
0.0
 40
0.0
 40
0.0
 40
0.2090282272987746
 40
0.4216196285725737
 40
0.636088304775774
 40
0.8515674712511763
 40
1.0
 40
1.0
 40
1.0
 40
1.0
 10
1658.505187903904
 20
-37.99926850707529
 30
0.0
 10
1658.560933744802
 20
-37.99098757077864
 30
0.0
 10
1658.67337569122
 20
-37.97428453822298
 30
0.0
 10
1659.593831962794
 20
-37.85108437220872
 30
0.0
 10
1660.967485557853
 20
-37.71194651467761
 30
0.0
 10
1662.526822562864
 20
-37.61486702240663
 30
0.0
 10
1663.573202073808
 20
-37.60421270902864
 30
0.0
 10
1664.000000000006
 20
-37.59986702105672
 30
0.0
  0
SPLINE
  5
20B
330
1F
100
AcDbEntity
  8
0
  6
Continuous
 62
   144
370
     0
100
AcDbSpline
210
0.0
220
0.0
230
1.0
 70
    11
 71
     3
 72
    84
 73
    80
 74
     0
 42
0.000000001
 43
0.00000001
 40
0.0
 40
0.0
 40
0.0
 40
0.0
 40
0.0312500000000113
 40
0.0312500000000113
 40
0.0468750000000165
 40
0.0468750000000165
 40
0.0625000000000216
 40
0.0625000000000216
 40
0.0937500000000299
 40
0.0937500000000299
 40
0.1250000000000382
 40
0.1250000000000382
 40
0.1562500000000465
 40
0.1562500000000465
 40
0.1875000000000549
 40
0.1875000000000549
 40
0.2031250000000491
 40
0.2031250000000491
 40
0.2187500000000433
 40
0.2187500000000433
 40
0.2500000000000506
 40
0.2500000000000506
 40
0.2812500000000578
 40
0.2812500000000578
 40
0.312500000000065
 40
0.312500000000065
 40
0.3281250000000677
 40
0.3281250000000677
 40
0.3437500000000703
 40
0.3437500000000703
 40
0.3750000000000729
 40
0.3750000000000729
 40
0.4062500000000756
 40
0.4062500000000756
 40
0.4218750000000729
 40
0.4218750000000729
 40
0.4375000000000702
 40
0.4375000000000702
 40
0.4687500000000648
 40
0.4687500000000648
 40
0.5000000000000593
 40
0.5000000000000593
 40
0.531250000000054
 40
0.531250000000054
 40
0.5625000000000485
 40
0.5625000000000485
 40
0.5781250000000459
 40
0.5781250000000459
 40
0.5937500000000432
 40
0.5937500000000432
 40
0.6250000000000404
 40
0.6250000000000404
 40
0.6562500000000377
 40
0.6562500000000377
 40
0.687500000000035
 40
0.687500000000035
 40
0.7031250000000238
 40
0.7031250000000238
 40
0.7187500000000125
 40
0.7187500000000125
 40
0.750000000000009
 40
0.750000000000009
 40
0.7812500000000054
 40
0.7812500000000054
 40
0.7968750000000042
 40
0.7968750000000042
 40
0.812500000000003
 40
0.812500000000003
 40
0.8437500000000024
 40
0.8437500000000024
 40
0.8750000000000019
 40
0.8750000000000019
 40
0.9062500000000016
 40
0.9062500000000016
 40
0.9375000000000011
 40
0.9375000000000011
 40
0.9687500000000007
 40
0.9687500000000007
 40
1.0
 40
1.0
 40
1.0
 40
1.0
 10
1719.500000000006
 20
-0.0000000000153022
 30
0.0
 10
1719.500000000006
 20
-0.3638677664009572
 30
0.0
 10
1719.464247671281
 20
-0.721560356477488
 30
0.0
 10
1719.35925088367
 20
-1.249236949601706
 30
0.0
 10
1719.315626507287
 20
-1.423641234635274
 30
0.0
 10
1719.210741028684
 20
-1.769411614612942
 30
0.0
 10
1719.149217131078
 20
-1.941143905959987
 30
0.0
 10
1718.942044221862
 20
-2.440513432730164
 30
0.0
 10
1718.773077807344
 20
-2.756229690050789
 30
0.0
 10
1718.373965874503
 20
-3.35372872903656
 30
0.0
 10
1718.141978926617
 20
-3.636255490749619
 30
0.0
 10
1717.635276332485
 20
-4.142838327647818
 30
0.0
 10
1717.358711062903
 20
-4.370329818097497
 30
0.0
 10
1716.75769089277
 20
-4.772406485511898
 30
0.0
 10
1716.438297149419
 20
-4.942970565078954
 30
0.0
 10
1715.942116885392
 20
-5.148810032681047
 30
0.0
 10
1715.773325644628
 20
-5.2093890126873
 30
0.0
 10
1715.428822571198
 20
-5.314215256031296
 30
0.0
 10
1715.252098855379
 20
-5.358639744414373
 30
0.0
 10
1714.719478185234
 20
-5.464744912314669
 30
0.0
 10
1714.362311001544
 20
-5.499796432062777
 30
0.0
 10
1713.643896038688
 20
-5.500201816724621
 30
0.0
 10
1713.278959264199
 20
-5.464389577257299
 30
0.0
 10
1712.573217748799
 20
-5.32388444675208
 30
0.0
 10
1712.230147324445
 20
-5.219931205541633
 30
0.0
 10
1711.730299062868
 20
-5.013080163633352
 30
0.0
 10
1711.56543735345
 20
-4.935122773334522
 30
0.0
 10
1711.24733200768
 20
-4.76501322053907
 30
0.0
 10
1711.093440618582
 20
-4.672682386932386
 30
0.0
 10
1710.646877269866
 20
-4.374329715937433
 30
0.0
 10
1710.368694075586
 20
-4.146689063864839
 30
0.0
 10
1709.855849571451
 20
-3.634202819683565
 30
0.0
 10
1709.62861814651
 20
-3.356965700895938
 30
0.0
 10
1709.329867363315
 20
-2.910654679328067
 30
0.0
 10
1709.237352526796
 20
-2.756770778374054
 30
0.0
 10
1709.066811977449
 20
-2.438493800004632
 30
0.0
 10
1708.98877105851
 20
-2.273770531785438
 30
0.0
 10
1708.781711176969
 20
-1.77461362002163
 30
0.0
 10
1708.677460747285
 20
-1.431802558079161
 30
0.0
 10
1708.536279353445
 20
-0.7261124970762122
 30
0.0
 10
1708.500137731864
 20
-0.3612659171605964
 30
0.0
 10
1708.499863072246
 20
0.3570599492036692
 30
0.0
 10
1708.534567006916
 20
0.7143615548424352
 30
0.0
 10
1708.675507111732
 20
1.425147611898251
 30
0.0
 10
1708.780922853311
 20
1.771892734090154
 30
0.0
 10
1708.986412883086
 20
2.268487767667965
 30
0.0
 10
1709.06297830509
 20
2.43068373058079
 30
0.0
 10
1709.232490239506
 20
2.748318994898514
 30
0.0
 10
1709.326026671197
 20
2.904577309924224
 30
0.0
 10
1709.626849976919
 20
3.354987777446417
 30
0.0
 10
1709.854005416775
 20
3.631700710790059
 30
0.0
 10
1710.360522687633
 20
4.139169727088589
 30
0.0
 10
1710.64305454904
 20
4.371466464760004
 30
0.0
 10
1711.23960139046
 20
4.770639509508955
 30
0.0
 10
1711.5550905916
 20
4.939889623169216
 30
0.0
 10
1712.054640086062
 20
5.147630297642275
 30
0.0
 10
1712.226385693297
 20
5.209305950360344
 30
0.0
 10
1712.571732410124
 20
5.314379350885067
 30
0.0
 10
1712.745982159054
 20
5.358132037007044
 30
0.0
 10
1713.273372324506
 20
5.463567598867588
 30
0.0
 10
1713.631689608385
 20
5.499685026281757
 30
0.0
 10
1714.358842508737
 20
5.500310899104808
 30
0.0
 10
1714.716476199825
 20
5.464922135252351
 30
0.0
 10
1715.244371998401
 20
5.360383974288315
 30
0.0
 10
1715.418901077316
 20
5.316898377933732
 30
0.0
 10
1715.765022319136
 20
5.212234150672954
 30
0.0
 10
1715.936702271116
 20
5.150885725728479
 30
0.0
 10
1716.435967325072
 20
4.944271531523714
 30
0.0
 10
1716.751857518502
 20
4.7756163422055
 30
0.0
 10
1717.35007098685
 20
4.376785993529084
 30
0.0
 10
1717.632626783056
 20
4.145152320801321
 30
0.0
 10
1718.139507896114
 20
3.639057499633848
 30
0.0
 10
1718.367346411948
 20
3.362627915280068
 30
0.0
 10
1718.770318719483
 20
2.761347586440373
 30
0.0
 10
1718.940779755392
 20
2.442736562070699
 30
0.0
 10
1719.215840528501
 20
1.781368598645003
 30
0.0
 10
1719.322063220215
 20
1.434221624591151
 30
0.0
 10
1719.464242980403
 20
0.7234619821077948
 30
0.0
 10
1719.500000000006
 20
0.363867766370213
 30
0.0
 10
1719.500000000006
 20
-0.0000000000153023
 30
0.0
  0
SPLINE
  5
221
330
1F
100
AcDbEntity
  8
0
  6
Continuous
 62
   144
370
     0
100
AcDbSpline
210
0.0
220
0.0
230
1.0
 70
    11
 71
     3
 72
    84
 73
    80
 74
     0
 42
0.000000001
 43
0.00000001
 40
0.0
 40
0.0
 40
0.0
 40
0.0
 40
0.031250000000036
 40
0.031250000000036
 40
0.0468750000000534
 40
0.0468750000000534
 40
0.0625000000000709
 40
0.0625000000000709
 40
0.0937500000000964
 40
0.0937500000000964
 40
0.125000000000122
 40
0.125000000000122
 40
0.1562500000001475
 40
0.1562500000001475
 40
0.1875000000001731
 40
0.1875000000001731
 40
0.2031250000001849
 40
0.2031250000001849
 40
0.2187500000001967
 40
0.2187500000001967
 40
0.2500000000002015
 40
0.2500000000002015
 40
0.2812500000002063
 40
0.2812500000002063
 40
0.3125000000002112
 40
0.3125000000002112
 40
0.3281250000002126
 40
0.3281250000002126
 40
0.3437500000002139
 40
0.3437500000002139
 40
0.3750000000002142
 40
0.3750000000002142
 40
0.4062500000002144
 40
0.4062500000002144
 40
0.4218750000002104
 40
0.4218750000002104
 40
0.4375000000002065
 40
0.4375000000002065
 40
0.4687500000001986
 40
0.4687500000001986
 40
0.5000000000001906
 40
0.5000000000001906
 40
0.5312500000001827
 40
0.5312500000001827
 40
0.5625000000001749
 40
0.5625000000001749
 40
0.5781250000001672
 40
0.5781250000001672
 40
0.5937500000001595
 40
0.5937500000001595
 40
0.6250000000001468
 40
0.6250000000001468
 40
0.656250000000134
 40
0.656250000000134
 40
0.6875000000001212
 40
0.6875000000001212
 40
0.7031250000001227
 40
0.7031250000001227
 40
0.7187500000001241
 40
0.7187500000001241
 40
0.7500000000001081
 40
0.7500000000001081
 40
0.7812500000000921
 40
0.7812500000000921
 40
0.7968750000000847
 40
0.7968750000000847
 40
0.8125000000000773
 40
0.8125000000000773
 40
0.8437500000000644
 40
0.8437500000000644
 40
0.8750000000000515
 40
0.8750000000000515
 40
0.9062500000000386
 40
0.9062500000000386
 40
0.9375000000000258
 40
0.9375000000000258
 40
0.9687500000000129
 40
0.9687500000000129
 40
1.0
 40
1.0
 40
1.0
 40
1.0
 10
-1880.499999999994
 20
-0.0000000000153024
 30
0.0
 10
-1880.499999999994
 20
-0.3638677664009439
 30
0.0
 10
-1880.53575232872
 20
-0.7215603564774825
 30
0.0
 10
-1880.640749116331
 20
-1.249236949601693
 30
0.0
 10
-1880.684373492712
 20
-1.423641234635271
 30
0.0
 10
-1880.789258971316
 20
-1.769411614612938
 30
0.0
 10
-1880.850782868922
 20
-1.941143905960016
 30
0.0
 10
-1881.057955778138
 20
-2.440513432730229
 30
0.0
 10
-1881.226922192656
 20
-2.756229690050777
 30
0.0
 10
-1881.626034125496
 20
-3.353728729036551
 30
0.0
 10
-1881.858021073382
 20
-3.636255490749607
 30
0.0
 10
-1882.364723667514
 20
-4.142838327647808
 30
0.0
 10
-1882.641288937097
 20
-4.370329818097582
 30
0.0
 10
-1883.242309107229
 20
-4.772406485511981
 30
0.0
 10
-1883.561702850578
 20
-4.942970565079026
 30
0.0
 10
-1884.057883114607
 20
-5.14881003268104
 30
0.0
 10
-1884.22667435537
 20
-5.209389012687294
 30
0.0
 10
-1884.5711774288
 20
-5.314215256031287
 30
0.0
 10
-1884.747901144621
 20
-5.358639744414326
 30
0.0
 10
-1885.280521814766
 20
-5.464744912314666
 30
0.0
 10
-1885.637688998456
 20
-5.499796432062774
 30
0.0
 10
-1886.356103961311
 20
-5.500201816724621
 30
0.0
 10
-1886.721040735801
 20
-5.464389577257302
 30
0.0
 10
-1887.426782251201
 20
-5.323884446752083
 30
0.0
 10
-1887.769852675555
 20
-5.219931205541644
 30
0.0
 10
-1888.269700937131
 20
-5.013080163633358
 30
0.0
 10
-1888.43456264655
 20
-4.93512277333453
 30
0.0
 10
-1888.752667992319
 20
-4.765013220539076
 30
0.0
 10
-1888.906559381418
 20
-4.672682386932396
 30
0.0
 10
-1889.353122730133
 20
-4.374329715937446
 30
0.0
 10
-1889.631305924413
 20
-4.146689063864846
 30
0.0
 10
-1890.144150428548
 20
-3.634202819683573
 30
0.0
 10
-1890.371381853492
 20
-3.356965700895849
 30
0.0
 10
-1890.670132636684
 20
-2.910654679327971
 30
0.0
 10
-1890.762647473204
 20
-2.756770778374063
 30
0.0
 10
-1890.93318802255
 20
-2.438493800004642
 30
0.0
 10
-1891.01122894149
 20
-2.273770531785436
 30
0.0
 10
-1891.21828882303
 20
-1.774613620021631
 30
0.0
 10
-1891.322539252717
 20
-1.431802558079162
 30
0.0
 10
-1891.463720646554
 20
-0.7261124970762161
 30
0.0
 10
-1891.499862268137
 20
-0.3612659171605847
 30
0.0
 10
-1891.500136927753
 20
0.3570599492036763
 30
0.0
 10
-1891.465432993084
 20
0.7143615548424438
 30
0.0
 10
-1891.324492888266
 20
1.425147611898252
 30
0.0
 10
-1891.219077146689
 20
1.771892734090096
 30
0.0
 10
-1891.013587116915
 20
2.268487767667982
 30
0.0
 10
-1890.937021694911
 20
2.430683730580803
 30
0.0
 10
-1890.767509760494
 20
2.748318994898526
 30
0.0
 10
-1890.673973328803
 20
2.904577309924241
 30
0.0
 10
-1890.373150023082
 20
3.354987777446432
 30
0.0
 10
-1890.145994583224
 20
3.631700710790076
 30
0.0
 10
-1889.639477312366
 20
4.139169727088606
 30
0.0
 10
-1889.356945450959
 20
4.371466464760017
 30
0.0
 10
-1888.76039860954
 20
4.770639509508967
 30
0.0
 10
-1888.444909408399
 20
4.939889623169381
 30
0.0
 10
-1887.945359913938
 20
5.147630297642287
 30
0.0
 10
-1887.773614306703
 20
5.209305950360348
 30
0.0
 10
-1887.428267589876
 20
5.314379350885074
 30
0.0
 10
-1887.254017840947
 20
5.358132037007007
 30
0.0
 10
-1886.726627675493
 20
5.463567598867593
 30
0.0
 10
-1886.368310391615
 20
5.499685026281756
 30
0.0
 10
-1885.641157491262
 20
5.500310899104812
 30
0.0
 10
-1885.283523800175
 20
5.464922135252345
 30
0.0
 10
-1884.755628001598
 20
5.360383974288314
 30
0.0
 10
-1884.581098922684
 20
5.316898377933724
 30
0.0
 10
-1884.234977680864
 20
5.212234150672947
 30
0.0
 10
-1884.063297728884
 20
5.150885725728392
 30
0.0
 10
-1883.564032674927
 20
4.944271531523609
 30
0.0
 10
-1883.248142481498
 20
4.775616342205486
 30
0.0
 10
-1882.649929013148
 20
4.376785993529075
 30
0.0
 10
-1882.367373216944
 20
4.145152320801195
 30
0.0
 10
-1881.860492103885
 20
3.63905749963372
 30
0.0
 10
-1881.632653588052
 20
3.362627915280056
 30
0.0
 10
-1881.229681280515
 20
2.761347586440358
 30
0.0
 10
-1881.059220244606
 20
2.442736562070697
 30
0.0
 10
-1880.784159471498
 20
1.781368598644992
 30
0.0
 10
-1880.677936779784
 20
1.434221624591163
 30
0.0
 10
-1880.535757019596
 20
0.7234619821078135
 30
0.0
 10
-1880.499999999995
 20
0.3638677663697703
 30
0.0
 10
-1880.499999999994
 20
-0.0000000000153024
 30
0.0
  0
SPLINE
  5
222
330
1F
100
AcDbEntity
  8
0
  6
Continuous
 62
   144
370
     0
100
AcDbSpline
210
0.0
220
0.0
230
1.0
 70
     8
 71
     3
 72
    18
 73
    14
 74
     0
 42
0.000000001
 43
0.00000001
 40
0.0
 40
0.0
 40
0.0
 40
0.0
 40
0.0354291569997594
 40
0.1416241175571433
 40
0.2482037303493949
 40
0.3557562570828097
 40
0.4633719989388799
 40
0.5700147992411181
 40
0.6761738759211744
 40
0.7830845383706642
 40
0.8908142017500326
 40
0.9981593744435959
 40
1.0
 40
1.0
 40
1.0
 40
1.0
 10
-1930.568790861522
 20
37.9901362033849
 30
0.0
 10
-1930.549627967604
 20
37.99288039111384
 30
0.0
 10
-1930.473026428903
 20
38.00384997657492
 30
0.0
 10
-1930.970157887608
 20
37.93197516534344
 30
0.0
 10
-1932.010062914894
 20
37.80377100174746
 30
0.0
 10
-1933.54438776339
 20
37.66712500737942
 30
0.0
 10
-1935.347803375318
 20
37.58993114359336
 30
0.0
 10
-1937.222122622174
 20
37.60498441509559
 30
0.0
 10
-1938.946959862523
 20
37.70390643000571
 30
0.0
 10
-1940.367454105098
 20
37.84701572791576
 30
0.0
 10
-1941.231266919126
 20
37.96042319832434
 30
0.0
 10
-1941.598975995253
 20
38.01395372977429
 30
0.0
 10
-1941.496538952894
 20
37.99951196256933
 30
0.0
 10
-1941.494812096095
 20
37.99926850704469
 30
0.0
  0
SPLINE
  5
223
330
1F
100
AcDbEntity
  8
0
  6
Continuous
 62
   144
370
     0
100
AcDbSpline
210
0.0
220
0.0
230
1.0
 70
     8
 71
     3
 72
    18
 73
    14
 74
     0
 42
0.000000001
 43
0.00000001
 40
0.0
 40
0.0
 40
0.0
 40
0.0
 40
0.0354291569997603
 40
0.141624117557141
 40
0.2482037303494003
 40
0.3557562570828155
 40
0.4633719989388861
 40
0.5700147992411246
 40
0.6761738759211693
 40
0.7830845383706595
 40
0.8908142017500281
 40
0.9981593744435939
 40
1.0
 40
1.0
 40
1.0
 40
1.0
 10
-1941.431209138465
 20
-37.9901362034155
 30
0.0
 10
-1941.450372032384
 20
-37.99288039114445
 30
0.0
 10
-1941.526973571086
 20
-38.00384997660552
 30
0.0
 10
-1941.029842112379
 20
-37.93197516537404
 30
0.0
 10
-1939.989937085094
 20
-37.80377100177807
 30
0.0
 10
-1938.455612236597
 20
-37.66712500741003
 30
0.0
 10
-1936.65219662467
 20
-37.58993114362395
 30
0.0
 10
-1934.777877377815
 20
-37.6049844151262
 30
0.0
 10
-1933.053040137463
 20
-37.70390643003632
 30
0.0
 10
-1931.632545894891
 20
-37.84701572794631
 30
0.0
 10
-1930.768733080862
 20
-37.96042319835512
 30
0.0
 10
-1930.401024004735
 20
-38.01395372980448
 30
0.0
 10
-1930.503461047093
 20
-37.99951196259993
 30
0.0
 10
-1930.505187903892
 20
-37.99926850707529
 30
0.0
  0
SPLINE
  5
22B
330
1F
100
AcDbEntity
  8
0
  6
Continuous
 62
   144
370
     0
100
AcDbSpline
210
0.0
220
0.0
230
1.0
 70
     8
 71
     3
 72
    18
 73
    14
 74
     0
 42
0.000000001
 43
0.00000001
 40
0.0
 40
0.0
 40
0.0
 40
0.0
 40
0.0354291569997603
 40
0.141624117557141
 40
0.2482037303494003
 40
0.3557562570828155
 40
0.4633719989388861
 40
0.5700147992411246
 40
0.6761738759211693
 40
0.7830845383706595
 40
0.8908142017500281
 40
0.9981593744435939
 40
1.0
 40
1.0
 40
1.0
 40
1.0
 10
1941.431209138477
 20
37.9901362033849
 30
0.0
 10
1941.450372032396
 20
37.99288039111384
 30
0.0
 10
1941.526973571098
 20
38.00384997657491
 30
0.0
 10
1941.029842112391
 20
37.93197516534344
 30
0.0
 10
1939.989937085106
 20
37.80377100174746
 30
0.0
 10
1938.45561223661
 20
37.66712500737943
 30
0.0
 10
1936.652196624682
 20
37.58993114359335
 30
0.0
 10
1934.777877377827
 20
37.6049844150956
 30
0.0
 10
1933.053040137475
 20
37.70390643000572
 30
0.0
 10
1931.632545894903
 20
37.8470157279157
 30
0.0
 10
1930.768733080875
 20
37.96042319832457
 30
0.0
 10
1930.401024004745
 20
38.01395372977378
 30
0.0
 10
1930.503461047106
 20
37.99951196256934
 30
0.0
 10
1930.505187903904
 20
37.99926850704469
 30
0.0
  0
SPLINE
  5
22C
330
1F
100
AcDbEntity
  8
0
  6
Continuous
 62
   144
370
     0
100
AcDbSpline
210
0.0
220
0.0
230
1.0
 70
     8
 71
     3
 72
    18
 73
    14
 74
     0
 42
0.000000001
 43
0.00000001
 40
0.0
 40
0.0
 40
0.0
 40
0.0
 40
0.0354291569997601
 40
0.1416241175571436
 40
0.2482037303493949
 40
0.3557562570828094
 40
0.4633719989388794
 40
0.5700147992411173
 40
0.6761738759211733
 40
0.7830845383706628
 40
0.8908142017500309
 40
0.9981593744435938
 40
1.0
 40
1.0
 40
1.0
 40
1.0
 10
1930.568790861535
 20
-37.9901362034155
 30
0.0
 10
1930.549627967616
 20
-37.99288039114445
 30
0.0
 10
1930.473026428914
 20
-38.00384997660552
 30
0.0
 10
1930.970157887621
 20
-37.93197516537403
 30
0.0
 10
1932.010062914906
 20
-37.80377100177807
 30
0.0
 10
1933.544387763402
 20
-37.66712500741003
 30
0.0
 10
1935.34780337533
 20
-37.58993114362395
 30
0.0
 10
1937.222122622186
 20
-37.60498441512621
 30
0.0
 10
1938.946959862537
 20
-37.70390643003633
 30
0.0
 10
1940.367454105107
 20
-37.84701572794629
 30
0.0
 10
1941.231266919148
 20
-37.96042319835518
 30
0.0
 10
1941.598975995245
 20
-38.01395372980441
 30
0.0
 10
1941.496538952907
 20
-37.99951196259994
 30
0.0
 10
1941.494812096108
 20
-37.9992685070753
 30
0.0
  0
SPLINE
  5
22D
330
1F
100
AcDbEntity
  8
0
  6
Continuous
 62
   144
370
     0
100
AcDbSpline
210
0.0
220
0.0
230
1.0
 70
    11
 71
     3
 72
    84
 73
    80
 74
     0
 42
0.000000001
 43
0.00000001
 40
0.0
 40
0.0
 40
0.0
 40
0.0
 40
0.0312499999999986
 40
0.0312499999999986
 40
0.0468749999999974
 40
0.0468749999999974
 40
0.0624999999999961
 40
0.0624999999999961
 40
0.0937499999999917
 40
0.0937499999999917
 40
0.1249999999999872
 40
0.1249999999999872
 40
0.1562499999999828
 40
0.1562499999999828
 40
0.1874999999999784
 40
0.1874999999999784
 40
0.2031249999999662
 40
0.2031249999999662
 40
0.2187499999999541
 40
0.2187499999999541
 40
0.2499999999999486
 40
0.2499999999999486
 40
0.2812499999999432
 40
0.2812499999999432
 40
0.3124999999999377
 40
0.3124999999999377
 40
0.328124999999934
 40
0.328124999999934
 40
0.3437499999999303
 40
0.3437499999999303
 40
0.3749999999999203
 40
0.3749999999999203
 40
0.4062499999999103
 40
0.4062499999999103
 40
0.421874999999912
 40
0.421874999999912
 40
0.4374999999999137
 40
0.4374999999999137
 40
0.468749999999917
 40
0.468749999999917
 40
0.4999999999999203
 40
0.4999999999999203
 40
0.5312499999999235
 40
0.5312499999999235
 40
0.5624999999999268
 40
0.5624999999999268
 40
0.5781249999999284
 40
0.5781249999999284
 40
0.5937499999999301
 40
0.5937499999999301
 40
0.624999999999936
 40
0.624999999999936
 40
0.6562499999999419
 40
0.6562499999999419
 40
0.6874999999999478
 40
0.6874999999999478
 40
0.7031249999999409
 40
0.7031249999999409
 40
0.718749999999934
 40
0.718749999999934
 40
0.7499999999999392
 40
0.7499999999999392
 40
0.7812499999999443
 40
0.7812499999999443
 40
0.7968749999999474
 40
0.7968749999999474
 40
0.8124999999999505
 40
0.8124999999999505
 40
0.8437499999999587
 40
0.8437499999999587
 40
0.8749999999999669
 40
0.8749999999999669
 40
0.9062499999999752
 40
0.9062499999999752
 40
0.9374999999999835
 40
0.9374999999999835
 40
0.9687499999999918
 40
0.9687499999999918
 40
1.0
 40
1.0
 40
1.0
 40
1.0
 10
1880.500000000006
 20
-0.0000000000153021
 30
0.0
 10
1880.500000000006
 20
0.363867766370354
 30
0.0
 10
1880.53575232873
 20
0.7215603564468804
 30
0.0
 10
1880.640749116342
 20
1.249236949571099
 30
0.0
 10
1880.684373492724
 20
1.423641234604669
 30
0.0
 10
1880.789258971327
 20
1.769411614582337
 30
0.0
 10
1880.850782868934
 20
1.941143905929452
 30
0.0
 10
1881.057955778151
 20
2.440513432699626
 30
0.0
 10
1881.226922192669
 20
2.756229690020173
 30
0.0
 10
1881.626034125508
 20
3.353728729005948
 30
0.0
 10
1881.858021073394
 20
3.636255490719002
 30
0.0
 10
1882.364723667527
 20
4.142838327617205
 30
0.0
 10
1882.641288937109
 20
4.370329818066979
 30
0.0
 10
1883.242309107242
 20
4.772406485481381
 30
0.0
 10
1883.561702850592
 20
4.942970565048343
 30
0.0
 10
1884.057883114619
 20
5.148810032650436
 30
0.0
 10
1884.226674355383
 20
5.20938901265669
 30
0.0
 10
1884.571177428812
 20
5.314215256000685
 30
0.0
 10
1884.747901144633
 20
5.358639744383765
 30
0.0
 10
1885.280521814777
 20
5.46474491228406
 30
0.0
 10
1885.637688998467
 20
5.499796432032171
 30
0.0
 10
1886.356103961322
 20
5.500201816694016
 30
0.0
 10
1886.721040735812
 20
5.464389577226695
 30
0.0
 10
1887.426782251213
 20
5.323884446721482
 30
0.0
 10
1887.769852675568
 20
5.219931205510968
 30
0.0
 10
1888.269700937144
 20
5.013080163602655
 30
0.0
 10
1888.434562646562
 20
4.935122773303923
 30
0.0
 10
1888.752667992331
 20
4.765013220508466
 30
0.0
 10
1888.906559381429
 20
4.672682386901785
 30
0.0
 10
1889.353122730146
 20
4.374329715906831
 30
0.0
 10
1889.631305924425
 20
4.146689063834244
 30
0.0
 10
1890.14415042856
 20
3.634202819652973
 30
0.0
 10
1890.371381853503
 20
3.356965700865048
 30
0.0
 10
1890.670132636697
 20
2.91065467929737
 30
0.0
 10
1890.762647473216
 20
2.756770778343462
 30
0.0
 10
1890.933188022563
 20
2.438493799974044
 30
0.0
 10
1891.011228941502
 20
2.27377053175484
 30
0.0
 10
1891.218288823042
 20
1.774613619991032
 30
0.0
 10
1891.322539252728
 20
1.431802558048564
 30
0.0
 10
1891.463720646567
 20
0.7261124970456195
 30
0.0
 10
1891.499862268148
 20
0.3612659171299935
 30
0.0
 10
1891.500136927765
 20
-0.3570599492342757
 30
0.0
 10
1891.465432993096
 20
-0.714361554873041
 30
0.0
 10
1891.32449288828
 20
-1.42514761192885
 30
0.0
 10
1891.2190771467
 20
-1.771892734120774
 30
0.0
 10
1891.013587116926
 20
-2.268487767698581
 30
0.0
 10
1890.937021694922
 20
-2.430683730611401
 30
0.0
 10
1890.767509760505
 20
-2.748318994929125
 30
0.0
 10
1890.673973328815
 20
-2.904577309954844
 30
0.0
 10
1890.373150023093
 20
-3.354987777477031
 30
0.0
 10
1890.145994583238
 20
-3.631700710820676
 30
0.0
 10
1889.639477312379
 20
-4.13916972711921
 30
0.0
 10
1889.356945450972
 20
-4.37146646479062
 30
0.0
 10
1888.760398609552
 20
-4.770639509539571
 30
0.0
 10
1888.444909408412
 20
-4.939889623199829
 30
0.0
 10
1887.945359913949
 20
-5.147630297672887
 30
0.0
 10
1887.773614306715
 20
-5.209305950390952
 30
0.0
 10
1887.428267589887
 20
-5.314379350915677
 30
0.0
 10
1887.254017840958
 20
-5.358132037037652
 30
0.0
 10
1886.726627675505
 20
-5.463567598898198
 30
0.0
 10
1886.368310391628
 20
-5.499685026312359
 30
0.0
 10
1885.641157491273
 20
-5.500310899135414
 30
0.0
 10
1885.283523800187
 20
-5.464922135282954
 30
0.0
 10
1884.75562800161
 20
-5.360383974318918
 30
0.0
 10
1884.581098922696
 20
-5.316898377964328
 30
0.0
 10
1884.234977680876
 20
-5.212234150703551
 30
0.0
 10
1884.063297728896
 20
-5.150885725758995
 30
0.0
 10
1883.564032674939
 20
-4.944271531554215
 30
0.0
 10
1883.248142481511
 20
-4.775616342236093
 30
0.0
 10
1882.649929013161
 20
-4.376785993559682
 30
0.0
 10
1882.367373216957
 20
-4.145152320831921
 30
0.0
 10
1881.860492103897
 20
-3.639057499664444
 30
0.0
 10
1881.632653588065
 20
-3.362627915310671
 30
0.0
 10
1881.229681280528
 20
-2.761347586470967
 30
0.0
 10
1881.05922024462
 20
-2.442736562101306
 30
0.0
 10
1880.784159471511
 20
-1.781368598675607
 30
0.0
 10
1880.677936779796
 20
-1.434221624621771
 30
0.0
 10
1880.535757019608
 20
-0.72346198213842
 30
0.0
 10
1880.500000000006
 20
-0.3638677664010703
 30
0.0
 10
1880.500000000006
 20
-0.0000000000153026
 30
0.0
  0
LWPOLYLINE
  5
249
330
1F
100
AcDbEntity
  8
0
  6
Continuous
 62
   144
370
     0
100
AcDbPolyline
 90
        7
 70
   128
 43
0.0
 10
-5064.7123957899
 20
-399.995177936
 10
-5064.5141351645
 20
-400.0836967097
 10
-5064.3036004633
 20
-400.3794620072
 10
-5064.0871288442
 20
-400.8735712042
 10
-5063.8712361678
 20
-401.5511514655
 10
-5063.6624208687
 20
-402.3918074216
 10
-5063.4669683499
 20
-403.3702350759
  0
LWPOLYLINE
  5
24C
330
1F
100
AcDbEntity
  8
0
  6
Continuous
 62
   144
370
     0
100
AcDbPolyline
 90
        9
 70
   128
 43
0.0
 10
-5058.9016782045
 20
-428.737913129
 10
-5058.5019439255
 20
-430.3589705269
 10
-5057.9227540539
 20
-431.7837675729
 10
-5057.170685175
 20
-432.9961259817
 10
-5056.2542768804
 20
-433.9822796658
 10
-5055.183934803
 20
-434.7310310475
 10
-5053.9718124631
 20
-435.2338782046
 10
-5052.6316732674
 20
-435.4851114082
 10
-5051.1787342284
 20
-435.4818779555
  0
LWPOLYLINE
  5
24E
330
1F
100
AcDbEntity
  8
0
  6
Continuous
 62
   144
370
     0
100
AcDbPolyline
 90
        9
 70
   128
 43
0.0
 10
-5029.8862833645
 20
-433.6315115149
 10
-5028.3370423144
 20
-433.3738481211
 10
-5026.7090905756
 20
-432.8646805025
 10
-5025.0209132143
 20
-432.1097901556
 10
-5023.2916791469
 20
-431.1177487093
 10
-5021.5410234804
 20
-429.8998205958
 10
-5019.7888245597
 20
-428.4698351452
 10
-5018.0549782531
 20
-426.8440295564
 10
-5016.3591720387
 20
-425.0408645266
  0
LWPOLYLINE
  5
250
330
1F
100
AcDbEntity
  8
0
  6
Continuous
 62
   144
370
     0
100
AcDbPolyline
 90
        7
 70
   128
 43
0.0
 10
-4932.9802135337
 20
-388.5473267352
 10
-4933.160232379
 20
-388.6687189269
 10
-4933.316590823
 20
-388.9963681427
 10
-4933.4445824295
 20
-389.5204120427
 10
-4933.5403546126
 20
-390.2250767481
 10
-4933.601024601
 20
-391.0891516397
 10
-4933.6247662097
 20
-392.0866278037
  0
LWPOLYLINE
  5
265
330
1F
100
AcDbEntity
  8
0
  6
Continuous
 62
   144
370
     0
100
AcDbPolyline
 90
        7
 70
   128
 43
0.0
 10
-5063.4669683499
 20
403.3702350758
 10
-5063.6624208687
 20
402.3918074216
 10
-5063.8712361678
 20
401.5511514654
 10
-5064.0871288442
 20
400.8735712041
 10
-5064.3036004633
 20
400.3794620071
 10
-5064.5141351645
 20
400.0836967096
 10
-5064.7123957899
 20
399.9951779359
  0
LWPOLYLINE
  5
268
330
1F
100
AcDbEntity
  8
0
  6
Continuous
 62
   144
370
     0
100
AcDbPolyline
 90
        9
 70
   128
 43
0.0
 10
-5016.3591720387
 20
425.0408645265
 10
-5018.0549782531
 20
426.8440295563
 10
-5019.7888245597
 20
428.4698351451
 10
-5021.5410234804
 20
429.8998205957
 10
-5023.2916791469
 20
431.1177487092
 10
-5025.0209132143
 20
432.1097901555
 10
-5026.7090905756
 20
432.8646805024
 10
-5028.3370423144
 20
433.373848121
 10
-5029.8862833645
 20
433.6315115148
  0
LWPOLYLINE
  5
26A
330
1F
100
AcDbEntity
  8
0
  6
Continuous
 62
   144
370
     0
100
AcDbPolyline
 90
        9
 70
   128
 43
0.0
 10
-5051.1787342284
 20
435.4818779554
 10
-5052.6316732674
 20
435.4851114081
 10
-5053.9718124631
 20
435.2338782045
 10
-5055.183934803
 20
434.7310310474
 10
-5056.2542768804
 20
433.9822796657
 10
-5057.170685175
 20
432.9961259816
 10
-5057.9227540539
 20
431.7837675729
 10
-5058.5019439255
 20
430.3589705268
 10
-5058.9016782045
 20
428.7379131289
  0
LWPOLYLINE
  5
26C
330
1F
100
AcDbEntity
  8
0
  6
Continuous
 62
   144
370
     0
100
AcDbPolyline
 90
        7
 70
   128
 43
0.0
 10
-4933.6247662097
 20
392.0866278036
 10
-4933.601024601
 20
391.0891516396
 10
-4933.5403546126
 20
390.225076748
 10
-4933.4445824295
 20
389.5204120426
 10
-4933.316590823
 20
388.9963681426
 10
-4933.160232379
 20
388.6687189268
 10
-4932.9802135337
 20
388.5473267351
  0
LWPOLYLINE
  5
281
330
1F
100
AcDbEntity
  8
0
  6
Continuous
 62
   144
370
     0
100
AcDbPolyline
 90
        7
 70
   128
 43
0.0
 10
5064.7123957899
 20
399.995177936
 10
5064.5141351645
 20
400.0836967097
 10
5064.3036004633
 20
400.3794620072
 10
5064.0871288442
 20
400.8735712042
 10
5063.8712361678
 20
401.5511514655
 10
5063.6624208687
 20
402.3918074216
 10
5063.4669683499
 20
403.3702350759
  0
LWPOLYLINE
  5
284
330
1F
100
AcDbEntity
  8
0
  6
Continuous
 62
   144
370
     0
100
AcDbPolyline
 90
        9
 70
   128
 43
0.0
 10
5058.9016782045
 20
428.737913129
 10
5058.5019439255
 20
430.3589705269
 10
5057.9227540539
 20
431.7837675729
 10
5057.170685175
 20
432.9961259817
 10
5056.2542768804
 20
433.9822796658
 10
5055.183934803
 20
434.7310310475
 10
5053.9718124631
 20
435.2338782046
 10
5052.6316732674
 20
435.4851114082
 10
5051.1787342284
 20
435.4818779555
  0
LWPOLYLINE
  5
286
330
1F
100
AcDbEntity
  8
0
  6
Continuous
 62
   144
370
     0
100
AcDbPolyline
 90
        9
 70
   128
 43
0.0
 10
5029.8862833645
 20
433.6315115149
 10
5028.3370423144
 20
433.3738481211
 10
5026.7090905756
 20
432.8646805025
 10
5025.0209132143
 20
432.1097901556
 10
5023.2916791469
 20
431.1177487093
 10
5021.5410234804
 20
429.8998205958
 10
5019.7888245597
 20
428.4698351452
 10
5018.0549782531
 20
426.8440295564
 10
5016.3591720387
 20
425.0408645266
  0
LWPOLYLINE
  5
288
330
1F
100
AcDbEntity
  8
0
  6
Continuous
 62
   144
370
     0
100
AcDbPolyline
 90
        7
 70
   128
 43
0.0
 10
4932.9802135337
 20
388.5473267352
 10
4933.160232379
 20
388.6687189269
 10
4933.316590823
 20
388.9963681427
 10
4933.4445824295
 20
389.5204120427
 10
4933.5403546126
 20
390.2250767481
 10
4933.601024601
 20
391.0891516397
 10
4933.6247662097
 20
392.0866278037
  0
LWPOLYLINE
  5
29D
330
1F
100
AcDbEntity
  8
0
  6
Continuous
 62
   144
370
     0
100
AcDbPolyline
 90
        7
 70
   128
 43
0.0
 10
5063.4669683499
 20
-403.3702350758
 10
5063.6624208687
 20
-402.3918074216
 10
5063.8712361678
 20
-401.5511514654
 10
5064.0871288442
 20
-400.8735712041
 10
5064.3036004633
 20
-400.3794620072
 10
5064.5141351645
 20
-400.0836967097
 10
5064.7123957899
 20
-399.9951779359
  0
LWPOLYLINE
  5
2A0
330
1F
100
AcDbEntity
  8
0
  6
Continuous
 62
   144
370
     0
100
AcDbPolyline
 90
        9
 70
   128
 43
0.0
 10
5016.3591720387
 20
-425.0408645265
 10
5018.0549782531
 20
-426.8440295563
 10
5019.7888245597
 20
-428.4698351451
 10
5021.5410234804
 20
-429.8998205957
 10
5023.2916791469
 20
-431.1177487092
 10
5025.0209132143
 20
-432.1097901555
 10
5026.7090905756
 20
-432.8646805024
 10
5028.3370423144
 20
-433.373848121
 10
5029.8862833645
 20
-433.6315115148
  0
LWPOLYLINE
  5
2A2
330
1F
100
AcDbEntity
  8
0
  6
Continuous
 62
   144
370
     0
100
AcDbPolyline
 90
        9
 70
   128
 43
0.0
 10
5051.1787342284
 20
-435.4818779554
 10
5052.6316732674
 20
-435.4851114081
 10
5053.9718124631
 20
-435.2338782045
 10
5055.183934803
 20
-434.7310310475
 10
5056.2542768804
 20
-433.9822796657
 10
5057.170685175
 20
-432.9961259816
 10
5057.9227540539
 20
-431.7837675729
 10
5058.5019439255
 20
-430.3589705268
 10
5058.9016782045
 20
-428.7379131289
  0
LWPOLYLINE
  5
2A4
330
1F
100
AcDbEntity
  8
0
  6
Continuous
 62
   144
370
     0
100
AcDbPolyline
 90
        7
 70
   128
 43
0.0
 10
4933.6247662097
 20
-392.0866278036
 10
4933.601024601
 20
-391.0891516396
 10
4933.5403546126
 20
-390.225076748
 10
4933.4445824295
 20
-389.5204120426
 10
4933.316590823
 20
-388.9963681426
 10
4933.160232379
 20
-388.6687189268
 10
4932.9802135337
 20
-388.5473267351
  0
SPLINE
  5
2E8
330
1F
100
AcDbEntity
  8
0
  6
Continuous
 62
   144
370
     0
100
AcDbSpline
210
0.0
220
0.0
230
1.0
 70
     8
 71
     3
 72
    26
 73
    22
 74
     0
 42
0.000000001
 43
0.00000001
 40
0.0
 40
0.0
 40
0.0
 40
0.0
 40
0.0087419123519526
 40
0.0550885262737315
 40
0.101467585934363
 40
0.1712699281012336
 40
0.2411259354172442
 40
0.2950210939727324
 40
0.3488139559291962
 40
0.4142692267225626
 40
0.4473840482985294
 40
0.480515462729114
 40
0.5200011613433708
 40
0.5595755256516897
 40
0.6258745510636282
 40
0.6922481308932944
 40
0.7618154735941467
 40
0.8312717951948796
 40
0.8792452145628243
 40
0.9271759668904112
 40
1.0
 40
1.0
 40
1.0
 40
1.0
 10
1760.962428588272
 20
-116.7772119562388
 30
0.0
 10
1760.92184120238
 20
-116.7291424986376
 30
0.0
 10
1760.66607344996
 20
-116.4262253025582
 30
0.0
 10
1759.989106219442
 20
-115.6122280001159
 30
0.0
 10
1758.800093809883
 20
-114.1473155088189
 30
0.0
 10
1757.213046383854
 20
-112.1202908773414
 30
0.0
 10
1755.482888821408
 20
-109.6870842290406
 30
0.0
 10
1753.937183853191
 20
-107.1963435915566
 30
0.0
 10
1752.623764927235
 20
-104.519171685986
 30
0.0
 10
1751.861046180277
 20
-101.868866354143
 30
0.0
 10
1751.784781835844
 20
-99.48381360598505
 30
0.0
 10
1752.026498974681
 20
-97.58990669495188
 30
0.0
 10
1752.602847844675
 20
-95.6747979444324
 30
0.0
 10
1753.629483563074
 20
-93.36561555244968
 30
0.0
 10
1755.092725620588
 20
-90.87590201962657
 30
0.0
 10
1756.916550585046
 20
-88.28941943402822
 30
0.0
 10
1758.679318182035
 20
-85.99209703624696
 30
0.0
 10
1760.09173034387
 20
-84.26261186619398
 30
0.0
 10
1761.06307276324
 20
-83.09973775204625
 30
0.0
 10
1761.812257076384
 20
-82.2184580997575
 30
0.0
 10
1761.92937142094
 20
-82.08218357777235
 30
0.0
 10
1761.999999999963
 20
-81.9999999999944
 30
0.0
  0
SPLINE
  5
2E9
330
1F
100
AcDbEntity
  8
0
  6
Continuous
 62
   144
370
     0
100
AcDbSpline
210
0.0
220
0.0
230
1.0
 70
     8
 71
     3
 72
    27
 73
    23
 74
     0
 42
0.000000001
 43
0.00000001
 40
0.0
 40
0.0
 40
0.0
 40
0.0
 40
0.0002438133096351
 40
0.0472719716089118
 40
0.0896254989009489
 40
0.1330423909832185
 40
0.1789631967819608
 40
0.2258084023098093
 40
0.294676815241158
 40
0.3655251002905237
 40
0.418841370557789
 40
0.4732522225602767
 40
0.5387346300442712
 40
0.5712773915562307
 40
0.6050208908956176
 40
0.6440288069816155
 40
0.6841154422345582
 40
0.749596847740319
 40
0.816836886988931
 40
0.885281388315112
 40
0.955921766725907
 40
1.0
 40
1.0
 40
1.0
 40
1.0
 10
1761.999237334898
 20
82.00089086272926
 30
0.0
 10
1761.999491406011
 20
82.00059408381196
 30
0.0
 10
1762.048752221234
 20
81.94305282581422
 30
0.0
 10
1761.879721502822
 20
82.14019649689772
 30
0.0
 10
1761.49336923168
 20
82.59285595592492
 30
0.0
 10
1760.855163359151
 20
83.34755470162553
 30
0.0
 10
1760.005140180303
 20
84.36868244003777
 30
0.0
 10
1758.804974406509
 20
85.84519101833241
 30
0.0
 10
1757.227452893465
 20
87.86818476839044
 30
0.0
 10
1755.494035616264
 20
90.29111313690129
 30
0.0
 10
1753.946984437289
 20
92.79703206951622
 30
0.0
 10
1752.624330819587
 20
95.46977786544747
 30
0.0
 10
1751.867488130297
 20
98.1211299617887
 30
0.0
 10
1751.778442385439
 20
100.5054901255451
 30
0.0
 10
1752.024145143905
 20
102.3908754053013
 30
0.0
 10
1752.598971825774
 20
104.3171012344448
 30
0.0
 10
1753.618693751682
 20
106.614411913122
 30
0.0
 10
1755.09117228637
 20
109.107926629336
 30
0.0
 10
1756.897873073179
 20
111.6892627168213
 30
0.0
 10
1758.667733195466
 20
113.9896399087379
 30
0.0
 10
1760.070392723926
 20
115.712787623838
 30
0.0
 10
1760.714741597984
 20
116.4817461712232
 30
0.0
 10
1760.962319210399
 20
116.7772024510015
 30
0.0
  0
CIRCLE
  5
2FC
330
1F
100
AcDbEntity
  8
0
  6
Continuous
 62
   144
370
     0
100
AcDbCircle
 10
1220.85
 20
-310.0
 30
0.0
 40
20.74468085106333
  0
CIRCLE
  5
2FD
330
1F
100
AcDbEntity
  8
0
  6
Continuous
 62
   144
370
     0
100
AcDbCircle
 10
1220.85
 20
310.0
 30
0.0
 40
20.74468085106334
  0
SPLINE
  5
305
330
1F
100
AcDbEntity
  8
0
  6
Continuous
 62
   144
370
     0
100
AcDbSpline
210
0.0
220
0.0
230
1.0
 70
    11
 71
     3
 72
    84
 73
    80
 74
     0
 42
0.000000001
 43
0.00000001
 40
0.0
 40
0.0
 40
0.0
 40
0.0
 40
0.0312500000000018
 40
0.0312500000000018
 40
0.0468750000000046
 40
0.0468750000000046
 40
0.0625000000000073
 40
0.0625000000000073
 40
0.0937500000000109
 40
0.0937500000000109
 40
0.1250000000000144
 40
0.1250000000000144
 40
0.156250000000018
 40
0.156250000000018
 40
0.1875000000000215
 40
0.1875000000000215
 40
0.2031250000000233
 40
0.2031250000000233
 40
0.2187500000000251
 40
0.2187500000000251
 40
0.2500000000000275
 40
0.2500000000000275
 40
0.28125000000003
 40
0.28125000000003
 40
0.3125000000000324
 40
0.3125000000000324
 40
0.3281250000000336
 40
0.3281250000000336
 40
0.3437500000000348
 40
0.3437500000000348
 40
0.3750000000000399
 40
0.3750000000000399
 40
0.406250000000045
 40
0.406250000000045
 40
0.4218750000000476
 40
0.4218750000000476
 40
0.4375000000000501
 40
0.4375000000000501
 40
0.4687500000000531
 40
0.4687500000000531
 40
0.5000000000000562
 40
0.5000000000000562
 40
0.5312500000000593
 40
0.5312500000000593
 40
0.5625000000000623
 40
0.5625000000000623
 40
0.5781250000000627
 40
0.5781250000000627
 40
0.5937500000000633
 40
0.5937500000000633
 40
0.6250000000000603
 40
0.6250000000000603
 40
0.6562500000000574
 40
0.6562500000000574
 40
0.6875000000000544
 40
0.6875000000000544
 40
0.7031250000000518
 40
0.7031250000000518
 40
0.7187500000000494
 40
0.7187500000000494
 40
0.7500000000000424
 40
0.7500000000000424
 40
0.7812500000000354
 40
0.7812500000000354
 40
0.796875000000033
 40
0.796875000000033
 40
0.8125000000000304
 40
0.8125000000000304
 40
0.8437500000000253
 40
0.8437500000000253
 40
0.8750000000000203
 40
0.8750000000000203
 40
0.9062500000000152
 40
0.9062500000000152
 40
0.9375000000000102
 40
0.9375000000000102
 40
0.9687500000000051
 40
0.9687500000000051
 40
1.0
 40
1.0
 40
1.0
 40
1.0
 10
300.0000000000063
 20
-5.500000000015318
 30
0.0
 10
299.6361314076072
 20
-5.500000000015319
 30
0.0
 10
299.2784401497694
 20
-5.464247547729167
 30
0.0
 10
298.7507677596974
 20
-5.359251932870828
 30
0.0
 10
298.5763652354732
 20
-5.315628166265662
 30
0.0
 10
298.2305988458868
 20
-5.210744505402395
 30
0.0
 10
298.0588697618824
 20
-5.149222154404241
 30
0.0
 10
297.5595097726181
 20
-4.942055143016212
 30
0.0
 10
297.2437987534139
 20
-4.773093903219085
 30
0.0
 10
296.6463042969514
 20
-4.373990838120703
 30
0.0
 10
296.3637801186931
 20
-4.142010055029549
 30
0.0
 10
295.85719496613
 20
-3.635314122947041
 30
0.0
 10
295.6296984140101
 20
-3.358748606961099
 30
0.0
 10
295.227609084913
 20
-2.757718823745534
 30
0.0
 10
295.0570401321874
 20
-2.43831987413919
 30
0.0
 10
294.85119497286
 20
-1.942130481802711
 30
0.0
 10
294.7906144567879
 20
-1.773336146529156
 30
0.0
 10
294.685785934875
 20
-1.428827385106489
 30
0.0
 10
294.6413607525653
 20
-1.252101096642341
 30
0.0
 10
294.5352549752162
 20
-0.7194781272620426
 30
0.0
 10
294.5002032770274
 20
-0.3623089255718167
 30
0.0
 10
294.4997984692247
 20
0.3561107586197166
 30
0.0
 10
294.5356113162704
 20
0.7210478792202452
 30
0.0
 10
294.6761177549801
 20
1.426790654630782
 30
0.0
 10
294.780072497848
 20
1.769864746315916
 30
0.0
 10
294.9869284263399
 20
2.269720133464252
 30
0.0
 10
295.064888228142
 20
2.43458526039346
 30
0.0
 10
295.2350034611037
 20
2.752697145556519
 30
0.0
 10
295.3273371910005
 20
2.906591026129292
 30
0.0
 10
295.6256977297252
 20
3.353159126529538
 30
0.0
 10
295.8533389251356
 20
3.631338161385653
 30
0.0
 10
296.365833304274
 20
4.144182348762891
 30
0.0
 10
296.6430710671658
 20
4.371409645370295
 30
0.0
 10
297.089377543302
 20
4.67015261542527
 30
0.0
 10
297.2432590375516
 20
4.762664574959736
 30
0.0
 10
297.5615296754296
 20
4.93319947537161
 30
0.0
 10
297.7262497434648
 20
5.011238016343918
 30
0.0
 10
298.2253977497166
 20
5.218292210677037
 30
0.0
 10
298.5682026279526
 20
5.322540326326713
 30
0.0
 10
299.273883378021
 20
5.463719785207369
 30
0.0
 10
299.6387317534354
 20
5.499862107522142
 30
0.0
 10
300.3570573871227
 20
5.500137086477379
 30
0.0
 10
300.7143568119738
 20
5.465433328325275
 30
0.0
 10
301.4251346755532
 20
5.324496058570338
 30
0.0
 10
301.7718789538354
 20
5.219081497741315
 30
0.0
 10
302.2684680940147
 20
5.013595933372036
 30
0.0
 10
302.4306619498851
 20
4.937032319897932
 30
0.0
 10
302.7482932811427
 20
4.76752448165398
 30
0.0
 10
302.9045493701292
 20
4.673990527779988
 30
0.0
 10
303.3549512888231
 20
4.373177316224167
 30
0.0
 10
303.6316632154517
 20
4.146027486430943
 30
0.0
 10
304.1391377240615
 20
3.639513776588622
 30
0.0
 10
304.3714402282241
 20
3.356980150378727
 30
0.0
 10
304.7706229977804
 20
2.760427795115368
 30
0.0
 10
304.9398784564934
 20
2.444933066400374
 30
0.0
 10
305.1476251089476
 20
1.945373988149506
 30
0.0
 10
305.2093022528999
 20
1.773625428502219
 30
0.0
 10
305.3143777258898
 20
1.428273961561174
 30
0.0
 10
305.3581311595559
 20
1.254021901361537
 30
0.0
 10
305.4635681911717
 20
0.726625370284819
 30
0.0
 10
305.4996855232482
 20
0.3682995012494488
 30
0.0
 10
305.5003104148687
 20
-0.3588463701295246
 30
0.0
 10
305.4649218144165
 20
-0.7164799423614258
 30
0.0
 10
305.3603822931464
 20
-1.244379426772954
 30
0.0
 10
305.3168959857471
 20
-1.418910373435507
 30
0.0
 10
305.2122294822882
 20
-1.765036372166504
 30
0.0
 10
305.1508794828442
 20
-1.936719160200586
 30
0.0
 10
304.9442598559783
 20
-2.435991930465194
 30
0.0
 10
304.7755998774037
 20
-2.751886595922559
 30
0.0
 10
304.3767612010936
 20
-3.350103791599579
 30
0.0
 10
304.1451208657105
 20
-3.632662828401444
 30
0.0
 10
303.6390193163303
 20
-4.139541596793099
 30
0.0
 10
303.3625900578726
 20
-4.367374904010237
 30
0.0
 10
302.7613199933439
 20
-4.770334091428613
 30
0.0
 10
302.4427133300347
 20
-4.940790728341027
 30
0.0
 10
301.7813575060401
 20
-5.215843831027174
 30
0.0
 10
301.4342181736047
 20
-5.322064035294976
 30
0.0
 10
300.7234617929379
 20
-5.464242893524403
 30
0.0
 10
300.3638685924053
 20
-5.500000000015317
 30
0.0
 10
300.0000000000063
 20
-5.500000000015318
 30
0.0
  0
SPLINE
  5
306
330
1F
100
AcDbEntity
  8
0
  6
Continuous
 62
   144
370
     0
100
AcDbSpline
210
0.0
220
0.0
230
1.0
 70
    11
 71
     3
 72
    89
 73
    85
 74
     0
 42
0.000000001
 43
0.00000001
 40
0.0
 40
0.0
 40
0.0
 40
0.0
 40
0.0312500000000079
 40
0.0312500000000079
 40
0.0468750000000026
 40
0.0468750000000026
 40
0.0624999999999973
 40
0.0624999999999973
 40
0.0937499999999888
 40
0.0937499999999888
 40
0.1249999999999803
 40
0.1249999999999803
 40
0.1562499999999717
 40
0.1562499999999717
 40
0.171874999999971
 40
0.171874999999971
 40
0.1874999999999703
 40
0.2031249999999697
 40
0.2031249999999697
 40
0.218749999999969
 40
0.218749999999969
 40
0.2499999999999665
 40
0.2499999999999665
 40
0.281249999999964
 40
0.281249999999964
 40
0.3124999999999615
 40
0.3124999999999615
 40
0.328124999999956
 40
0.328124999999956
 40
0.3437499999999504
 40
0.3437499999999504
 40
0.3749999999999518
 40
0.3749999999999518
 40
0.4062499999999531
 40
0.4062499999999531
 40
0.4218749999999465
 40
0.4218749999999465
 40
0.4374999999999398
 40
0.4374999999999398
 40
0.4687499999999427
 40
0.4687499999999427
 40
0.4999999999999456
 40
0.4999999999999456
 40
0.5312499999999485
 40
0.5312499999999485
 40
0.5624999999999514
 40
0.5624999999999514
 40
0.5781249999999528
 40
0.5781249999999528
 40
0.5937499999999541
 40
0.5937499999999541
 40
0.6249999999999545
 40
0.6249999999999545
 40
0.6562499999999548
 40
0.6562499999999548
 40
0.6874999999999551
 40
0.6874999999999551
 40
0.7031249999999554
 40
0.7031249999999554
 40
0.7187499999999555
 40
0.7187499999999555
 40
0.7499999999999558
 40
0.7499999999999558
 40
0.7812499999999563
 40
0.7812499999999563
 40
0.7968749999999564
 40
0.7968749999999564
 40
0.8124999999999566
 40
0.8124999999999566
 40
0.8437499999999569
 40
0.8437499999999569
 40
0.8593749999999606
 40
0.8593749999999606
 40
0.8749999999999644
 40
0.8749999999999644
 40
0.9062499999999815
 40
0.9062499999999815
 40
0.9374999999999986
 40
0.9374999999999986
 40
0.9531249999999989
 40
0.9531249999999989
 40
0.9687499999999993
 40
0.9687499999999993
 40
1.0
 40
1.0
 40
1.0
 40
1.0
 10
-1149.999999999994
 20
-6.000000000015397
 30
0.0
 10
-1150.397054953688
 20
-6.0000000000154
 30
0.0
 10
-1150.787348589702
 20
-5.960976610146026
 30
0.0
 10
-1151.363091338745
 20
-5.846389654261952
 30
0.0
 10
-1151.553377455196
 20
-5.798782019777612
 30
0.0
 10
-1151.930626706473
 20
-5.684323614244037
 30
0.0
 10
-1152.117965320342
 20
-5.617193932616383
 30
0.0
 10
-1152.662681589123
 20
-5.391169247358568
 30
0.0
 10
-1153.007052348086
 20
-5.206843022562957
 30
0.0
 10
-1153.658786093402
 20
-4.771463340364698
 30
0.0
 10
-1153.966876930021
 20
-4.51846616084685
 30
0.0
 10
-1154.519352982895
 20
-3.96586656868734
 30
0.0
 10
-1154.767495539311
 20
-3.664226155108933
 30
0.0
 10
-1155.096482073704
 20
-3.172500942588293
 30
0.0
 10
-1155.198426878208
 20
-3.002468850380896
 30
0.0
 10
-1155.383398444137
 20
-2.656592669277249
 30
0.0
 10
-1155.550636312355
 20
-2.303196523392974
 30
0.0
 10
-1155.682845292981
 20
-1.934906343979339
 30
0.0
 10
-1155.797243331975
 20
-1.559026277453456
 30
0.0
 10
-1155.84573055987
 20
-1.366177355228888
 30
0.0
 10
-1155.961513570203
 20
-0.7850995672673982
 30
0.0
 10
-1155.999775763391
 20
-0.3953938644787919
 30
0.0
 10
-1156.000222290044
 20
0.3885588617895845
 30
0.0
 10
-1155.961127684433
 20
0.7867977736279059
 30
0.0
 10
-1155.80780010543
 20
1.556776137427516
 30
0.0
 10
-1155.694361046747
 20
1.931088538613733
 30
0.0
 10
-1155.468615415647
 20
2.476480992115156
 30
0.0
 10
-1155.383552915341
 20
2.656323329600032
 30
0.0
 10
-1155.198002109464
 20
3.003243195888773
 30
0.0
 10
-1155.097289443675
 20
3.171083116700126
 30
0.0
 10
-1154.771840145944
 20
3.658148827554925
 30
0.0
 10
-1154.523330400584
 20
3.961777827775342
 30
0.0
 10
-1153.964572993941
 20
4.520880715657743
 30
0.0
 10
-1153.662260850391
 20
4.768686610662104
 30
0.0
 10
-1153.175450325797
 20
5.094570331244707
 30
0.0
 10
-1153.007581877441
 20
5.195503322705763
 30
0.0
 10
-1152.660325255241
 20
5.381586481891563
 30
0.0
 10
-1152.480685922699
 20
5.466698468720738
 30
0.0
 10
-1151.936309361836
 20
5.692546463209437
 30
0.0
 10
-1151.562342863729
 20
5.806313327550987
 30
0.0
 10
-1150.792269712861
 20
5.96041092405777
 30
0.0
 10
-1150.394196890197
 20
5.999847440119494
 30
0.0
 10
-1149.61046104184
 20
6.000151655836269
 30
0.0
 10
-1149.220553190891
 20
5.962285279154028
 30
0.0
 10
-1148.444760467031
 20
5.808408824570616
 30
0.0
 10
-1148.066735698803
 20
5.693441296789103
 30
0.0
 10
-1147.524983615511
 20
5.469231212974805
 30
0.0
 10
-1147.348024669552
 20
5.385685682806095
 30
0.0
 10
-1147.001449961439
 20
5.200700058025215
 30
0.0
 10
-1146.830966503938
 20
5.098624529974279
 30
0.0
 10
-1146.339924300989
 20
4.770621287122063
 30
0.0
 10
-1146.038147352356
 20
4.522905143966811
 30
0.0
 10
-1145.484550293541
 20
3.970347754470487
 30
0.0
 10
-1145.231189008146
 20
3.662184582515649
 30
0.0
 10
-1144.79588565988
 20
3.011701865627486
 30
0.0
 10
-1144.611212600814
 20
2.667567019597009
 30
0.0
 10
-1144.384470742978
 20
2.122396528207332
 30
0.0
 10
-1144.317181182613
 20
1.935023682448786
 30
0.0
 10
-1144.202573259499
 20
1.558393259551803
 30
0.0
 10
-1144.154835738947
 20
1.368323888679088
 30
0.0
 10
-1144.039776817532
 20
0.7929449080036656
 30
0.0
 10
-1144.000329521447
 20
0.4014810005392142
 30
0.0
 10
-1143.999674570819
 20
-0.391570669180594
 30
0.0
 10
-1144.038274507506
 20
-0.7817329719460018
 30
0.0
 10
-1144.152376944765
 20
-1.357801136320815
 30
0.0
 10
-1144.199847516487
 20
-1.548283554594862
 30
0.0
 10
-1144.31413119664
 20
-1.926096245885112
 30
0.0
 10
-1144.381050383283
 20
-2.113287663604221
 30
0.0
 10
-1144.606416138323
 20
-2.657738005160918
 30
0.0
 10
-1144.790401047949
 20
-3.002325209938698
 30
0.0
 10
-1145.116840067816
 20
-3.491878943162473
 30
0.0
 10
-1145.234826499025
 20
-3.651293636177152
 30
0.0
 10
-1145.484648678934
 20
-3.956061950896484
 30
0.0
 10
-1145.616172049649
 20
-4.101241532692554
 30
0.0
 10
-1146.030083821076
 20
-4.515781655794518
 30
0.0
 10
-1146.331622486725
 20
-4.764350307487933
 30
0.0
 10
-1146.98788738099
 20
-5.204152669048806
 30
0.0
 10
-1147.334888023899
 20
-5.389788658824109
 30
0.0
 10
-1147.87598690397
 20
-5.614866808396187
 30
0.0
 10
-1148.06017286579
 20
-5.681174656249343
 30
0.0
 10
-1148.436354797426
 20
-5.796006251367909
 30
0.0
 10
-1148.629278119588
 20
-5.844671120423862
 30
0.0
 10
-1149.21066016815
 20
-5.960971275446055
 30
0.0
 10
-1149.6029450463
 20
-6.000000000015391
 30
0.0
 10
-1149.999999999994
 20
-6.000000000015396
 30
0.0
  0
SPLINE
  5
307
330
1F
100
AcDbEntity
  8
0
  6
Continuous
 62
   144
370
     0
100
AcDbSpline
210
0.0
220
0.0
230
1.0
 70
    11
 71
     3
 72
    89
 73
    85
 74
     0
 42
0.000000001
 43
0.00000001
 40
0.0
 40
0.0
 40
0.0
 40
0.0
 40
0.031250000000008
 40
0.031250000000008
 40
0.0468750000000027
 40
0.0468750000000027
 40
0.0624999999999975
 40
0.0624999999999975
 40
0.093749999999989
 40
0.093749999999989
 40
0.1249999999999804
 40
0.1249999999999804
 40
0.1562499999999719
 40
0.1562499999999719
 40
0.1718749999999712
 40
0.1718749999999712
 40
0.1874999999999705
 40
0.2031249999999698
 40
0.2031249999999698
 40
0.2187499999999691
 40
0.2187499999999691
 40
0.2499999999999666
 40
0.2499999999999666
 40
0.2812499999999642
 40
0.2812499999999642
 40
0.3124999999999617
 40
0.3124999999999617
 40
0.3281249999999561
 40
0.3281249999999561
 40
0.3437499999999506
 40
0.3437499999999506
 40
0.3749999999999518
 40
0.3749999999999518
 40
0.406249999999953
 40
0.406249999999953
 40
0.4218749999999463
 40
0.4218749999999463
 40
0.4374999999999395
 40
0.4374999999999395
 40
0.4687499999999424
 40
0.4687499999999424
 40
0.4999999999999452
 40
0.4999999999999452
 40
0.531249999999948
 40
0.531249999999948
 40
0.5624999999999509
 40
0.5624999999999509
 40
0.5781249999999524
 40
0.5781249999999524
 40
0.5937499999999538
 40
0.5937499999999538
 40
0.624999999999954
 40
0.624999999999954
 40
0.6562499999999544
 40
0.6562499999999544
 40
0.6874999999999547
 40
0.6874999999999547
 40
0.7031249999999548
 40
0.7031249999999548
 40
0.718749999999955
 40
0.718749999999955
 40
0.7499999999999554
 40
0.7499999999999554
 40
0.7812499999999557
 40
0.7812499999999557
 40
0.7968749999999559
 40
0.7968749999999559
 40
0.8124999999999561
 40
0.8124999999999561
 40
0.8437499999999565
 40
0.8437499999999565
 40
0.8593749999999603
 40
0.8593749999999603
 40
0.8749999999999639
 40
0.8749999999999639
 40
0.9062499999999811
 40
0.9062499999999811
 40
0.9374999999999983
 40
0.9374999999999983
 40
0.9531249999999988
 40
0.9531249999999988
 40
0.9687499999999992
 40
0.9687499999999992
 40
1.0
 40
1.0
 40
1.0
 40
1.0
 10
-1049.999999999994
 20
-6.00000000001538
 30
0.0
 10
-1050.397054953688
 20
-6.00000000001538
 30
0.0
 10
-1050.787348589701
 20
-5.960976610146006
 30
0.0
 10
-1051.363091338745
 20
-5.846389654261933
 30
0.0
 10
-1051.553377455196
 20
-5.798782019777592
 30
0.0
 10
-1051.930626706473
 20
-5.684323614244019
 30
0.0
 10
-1052.117965320342
 20
-5.617193932616367
 30
0.0
 10
-1052.662681589123
 20
-5.391169247358551
 30
0.0
 10
-1053.007052348085
 20
-5.206843022562937
 30
0.0
 10
-1053.658786093402
 20
-4.771463340364679
 30
0.0
 10
-1053.966876930021
 20
-4.518466160846832
 30
0.0
 10
-1054.519352982894
 20
-3.965866568687319
 30
0.0
 10
-1054.767495539311
 20
-3.664226155108914
 30
0.0
 10
-1055.096482073704
 20
-3.172500942588276
 30
0.0
 10
-1055.198426878208
 20
-3.002468850380879
 30
0.0
 10
-1055.383398444136
 20
-2.656592669277233
 30
0.0
 10
-1055.550636312355
 20
-2.303196523392957
 30
0.0
 10
-1055.682845292981
 20
-1.934906343979322
 30
0.0
 10
-1055.797243331975
 20
-1.559026277453442
 30
0.0
 10
-1055.84573055987
 20
-1.366177355228874
 30
0.0
 10
-1055.961513570203
 20
-0.7850995672673834
 30
0.0
 10
-1055.999775763391
 20
-0.3953938644787765
 30
0.0
 10
-1056.000222290044
 20
0.3885588617895982
 30
0.0
 10
-1055.961127684434
 20
0.7867977736279214
 30
0.0
 10
-1055.807800105429
 20
1.556776137427531
 30
0.0
 10
-1055.694361046747
 20
1.931088538613748
 30
0.0
 10
-1055.468615415647
 20
2.476480992115168
 30
0.0
 10
-1055.383552915341
 20
2.656323329600049
 30
0.0
 10
-1055.198002109464
 20
3.003243195888788
 30
0.0
 10
-1055.097289443676
 20
3.171083116700144
 30
0.0
 10
-1054.771840145944
 20
3.658148827554938
 30
0.0
 10
-1054.523330400584
 20
3.96177782777536
 30
0.0
 10
-1053.964572993942
 20
4.520880715657762
 30
0.0
 10
-1053.66226085039
 20
4.76868661066212
 30
0.0
 10
-1053.175450325798
 20
5.094570331244727
 30
0.0
 10
-1053.007581877441
 20
5.195503322705786
 30
0.0
 10
-1052.660325255241
 20
5.381586481891583
 30
0.0
 10
-1052.480685922698
 20
5.466698468720753
 30
0.0
 10
-1051.936309361835
 20
5.692546463209458
 30
0.0
 10
-1051.562342863728
 20
5.806313327551002
 30
0.0
 10
-1050.792269712861
 20
5.960410924057786
 30
0.0
 10
-1050.394196890197
 20
5.999847440119512
 30
0.0
 10
-1049.61046104184
 20
6.000151655836291
 30
0.0
 10
-1049.220553190892
 20
5.962285279154047
 30
0.0
 10
-1048.444760467031
 20
5.808408824570634
 30
0.0
 10
-1048.066735698802
 20
5.693441296789119
 30
0.0
 10
-1047.524983615512
 20
5.469231212974824
 30
0.0
 10
-1047.348024669552
 20
5.385685682806109
 30
0.0
 10
-1047.001449961439
 20
5.200700058025234
 30
0.0
 10
-1046.830966503938
 20
5.098624529974302
 30
0.0
 10
-1046.339924300989
 20
4.770621287122082
 30
0.0
 10
-1046.038147352356
 20
4.522905143966828
 30
0.0
 10
-1045.484550293541
 20
3.970347754470504
 30
0.0
 10
-1045.231189008146
 20
3.662184582515669
 30
0.0
 10
-1044.79588565988
 20
3.011701865627506
 30
0.0
 10
-1044.611212600814
 20
2.667567019597056
 30
0.0
 10
-1044.384470742978
 20
2.122396528207374
 30
0.0
 10
-1044.317181182613
 20
1.935023682448807
 30
0.0
 10
-1044.202573259498
 20
1.55839325955183
 30
0.0
 10
-1044.154835738948
 20
1.368323888679115
 30
0.0
 10
-1044.039776817532
 20
0.7929449080036917
 30
0.0
 10
-1044.000329521447
 20
0.40148100053924
 30
0.0
 10
-1043.999674570819
 20
-0.3915706691805732
 30
0.0
 10
-1044.038274507505
 20
-0.7817329719459809
 30
0.0
 10
-1044.152376944765
 20
-1.357801136320796
 30
0.0
 10
-1044.199847516487
 20
-1.54828355459484
 30
0.0
 10
-1044.314131196639
 20
-1.926096245885092
 30
0.0
 10
-1044.381050383283
 20
-2.113287663604206
 30
0.0
 10
-1044.606416138323
 20
-2.657738005160903
 30
0.0
 10
-1044.790401047949
 20
-3.002325209938685
 30
0.0
 10
-1045.116840067816
 20
-3.491878943162452
 30
0.0
 10
-1045.234826499026
 20
-3.651293636177128
 30
0.0
 10
-1045.484648678934
 20
-3.956061950896464
 30
0.0
 10
-1045.616172049649
 20
-4.101241532692534
 30
0.0
 10
-1046.030083821076
 20
-4.515781655794499
 30
0.0
 10
-1046.331622486725
 20
-4.764350307487914
 30
0.0
 10
-1046.98788738099
 20
-5.204152669048789
 30
0.0
 10
-1047.334888023899
 20
-5.389788658824092
 30
0.0
 10
-1047.875986903971
 20
-5.61486680839617
 30
0.0
 10
-1048.060172865789
 20
-5.68117465624925
 30
0.0
 10
-1048.436354797426
 20
-5.796006251367831
 30
0.0
 10
-1048.629278119587
 20
-5.84467112042385
 30
0.0
 10
-1049.210660168151
 20
-5.960971275446045
 30
0.0
 10
-1049.602945046299
 20
-6.000000000015379
 30
0.0
 10
-1049.999999999994
 20
-6.00000000001538
 30
0.0
  0
SPLINE
  5
308
330
1F
100
AcDbEntity
  8
0
  6
Continuous
 62
   144
370
     0
100
AcDbSpline
210
0.0
220
0.0
230
1.0
 70
    11
 71
     3
 72
    89
 73
    85
 74
     0
 42
0.000000001
 43
0.00000001
 40
0.0
 40
0.0
 40
0.0
 40
0.0
 40
0.0312500000000034
 40
0.0312500000000034
 40
0.0468750000000057
 40
0.0468750000000057
 40
0.0625000000000079
 40
0.0625000000000079
 40
0.0937500000000123
 40
0.0937500000000123
 40
0.1250000000000168
 40
0.1250000000000168
 40
0.1562500000000213
 40
0.1562500000000213
 40
0.1718750000000216
 40
0.1718750000000216
 40
0.1875000000000219
 40
0.2031250000000223
 40
0.2031250000000223
 40
0.2187500000000226
 40
0.2187500000000226
 40
0.2500000000000226
 40
0.2500000000000226
 40
0.2812500000000227
 40
0.2812500000000227
 40
0.3125000000000228
 40
0.3125000000000228
 40
0.3281250000000218
 40
0.3281250000000218
 40
0.3437500000000209
 40
0.3437500000000209
 40
0.3750000000000228
 40
0.3750000000000228
 40
0.4062500000000246
 40
0.4062500000000246
 40
0.4218750000000256
 40
0.4218750000000256
 40
0.4375000000000266
 40
0.4375000000000266
 40
0.4687500000000286
 40
0.4687500000000286
 40
0.5000000000000305
 40
0.5000000000000305
 40
0.5312500000000325
 40
0.5312500000000325
 40
0.5625000000000344
 40
0.5625000000000344
 40
0.5781250000000344
 40
0.5781250000000344
 40
0.5937500000000343
 40
0.5937500000000343
 40
0.6250000000000334
 40
0.6250000000000334
 40
0.6562500000000326
 40
0.6562500000000326
 40
0.6875000000000319
 40
0.6875000000000319
 40
0.7031250000000314
 40
0.7031250000000314
 40
0.718750000000031
 40
0.718750000000031
 40
0.7500000000000302
 40
0.7500000000000302
 40
0.7812500000000294
 40
0.7812500000000294
 40
0.796875000000029
 40
0.796875000000029
 40
0.8125000000000285
 40
0.8125000000000285
 40
0.8437500000000285
 40
0.8437500000000285
 40
0.8593750000000278
 40
0.8593750000000278
 40
0.875000000000027
 40
0.875000000000027
 40
0.9062500000000213
 40
0.9062500000000213
 40
0.9375000000000157
 40
0.9375000000000157
 40
0.9531250000000118
 40
0.9531250000000118
 40
0.9687500000000079
 40
0.9687500000000079
 40
1.0
 40
1.0
 40
1.0
 40
1.0
 10
-199.9999999999938
 20
-6.000000000015287
 30
0.0
 10
-200.397054953688
 20
-6.000000000015286
 30
0.0
 10
-200.7873485897013
 20
-5.960976610145862
 30
0.0
 10
-201.363091338745
 20
-5.846389654261841
 30
0.0
 10
-201.5533774551955
 20
-5.798782019777492
 30
0.0
 10
-201.9306267064726
 20
-5.684323614243917
 30
0.0
 10
-202.117965320342
 20
-5.617193932616241
 30
0.0
 10
-202.6626815891232
 20
-5.391169247358421
 30
0.0
 10
-203.007052348085
 20
-5.206843022562914
 30
0.0
 10
-203.6587860934018
 20
-4.771463340364687
 30
0.0
 10
-203.9668769300212
 20
-4.518466160846782
 30
0.0
 10
-204.5193529828943
 20
-3.965866568687287
 30
0.0
 10
-204.7674955393113
 20
-3.664226155108987
 30
0.0
 10
-205.0964820737035
 20
-3.172500942588244
 30
0.0
 10
-205.1984268782073
 20
-3.002468850380835
 30
0.0
 10
-205.3833982867681
 20
-2.656592571619749
 30
0.0
 10
-205.5506363123545
 20
-2.303196523392939
 30
0.0
 10
-205.6828452929806
 20
-1.934906343979354
 30
0.0
 10
-205.7972433319742
 20
-1.559026277453482
 30
0.0
 10
-205.8457305598702
 20
-1.366177355228891
 30
0.0
 10
-205.9615135702028
 20
-0.78509956726741
 30
0.0
 10
-205.999775763391
 20
-0.3953938644787972
 30
0.0
 10
-206.000222290044
 20
0.3885588617895707
 30
0.0
 10
-205.9611276844333
 20
0.7867977736278506
 30
0.0
 10
-205.8078001054287
 20
1.556776137427456
 30
0.0
 10
-205.6943610467463
 20
1.931088538613758
 30
0.0
 10
-205.4686154156466
 20
2.47648099211509
 30
0.0
 10
-205.3835529153405
 20
2.656323329600003
 30
0.0
 10
-205.1980021094635
 20
3.003243195888735
 30
0.0
 10
-205.0972894436757
 20
3.171083116699964
 30
0.0
 10
-204.7718401459434
 20
3.658148827554801
 30
0.0
 10
-204.5233304005842
 20
3.961777827775299
 30
0.0
 10
-203.964572993941
 20
4.520880715657691
 30
0.0
 10
-203.6622608503899
 20
4.768686610662071
 30
0.0
 10
-203.1754503257973
 20
5.094570331244574
 30
0.0
 10
-203.0075818774402
 20
5.195503322705669
 30
0.0
 10
-202.6603252552412
 20
5.381586481891468
 30
0.0
 10
-202.4806859226978
 20
5.466698468720566
 30
0.0
 10
-201.936309361835
 20
5.692546463209302
 30
0.0
 10
-201.5623428637281
 20
5.806313327550845
 30
0.0
 10
-200.7922697128605
 20
5.960410924057635
 30
0.0
 10
-200.3941968901972
 20
5.999847440119365
 30
0.0
 10
-199.6104610418403
 20
6.000151655836182
 30
0.0
 10
-199.2205531908918
 20
5.962285279153946
 30
0.0
 10
-198.4447604670309
 20
5.808408824570558
 30
0.0
 10
-198.0667356988031
 20
5.693441296789064
 30
0.0
 10
-197.5249836155109
 20
5.469231212974787
 30
0.0
 10
-197.3480246695517
 20
5.385685682806021
 30
0.0
 10
-197.0014499614389
 20
5.200700058025163
 30
0.0
 10
-196.830966503938
 20
5.098624529974114
 30
0.0
 10
-196.3399243009889
 20
4.770621287121902
 30
0.0
 10
-196.038147352356
 20
4.522905143966746
 30
0.0
 10
-195.484550293541
 20
3.970347754470442
 30
0.0
 10
-195.231189008146
 20
3.662184582515585
 30
0.0
 10
-194.7958856598799
 20
3.011701865627444
 30
0.0
 10
-194.6112126008144
 20
2.667567019597037
 30
0.0
 10
-194.3844707429773
 20
2.122396528207385
 30
0.0
 10
-194.317181182613
 20
1.935023682448772
 30
0.0
 10
-194.2025732594985
 20
1.558393259551804
 30
0.0
 10
-194.154835738948
 20
1.368323888679067
 30
0.0
 10
-194.0397768175318
 20
0.7929449080036531
 30
0.0
 10
-194.0003295214471
 20
0.4014810005392461
 30
0.0
 10
-193.9996745708191
 20
-0.3915706691805729
 30
0.0
 10
-194.0382745075047
 20
-0.7817329719459686
 30
0.0
 10
-194.1523769447646
 20
-1.357801136320783
 30
0.0
 10
-194.1998475164869
 20
-1.54828355459481
 30
0.0
 10
-194.3141311966393
 20
-1.926096245885055
 30
0.0
 10
-194.3810503832824
 20
-2.113287663604136
 30
0.0
 10
-194.6064161383227
 20
-2.657738005160815
 30
0.0
 10
-194.7904010479486
 20
-3.00232520993851
 30
0.0
 10
-195.1168400678156
 20
-3.491878943162376
 30
0.0
 10
-195.2348264990251
 20
-3.65129363617704
 30
0.0
 10
-195.4846486789336
 20
-3.956061950896373
 30
0.0
 10
-195.6161720496494
 20
-4.101241532692383
 30
0.0
 10
-196.0300838210759
 20
-4.5157816557944
 30
0.0
 10
-196.3316224867251
 20
-4.764350307487905
 30
0.0
 10
-196.98788738099
 20
-5.204152669048746
 30
0.0
 10
-197.3348880238993
 20
-5.389788658824043
 30
0.0
 10
-197.87598690397
 20
-5.614866808396053
 30
0.0
 10
-198.060172865789
 20
-5.68117465624922
 30
0.0
 10
-198.4363547974255
 20
-5.796006251367783
 30
0.0
 10
-198.6292781195875
 20
-5.844671120423734
 30
0.0
 10
-199.2106601681502
 20
-5.960971275445937
 30
0.0
 10
-199.6029450462998
 20
-6.000000000015289
 30
0.0
 10
-199.9999999999938
 20
-6.000000000015287
 30
0.0
  0
SPLINE
  5
309
330
1F
100
AcDbEntity
  8
0
  6
Continuous
 62
   144
370
     0
100
AcDbSpline
210
0.0
220
0.0
230
1.0
 70
    11
 71
     3
 72
    89
 73
    85
 74
     0
 42
0.000000001
 43
0.00000001
 40
0.0
 40
0.0
 40
0.0
 40
0.0
 40
0.0312500000000028
 40
0.0312500000000028
 40
0.0468750000000037
 40
0.0468750000000037
 40
0.0625000000000046
 40
0.0625000000000046
 40
0.0937500000000083
 40
0.0937500000000083
 40
0.125000000000012
 40
0.125000000000012
 40
0.1562500000000158
 40
0.1562500000000158
 40
0.1718750000000163
 40
0.1718750000000163
 40
0.1875000000000169
 40
0.2031250000000175
 40
0.2031250000000175
 40
0.2187500000000181
 40
0.2187500000000181
 40
0.2500000000000184
 40
0.2500000000000184
 40
0.2812500000000187
 40
0.2812500000000187
 40
0.312500000000019
 40
0.312500000000019
 40
0.3281250000000182
 40
0.3281250000000182
 40
0.3437500000000173
 40
0.3437500000000173
 40
0.3750000000000182
 40
0.3750000000000182
 40
0.4062500000000192
 40
0.4062500000000192
 40
0.4218750000000201
 40
0.4218750000000201
 40
0.437500000000021
 40
0.437500000000021
 40
0.4687500000000229
 40
0.4687500000000229
 40
0.5000000000000248
 40
0.5000000000000248
 40
0.5312500000000268
 40
0.5312500000000268
 40
0.5625000000000285
 40
0.5625000000000285
 40
0.5781250000000295
 40
0.5781250000000295
 40
0.5937500000000305
 40
0.5937500000000305
 40
0.6250000000000306
 40
0.6250000000000306
 40
0.6562500000000309
 40
0.6562500000000309
 40
0.687500000000031
 40
0.687500000000031
 40
0.7031250000000309
 40
0.7031250000000309
 40
0.7187500000000308
 40
0.7187500000000308
 40
0.7500000000000305
 40
0.7500000000000305
 40
0.7812500000000304
 40
0.7812500000000304
 40
0.7968750000000304
 40
0.7968750000000304
 40
0.8125000000000304
 40
0.8125000000000304
 40
0.8437500000000303
 40
0.8437500000000303
 40
0.8593750000000288
 40
0.8593750000000288
 40
0.8750000000000272
 40
0.8750000000000272
 40
0.9062500000000219
 40
0.9062500000000219
 40
0.9375000000000167
 40
0.9375000000000167
 40
0.9531250000000125
 40
0.9531250000000125
 40
0.9687500000000083
 40
0.9687500000000083
 40
1.0
 40
1.0
 40
1.0
 40
1.0
 10
-99.99999999999369
 20
-6.000000000015302
 30
0.0
 10
-100.3970549536879
 20
-6.000000000015301
 30
0.0
 10
-100.787348589701
 20
-5.960976610145879
 30
0.0
 10
-101.3630913387448
 20
-5.84638965426185
 30
0.0
 10
-101.5533774551955
 20
-5.798782019777505
 30
0.0
 10
-101.9306267064725
 20
-5.684323614243928
 30
0.0
 10
-102.1179653203419
 20
-5.617193932616245
 30
0.0
 10
-102.6626815891232
 20
-5.391169247358428
 30
0.0
 10
-103.007052348085
 20
-5.206843022562917
 30
0.0
 10
-103.6587860934017
 20
-4.771463340364682
 30
0.0
 10
-103.9668769300212
 20
-4.518466160846772
 30
0.0
 10
-104.5193529828944
 20
-3.96586656868727
 30
0.0
 10
-104.7674955393112
 20
-3.664226155108965
 30
0.0
 10
-105.0964820737035
 20
-3.172500942588237
 30
0.0
 10
-105.1984268782073
 20
-3.002468850380814
 30
0.0
 10
-105.3833984441364
 20
-2.656592669277235
 30
0.0
 10
-105.5506363123545
 20
-2.30319652339294
 30
0.0
 10
-105.6828452929805
 20
-1.934906343979333
 30
0.0
 10
-105.7972433319741
 20
-1.559026277453457
 30
0.0
 10
-105.8457305598701
 20
-1.366177355228863
 30
0.0
 10
-105.9615135702028
 20
-0.785099567267379
 30
0.0
 10
-105.9997757633908
 20
-0.3953938644787646
 30
0.0
 10
-106.0002222900439
 20
0.3885588617896111
 30
0.0
 10
-105.9611276844333
 20
0.786797773627894
 30
0.0
 10
-105.8078001054286
 20
1.556776137427506
 30
0.0
 10
-105.6943610467464
 20
1.931088538613804
 30
0.0
 10
-105.4686154156466
 20
2.476480992115138
 30
0.0
 10
-105.3835529153405
 20
2.65632332960004
 30
0.0
 10
-105.1980021094635
 20
3.003243195888773
 30
0.0
 10
-105.0972894436755
 20
3.171083116700014
 30
0.0
 10
-104.7718401459433
 20
3.658148827554855
 30
0.0
 10
-104.5233304005842
 20
3.961777827775358
 30
0.0
 10
-103.9645729939409
 20
4.520880715657747
 30
0.0
 10
-103.6622608503898
 20
4.768686610662143
 30
0.0
 10
-103.1754503257972
 20
5.094570331244641
 30
0.0
 10
-103.0075818774401
 20
5.195503322705719
 30
0.0
 10
-102.660325255241
 20
5.381586481891517
 30
0.0
 10
-102.4806859226977
 20
5.466698468720615
 30
0.0
 10
-101.9363093618349
 20
5.692546463209357
 30
0.0
 10
-101.5623428637281
 20
5.806313327550903
 30
0.0
 10
-100.7922697128604
 20
5.960410924057692
 30
0.0
 10
-100.3941968901971
 20
5.999847440119419
 30
0.0
 10
-99.61046104184021
 20
6.000151655836224
 30
0.0
 10
-99.22055319089172
 20
5.96228527915399
 30
0.0
 10
-98.44476046703073
 20
5.808408824570602
 30
0.0
 10
-98.06673569880294
 20
5.693441296789085
 30
0.0
 10
-97.52498361551075
 20
5.469231212974811
 30
0.0
 10
-97.34802466955165
 20
5.385685682806047
 30
0.0
 10
-97.00144996143877
 20
5.200700058025182
 30
0.0
 10
-96.83096650393792
 20
5.098624529974152
 30
0.0
 10
-96.33992430098876
 20
4.770621287121931
 30
0.0
 10
-96.03814735235595
 20
4.522905143966772
 30
0.0
 10
-95.48455029354099
 20
3.97034775447046
 30
0.0
 10
-95.23118900814582
 20
3.662184582515597
 30
0.0
 10
-94.79588565987972
 20
3.01170186562745
 30
0.0
 10
-94.61121260081421
 20
2.667567019597052
 30
0.0
 10
-94.38447074297716
 20
2.122396528207388
 30
0.0
 10
-94.31718118261298
 20
1.935023682448779
 30
0.0
 10
-94.20257325949844
 20
1.558393259551808
 30
0.0
 10
-94.15483573894794
 20
1.368323888679061
 30
0.0
 10
-94.03977681753159
 20
0.7929449080036469
 30
0.0
 10
-94.00032952144693
 20
0.4014810005392338
 30
0.0
 10
-93.99967457081895
 20
-0.3915706691805871
 30
0.0
 10
-94.03827450750458
 20
-0.7817329719459852
 30
0.0
 10
-94.15237694476458
 20
-1.357801136320797
 30
0.0
 10
-94.19984751648684
 20
-1.548283554594829
 30
0.0
 10
-94.3141311966393
 20
-1.926096245885074
 30
0.0
 10
-94.38105038328224
 20
-2.113287663604143
 30
0.0
 10
-94.60641613832257
 20
-2.657738005160838
 30
0.0
 10
-94.79040104794844
 20
-3.00232520993853
 30
0.0
 10
-95.11684006781566
 20
-3.491878943162406
 30
0.0
 10
-95.23482649902517
 20
-3.651293636177062
 30
0.0
 10
-95.4846486789336
 20
-3.956061950896395
 30
0.0
 10
-95.61617204964934
 20
-4.101241532692428
 30
0.0
 10
-96.03008382107583
 20
-4.515781655794438
 30
0.0
 10
-96.33162248672501
 20
-4.764350307487935
 30
0.0
 10
-96.9878873809899
 20
-5.204152669048777
 30
0.0
 10
-97.33488802389921
 20
-5.389788658824063
 30
0.0
 10
-97.87598690396995
 20
-5.614866808396075
 30
0.0
 10
-98.06017286578899
 20
-5.681174656249249
 30
0.0
 10
-98.43635479742554
 20
-5.796006251367811
 30
0.0
 10
-98.62927811958748
 20
-5.844671120423761
 30
0.0
 10
-99.21066016815021
 20
-5.960971275445956
 30
0.0
 10
-99.60294504629961
 20
-6.0000000000153
 30
0.0
 10
-99.99999999999368
 20
-6.0000000000153
 30
0.0
  0
SPLINE
  5
32D
330
1F
100
AcDbEntity
  8
0
  6
Continuous
 62
   144
370
     0
100
AcDbSpline
210
0.0
220
0.0
230
1.0
 70
     8
 71
     3
 72
    17
 73
    13
 74
     0
 42
0.000000001
 43
0.00000001
 40
0.0
 40
0.0
 40
0.0
 40
0.0
 40
0.1069931859279915
 40
0.2139730825695681
 40
0.3212985162758059
 40
0.4288570178421884
 40
0.5360374871088059
 40
0.6428183710019161
 40
0.7498015371027945
 40
0.8572722195230075
 40
0.9647573558555601
 40
1.0
 40
1.0
 40
1.0
 40
1.0
 10
-3746.034633698667
 20
398.3187258276384
 30
0.0
 10
-3746.095443858909
 20
398.3176520738557
 30
0.0
 10
-3746.217056626353
 20
398.315504699658
 30
0.0
 10
-3747.163762235102
 20
398.3092714315312
 30
0.0
 10
-3748.557793901121
 20
398.3315301776792
 30
0.0
 10
-3750.298642901796
 20
398.4112067927406
 30
0.0
 10
-3752.169841844817
 20
398.5628959662249
 30
0.0
 10
-3753.957975161655
 20
398.7716775605347
 30
0.0
 10
-3755.482479968767
 20
398.9998316776457
 30
0.0
 10
-3756.523909170412
 20
399.1816587616514
 30
0.0
 10
-3757.020931132813
 20
399.2762810663195
 30
0.0
 10
-3756.944524460255
 20
399.2618148409053
 30
0.0
 10
-3756.92565796375
 20
399.2582428100596
 30
0.0
  0
SPLINE
  5
330
330
1F
100
AcDbEntity
  8
0
  6
Continuous
 62
   144
370
     0
100
AcDbSpline
210
0.0
220
0.0
230
1.0
 70
     8
 71
     3
 72
    17
 73
    13
 74
     0
 42
0.000000001
 43
0.00000001
 40
0.0
 40
0.0
 40
0.0
 40
0.0
 40
0.1069931859279944
 40
0.2139730825695739
 40
0.3212985162758145
 40
0.4288570178422003
 40
0.5360374871088207
 40
0.642818371001933
 40
0.7498015371028143
 40
0.8572722195230308
 40
0.9647573558555862
 40
1.0
 40
1.0
 40
1.0
 40
1.0
 10
3746.034633698657
 20
-398.3187258276659
 30
0.0
 10
3746.095443858899
 20
-398.3176520738833
 30
0.0
 10
3746.217056626343
 20
-398.3155046996855
 30
0.0
 10
3747.163762235094
 20
-398.3092714315588
 30
0.0
 10
3748.557793901109
 20
-398.3315301777066
 30
0.0
 10
3750.298642901787
 20
-398.4112067927683
 30
0.0
 10
3752.169841844808
 20
-398.5628959662527
 30
0.0
 10
3753.957975161647
 20
-398.7716775605624
 30
0.0
 10
3755.482479968756
 20
-398.9998316776729
 30
0.0
 10
3756.523909170404
 20
-399.1816587616793
 30
0.0
 10
3757.020931132803
 20
-399.2762810663472
 30
0.0
 10
3756.944524460244
 20
-399.2618148409328
 30
0.0
 10
3756.925657963741
 20
-399.2582428100873
 30
0.0
  0
SPLINE
  5
336
330
1F
100
AcDbEntity
  8
0
  6
Continuous
 62
   144
370
     0
100
AcDbSpline
210
0.0
220
0.0
230
1.0
 70
     8
 71
     3
 72
    17
 73
    13
 74
     0
 42
0.000000001
 43
0.00000001
 40
0.0
 40
0.0
 40
0.0
 40
0.0
 40
0.1069931859280161
 40
0.2139730825696548
 40
0.3212985162758494
 40
0.4288570178422461
 40
0.5360374871088565
 40
0.6428183710019992
 40
0.7498015371028693
 40
0.8572722195230866
 40
0.964757355855588
 40
1.0
 40
1.0
 40
1.0
 40
1.0
 10
3807.048025851012
 20
-403.3438096315298
 30
0.0
 10
3806.988310934234
 20
-403.3322702532952
 30
0.0
 10
3806.868888517682
 20
-403.3091929300958
 30
0.0
 10
3805.937426937638
 20
-403.1398716727956
 30
0.0
 10
3804.560423460983
 20
-402.9215115049068
 30
0.0
 10
3802.831896589884
 20
-402.6999297772658
 30
0.0
 10
3800.962558136543
 20
-402.5268146809063
 30
0.0
 10
3799.165201164045
 20
-402.4242553014319
 30
0.0
 10
3797.624187703917
 20
-402.3862194792441
 30
0.0
 10
3796.567004792515
 20
-402.3858165511326
 30
0.0
 10
3796.061112090511
 20
-402.393352180607
 30
0.0
 10
3796.138868669562
 20
-402.3922725029183
 30
0.0
 10
3796.158068487818
 20
-402.3920059066295
 30
0.0
  0
SPLINE
  5
339
330
1F
100
AcDbEntity
  8
0
  6
Continuous
 62
   144
370
     0
100
AcDbSpline
210
0.0
220
0.0
230
1.0
 70
     8
 71
     3
 72
    16
 73
    12
 74
     0
 42
0.000000001
 43
0.00000001
 40
0.0
 40
0.0
 40
0.0
 40
0.0
 40
0.1112988036219434
 40
0.2225793392415699
 40
0.3342722632472823
 40
0.445955764065368
 40
0.5570409033949699
 40
0.6678718741820382
 40
0.779183661576951
 40
0.8909674991696336
 40
1.0
 40
1.0
 40
1.0
 40
1.0
 10
4954.954324257214
 20
-502.9362740923146
 30
0.0
 10
4955.382249255088
 20
-502.9567070187758
 30
0.0
 10
4956.238029013468
 20
-502.9975695179445
 30
0.0
 10
4956.780482366987
 20
-502.926761187912
 30
0.0
 10
4956.677238337357
 20
-502.8071080469374
 30
0.0
 10
4955.89033405413
 20
-502.6774795047224
 30
0.0
 10
4954.523166088034
 20
-502.5753496333354
 30
0.0
 10
4952.728035032073
 20
-502.5061007639319
 30
0.0
 10
4950.713859502487
 20
-502.4487767456097
 30
0.0
 10
4948.680088940032
 20
-502.3761291337167
 30
0.0
 10
4947.559267573003
 20
-502.2924349603493
 30
0.0
 10
4947.005839518249
 20
-502.2511092817681
 30
0.0
  0
SPLINE
  5
33A
330
1F
100
AcDbEntity
  8
0
  6
Continuous
 62
   144
370
     0
100
AcDbSpline
210
0.0
220
0.0
230
1.0
 70
     8
 71
     3
 72
    10
 73
     6
 74
     0
 42
0.000000001
 43
0.00000001
 40
0.0
 40
0.0
 40
0.0
 40
0.0
 40
0.2870829202728831
 40
0.7167532255821583
 40
0.9999999999999999
 40
0.9999999999999999
 40
0.9999999999999999
 40
0.9999999999999999
 10
4950.738253741423
 20
-502.4470758552197
 30
0.0
 10
4951.185780764357
 20
-502.5105065270148
 30
0.0
 10
4952.30311103576
 20
-502.668872404604
 30
0.0
 10
4953.782725173797
 20
-502.8448366661964
 30
0.0
 10
4954.621194036889
 20
-502.9102735587955
 30
0.0
 10
4954.954323383447
 20
-502.9362720785163
 30
0.0
  0
SPLINE
  5
33B
330
1F
100
AcDbEntity
  8
0
  6
Continuous
 62
   144
370
     0
100
AcDbSpline
210
0.0
220
0.0
230
1.0
 70
     8
 71
     3
 72
    10
 73
     6
 74
     0
 42
0.000000001
 43
0.00000001
 40
0.0
 40
0.0
 40
0.0
 40
0.0
 40
0.4238693446774401
 40
0.8476989160364901
 40
0.9999999999999999
 40
0.9999999999999999
 40
0.9999999999999999
 40
0.9999999999999999
 10
4964.288928217643
 20
-395.3510081077106
 30
0.0
 10
4963.77131776187
 20
-395.3042113265452
 30
0.0
 10
4962.736145419737
 20
-395.2106221553393
 30
0.0
 10
4961.16823582506
 20
-395.1402997752486
 30
0.0
 10
4960.261176281613
 20
-395.1123020547445
 30
0.0
 10
4960.021393603136
 20
-395.1049008113947
 30
0.0
  0
LWPOLYLINE
  5
33C
330
1F
100
AcDbEntity
  8
0
  6
Continuous
 62
   144
370
     0
100
AcDbPolyline
 90
       12
 70
   128
 43
0.0
 10
4956.3068652404
 20
-394.6620219964
 10
4956.8568442833
 20
-394.7044315304
 10
4958.6923432944
 20
-394.9204353468
 10
4960.6768881108
 20
-395.1958801356
 10
4962.5996649122
 20
-395.4683252372
 10
4964.2381339544
 20
-395.6718376667
 10
4965.4016612037
 20
-395.7629784429
 10
4965.9674999643
 20
-395.7361600593
 10
4965.8741848934
 20
-395.6186102275
 10
4965.121023142
 20
-395.4575601996
 10
4964.2889275393
 20
-395.3510080527
 10
4964.2889263302
 20
-395.3510098685
  0
SPLINE
  5
33E
330
1F
100
AcDbEntity
  8
0
  6
Continuous
 62
   144
370
     0
100
AcDbSpline
210
0.0
220
0.0
230
1.0
 70
     8
 71
     3
 72
    16
 73
    12
 74
     0
 42
0.000000001
 43
0.00000001
 40
0.0
 40
0.0
 40
0.0
 40
0.0
 40
0.1112988036219078
 40
0.2225793392415371
 40
0.3342722632472378
 40
0.4459557640653151
 40
0.5570409033949111
 40
0.6678718741819173
 40
0.7791836615768427
 40
0.8909674991695199
 40
1.0
 40
1.0
 40
1.0
 40
1.0
 10
4964.288928217645
 20
395.3510081077105
 30
0.0
 10
4964.713977640391
 20
395.4045832559796
 30
0.0
 10
4965.564006720498
 20
395.5117247589737
 30
0.0
 10
4966.086158278817
 20
395.6749032210627
 30
0.0
 10
4965.963848901822
 20
395.7749862870506
 30
0.0
 10
4965.166377614127
 20
395.7671469488477
 30
0.0
 10
4963.80205012124
 20
395.632279420117
 30
0.0
 10
4962.021818091277
 20
395.3913129629476
 30
0.0
 10
4960.027868779989
 20
395.1008732083116
 30
0.0
 10
4958.011978032931
 20
394.8221531477616
 30
0.0
 10
4956.893491034305
 20
394.7115543894029
 30
0.0
 10
4956.341215620821
 20
394.6569440317695
 30
0.0
  0
SPLINE
  5
33F
330
1F
100
AcDbEntity
  8
0
  6
Continuous
 62
   144
370
     0
100
AcDbSpline
210
0.0
220
0.0
230
1.0
 70
     8
 71
     3
 72
    10
 73
     6
 74
     0
 42
0.000000001
 43
0.00000001
 40
0.0
 40
0.0
 40
0.0
 40
0.0
 40
0.287082920272651
 40
0.7167532255821423
 40
1.0
 40
1.0
 40
1.0
 40
1.0
 10
4960.051605528844
 20
395.1067501697012
 30
0.0
 10
4960.503369672356
 20
395.1213462314654
 30
0.0
 10
4961.631278663791
 20
395.1577878781516
 30
0.0
 10
4963.119088668844
 20
395.2392912995626
 30
0.0
 10
4963.956298060176
 20
395.3192441378622
 30
0.0
 10
4964.288927010092
 20
395.3510099409239
 30
0.0
  0
SPLINE
  5
340
330
1F
100
AcDbEntity
  8
0
  6
Continuous
 62
   144
370
     0
100
AcDbSpline
210
0.0
220
0.0
230
1.0
 70
     8
 71
     3
 72
    10
 73
     6
 74
     0
 42
0.000000001
 43
0.00000001
 40
0.0
 40
0.0
 40
0.0
 40
0.0
 40
0.4238693446774698
 40
0.8476989160364587
 40
1.0
 40
1.0
 40
1.0
 40
1.0
 10
4954.954324257215
 20
502.9362740923145
 30
0.0
 10
4954.43638889073
 20
502.893222044784
 30
0.0
 10
4953.400566757659
 20
502.8071219894646
 30
0.0
 10
4951.843975758977
 20
502.6063479945435
 30
0.0
 10
4950.94564894223
 20
502.4777018985015
 30
0.0
 10
4950.708174774383
 20
502.4436940919496
 30
0.0
  0
LWPOLYLINE
  5
341
330
1F
100
AcDbEntity
  8
0
  6
Continuous
 62
   144
370
     0
100
AcDbPolyline
 90
       12
 70
   128
 43
0.0
 10
4946.9728770528
 20
502.2401909379
 10
4947.5219416711
 20
502.2931396039
 10
4949.3672144272
 20
502.3964968673
 10
4951.3695433748
 20
502.466972008
 10
4953.3105107074
 20
502.5297635298
 10
4954.9595464305
 20
502.6114904844
 10
4956.1213836757
 20
502.7221092745
 10
4956.6741476885
 20
502.8459828988
 10
4956.5619811534
 20
502.9457041795
 10
4955.7923363471
 20
502.9746283443
 10
4954.9543235795
 20
502.9362740297
 10
4954.9543227013
 20
502.9362720328
  0
SPLINE
  5
342
330
1F
100
AcDbEntity
  8
0
  6
Continuous
 62
   144
370
     0
100
AcDbSpline
210
0.0
220
0.0
230
1.0
 70
     8
 71
     3
 72
    17
 73
    13
 74
     0
 42
0.000000001
 43
0.00000001
 40
0.0
 40
0.0
 40
0.0
 40
0.0
 40
0.1069931859280178
 40
0.213973082569652
 40
0.3212985162758134
 40
0.428857017842232
 40
0.5360374871088521
 40
0.6428183710019761
 40
0.7498015371028465
 40
0.8572722195230689
 40
0.964757355855563
 40
1.0
 40
1.0
 40
1.0
 40
1.0
 10
3796.089198161935
 20
402.3929701702715
 30
0.0
 10
3796.150008174797
 20
402.3918881021085
 30
0.0
 10
3796.271620647501
 20
402.3897241001828
 30
0.0
 10
3797.218325395145
 20
402.3833613919027
 30
0.0
 10
3798.612360091504
 20
402.4054295360842
 30
0.0
 10
3800.353219969852
 20
402.4848681293509
 30
0.0
 10
3802.224439635387
 20
402.6363014580117
 30
0.0
 10
3804.012601481593
 20
402.8448385642779
 30
0.0
 10
3805.537137469278
 20
403.0727842382971
 30
0.0
 10
3806.578591521861
 20
403.2544689291198
 30
0.0
 10
3807.075626417041
 20
403.3490232765852
 30
0.0
 10
3806.99921776727
 20
403.3345674981604
 30
0.0
 10
3806.98035078255
 20
403.3309980469076
 30
0.0
  0
SPLINE
  5
345
330
1F
100
AcDbEntity
  8
0
  6
Continuous
 62
   144
370
     0
100
AcDbSpline
210
0.0
220
0.0
230
1.0
 70
     8
 71
     3
 72
    16
 73
    12
 74
     0
 42
0.000000001
 43
0.00000001
 40
0.0
 40
0.0
 40
0.0
 40
0.0
 40
0.1112988036219091
 40
0.2225793392415397
 40
0.3342722632472419
 40
0.4459557640653206
 40
0.5570409033949176
 40
0.6678718741819251
 40
0.7791836615768518
 40
0.8909674991695302
 40
1.0
 40
1.0
 40
1.0
 40
1.0
 10
-4964.288928217647
 20
-395.3510081077105
 30
0.0
 10
-4964.713977640393
 20
-395.4045832559796
 30
0.0
 10
-4965.5640067205
 20
-395.5117247589737
 30
0.0
 10
-4966.086158278817
 20
-395.6749032210626
 30
0.0
 10
-4965.963848901822
 20
-395.7749862870505
 30
0.0
 10
-4965.166377614128
 20
-395.7671469488474
 30
0.0
 10
-4963.802050121242
 20
-395.632279420117
 30
0.0
 10
-4962.021818091278
 20
-395.3913129629476
 30
0.0
 10
-4960.027868779993
 20
-395.1008732083116
 30
0.0
 10
-4958.011978032932
 20
-394.8221531477615
 30
0.0
 10
-4956.893491034306
 20
-394.7115543894027
 30
0.0
 10
-4956.341215620822
 20
-394.6569440317693
 30
0.0
  0
SPLINE
  5
346
330
1F
100
AcDbEntity
  8
0
  6
Continuous
 62
   144
370
     0
100
AcDbSpline
210
0.0
220
0.0
230
1.0
 70
     8
 71
     3
 72
    10
 73
     6
 74
     0
 42
0.000000001
 43
0.00000001
 40
0.0
 40
0.0
 40
0.0
 40
0.0
 40
0.2870829202726467
 40
0.7167532255821413
 40
1.0
 40
1.0
 40
1.0
 40
1.0
 10
-4960.051605528846
 20
-395.1067501697012
 30
0.0
 10
-4960.503369672357
 20
-395.1213462314654
 30
0.0
 10
-4961.631278663792
 20
-395.1577878781516
 30
0.0
 10
-4963.119088668843
 20
-395.2392912995625
 30
0.0
 10
-4963.956298060178
 20
-395.3192441378621
 30
0.0
 10
-4964.288927010094
 20
-395.3510099409238
 30
0.0
  0
SPLINE
  5
347
330
1F
100
AcDbEntity
  8
0
  6
Continuous
 62
   144
370
     0
100
AcDbSpline
210
0.0
220
0.0
230
1.0
 70
     8
 71
     3
 72
    10
 73
     6
 74
     0
 42
0.000000001
 43
0.00000001
 40
0.0
 40
0.0
 40
0.0
 40
0.0
 40
0.4238693446775476
 40
0.8476989160366191
 40
1.0
 40
1.0
 40
1.0
 40
1.0
 10
-4954.954324257217
 20
-502.9362740923145
 30
0.0
 10
-4954.436388890732
 20
-502.8932220447838
 30
0.0
 10
-4953.400566757661
 20
-502.8071219894647
 30
0.0
 10
-4951.843975758976
 20
-502.6063479945431
 30
0.0
 10
-4950.945648942233
 20
-502.4777018985015
 30
0.0
 10
-4950.708174774386
 20
-502.4436940919496
 30
0.0
  0
LWPOLYLINE
  5
348
330
1F
100
AcDbEntity
  8
0
  6
Continuous
 62
   144
370
     0
100
AcDbPolyline
 90
       12
 70
   128
 43
0.0
 10
-4946.9728770528
 20
-502.2401909379
 10
-4947.5219416711
 20
-502.2931396039
 10
-4949.3672144272
 20
-502.3964968673
 10
-4951.3695433748
 20
-502.466972008
 10
-4953.3105107074
 20
-502.5297635298
 10
-4954.9595464305
 20
-502.6114904844
 10
-4956.1213836757
 20
-502.7221092745
 10
-4956.6741476885
 20
-502.8459828988
 10
-4956.5619811534
 20
-502.9457041795
 10
-4955.7923363471
 20
-502.9746283443
 10
-4954.9543235795
 20
-502.9362740297
 10
-4954.9543227013
 20
-502.9362720328
  0
SPLINE
  5
349
330
1F
100
AcDbEntity
  8
0
  6
Continuous
 62
   144
370
     0
100
AcDbSpline
210
0.0
220
0.0
230
1.0
 70
     8
 71
     3
 72
    17
 73
    13
 74
     0
 42
0.000000001
 43
0.00000001
 40
0.0
 40
0.0
 40
0.0
 40
0.0
 40
0.1069931859280176
 40
0.2139730825696517
 40
0.3212985162758129
 40
0.4288570178422313
 40
0.5360374871088514
 40
0.6428183710019748
 40
0.7498015371028454
 40
0.8572722195230676
 40
0.9647573558555615
 40
1.0
 40
1.0
 40
1.0
 40
1.0
 10
-3796.089198161936
 20
-402.3929701702713
 30
0.0
 10
-3796.150008174799
 20
-402.3918881021084
 30
0.0
 10
-3796.271620647502
 20
-402.3897241001827
 30
0.0
 10
-3797.218325395145
 20
-402.3833613919024
 30
0.0
 10
-3798.612360091504
 20
-402.4054295360841
 30
0.0
 10
-3800.353219969855
 20
-402.4848681293508
 30
0.0
 10
-3802.22443963539
 20
-402.6363014580118
 30
0.0
 10
-3804.012601481595
 20
-402.8448385642777
 30
0.0
 10
-3805.53713746928
 20
-403.072784238297
 30
0.0
 10
-3806.578591521862
 20
-403.2544689291198
 30
0.0
 10
-3807.07562641704
 20
-403.3490232765847
 30
0.0
 10
-3806.999217767272
 20
-403.3345674981604
 30
0.0
 10
-3806.980350782552
 20
-403.3309980469075
 30
0.0
  0
SPLINE
  5
34B
330
1F
100
AcDbEntity
  8
0
  6
Continuous
 62
   144
370
     0
100
AcDbSpline
210
0.0
220
0.0
230
1.0
 70
     8
 71
     3
 72
    17
 73
    13
 74
     0
 42
0.000000001
 43
0.00000001
 40
0.0
 40
0.0
 40
0.0
 40
0.0
 40
0.1069931859280161
 40
0.2139730825696548
 40
0.3212985162758494
 40
0.4288570178422461
 40
0.5360374871088565
 40
0.6428183710019992
 40
0.7498015371028693
 40
0.8572722195230866
 40
0.964757355855588
 40
1.0
 40
1.0
 40
1.0
 40
1.0
 10
-3807.048025851015
 20
403.3438096315297
 30
0.0
 10
-3806.988310934238
 20
403.332270253295
 30
0.0
 10
-3806.868888517686
 20
403.3091929300958
 30
0.0
 10
-3805.937426937642
 20
403.1398716727954
 30
0.0
 10
-3804.560423460987
 20
402.9215115049066
 30
0.0
 10
-3802.831896589888
 20
402.6999297772658
 30
0.0
 10
-3800.962558136546
 20
402.5268146809062
 30
0.0
 10
-3799.165201164049
 20
402.4242553014317
 30
0.0
 10
-3797.624187703921
 20
402.3862194792439
 30
0.0
 10
-3796.567004792518
 20
402.3858165511326
 30
0.0
 10
-3796.061112090515
 20
402.3933521806069
 30
0.0
 10
-3796.138868669565
 20
402.3922725029182
 30
0.0
 10
-3796.158068487822
 20
402.3920059066294
 30
0.0
  0
SPLINE
  5
34E
330
1F
100
AcDbEntity
  8
0
  6
Continuous
 62
   144
370
     0
100
AcDbSpline
210
0.0
220
0.0
230
1.0
 70
     8
 71
     3
 72
    16
 73
    12
 74
     0
 42
0.000000001
 43
0.00000001
 40
0.0
 40
0.0
 40
0.0
 40
0.0
 40
0.1112988036219434
 40
0.2225793392415699
 40
0.3342722632472827
 40
0.445955764065368
 40
0.5570409033949699
 40
0.6678718741820382
 40
0.779183661576951
 40
0.8909674991696336
 40
1.0
 40
1.0
 40
1.0
 40
1.0
 10
-4954.954324257218
 20
502.9362740923145
 30
0.0
 10
-4955.382249255092
 20
502.9567070187756
 30
0.0
 10
-4956.238029013472
 20
502.9975695179443
 30
0.0
 10
-4956.780482366989
 20
502.926761187912
 30
0.0
 10
-4956.677238337363
 20
502.8071080469373
 30
0.0
 10
-4955.890334054133
 20
502.6774795047222
 30
0.0
 10
-4954.52316608804
 20
502.5753496333354
 30
0.0
 10
-4952.728035032076
 20
502.5061007639317
 30
0.0
 10
-4950.713859502491
 20
502.4487767456096
 30
0.0
 10
-4948.680088940036
 20
502.3761291337166
 30
0.0
 10
-4947.559267573007
 20
502.2924349603493
 30
0.0
 10
-4947.005839518252
 20
502.251109281768
 30
0.0
  0
SPLINE
  5
34F
330
1F
100
AcDbEntity
  8
0
  6
Continuous
 62
   144
370
     0
100
AcDbSpline
210
0.0
220
0.0
230
1.0
 70
     8
 71
     3
 72
    10
 73
     6
 74
     0
 42
0.000000001
 43
0.00000001
 40
0.0
 40
0.0
 40
0.0
 40
0.0
 40
0.2870829202728855
 40
0.7167532255821593
 40
1.0
 40
1.0
 40
1.0
 40
1.0
 10
-4950.738253741426
 20
502.4470758552195
 30
0.0
 10
-4951.18578076436
 20
502.5105065270146
 30
0.0
 10
-4952.303111035763
 20
502.6688724046039
 30
0.0
 10
-4953.782725173799
 20
502.844836666196
 30
0.0
 10
-4954.621194036892
 20
502.9102735587953
 30
0.0
 10
-4954.954323383451
 20
502.9362720785162
 30
0.0
  0
SPLINE
  5
350
330
1F
100
AcDbEntity
  8
0
  6
Continuous
 62
   144
370
     0
100
AcDbSpline
210
0.0
220
0.0
230
1.0
 70
     8
 71
     3
 72
    10
 73
     6
 74
     0
 42
0.000000001
 43
0.00000001
 40
0.0
 40
0.0
 40
0.0
 40
0.0
 40
0.4238693446775195
 40
0.8476989160366489
 40
0.9999999999999999
 40
0.9999999999999999
 40
0.9999999999999999
 40
0.9999999999999999
 10
-4964.288928217647
 20
395.3510081077105
 30
0.0
 10
-4963.771317761873
 20
395.304211326545
 30
0.0
 10
-4962.73614541974
 20
395.2106221553391
 30
0.0
 10
-4961.168235825065
 20
395.1402997752486
 30
0.0
 10
-4960.261176281618
 20
395.1123020547444
 30
0.0
 10
-4960.021393603141
 20
395.1049008113947
 30
0.0
  0
LWPOLYLINE
  5
351
330
1F
100
AcDbEntity
  8
0
  6
Continuous
 62
   144
370
     0
100
AcDbPolyline
 90
       12
 70
   128
 43
0.0
 10
-4956.3068652404
 20
394.6620219964
 10
-4956.8568442833
 20
394.7044315304
 10
-4958.6923432944
 20
394.9204353468
 10
-4960.6768881108
 20
395.1958801356
 10
-4962.5996649122
 20
395.4683252372
 10
-4964.2381339544
 20
395.6718376667
 10
-4965.4016612037
 20
395.7629784429
 10
-4965.9674999643
 20
395.7361600593
 10
-4965.8741848934
 20
395.6186102275
 10
-4965.121023142
 20
395.4575601996
 10
-4964.2889275393
 20
395.3510080527
 10
-4964.2889263302
 20
395.3510098685
  0
LWPOLYLINE
  5
352
330
1F
100
AcDbEntity
  8
0
  6
Continuous
 62
     7
370
    15
100
AcDbPolyline
 90
       26
 70
   128
 43
0.0
 10
960.85
 20
-331.15
 10
958.0893710345
 20
-330.969058818
 10
955.3759771961
 20
-330.429331226
 10
952.7562454055
 20
-329.5400521126
 10
950.275
 20
-328.31643729
 10
947.9746957765
 20
-326.7794231471
 10
945.8946915779
 20
-324.9553084221
 10
944.0705768528
 20
-322.8753042235
 10
942.53356271
 20
-320.575
 10
941.3099478874
 20
-318.0937545945
 10
940.420668774
 20
-315.4740228039
 10
939.8809411819
 20
-312.7606289654
 10
939.7
 20
-310.0
 10
939.8809411819
 20
-307.2393710345
 10
940.420668774
 20
-304.5259771961
 10
941.3099478874
 20
-301.9062454055
 10
942.53356271
 20
-299.425
 10
944.0705768528
 20
-297.1246957765
 10
945.8946915779
 20
-295.0446915779
 10
947.9746957765
 20
-293.2205768528
 10
950.275
 20
-291.6835627099
 10
952.7562454055
 20
-290.4599478874
 10
955.3759771961
 20
-289.570668774
 10
958.0893710345
 20
-289.0309411819
 10
960.85
 20
-288.85
 10
960.85
 20
-288.85
  0
LWPOLYLINE
  5
353
330
1F
100
AcDbEntity
  8
0
  6
Continuous
 62
     7
370
    15
100
AcDbPolyline
 90
       26
 70
   128
 43
0.0
 10
960.85
 20
331.15
 10
958.0893710345
 20
330.9690588181
 10
955.3759771961
 20
330.429331226
 10
952.7562454055
 20
329.5400521126
 10
950.275
 20
328.3164372901
 10
947.9746957765
 20
326.7794231472
 10
945.8946915779
 20
324.9553084221
 10
944.0705768528
 20
322.8753042235
 10
942.53356271
 20
320.575
 10
941.3099478874
 20
318.0937545945
 10
940.420668774
 20
315.4740228039
 10
939.8809411819
 20
312.7606289655
 10
939.7
 20
310.0
 10
939.8809411819
 20
307.2393710346
 10
940.420668774
 20
304.5259771961
 10
941.3099478874
 20
301.9062454055
 10
942.53356271
 20
299.425
 10
944.0705768528
 20
297.1246957765
 10
945.8946915779
 20
295.0446915779
 10
947.9746957765
 20
293.2205768529
 10
950.275
 20
291.68356271
 10
952.7562454055
 20
290.4599478874
 10
955.3759771961
 20
289.570668774
 10
958.0893710345
 20
289.030941182
 10
960.85
 20
288.85
 10
960.85
 20
288.85
  0
LWPOLYLINE
  5
35D
330
1F
100
AcDbEntity
  8
0
  6
Continuous
 62
   144
370
     0
100
AcDbPolyline
 90
        3
 70
   128
 43
0.0
 10
2755.3178905971
 20
38.1735067644
 10
2757.6644075727
 20
38.0689511319
 10
2758.3345021301
 20
38.0
  0
LWPOLYLINE
  5
35E
330
1F
100
AcDbEntity
  8
0
  6
Continuous
 62
   144
370
     0
100
AcDbPolyline
 90
        3
 70
   128
 43
0.0
 10
2642.3012790641
 20
38.0
 10
2642.9713736215
 20
38.0689511319
 10
2645.3178905971
 20
38.1735067644
  0
LWPOLYLINE
  5
367
330
1F
100
AcDbEntity
  8
0
  6
Continuous
 62
   144
370
     0
100
AcDbPolyline
 90
        3
 70
   128
 43
0.0
 10
2681.264373056
 20
38.1735067644
 10
2681.44114748
 20
38.1872534958
 10
2682.3714081383
 20
38.1735067644
  0
SPLINE
  5
371
330
1F
100
AcDbEntity
  8
0
  6
Continuous
 62
   144
370
     0
100
AcDbSpline
210
0.0
220
0.0
230
1.0
 70
     8
 71
     3
 72
    15
 73
    11
 74
     0
 42
0.000000001
 43
0.00000001
 40
0.0
 40
0.0
 40
0.0
 40
0.0
 40
0.1518193758429812
 40
0.3036458007435129
 40
0.4449880365887948
 40
0.586816220279277
 40
0.7281899342624452
 40
0.863135423670288
 40
0.998470548816532
 40
1.0
 40
1.0
 40
1.0
 40
1.0
 10
2700.296279768557
 20
55.15614914597402
 30
0.0
 10
2702.609473057026
 20
55.07560665851175
 30
0.0
 10
2707.235967036806
 20
54.91451794395497
 30
0.0
 10
2713.908474357895
 20
53.66104522134761
 30
0.0
 10
2720.22578924833
 20
51.74095359896121
 30
0.0
 10
2726.117885451714
 20
49.18496096414582
 30
0.0
 10
2731.605657377022
 20
46.06894533064928
 30
0.0
 10
2736.552300803626
 20
42.36983545393278
 30
0.0
 10
2739.685333241368
 20
39.72966475324034
 30
0.0
 10
2741.041301312077
 20
38.19070452735168
 30
0.0
 10
2741.056454151666
 20
38.17350676441028
 30
0.0
  0
SPLINE
  5
372
330
1F
100
AcDbEntity
  8
0
  6
Continuous
 62
   144
370
     0
100
AcDbSpline
210
0.0
220
0.0
230
1.0
 70
     8
 71
     3
 72
    22
 73
    18
 74
     0
 42
0.000000001
 43
0.00000001
 40
0.0
 40
0.0
 40
0.0
 40
0.0
 40
0.0649812215240291
 40
0.1346830461984381
 40
0.2022691237430598
 40
0.2700516976076788
 40
0.3376261509393149
 40
0.4060175524838869
 40
0.4746295866383712
 40
0.5430163088378497
 40
0.6138650304222049
 40
0.6849642370649142
 40
0.7558275419317727
 40
0.8258718569169797
 40
0.8961396917512086
 40
0.9661926955605187
 40
1.0
 40
1.0
 40
1.0
 40
1.0
 10
2740.893334706526
 20
-38.00000000001507
 30
0.0
 10
2739.496198138396
 20
-39.34274176865322
 30
0.0
 10
2736.600429106394
 20
-42.12576965604362
 30
0.0
 10
2731.691722354668
 20
-45.66960762923248
 30
0.0
 10
2726.370149870896
 20
-48.74095013228912
 30
0.0
 10
2720.784825685424
 20
-51.20329190548254
 30
0.0
 10
2714.930730979982
 20
-53.08150439561413
 30
0.0
 10
2708.861977037161
 20
-54.31577351964935
 30
0.0
 10
2702.661557748614
 20
-54.90213019321126
 30
0.0
 10
2696.354793574754
 20
-54.82752709143751
 30
0.0
 10
2690.026638591789
 20
-54.03602428915052
 30
0.0
 10
2683.766357992453
 20
-52.53950153767418
 30
0.0
 10
2677.751705201921
 20
-50.37704297298038
 30
0.0
 10
2672.059074843933
 20
-47.57378770280967
 30
0.0
 10
2666.771169355534
 20
-44.16380509843779
 30
0.0
 10
2662.662329713932
 20
-40.95648102247903
 30
0.0
 10
2660.515229792078
 20
-38.72602881713644
 30
0.0
 10
2659.816332764484
 20
-38.00000000001508
 30
0.0
  0
SPLINE
  5
373
330
1F
100
AcDbEntity
  8
0
  6
Continuous
 62
   144
370
     0
100
AcDbSpline
210
0.0
220
0.0
230
1.0
 70
     8
 71
     3
 72
    14
 73
    10
 74
     0
 42
0.000000001
 43
0.00000001
 40
0.0
 40
0.0
 40
0.0
 40
0.0
 40
0.0570646145803807
 40
0.1938212858131216
 40
0.3309813691971404
 40
0.4677266156447841
 40
0.6457967545598153
 40
0.8238464653896941
 40
1.0
 40
1.0
 40
1.0
 40
1.0
 10
2659.693893654525
 20
38.1735067644103
 30
0.0
 10
2660.275911839105
 20
38.79717970881641
 30
0.0
 10
2662.25275009047
 20
40.91549931722059
 30
0.0
 10
2666.143929239874
 20
44.00652228318214
 30
0.0
 10
2671.262781876168
 20
47.42466502353008
 30
0.0
 10
2677.316919529364
 20
50.53749142002248
 30
0.0
 10
2684.325404276791
 20
53.07628181504017
 30
0.0
 10
2692.23619374965
 20
54.83017956853833
 30
0.0
 10
2697.619190128337
 20
55.0478810981228
 30
0.0
 10
2700.296279768557
 20
55.15614914597402
 30
0.0
  0
CIRCLE
  5
395
330
1F
100
AcDbEntity
  8
0
  6
Continuous
 62
   144
370
     0
100
AcDbCircle
 10
-1869.3006209836
 20
181.0223947069
 30
0.0
 40
18.00000000000005
  0
SPLINE
  5
3C3
330
1F
100
AcDbEntity
  8
0
  6
Continuous
 62
   144
370
     0
100
AcDbSpline
210
0.0
220
0.0
230
1.0
 70
     8
 71
     3
 72
    12
 73
     8
 74
     0
 42
0.000000001
 43
0.00000001
 40
0.0
 40
0.0
 40
0.0
 40
0.0
 40
0.2133042796544116
 40
0.4265541574785034
 40
0.6412132369598706
 40
0.8568129321649527
 40
1.0
 40
1.0
 40
1.0
 40
1.0
 10
-4861.999999999997
 20
-37.5998670210777
 30
0.0
 10
-4861.385486662641
 20
-37.60887367307538
 30
0.0
 10
-4860.156616715446
 20
-37.62688467998436
 30
0.0
 10
-4858.512772215291
 20
-37.75318176293684
 30
0.0
 10
-4857.27723007039
 20
-37.89050890247948
 30
0.0
 10
-4856.568759533172
 20
-37.98993457782223
 30
0.0
 10
-4856.568781925173
 20
-37.99007869011859
 30
0.0
 10
-4856.568790861525
 20
-37.99013620343647
 30
0.0
  0
SPLINE
  5
3C4
330
1F
100
AcDbEntity
  8
0
  6
Continuous
 62
   144
370
     0
100
AcDbSpline
210
0.0
220
0.0
230
1.0
 70
     8
 71
     3
 72
    12
 73
     8
 74
     0
 42
0.000000001
 43
0.00000001
 40
0.0
 40
0.0
 40
0.0
 40
0.0
 40
0.2090282272987841
 40
0.4216196285726051
 40
0.6360883047758342
 40
0.8515674712512463
 40
1.0
 40
1.0
 40
1.0
 40
1.0
 10
-4867.494812096098
 20
-37.99926850709625
 30
0.0
 10
-4867.4390662552
 20
-37.99098757079961
 30
0.0
 10
-4867.326624308782
 20
-37.97428453824394
 30
0.0
 10
-4866.406168037207
 20
-37.85108437222967
 30
0.0
 10
-4865.032514442151
 20
-37.7119465146986
 30
0.0
 10
-4863.473177437137
 20
-37.6148670224276
 30
0.0
 10
-4862.426797926194
 20
-37.60421270904961
 30
0.0
 10
-4861.999999999996
 20
-37.59986702107769
 30
0.0
  0
SPLINE
  5
3C5
330
1F
100
AcDbEntity
  8
0
  6
Continuous
 62
   144
370
     0
100
AcDbSpline
210
0.0
220
0.0
230
1.0
 70
     8
 71
     3
 72
    12
 73
     8
 74
     0
 42
0.000000001
 43
0.00000001
 40
0.0
 40
0.0
 40
0.0
 40
0.0
 40
0.2133042796543186
 40
0.4265541574785094
 40
0.6412132369598165
 40
0.8568129321649469
 40
1.0
 40
1.0
 40
1.0
 40
1.0
 10
-4861.999999999996
 20
37.59986702100517
 30
0.0
 10
-4862.614513337352
 20
37.60887367300285
 30
0.0
 10
-4863.843383284547
 20
37.62688467991187
 30
0.0
 10
-4865.487227784704
 20
37.75318176286425
 30
0.0
 10
-4866.7227699296
 20
37.89050890240701
 30
0.0
 10
-4867.431240466824
 20
37.98993457774969
 30
0.0
 10
-4867.431218074821
 20
37.99007869004605
 30
0.0
 10
-4867.431209138468
 20
37.99013620336394
 30
0.0
  0
SPLINE
  5
3C6
330
1F
100
AcDbEntity
  8
0
  6
Continuous
 62
   144
370
     0
100
AcDbSpline
210
0.0
220
0.0
230
1.0
 70
     8
 71
     3
 72
    12
 73
     8
 74
     0
 42
0.000000001
 43
0.00000001
 40
0.0
 40
0.0
 40
0.0
 40
0.0
 40
0.2090282272987496
 40
0.4216196285725524
 40
0.6360883047757632
 40
0.8515674712511567
 40
1.0
 40
1.0
 40
1.0
 40
1.0
 10
-4856.505187903896
 20
37.99926850702372
 30
0.0
 10
-4856.560933744792
 20
37.99098757072708
 30
0.0
 10
-4856.673375691211
 20
37.97428453817142
 30
0.0
 10
-4857.593831962783
 20
37.85108437215715
 30
0.0
 10
-4858.967485557844
 20
37.71194651462606
 30
0.0
 10
-4860.526822562853
 20
37.61486702235506
 30
0.0
 10
-4861.5732020738
 20
37.60421270897708
 30
0.0
 10
-4861.999999999996
 20
37.59986702100516
 30
0.0
  0
SPLINE
  5
3DD
330
1F
100
AcDbEntity
  8
0
  6
Continuous
 62
   144
370
     0
100
AcDbSpline
210
0.0
220
0.0
230
1.0
 70
    11
 71
     3
 72
    84
 73
    80
 74
     0
 42
0.000000001
 43
0.00000001
 40
0.0
 40
0.0
 40
0.0
 40
0.0
 40
0.0312499999999527
 40
0.0312499999999527
 40
0.0468749999999285
 40
0.0468749999999285
 40
0.0624999999999043
 40
0.0624999999999043
 40
0.093749999999854
 40
0.093749999999854
 40
0.1249999999998037
 40
0.1249999999998037
 40
0.1562499999997534
 40
0.1562499999997534
 40
0.1874999999997031
 40
0.1874999999997031
 40
0.203124999999677
 40
0.203124999999677
 40
0.2187499999996509
 40
0.2187499999996509
 40
0.2499999999996738
 40
0.2499999999996738
 40
0.2812499999996966
 40
0.2812499999996966
 40
0.3124999999997195
 40
0.3124999999997195
 40
0.3281249999997299
 40
0.3281249999997299
 40
0.3437499999997404
 40
0.3437499999997404
 40
0.374999999999828
 40
0.374999999999828
 40
0.4062499999999156
 40
0.4062499999999156
 40
0.4218749999999608
 40
0.4218749999999608
 40
0.4375000000000059
 40
0.4375000000000059
 40
0.468750000000096
 40
0.468750000000096
 40
0.5000000000001862
 40
0.5000000000001862
 40
0.5312500000002763
 40
0.5312500000002763
 40
0.5625000000003665
 40
0.5625000000003665
 40
0.5781250000004116
 40
0.5781250000004116
 40
0.5937500000004566
 40
0.5937500000004566
 40
0.6250000000005068
 40
0.6250000000005068
 40
0.656250000000557
 40
0.656250000000557
 40
0.6875000000006072
 40
0.6875000000006072
 40
0.7031250000006313
 40
0.7031250000006313
 40
0.7187500000006554
 40
0.7187500000006554
 40
0.7500000000006277
 40
0.7500000000006277
 40
0.7812500000006001
 40
0.7812500000006001
 40
0.7968750000005868
 40
0.7968750000005868
 40
0.8125000000005734
 40
0.8125000000005734
 40
0.8437500000004778
 40
0.8437500000004778
 40
0.8750000000003822
 40
0.8750000000003822
 40
0.9062500000002867
 40
0.9062500000002867
 40
0.9375000000001911
 40
0.9375000000001911
 40
0.9687500000000955
 40
0.9687500000000955
 40
1.0
 40
1.0
 40
1.0
 40
1.0
 10
4917.499999999996
 20
0.0000000000338438
 30
0.0
 10
4917.499999999996
 20
-0.3638677663517833
 30
0.0
 10
4917.464247671274
 20
-0.7215603564284195
 30
0.0
 10
4917.35925088366
 20
-1.249236949552608
 30
0.0
 10
4917.31562650728
 20
-1.423641234586249
 30
0.0
 10
4917.210741028677
 20
-1.769411614563901
 30
0.0
 10
4917.14921713107
 20
-1.941143905911123
 30
0.0
 10
4916.942044221852
 20
-2.440513432681259
 30
0.0
 10
4916.773077807336
 20
-2.756229690001462
 30
0.0
 10
4916.373965874495
 20
-3.353728728987215
 30
0.0
 10
4916.141978926608
 20
-3.636255490700551
 30
0.0
 10
4915.635276332477
 20
-4.142838327598698
 30
0.0
 10
4915.358711062896
 20
-4.370329818048147
 30
0.0
 10
4914.757690892764
 20
-4.772406485462581
 30
0.0
 10
4914.438297149411
 20
-4.942970565029603
 30
0.0
 10
4913.942116885385
 20
-5.148810032631647
 30
0.0
 10
4913.773325644621
 20
-5.209389012638379
 30
0.0
 10
4913.428822571189
 20
-5.314215255982329
 30
0.0
 10
4913.25209885537
 20
-5.358639744365337
 30
0.0
 10
4912.719478185227
 20
-5.464744912265547
 30
0.0
 10
4912.36231100154
 20
-5.499796432013615
 30
0.0
 10
4911.643896038681
 20
-5.50020181667549
 30
0.0
 10
4911.278959264192
 20
-5.464389577208242
 30
0.0
 10
4910.57321774879
 20
-5.323884446703111
 30
0.0
 10
4910.230147324439
 20
-5.21993120549243
 30
0.0
 10
4909.73029906286
 20
-5.013080163584126
 30
0.0
 10
4909.565437353443
 20
-4.935122773285397
 30
0.0
 10
4909.247332007675
 20
-4.765013220489949
 30
0.0
 10
4909.093440618575
 20
-4.672682386882657
 30
0.0
 10
4908.646877269857
 20
-4.374329715887884
 30
0.0
 10
4908.36869407558
 20
-4.146689063815695
 30
0.0
 10
4907.855849571443
 20
-3.634202819634434
 30
0.0
 10
4907.628618146501
 20
-3.35696570084639
 30
0.0
 10
4907.329867363307
 20
-2.910654679278568
 30
0.0
 10
4907.237352526787
 20
-2.756770778324917
 30
0.0
 10
4907.066811977441
 20
-2.438493799955485
 30
0.0
 10
4906.988771058504
 20
-2.273770531736287
 30
0.0
 10
4906.781711176963
 20
-1.774613619972453
 30
0.0
 10
4906.677460747278
 20
-1.431802558030214
 30
0.0
 10
4906.536279353437
 20
-0.7261124970273061
 30
0.0
 10
4906.500137731856
 20
-0.3612659171113781
 30
0.0
 10
4906.49986307224
 20
0.3570599492528602
 30
0.0
 10
4906.534567006908
 20
0.714361554891606
 30
0.0
 10
4906.675507111725
 20
1.425147611947442
 30
0.0
 10
4906.780922853302
 20
1.771892734139366
 30
0.0
 10
4906.986412883078
 20
2.268487767717173
 30
0.0
 10
4907.06297830508
 20
2.430683730630026
 30
0.0
 10
4907.232490239498
 20
2.74831899494774
 30
0.0
 10
4907.326026671188
 20
2.904577309973234
 30
0.0
 10
4907.62684997691
 20
3.354987777495615
 30
0.0
 10
4907.854005416765
 20
3.6317007108393
 30
0.0
 10
4908.360522687625
 20
4.139169727137846
 30
0.0
 10
4908.643054549031
 20
4.371466464809417
 30
0.0
 10
4909.239601390454
 20
4.770639509558331
 30
0.0
 10
4909.555090591592
 20
4.939889623218135
 30
0.0
 10
4910.054640086052
 20
5.147630297691175
 30
0.0
 10
4910.226385693288
 20
5.20930595040939
 30
0.0
 10
4910.571732410116
 20
5.314379350934132
 30
0.0
 10
4910.745982159044
 20
5.358132037055984
 30
0.0
 10
4911.273372324497
 20
5.463567598916681
 30
0.0
 10
4911.631689608374
 20
5.499685026330885
 30
0.0
 10
4912.35884250873
 20
5.500310899153972
 30
0.0
 10
4912.716476199817
 20
5.464922135301465
 30
0.0
 10
4913.244371998395
 20
5.36038397433741
 30
0.0
 10
4913.418901077308
 20
5.31689837798299
 30
0.0
 10
4913.765022319126
 20
5.212234150722241
 30
0.0
 10
4913.936702271107
 20
5.150885725777845
 30
0.0
 10
4914.435967325065
 20
4.944271531572952
 30
0.0
 10
4914.751857518495
 20
4.775616342254436
 30
0.0
 10
4915.350070986842
 20
4.376785993577945
 30
0.0
 10
4915.632626783046
 20
4.145152320850525
 30
0.0
 10
4916.139507896105
 20
3.639057499683064
 30
0.0
 10
4916.367346411939
 20
3.362627915329043
 30
0.0
 10
4916.770318719477
 20
2.761347586489354
 30
0.0
 10
4916.940779755384
 20
2.442736562119665
 30
0.0
 10
4917.215840528492
 20
1.781368598693961
 30
0.0
 10
4917.322063220206
 20
1.4342216246403
 30
0.0
 10
4917.464242980393
 20
0.7234619821569331
 30
0.0
 10
4917.499999999997
 20
0.3638677664189099
 30
0.0
 10
4917.499999999996
 20
0.0000000000338438
 30
0.0
  0
SPLINE
  5
3DE
330
1F
100
AcDbEntity
  8
0
  6
Continuous
 62
   144
370
     0
100
AcDbSpline
210
0.0
220
0.0
230
1.0
 70
     8
 71
     3
 72
    12
 73
     8
 74
     0
 42
0.000000001
 43
0.00000001
 40
0.0
 40
0.0
 40
0.0
 40
0.0
 40
0.2133042796543186
 40
0.4265541574785094
 40
0.6412132369598165
 40
0.8568129321649469
 40
1.0
 40
1.0
 40
1.0
 40
1.0
 10
4861.999999999997
 20
-37.59986702100759
 30
0.0
 10
4862.614513337354
 20
-37.60887367300528
 30
0.0
 10
4863.843383284549
 20
-37.6268846799143
 30
0.0
 10
4865.487227784705
 20
-37.75318176286668
 30
0.0
 10
4866.722769929601
 20
-37.89050890240943
 30
0.0
 10
4867.431240466826
 20
-37.9899345777521
 30
0.0
 10
4867.431218074822
 20
-37.99007869004847
 30
0.0
 10
4867.431209138469
 20
-37.99013620336636
 30
0.0
  0
SPLINE
  5
3DF
330
1F
100
AcDbEntity
  8
0
  6
Continuous
 62
   144
370
     0
100
AcDbSpline
210
0.0
220
0.0
230
1.0
 70
     8
 71
     3
 72
    12
 73
     8
 74
     0
 42
0.000000001
 43
0.00000001
 40
0.0
 40
0.0
 40
0.0
 40
0.0
 40
0.2090282272987496
 40
0.4216196285725524
 40
0.6360883047757632
 40
0.8515674712511567
 40
1.0
 40
1.0
 40
1.0
 40
1.0
 10
4856.505187903897
 20
-37.99926850702615
 30
0.0
 10
4856.560933744793
 20
-37.9909875707295
 30
0.0
 10
4856.673375691212
 20
-37.97428453817384
 30
0.0
 10
4857.593831962784
 20
-37.85108437215958
 30
0.0
 10
4858.967485557844
 20
-37.71194651462849
 30
0.0
 10
4860.526822562855
 20
-37.61486702235749
 30
0.0
 10
4861.573202073801
 20
-37.6042127089795
 30
0.0
 10
4861.999999999997
 20
-37.59986702100758
 30
0.0
  0
SPLINE
  5
3E0
330
1F
100
AcDbEntity
  8
0
  6
Continuous
 62
   144
370
     0
100
AcDbSpline
210
0.0
220
0.0
230
1.0
 70
     8
 71
     3
 72
    12
 73
     8
 74
     0
 42
0.000000001
 43
0.00000001
 40
0.0
 40
0.0
 40
0.0
 40
0.0
 40
0.2133042796544116
 40
0.4265541574785034
 40
0.6412132369598706
 40
0.8568129321649527
 40
1.0
 40
1.0
 40
1.0
 40
1.0
 10
4861.999999999998
 20
37.59986702107528
 30
0.0
 10
4861.385486662642
 20
37.60887367307296
 30
0.0
 10
4860.156616715446
 20
37.62688467998195
 30
0.0
 10
4858.512772215292
 20
37.75318176293442
 30
0.0
 10
4857.277230070391
 20
37.89050890247706
 30
0.0
 10
4856.568759533173
 20
37.9899345778198
 30
0.0
 10
4856.568781925174
 20
37.99007869011616
 30
0.0
 10
4856.568790861525
 20
37.99013620343404
 30
0.0
  0
SPLINE
  5
3E1
330
1F
100
AcDbEntity
  8
0
  6
Continuous
 62
   144
370
     0
100
AcDbSpline
210
0.0
220
0.0
230
1.0
 70
     8
 71
     3
 72
    12
 73
     8
 74
     0
 42
0.000000001
 43
0.00000001
 40
0.0
 40
0.0
 40
0.0
 40
0.0
 40
0.2090282272987841
 40
0.4216196285726051
 40
0.6360883047758342
 40
0.8515674712512463
 40
1.0
 40
1.0
 40
1.0
 40
1.0
 10
4867.494812096099
 20
37.99926850709384
 30
0.0
 10
4867.439066255201
 20
37.99098757079719
 30
0.0
 10
4867.326624308784
 20
37.97428453824152
 30
0.0
 10
4866.406168037208
 20
37.85108437222725
 30
0.0
 10
4865.032514442151
 20
37.71194651469619
 30
0.0
 10
4863.473177437139
 20
37.61486702242519
 30
0.0
 10
4862.426797926195
 20
37.6042127090472
 30
0.0
 10
4861.999999999997
 20
37.59986702107526
 30
0.0
  0
CIRCLE
  5
3E5
330
1F
100
AcDbEntity
  8
0
  6
Continuous
 62
   144
370
     0
100
AcDbCircle
 10
-1729.8262881317
 20
168.9017315441
 30
0.0
 40
17.99999999999992
  0
CIRCLE
  5
3E6
330
1F
100
AcDbEntity
  8
0
  6
Continuous
 62
   144
370
     0
100
AcDbCircle
 10
-1869.3006209836
 20
-181.0223947069
 30
0.0
 40
18.00000000000005
  0
CIRCLE
  5
3E7
330
1F
100
AcDbEntity
  8
0
  6
Continuous
 62
   144
370
     0
100
AcDbCircle
 10
-1729.8262881317
 20
-168.9017315441
 30
0.0
 40
17.99999999999991
  0
SPLINE
  5
3E8
330
1F
100
AcDbEntity
  8
0
  6
Continuous
 62
   144
370
     0
100
AcDbSpline
210
0.0
220
0.0
230
1.0
 70
     8
 71
     3
 72
    14
 73
    10
 74
     0
 42
0.000000001
 43
0.00000001
 40
0.0
 40
0.0
 40
0.0
 40
0.0
 40
0.0317664250028764
 40
0.1969310898115176
 40
0.3666204046664391
 40
0.5364521158635237
 40
0.7112533065019443
 40
0.8799263138230802
 40
1.0
 40
1.0
 40
1.0
 40
1.0
 10
5047.85283785815
 20
510.4082403245783
 30
0.0
 10
5047.866201997627
 20
510.3901979004203
 30
0.0
 10
5047.94905093488
 20
510.2783466533265
 30
0.0
 10
5047.63796919559
 20
509.9548828988234
 30
0.0
 10
5046.890744702795
 20
509.478944564226
 30
0.0
 10
5045.612665661992
 20
508.9540589188329
 30
0.0
 10
5043.883152854177
 20
508.458710868835
 30
0.0
 10
5041.986880082646
 20
508.0566757652048
 30
0.0
 10
5040.561865270643
 20
507.8837402531556
 30
0.0
 10
5039.969280887214
 20
507.8118259944985
 30
0.0
  0
SPLINE
  5
3EA
330
1F
100
AcDbEntity
  8
0
  6
Continuous
 62
   144
370
     0
100
AcDbSpline
210
0.0
220
0.0
230
1.0
 70
     8
 71
     3
 72
    15
 73
    11
 74
     0
 42
0.000000001
 43
0.00000001
 40
0.0
 40
0.0
 40
0.0
 40
0.0
 40
0.1020619107442989
 40
0.2439938358000973
 40
0.3809499088485953
 40
0.5221535722227748
 40
0.6545558541741889
 40
0.7908695844482043
 40
0.9223346997155968
 40
1.0
 40
1.0
 40
1.0
 40
1.0
 10
-5047.923288157654
 20
-509.470771706573
 30
0.0
 10
-5047.924679262112
 20
-509.3700265534591
 30
0.0
 10
-5047.928004899565
 20
-509.1291806182102
 30
0.0
 10
-5047.329588453505
 20
-508.7601056984963
 30
0.0
 10
-5046.225828719743
 20
-508.4142275229823
 30
0.0
 10
-5044.657355964454
 20
-508.1657488232539
 30
0.0
 10
-5042.680206704818
 20
-508.0239859934405
 30
0.0
 10
-5040.395971523726
 20
-507.9912792449469
 30
0.0
 10
-5038.211974460631
 20
-508.0333064731827
 30
0.0
 10
-5036.763033261026
 20
-508.0976733610685
 30
0.0
 10
-5036.224936241209
 20
-508.1215774577674
 30
0.0
  0
SPLINE
  5
3F1
330
1F
100
AcDbEntity
  8
0
  6
Continuous
 62
   144
370
     0
100
AcDbSpline
210
0.0
220
0.0
230
1.0
 70
     8
 71
     3
 72
    27
 73
    23
 74
     0
 42
0.000000001
 43
0.00000001
 40
0.0
 40
0.0
 40
0.0
 40
0.0
 40
0.0071489671519198
 40
0.0605167832941729
 40
0.1114585899584453
 40
0.163823769794108
 40
0.2158079732692116
 40
0.2692162726847569
 40
0.3226693901637414
 40
0.3776866099326659
 40
0.4307750350113504
 40
0.4855099579469677
 40
0.5368331922451265
 40
0.5896726253258773
 40
0.6406325847273089
 40
0.6929880041179398
 40
0.7454908581193164
 40
0.7994501249634438
 40
0.8530500270254123
 40
0.9082595343497651
 40
0.953618764423439
 40
1.0
 40
1.0
 40
1.0
 40
1.0
 10
3919.09914052087
 20
413.0581580938782
 30
0.0
 10
3919.108071608626
 20
413.0614167406494
 30
0.0
 10
3919.183674236365
 20
413.0890015394455
 30
0.0
 10
3918.866607618867
 20
412.9727732580823
 30
0.0
 10
3918.12707758072
 20
412.7076292681
 30
0.0
 10
3916.91496019488
 20
412.2906985462421
 30
0.0
 10
3915.284822011089
 20
411.7662519330755
 30
0.0
 10
3913.263464902705
 20
411.1733646644059
 30
0.0
 10
3910.866000043824
 20
410.5541467847821
 30
0.0
 10
3908.18798197928
 20
409.971764135157
 30
0.0
 10
3905.275019724719
 20
409.4697527296084
 30
0.0
 10
3902.297439695427
 20
409.0986288778622
 30
0.0
 10
3899.288359684449
 20
408.867992621507
 30
0.0
 10
3896.399035029678
 20
408.7805005398813
 30
0.0
 10
3893.62422131151
 20
408.8180508403507
 30
0.0
 10
3891.059822778173
 20
408.9556299971696
 30
0.0
 10
3888.725833299148
 20
409.1649772399333
 30
0.0
 10
3886.721600264496
 20
409.4072097021661
 30
0.0
 10
3885.096057843713
 20
409.644857675924
 30
0.0
 10
3884.010945852832
 20
409.8240580254707
 30
0.0
 10
3883.374622805345
 20
409.9360221246307
 30
0.0
 10
3883.29961356946
 20
409.9496008748437
 30
0.0
 10
3883.26169114324
 20
409.9564658848258
 30
0.0
  0
SPLINE
  5
3F2
330
1F
100
AcDbEntity
  8
0
  6
Continuous
 62
   144
370
     0
100
AcDbSpline
210
0.0
220
0.0
230
1.0
 70
     8
 71
     3
 72
    26
 73
    22
 74
     0
 42
0.000000001
 43
0.00000001
 40
0.0
 40
0.0
 40
0.0
 40
0.0
 40
0.0523801035824178
 40
0.1047652500836027
 40
0.1570902323029736
 40
0.2094226842854817
 40
0.2628788140871192
 40
0.3163338448278606
 40
0.3707418764593087
 40
0.425139797387436
 40
0.4782701752651187
 40
0.5313978323738032
 40
0.5829911511654422
 40
0.6345919557935145
 40
0.6867910454405916
 40
0.7389958001187602
 40
0.7929631221184411
 40
0.8469255689280989
 40
0.9011365957868498
 40
0.955338778417336
 40
0.9999999999999999
 40
0.9999999999999999
 40
0.9999999999999999
 40
0.9999999999999999
 10
3792.971499589425
 20
293.7167080169795
 30
0.0
 10
3793.018685195401
 20
293.7342721500955
 30
0.0
 10
3793.11306095017
 20
293.7694021073225
 30
0.0
 10
3793.847773273713
 20
294.033659985416
 30
0.0
 10
3795.005143908309
 20
294.4346055506249
 30
0.0
 10
3796.590054452115
 20
294.9494566984019
 30
0.0
 10
3798.575355164746
 20
295.5386750825072
 30
0.0
 10
3800.924562254419
 20
296.1568503528575
 30
0.0
 10
3803.58486882834
 20
296.7472884554039
 30
0.0
 10
3806.459437850359
 20
297.2608098886146
 30
0.0
 10
3809.454037771815
 20
297.6483827436757
 30
0.0
 10
3812.444483281291
 20
297.8976951558183
 30
0.0
 10
3815.364464381564
 20
297.9992283843908
 30
0.0
 10
3818.147975036996
 20
297.9781931564814
 30
0.0
 10
3820.740922994611
 20
297.8494909022202
 30
0.0
 10
3823.108156343316
 20
297.6479130853083
 30
0.0
 10
3825.154936311147
 20
297.4074734278432
 30
0.0
 10
3826.830952612697
 20
297.1666965223114
 30
0.0
 10
3828.024200393379
 20
296.9728569779958
 30
0.0
 10
3828.734273231099
 20
296.846871547369
 30
0.0
 10
3828.781431933875
 20
296.838677074125
 30
0.0
 10
3828.802735724607
 20
296.8349752474663
 30
0.0
  0
SPLINE
  5
3F4
330
1F
100
AcDbEntity
  8
0
  6
Continuous
 62
   144
370
     0
100
AcDbSpline
210
0.0
220
0.0
230
1.0
 70
     8
 71
     3
 72
    26
 73
    22
 74
     0
 42
0.000000001
 43
0.00000001
 40
0.0
 40
0.0
 40
0.0
 40
0.0
 40
0.0516182343157409
 40
0.1047659759238998
 40
0.1563753826548828
 40
0.2094228825843333
 40
0.2621408622077756
 40
0.3163331660987337
 40
0.3699243232485731
 40
0.4251396066339236
 40
0.4774648749883756
 40
0.5313990349645639
 40
0.5822732961991799
 40
0.6345932967565266
 40
0.6860949792256192
 40
0.7389961806393339
 40
0.7921980303936951
 40
0.8469253957043156
 40
0.9003120052644698
 40
0.9553395356898732
 40
1.0
 40
1.0
 40
1.0
 40
1.0
 10
3742.931794133881
 20
289.642038416606
 30
0.0
 10
3742.976725878132
 20
289.6585700351128
 30
0.0
 10
3743.067920745583
 20
289.6921231228816
 30
0.0
 10
3743.800488467514
 20
289.9566806179765
 30
0.0
 10
3744.956319853005
 20
290.3568686029903
 30
0.0
 10
3746.535119632287
 20
290.8705664354497
 30
0.0
 10
3748.523038928085
 20
291.46171115064
 30
0.0
 10
3750.86160438948
 20
292.0772042914758
 30
0.0
 10
3753.528698063364
 20
292.672325431235
 30
0.0
 10
3756.390373608738
 20
293.1826496685113
 30
0.0
 10
3759.39771487466
 20
293.576320292048
 30
0.0
 10
3762.375510463512
 20
293.8231272511589
 30
0.0
 10
3765.311457484212
 20
293.9290557825231
 30
0.0
 10
3768.08269506527
 20
293.9070828211507
 30
0.0
 10
3770.691014152706
 20
293.780112442772
 30
0.0
 10
3773.046552758247
 20
293.5792835059627
 30
0.0
 10
3775.108318508753
 20
293.3381234009539
 30
0.0
 10
3776.774970835956
 20
293.0991969727605
 30
0.0
 10
3777.983150839629
 20
292.902571433643
 30
0.0
 10
3778.691227477943
 20
292.7778334290783
 30
0.0
 10
3778.743891439243
 20
292.7682674614276
 30
0.0
 10
3778.767485022105
 20
292.7639818846338
 30
0.0
  0
SPLINE
  5
3F6
330
1F
100
AcDbEntity
  8
0
  6
Continuous
 62
   144
370
     0
100
AcDbSpline
210
0.0
220
0.0
230
1.0
 70
     8
 71
     3
 72
    26
 73
    22
 74
     0
 42
0.000000001
 43
0.00000001
 40
0.0
 40
0.0
 40
0.0
 40
0.0
 40
0.0523801035824179
 40
0.1047652500836012
 40
0.1570902323029693
 40
0.2094226842854778
 40
0.2628788140871093
 40
0.3163338448278593
 40
0.3707418764593067
 40
0.4251397973874295
 40
0.4782701752651068
 40
0.5313978323737977
 40
0.5829911511654399
 40
0.6345919557935045
 40
0.6867910454405808
 40
0.7389958001187533
 40
0.7929631221184379
 40
0.8469255689280902
 40
0.9011365957868435
 40
0.955338778417329
 40
1.0
 40
1.0
 40
1.0
 40
1.0
 10
3883.261751133837
 20
-409.9557744677625
 30
0.0
 10
3883.311256731083
 20
-409.9465997184556
 30
0.0
 10
3883.410272691749
 20
-409.9282493365384
 30
0.0
 10
3884.179519552955
 20
-409.7944820347688
 30
0.0
 10
3885.388650739696
 20
-409.5988653040582
 30
0.0
 10
3887.038551074655
 20
-409.3646815707623
 30
0.0
 10
3889.095666734835
 20
-409.1262022542978
 30
0.0
 10
3891.516237979592
 20
-408.9218753982585
 30
0.0
 10
3894.238482471095
 20
-408.7984527558004
 30
0.0
 10
3897.158539955337
 20
-408.7877003871034
 30
0.0
 10
3900.175142150416
 20
-408.9216877156828
 30
0.0
 10
3903.163839029474
 20
-409.1911538343102
 30
0.0
 10
3906.057672074431
 20
-409.5940544801029
 30
0.0
 10
3908.795963740743
 20
-410.0941872623991
 30
0.0
 10
3911.327996630853
 20
-410.667556972566
 30
0.0
 10
3913.62513636638
 20
-411.2738377482568
 30
0.0
 10
3915.599918205396
 20
-411.8632070330806
 30
0.0
 10
3917.209418885161
 20
-412.3890508531677
 30
0.0
 10
3918.351449560863
 20
-412.7855101459047
 30
0.0
 10
3919.029212435203
 20
-413.0319107339017
 30
0.0
 10
3919.074255053784
 20
-413.0481050276753
 30
0.0
 10
3919.094602910354
 20
-413.0554207472617
 30
0.0
  0
SPLINE
  5
3F7
330
1F
100
AcDbEntity
  8
0
  6
Continuous
 62
   144
370
     0
100
AcDbSpline
210
0.0
220
0.0
230
1.0
 70
     8
 71
     3
 72
    27
 73
    23
 74
     0
 42
0.000000001
 43
0.00000001
 40
0.0
 40
0.0
 40
0.0
 40
0.0
 40
0.0079267434224246
 40
0.0605149818251013
 40
0.1121647560976199
 40
0.1638221520691491
 40
0.2165170717820099
 40
0.2692155903234096
 40
0.3234546104246772
 40
0.3776861508993472
 40
0.4316011045569579
 40
0.4855081714585286
 40
0.537586964319092
 40
0.5896699833317951
 40
0.6413239813853417
 40
0.6929859523751373
 40
0.7462174177756964
 40
0.7994489811039811
 40
0.8538580761427594
 40
0.9082580579013353
 40
0.9541303654322807
 40
0.9999999999999999
 40
0.9999999999999999
 40
0.9999999999999999
 40
0.9999999999999999
 10
3928.428501979555
 20
-305.478278932751
 30
0.0
 10
3928.438717576794
 20
-305.4764787401755
 30
0.0
 10
3928.516706310415
 20
-305.4627355653074
 30
0.0
 10
3928.18589818786
 20
-305.5214230324713
 30
0.0
 10
3927.407384143206
 20
-305.6567808345945
 30
0.0
 10
3926.137681822648
 20
-305.8585310123648
 30
0.0
 10
3924.442453187267
 20
-306.0940619048227
 30
0.0
 10
3922.34022928205
 20
-306.3307842161105
 30
0.0
 10
3919.877161554921
 20
-306.5255636844636
 30
0.0
 10
3917.126184509948
 20
-306.639333582222
 30
0.0
 10
3914.181261934806
 20
-306.628511631605
 30
0.0
 10
3911.171047537943
 20
-306.4823446262055
 30
0.0
 10
3908.183075671449
 20
-306.1889564964922
 30
0.0
 10
3905.309296015344
 20
-305.7774197374279
 30
0.0
 10
3902.598418339162
 20
-305.2627808691935
 30
0.0
 10
3900.084087399669
 20
-304.6838053531617
 30
0.0
 10
3897.835759695149
 20
-304.0781523322664
 30
0.0
 10
3895.892899806087
 20
-303.4913309388235
 30
0.0
 10
3894.346824791141
 20
-302.9819477294669
 30
0.0
 10
3893.304575419933
 20
-302.6164711905519
 30
0.0
 10
3892.705344545313
 20
-302.4001067975886
 30
0.0
 10
3892.633291378247
 20
-302.3733764744372
 30
0.0
 10
3892.597265844372
 20
-302.3600117022644
 30
0.0
  0
SPLINE
  5
3F9
330
1F
100
AcDbEntity
  8
0
  6
Continuous
 62
   144
370
     0
100
AcDbSpline
210
0.0
220
0.0
230
1.0
 70
     8
 71
     3
 72
    27
 73
    23
 74
     0
 42
0.000000001
 43
0.00000001
 40
0.0
 40
0.0
 40
0.0
 40
0.0
 40
0.0079267434224169
 40
0.0605149818250933
 40
0.1121647560976123
 40
0.1638221520691421
 40
0.2165170717819988
 40
0.2692155903234046
 40
0.3234546104246664
 40
0.3776861508993439
 40
0.4316011045569701
 40
0.4855081714585258
 40
0.5375869643190976
 40
0.5896699833317935
 40
0.6413239813853407
 40
0.6929859523751368
 40
0.7462174177756962
 40
0.7994489811039814
 40
0.8538580761427566
 40
0.9082580579013356
 40
0.9541303654322799
 40
1.0
 40
1.0
 40
1.0
 40
1.0
 10
3828.802795715204
 20
-296.8342838304031
 30
0.0
 10
3828.813011312443
 20
-296.8324836378275
 30
0.0
 10
3828.891000046065
 20
-296.8187404629593
 30
0.0
 10
3828.560191923511
 20
-296.8774279301235
 30
0.0
 10
3827.781677878856
 20
-297.0127857322464
 30
0.0
 10
3826.5119755583
 20
-297.2145359100169
 30
0.0
 10
3824.816746922916
 20
-297.4500668024745
 30
0.0
 10
3822.7145230177
 20
-297.6867891137626
 30
0.0
 10
3820.25145529057
 20
-297.8815685821157
 30
0.0
 10
3817.500478245596
 20
-297.9953384798739
 30
0.0
 10
3814.555555670456
 20
-297.9845165292572
 30
0.0
 10
3811.545341273591
 20
-297.8383495238575
 30
0.0
 10
3808.557369407097
 20
-297.5449613941441
 30
0.0
 10
3805.683589750995
 20
-297.1334246350801
 30
0.0
 10
3802.972712074811
 20
-296.6187857668455
 30
0.0
 10
3800.45838113532
 20
-296.0398102508138
 30
0.0
 10
3798.210053430798
 20
-295.4341572299185
 30
0.0
 10
3796.267193541737
 20
-294.8473358364757
 30
0.0
 10
3794.72111852679
 20
-294.3379526271186
 30
0.0
 10
3793.678869155583
 20
-293.9724760882039
 30
0.0
 10
3793.079638280964
 20
-293.7561116952407
 30
0.0
 10
3793.007585113897
 20
-293.7293813720891
 30
0.0
 10
3792.971559580022
 20
-293.7160165999164
 30
0.0
  0
SPLINE
  5
3FB
330
1F
100
AcDbEntity
  8
0
  6
Continuous
 62
   144
370
     0
100
AcDbSpline
210
0.0
220
0.0
230
1.0
 70
     8
 71
     3
 72
    10
 73
     6
 74
     0
 42
0.000000001
 43
0.00000001
 40
0.0
 40
0.0
 40
0.0
 40
0.0
 40
0.5
 40
0.5
 40
1.0
 40
1.0
 40
1.0
 40
1.0
 10
4865.759630773177
 20
-40.75919385692522
 30
0.0
 10
4864.96475772788
 20
-40.52776580900445
 30
0.0
 10
4864.163662475589
 20
-40.33690356630481
 30
0.0
 10
4862.543464486465
 20
-40.07257986821175
 30
0.0
 10
4861.724226507774
 20
-39.99999999995779
 30
0.0
 10
4860.893855863537
 20
-39.99999999995779
 30
0.0
  0
SPLINE
  5
3FC
330
1F
100
AcDbEntity
  8
0
  6
Continuous
 62
   144
370
     0
100
AcDbSpline
210
0.0
220
0.0
230
1.0
 70
     8
 71
     3
 72
    10
 73
     6
 74
     0
 42
0.000000001
 43
0.00000001
 40
0.0
 40
0.0
 40
0.0
 40
0.0
 40
0.5
 40
0.5
 40
1.0
 40
1.0
 40
1.0
 40
1.0
 10
4860.893855863537
 20
-39.99999999995779
 30
0.0
 10
4860.063485243653
 20
-39.99999999995781
 30
0.0
 10
4859.244247288338
 20
-40.07257986391155
 30
0.0
 10
4857.624049344592
 20
-40.33690354762853
 30
0.0
 10
4856.822954133165
 20
-40.52776577554489
 30
0.0
 10
4856.028081109423
 20
-40.75919381164189
 30
0.0
  0
SPLINE
  5
3FE
330
1F
100
AcDbEntity
  8
0
  6
Continuous
 62
   144
370
     0
100
AcDbSpline
210
0.0
220
0.0
230
1.0
 70
     8
 71
     3
 72
    12
 73
     8
 74
     0
 42
0.000000001
 43
0.00000001
 40
0.0
 40
0.0
 40
0.0
 40
0.0
 40
0.2500000000001311
 40
0.2500000000001311
 40
0.5000000000002622
 40
0.5000000000002622
 40
1.0
 40
1.0
 40
1.0
 40
1.0
 10
4860.893855863539
 20
-47.11388800001128
 30
0.0
 10
4860.480912987469
 20
-47.11388800001137
 30
0.0
 10
4860.066118424813
 20
-47.09594346732442
 30
0.0
 10
4859.24556817796
 20
-47.02650023957059
 30
0.0
 10
4858.838037466001
 20
-46.97506829422075
 30
0.0
 10
4857.62268342698
 20
-46.77670071491951
 30
0.0
 10
4856.822070033165
 20
-46.58586482187561
 30
0.0
 10
4856.028080997121
 20
-46.35469415563669
 30
0.0
  0
SPLINE
  5
3FF
330
1F
100
AcDbEntity
  8
0
  6
Continuous
 62
   144
370
     0
100
AcDbSpline
210
0.0
220
0.0
230
1.0
 70
     8
 71
     3
 72
    10
 73
     6
 74
     0
 42
0.000000001
 43
0.00000001
 40
0.0
 40
0.0
 40
0.0
 40
0.0
 40
0.5
 40
0.5
 40
1.0
 40
1.0
 40
1.0
 40
1.0
 10
4865.759630729951
 20
-46.35469415563655
 30
0.0
 10
4864.963654524599
 20
-46.58644338811779
 30
0.0
 10
4864.161863928112
 20
-46.77737043742309
 30
0.0
 10
4862.541519623666
 20
-47.04153262444942
 30
0.0
 10
4861.722840609291
 20
-47.11388800001114
 30
0.0
 10
4860.893855863539
 20
-47.11388800001128
 30
0.0
  0
SPLINE
  5
401
330
1F
100
AcDbEntity
  8
0
  6
Continuous
 62
   144
370
     0
100
AcDbSpline
210
0.0
220
0.0
230
1.0
 70
     8
 71
     3
 72
    10
 73
     6
 74
     0
 42
0.000000001
 43
0.00000001
 40
0.0
 40
0.0
 40
0.0
 40
0.0
 40
0.5
 40
0.5
 40
1.0
 40
1.0
 40
1.0
 40
1.0
 10
4869.85173436785
 20
-47.11388800001097
 30
0.0
 10
4869.533817122559
 20
-47.11388800001109
 30
0.0
 10
4869.211608219724
 20
-47.04059401059595
 30
0.0
 10
4868.583817669836
 20
-46.77452381404388
 30
0.0
 10
4868.275887690369
 20
-46.58377241958646
 30
0.0
 10
4867.971919002875
 20
-46.35469415563713
 30
0.0
  0
SPLINE
  5
403
330
1F
100
AcDbEntity
  8
0
  6
Continuous
 62
   144
370
     0
100
AcDbSpline
210
0.0
220
0.0
230
1.0
 70
     8
 71
     3
 72
    10
 73
     6
 74
     0
 42
0.000000001
 43
0.00000001
 40
0.0
 40
0.0
 40
0.0
 40
0.0
 40
0.5
 40
0.5
 40
1.0
 40
1.0
 40
1.0
 40
1.0
 10
4867.97191898617
 20
-40.75919385692578
 30
0.0
 10
4868.279005648578
 20
-40.52776580900457
 30
0.0
 10
4868.588496162511
 20
-40.3369035663045
 30
0.0
 10
4869.214434097961
 20
-40.07257986821109
 30
0.0
 10
4869.530933768045
 20
-39.99999999995959
 30
0.0
 10
4869.851734367849
 20
-39.99999999995968
 30
0.0
  0
SPLINE
  5
404
330
1F
100
AcDbEntity
  8
0
  6
Continuous
 62
   144
370
     0
100
AcDbSpline
210
0.0
220
0.0
230
1.0
 70
     8
 71
     3
 72
    10
 73
     6
 74
     0
 42
0.000000001
 43
0.00000001
 40
0.0
 40
0.0
 40
0.0
 40
0.0
 40
0.5
 40
0.5
 40
1.0
 40
1.0
 40
1.0
 40
1.0
 10
4869.851734367849
 20
-39.99999999995968
 30
0.0
 10
4870.172534967462
 20
-39.99999999995978
 30
0.0
 10
4870.489034637363
 20
-40.07257986812371
 30
0.0
 10
4871.114972572444
 20
-40.3369035659178
 30
0.0
 10
4871.424463087303
 20
-40.52776580914531
 30
0.0
 10
4871.731549749526
 20
-40.75919385692733
 30
0.0
  0
SPLINE
  5
406
330
1F
100
AcDbEntity
  8
0
  6
Continuous
 62
   144
370
     0
100
AcDbSpline
210
0.0
220
0.0
230
1.0
 70
     8
 71
     3
 72
    10
 73
     6
 74
     0
 42
0.000000001
 43
0.00000001
 40
0.0
 40
0.0
 40
0.0
 40
0.0
 40
0.5
 40
0.5
 40
1.0
 40
1.0
 40
1.0
 40
1.0
 10
4871.731549732826
 20
-46.35469415563649
 30
0.0
 10
4871.425748394088
 20
-46.58515355054669
 30
0.0
 10
4871.112628759617
 20
-46.77837873734568
 30
0.0
 10
4870.48505241401
 20
-47.04258111565093
 30
0.0
 10
4870.169454646353
 20
-47.11388800001085
 30
0.0
 10
4869.85173436785
 20
-47.11388800001097
 30
0.0
  0
SPLINE
  5
407
330
1F
100
AcDbEntity
  8
0
  6
Continuous
 62
   144
370
     0
100
AcDbSpline
210
0.0
220
0.0
230
1.0
 70
     8
 71
     3
 72
    10
 73
     6
 74
     0
 42
0.000000001
 43
0.00000001
 40
0.0
 40
0.0
 40
0.0
 40
0.0
 40
0.5
 40
0.5
 40
1.0
 40
1.0
 40
1.0
 40
1.0
 10
1932.240369226815
 20
-40.75919385692417
 30
0.0
 10
1933.035242272113
 20
-40.52776580900306
 30
0.0
 10
1933.836337524404
 20
-40.33690356630422
 30
0.0
 10
1935.456535513528
 20
-40.07257986821075
 30
0.0
 10
1936.275773492218
 20
-39.99999999996022
 30
0.0
 10
1937.106144136455
 20
-39.99999999996007
 30
0.0
  0
SPLINE
  5
408
330
1F
100
AcDbEntity
  8
0
  6
Continuous
 62
   144
370
     0
100
AcDbSpline
210
0.0
220
0.0
230
1.0
 70
     8
 71
     3
 72
    10
 73
     6
 74
     0
 42
0.000000001
 43
0.00000001
 40
0.0
 40
0.0
 40
0.0
 40
0.0
 40
0.5
 40
0.5
 40
1.0
 40
1.0
 40
1.0
 40
1.0
 10
1937.106144136455
 20
-39.99999999996007
 30
0.0
 10
1937.93651475634
 20
-39.99999999995992
 30
0.0
 10
1938.755752711653
 20
-40.07257986390997
 30
0.0
 10
1940.3759506554
 20
-40.33690354762668
 30
0.0
 10
1941.177045866827
 20
-40.52776577554521
 30
0.0
 10
1941.971918890569
 20
-40.75919381164217
 30
0.0
  0
SPLINE
  5
40A
330
1F
100
AcDbEntity
  8
0
  6
Continuous
 62
   144
370
     0
100
AcDbSpline
210
0.0
220
0.0
230
1.0
 70
     8
 71
     3
 72
    12
 73
     8
 74
     0
 42
0.000000001
 43
0.00000001
 40
0.0
 40
0.0
 40
0.0
 40
0.0
 40
0.2500000000000002
 40
0.2500000000000002
 40
0.5000000000000003
 40
0.5000000000000003
 40
1.0
 40
1.0
 40
1.0
 40
1.0
 10
1937.106144136456
 20
-47.11388800001157
 30
0.0
 10
1937.519087012527
 20
-47.11388800001161
 30
0.0
 10
1937.933881575182
 20
-47.09594346732471
 30
0.0
 10
1938.754431822034
 20
-47.02650023957084
 30
0.0
 10
1939.161962533992
 20
-46.97506829422089
 30
0.0
 10
1940.377316573014
 20
-46.77670071491971
 30
0.0
 10
1941.177929966828
 20
-46.58586482187597
 30
0.0
 10
1941.971919002871
 20
-46.35469415563713
 30
0.0
  0
SPLINE
  5
40B
330
1F
100
AcDbEntity
  8
0
  6
Continuous
 62
   144
370
     0
100
AcDbSpline
210
0.0
220
0.0
230
1.0
 70
     8
 71
     3
 72
    10
 73
     6
 74
     0
 42
0.000000001
 43
0.00000001
 40
0.0
 40
0.0
 40
0.0
 40
0.0
 40
0.5
 40
0.5
 40
1.0
 40
1.0
 40
1.0
 40
1.0
 10
1932.240369270045
 20
-46.35469415563744
 30
0.0
 10
1933.036345475398
 20
-46.58644338811857
 30
0.0
 10
1933.838136071884
 20
-46.77737043742372
 30
0.0
 10
1935.458480376331
 20
-47.04153262444988
 30
0.0
 10
1936.277159390703
 20
-47.11388800001152
 30
0.0
 10
1937.106144136456
 20
-47.11388800001157
 30
0.0
  0
SPLINE
  5
40D
330
1F
100
AcDbEntity
  8
0
  6
Continuous
 62
   144
370
     0
100
AcDbSpline
210
0.0
220
0.0
230
1.0
 70
    24
 71
     3
 72
    10
 73
     6
 74
     0
 42
0.000000001
 43
0.00000001
 40
0.0
 40
0.0
 40
0.0
 40
0.0
 40
0.5
 40
0.5
 40
1.0
 40
1.0
 40
1.0
 40
1.0
 10
1895.815012311252
 20
-0.0000000000034192
 30
0.0
 10
1895.413610865978
 20
-0.6952476974471526
 30
0.0
 10
1895.009277291595
 20
-1.395573991487745
 30
0.0
 10
1894.192156702724
 20
-2.810868367321408
 30
0.0
 10
1893.779306497688
 20
-3.525945898359043
 30
0.0
 10
1893.36125923344
 20
-4.250025000001247
 30
0.0
  0
SPLINE
  5
40E
330
1F
100
AcDbEntity
  8
0
  6
Continuous
 62
   144
370
     0
100
AcDbSpline
210
0.0
220
0.0
230
1.0
 70
    24
 71
     3
 72
    12
 73
     8
 74
     0
 42
0.000000001
 43
0.00000001
 40
0.0
 40
0.0
 40
0.0
 40
0.0
 40
0.2500000000000166
 40
0.2500000000000166
 40
0.5000000000000332
 40
0.5000000000000332
 40
1.0
 40
1.0
 40
1.0
 40
1.0
 10
1893.36125923344
 20
-4.250025000001246
 30
0.0
 10
1893.153016994344
 20
-4.610711138398346
 30
0.0
 10
1892.943840971466
 20
-4.973014637747889
 30
0.0
 10
1892.530047125883
 20
-5.689726602156833
 30
0.0
 10
1892.32453417754
 20
-6.045685470300101
 30
0.0
 10
1891.711645419684
 20
-7.107239938294464
 30
0.0
 10
1891.307905494771
 20
-7.806538001287384
 30
0.0
 10
1890.907506155626
 20
-8.500050000003952
 30
0.0
  0
SPLINE
  5
410
330
1F
100
AcDbEntity
  8
0
  6
Continuous
 62
   144
370
     0
100
AcDbSpline
210
0.0
220
0.0
230
1.0
 70
    24
 71
     3
 72
    10
 73
     6
 74
     0
 42
0.000000001
 43
0.00000001
 40
0.0
 40
0.0
 40
0.0
 40
0.0
 40
0.5
 40
0.5
 40
1.0
 40
1.0
 40
1.0
 40
1.0
 10
1890.907506155628
 20
8.500049999997422
 30
0.0
 10
1891.30890760105
 20
7.804802302294059
 30
0.0
 10
1891.71324117553
 20
7.104476008090151
 30
0.0
 10
1892.530361764419
 20
5.68918163222244
 30
0.0
 10
1892.943211969379
 20
4.974104101316423
 30
0.0
 10
1893.361259233439
 20
4.250024999999268
 30
0.0
  0
SPLINE
  5
411
330
1F
100
AcDbEntity
  8
0
  6
Continuous
 62
   144
370
     0
100
AcDbSpline
210
0.0
220
0.0
230
1.0
 70
    24
 71
     3
 72
    12
 73
     8
 74
     0
 42
0.000000001
 43
0.00000001
 40
0.0
 40
0.0
 40
0.0
 40
0.0
 40
0.25
 40
0.25
 40
0.5
 40
0.5
 40
1.0
 40
1.0
 40
1.0
 40
1.0
 10
1893.361259233439
 20
4.250024999999269
 30
0.0
 10
1893.569501472407
 20
3.889338861824288
 30
0.0
 10
1893.778677495357
 20
3.527035362352127
 30
0.0
 10
1894.192471341004
 20
2.810323397830927
 30
0.0
 10
1894.397984289368
 20
2.454364529651899
 30
0.0
 10
1895.010873047256
 20
1.392810061601769
 30
0.0
 10
1895.414612972151
 20
0.6935119986398971
 30
0.0
 10
1895.815012311252
 20
-0.0000000000013364
 30
0.0
  0
SPLINE
  5
412
330
1F
100
AcDbEntity
  8
0
  6
Continuous
 62
   144
370
     0
100
AcDbSpline
210
0.0
220
0.0
230
1.0
 70
     8
 71
     3
 72
    10
 73
     6
 74
     0
 42
0.000000001
 43
0.00000001
 40
0.0
 40
0.0
 40
0.0
 40
0.0
 40
0.5
 40
0.5
 40
1.0
 40
1.0
 40
1.0
 40
1.0
 10
-1927.499950098087
 20
40.7591938116367
 30
0.0
 10
-1928.194234218393
 20
40.52776577553973
 30
0.0
 10
-1928.893953126365
 20
40.33690354762529
 30
0.0
 10
-1930.309119663026
 20
40.07257986390839
 30
0.0
 10
-1931.024685402625
 20
39.99999999995901
 30
0.0
 10
-1931.749974999999
 20
39.99999999995893
 30
0.0
  0
SPLINE
  5
413
330
1F
100
AcDbEntity
  8
0
  6
Continuous
 62
   144
370
     0
100
AcDbSpline
210
0.0
220
0.0
230
1.0
 70
     8
 71
     3
 72
    10
 73
     6
 74
     0
 42
0.000000001
 43
0.00000001
 40
0.0
 40
0.0
 40
0.0
 40
0.0
 40
0.5
 40
0.5
 40
1.0
 40
1.0
 40
1.0
 40
1.0
 10
-1931.749974999999
 20
39.99999999995893
 30
0.0
 10
-1932.475264597374
 20
39.99999999995885
 30
0.0
 10
-1933.190830336979
 20
40.07257986390857
 30
0.0
 10
-1934.605996873638
 20
40.3369035476252
 30
0.0
 10
-1935.305715781604
 20
40.5277657755442
 30
0.0
 10
-1935.999999901908
 20
40.75919381164092
 30
0.0
  0
SPLINE
  5
415
330
1F
100
AcDbEntity
  8
0
  6
Continuous
 62
   144
370
     0
100
AcDbSpline
210
0.0
220
0.0
230
1.0
 70
     8
 71
     3
 72
    12
 73
     8
 74
     0
 42
0.000000001
 43
0.00000001
 40
0.0
 40
0.0
 40
0.0
 40
0.0
 40
0.2500000000000285
 40
0.2500000000000285
 40
0.500000000000057
 40
0.500000000000057
 40
1.0
 40
1.0
 40
1.0
 40
1.0
 10
-1931.749975
 20
47.11388800001355
 30
0.0
 10
-1932.110661138175
 20
47.11388800001359
 30
0.0
 10
-1932.472964637648
 20
47.09594346733488
 30
0.0
 10
-1933.18967660217
 20
47.02650023957262
 30
0.0
 10
-1933.545635470349
 20
46.97506829421526
 30
0.0
 10
-1934.607189938401
 20
46.7767007148974
 30
0.0
 10
-1935.306488001363
 20
46.58586482185201
 30
0.0
 10
-1936.000000000004
 20
46.3546941556379
 30
0.0
  0
SPLINE
  5
416
330
1F
100
AcDbEntity
  8
0
  6
Continuous
 62
   144
370
     0
100
AcDbSpline
210
0.0
220
0.0
230
1.0
 70
     8
 71
     3
 72
    10
 73
     6
 74
     0
 42
0.000000001
 43
0.00000001
 40
0.0
 40
0.0
 40
0.0
 40
0.0
 40
0.5
 40
0.5
 40
1.0
 40
1.0
 40
1.0
 40
1.0
 10
-1927.49995
 20
46.35469415563831
 30
0.0
 10
-1928.195197697704
 20
46.58644338820626
 30
0.0
 10
-1928.895523991908
 20
46.77737043752905
 30
0.0
 10
-1930.310818367776
 20
47.04153262451206
 30
0.0
 10
-1931.025895898683
 20
47.11388800001347
 30
0.0
 10
-1931.749975
 20
47.11388800001355
 30
0.0
  0
CIRCLE
  5
41A
330
1F
100
AcDbEntity
  8
0
  6
Continuous
 62
   144
370
     0
100
AcDbCircle
 10
-3656.5645719578
 20
-336.3400355213
 30
0.0
 40
18.00000000000136
  0
CIRCLE
  5
41B
330
1F
100
AcDbEntity
  8
0
  6
Continuous
 62
   144
370
     0
100
AcDbCircle
 10
-3656.5645719578
 20
336.3400355213
 30
0.0
 40
18.00000000000136
  0
CIRCLE
  5
41C
330
1F
100
AcDbEntity
  8
0
  6
Continuous
 62
   144
370
     0
100
AcDbCircle
 10
3656.5645719578
 20
-336.3400355213
 30
0.0
 40
18.00000000000136
  0
CIRCLE
  5
41D
330
1F
100
AcDbEntity
  8
0
  6
Continuous
 62
   144
370
     0
100
AcDbCircle
 10
3656.5645719578
 20
336.3400355213
 30
0.0
 40
17.99999999999909
  0
SPLINE
  5
41E
330
1F
100
AcDbEntity
  8
0
  6
Continuous
 62
   144
370
     0
100
AcDbSpline
210
0.0
220
0.0
230
1.0
 70
     8
 71
     3
 72
    26
 73
    22
 74
     0
 42
0.000000001
 43
0.00000001
 40
0.0
 40
0.0
 40
0.0
 40
0.0
 40
0.0523801035824172
 40
0.1047652500836016
 40
0.1570902323029688
 40
0.2094226842854805
 40
0.2628788140871122
 40
0.316333844827859
 40
0.3707418764593131
 40
0.4251397973874326
 40
0.4782701752651147
 40
0.5313978323737987
 40
0.5829911511654371
 40
0.6345919557935088
 40
0.6867910454405785
 40
0.7389958001187525
 40
0.7929631221184381
 40
0.8469255689280912
 40
0.9011365957868446
 40
0.9553387784173284
 40
1.0
 40
1.0
 40
1.0
 40
1.0
 10
3892.597205853775
 20
302.3607031193276
 30
0.0
 10
3892.644391459752
 20
302.3782672524435
 30
0.0
 10
3892.738767214522
 20
302.4133972096707
 30
0.0
 10
3893.473479538062
 20
302.6776550877638
 30
0.0
 10
3894.63085017266
 20
303.0786006529731
 30
0.0
 10
3896.215760716465
 20
303.5934518007497
 30
0.0
 10
3898.201061429096
 20
304.1826701848553
 30
0.0
 10
3900.55026851877
 20
304.8008454552057
 30
0.0
 10
3903.210575092691
 20
305.3912835577518
 30
0.0
 10
3906.085144114711
 20
305.9048049909627
 30
0.0
 10
3909.079744036166
 20
306.2923778460237
 30
0.0
 10
3912.070189545642
 20
306.5416902581663
 30
0.0
 10
3914.990170645915
 20
306.643223486739
 30
0.0
 10
3917.773681301348
 20
306.6221882588295
 30
0.0
 10
3920.36662925896
 20
306.4934860045681
 30
0.0
 10
3922.733862607668
 20
306.2919081876565
 30
0.0
 10
3924.780642575499
 20
306.0514685301915
 30
0.0
 10
3926.456658877046
 20
305.8106916246593
 30
0.0
 10
3927.64990665773
 20
305.616852080344
 30
0.0
 10
3928.35997949545
 20
305.4908666497171
 30
0.0
 10
3928.407138198228
 20
305.4826721764731
 30
0.0
 10
3928.428441988958
 20
305.4789703498143
 30
0.0
  0
SPLINE
  5
41F
330
1F
100
AcDbEntity
  8
0
  6
Continuous
 62
   144
370
     0
100
AcDbSpline
210
0.0
220
0.0
230
1.0
 70
     8
 71
     3
 72
    27
 73
    23
 74
     0
 42
0.000000001
 43
0.00000001
 40
0.0
 40
0.0
 40
0.0
 40
0.0
 40
0.0079267434224244
 40
0.0605149818251009
 40
0.112164756097619
 40
0.1638221520691456
 40
0.2165170717820005
 40
0.269215590323408
 40
0.3234546104246578
 40
0.3776861508993465
 40
0.4316011045569689
 40
0.4855081714585305
 40
0.5375869643191007
 40
0.589669983331801
 40
0.6413239813853434
 40
0.6929859523751413
 40
0.7462174177757035
 40
0.7994489811039838
 40
0.8538580761427593
 40
0.9082580579013364
 40
0.9541303654322724
 40
1.0
 40
1.0
 40
1.0
 40
1.0
 10
3778.762603582841
 20
-292.7652047151342
 30
0.0
 10
3778.772819426119
 20
-292.7634059193234
 30
0.0
 10
3778.850810038072
 20
-292.7496734077487
 30
0.0
 10
3778.519993894452
 20
-292.8083156439643
 30
0.0
 10
3777.741461350008
 20
-292.9435670009375
 30
0.0
 10
3776.471731456625
 20
-293.1451435742413
 30
0.0
 10
3774.776470633657
 20
-293.3804426809829
 30
0.0
 10
3772.67421438176
 20
-293.6168775593038
 30
0.0
 10
3770.211120046043
 20
-293.8113202579918
 30
0.0
 10
3767.460127471365
 20
-293.9247140218658
 30
0.0
 10
3764.515206403406
 20
-293.9134894209407
 30
0.0
 10
3761.505012019652
 20
-293.766910839343
 30
0.0
 10
3758.517080295164
 20
-293.4731141759622
 30
0.0
 10
3755.643356934107
 20
-293.0611844974927
 30
0.0
 10
3752.932549648288
 20
-292.5461749839143
 30
0.0
 10
3750.418297893877
 20
-291.9668556963841
 30
0.0
 10
3748.17005301949
 20
-291.3608952740629
 30
0.0
 10
3746.227273382914
 20
-290.7738082447138
 30
0.0
 10
3744.681268028851
 20
-290.2642136499294
 30
0.0
 10
3743.639068637895
 20
-289.8985946108081
 30
0.0
 10
3743.039867351732
 20
-289.6821482888314
 30
0.0
 10
3742.967817840094
 20
-289.6554081143167
 30
0.0
 10
3742.931794133881
 20
-289.6420384166059
 30
0.0
  0
SPLINE
  5
420
330
1F
100
AcDbEntity
  8
0
  6
Continuous
 62
   144
370
     0
100
AcDbSpline
210
0.0
220
0.0
230
1.0
 70
     8
 71
     3
 72
    26
 73
    22
 74
     0
 42
0.000000001
 43
0.00000001
 40
0.0
 40
0.0
 40
0.0
 40
0.0
 40
0.0523801035824181
 40
0.1047652500836019
 40
0.1570902323029662
 40
0.2094226842854794
 40
0.2628788140871112
 40
0.3163338448278582
 40
0.3707418764593113
 40
0.4251397973874317
 40
0.4782701752651037
 40
0.5313978323737953
 40
0.5829911511654365
 40
0.6345919557935079
 40
0.6867910454405858
 40
0.7389958001187534
 40
0.7929631221184489
 40
0.8469255689280919
 40
0.901136595786848
 40
0.9553387784173281
 40
0.9999999999999999
 40
0.9999999999999999
 40
0.9999999999999999
 40
0.9999999999999999
 10
-3742.931794133888
 20
-289.6420384166062
 30
0.0
 10
-3742.978977337932
 20
-289.6596090011041
 30
0.0
 10
-3743.073348288606
 20
-289.694751861716
 30
0.0
 10
-3743.808024474094
 20
-289.9591101923463
 30
0.0
 10
-3744.965340277793
 20
-290.360213997615
 30
0.0
 10
-3746.550180412734
 20
-290.875281840633
 30
0.0
 10
-3748.535400544749
 20
-291.4647716634283
 30
0.0
 10
-3750.884523091218
 20
-292.0832681280229
 30
0.0
 10
-3753.544748911446
 20
-292.6740699607696
 30
0.0
 10
-3756.419247694355
 20
-293.1879844203604
 30
0.0
 10
-3759.413794596148
 20
-293.5759667144426
 30
0.0
 10
-3762.404205989936
 20
-293.8256879988785
 30
0.0
 10
-3765.324173180582
 20
-293.9276204667387
 30
0.0
 10
-3768.10768668608
 20
-293.906965820069
 30
0.0
 10
-3770.700652216529
 20
-293.7786180929892
 30
0.0
 10
-3773.067913104239
 20
-293.5773639426602
 30
0.0
 10
-3775.114725927529
 20
-293.3372041375139
 30
0.0
 10
-3776.790775134115
 20
-293.0966563909022
 30
0.0
 10
-3777.984049406742
 20
-292.9029799975804
 30
0.0
 10
-3778.694139463434
 20
-292.777091654255
 30
0.0
 10
-3778.741299286177
 20
-292.7689036289554
 30
0.0
 10
-3778.762603582848
 20
-292.7652047151344
 30
0.0
  0
SPLINE
  5
423
330
1F
100
AcDbEntity
  8
0
  6
Continuous
 62
   144
370
     0
100
AcDbSpline
210
0.0
220
0.0
230
1.0
 70
     8
 71
     3
 72
    27
 73
    23
 74
     0
 42
0.000000001
 43
0.00000001
 40
0.0
 40
0.0
 40
0.0
 40
0.0
 40
0.0079267434224244
 40
0.0605149818251009
 40
0.1121647560976189
 40
0.1638221520691457
 40
0.2165170717820005
 40
0.269215590323408
 40
0.3234546104246579
 40
0.3776861508993466
 40
0.4316011045569689
 40
0.4855081714585305
 40
0.5375869643191007
 40
0.589669983331801
 40
0.6413239813853434
 40
0.6929859523751413
 40
0.7462174177757035
 40
0.7994489811039837
 40
0.8538580761427593
 40
0.9082580579013363
 40
0.9541303654322724
 40
0.9999999999999999
 40
0.9999999999999999
 40
0.9999999999999999
 40
0.9999999999999999
 10
-3778.762603582844
 20
292.7652047151342
 30
0.0
 10
-3778.772819426123
 20
292.7634059193234
 30
0.0
 10
-3778.850810038078
 20
292.7496734077488
 30
0.0
 10
-3778.519993894455
 20
292.8083156439642
 30
0.0
 10
-3777.741461350011
 20
292.9435670009373
 30
0.0
 10
-3776.471731456628
 20
293.1451435742412
 30
0.0
 10
-3774.776470633661
 20
293.3804426809829
 30
0.0
 10
-3772.674214381762
 20
293.6168775593038
 30
0.0
 10
-3770.211120046045
 20
293.8113202579917
 30
0.0
 10
-3767.46012747137
 20
293.9247140218658
 30
0.0
 10
-3764.515206403409
 20
293.9134894209407
 30
0.0
 10
-3761.505012019656
 20
293.766910839343
 30
0.0
 10
-3758.517080295168
 20
293.4731141759623
 30
0.0
 10
-3755.643356934111
 20
293.0611844974927
 30
0.0
 10
-3752.932549648292
 20
292.5461749839143
 30
0.0
 10
-3750.418297893879
 20
291.9668556963842
 30
0.0
 10
-3748.170053019494
 20
291.3608952740628
 30
0.0
 10
-3746.227273382916
 20
290.7738082447137
 30
0.0
 10
-3744.681268028857
 20
290.2642136499297
 30
0.0
 10
-3743.639068637898
 20
289.8985946108081
 30
0.0
 10
-3743.039867351736
 20
289.6821482888313
 30
0.0
 10
-3742.967817840098
 20
289.6554081143168
 30
0.0
 10
-3742.931794133885
 20
289.642038416606
 30
0.0
  0
SPLINE
  5
425
330
1F
100
AcDbEntity
  8
0
  6
Continuous
 62
   144
370
     0
100
AcDbSpline
210
0.0
220
0.0
230
1.0
 70
     8
 71
     3
 72
    27
 73
    23
 74
     0
 42
0.000000001
 43
0.00000001
 40
0.0
 40
0.0
 40
0.0
 40
0.0
 40
0.0079267434224169
 40
0.0605149818250931
 40
0.112164756097612
 40
0.1638221520691416
 40
0.2165170717820002
 40
0.2692155903234112
 40
0.3234546104246683
 40
0.3776861508993456
 40
0.4316011045569716
 40
0.4855081714585271
 40
0.5375869643190988
 40
0.5896699833317945
 40
0.6413239813853416
 40
0.6929859523751376
 40
0.7462174177756967
 40
0.7994489811039819
 40
0.8538580761427567
 40
0.9082580579013357
 40
0.9541303654322799
 40
0.9999999999999999
 40
0.9999999999999999
 40
0.9999999999999999
 40
0.9999999999999999
 10
-3828.802795715208
 20
296.834283830403
 30
0.0
 10
-3828.813011312447
 20
296.8324836378275
 30
0.0
 10
-3828.891000046067
 20
296.8187404629592
 30
0.0
 10
-3828.560191923513
 20
296.8774279301232
 30
0.0
 10
-3827.781677878862
 20
297.0127857322466
 30
0.0
 10
-3826.511975558301
 20
297.2145359100168
 30
0.0
 10
-3824.816746922922
 20
297.4500668024747
 30
0.0
 10
-3822.714523017702
 20
297.6867891137623
 30
0.0
 10
-3820.251455290575
 20
297.8815685821158
 30
0.0
 10
-3817.500478245599
 20
297.9953384798737
 30
0.0
 10
-3814.555555670458
 20
297.9845165292571
 30
0.0
 10
-3811.545341273596
 20
297.8383495238575
 30
0.0
 10
-3808.5573694071
 20
297.544961394144
 30
0.0
 10
-3805.683589751
 20
297.1334246350801
 30
0.0
 10
-3802.972712074814
 20
296.6187857668454
 30
0.0
 10
-3800.458381135322
 20
296.0398102508137
 30
0.0
 10
-3798.210053430802
 20
295.4341572299185
 30
0.0
 10
-3796.267193541741
 20
294.8473358364756
 30
0.0
 10
-3794.721118526793
 20
294.3379526271186
 30
0.0
 10
-3793.678869155587
 20
293.9724760882038
 30
0.0
 10
-3793.079638280967
 20
293.7561116952406
 30
0.0
 10
-3793.0075851139
 20
293.7293813720891
 30
0.0
 10
-3792.971559580026
 20
293.7160165999164
 30
0.0
  0
SPLINE
  5
426
330
1F
100
AcDbEntity
  8
0
  6
Continuous
 62
   144
370
     0
100
AcDbSpline
210
0.0
220
0.0
230
1.0
 70
     8
 71
     3
 72
    26
 73
    22
 74
     0
 42
0.000000001
 43
0.00000001
 40
0.0
 40
0.0
 40
0.0
 40
0.0
 40
0.0523801035824179
 40
0.1047652500836012
 40
0.1570902323029694
 40
0.2094226842854778
 40
0.2628788140871092
 40
0.3163338448278592
 40
0.3707418764593066
 40
0.4251397973874295
 40
0.4782701752651068
 40
0.5313978323737976
 40
0.58299115116544
 40
0.6345919557935044
 40
0.6867910454405809
 40
0.7389958001187533
 40
0.7929631221184377
 40
0.8469255689280901
 40
0.9011365957868435
 40
0.955338778417329
 40
1.0
 40
1.0
 40
1.0
 40
1.0
 10
-3883.26175113384
 20
409.9557744677625
 30
0.0
 10
-3883.311256731086
 20
409.9465997184556
 30
0.0
 10
-3883.410272691753
 20
409.9282493365383
 30
0.0
 10
-3884.179519552957
 20
409.7944820347686
 30
0.0
 10
-3885.388650739701
 20
409.5988653040582
 30
0.0
 10
-3887.038551074656
 20
409.3646815707621
 30
0.0
 10
-3889.095666734839
 20
409.1262022542979
 30
0.0
 10
-3891.516237979596
 20
408.9218753982585
 30
0.0
 10
-3894.238482471099
 20
408.7984527558004
 30
0.0
 10
-3897.158539955342
 20
408.7877003871035
 30
0.0
 10
-3900.175142150416
 20
408.9216877156827
 30
0.0
 10
-3903.16383902948
 20
409.1911538343102
 30
0.0
 10
-3906.057672074433
 20
409.5940544801029
 30
0.0
 10
-3908.795963740745
 20
410.0941872623991
 30
0.0
 10
-3911.327996630857
 20
410.667556972566
 30
0.0
 10
-3913.625136366382
 20
411.2738377482565
 30
0.0
 10
-3915.599918205398
 20
411.8632070330805
 30
0.0
 10
-3917.209418885163
 20
412.3890508531677
 30
0.0
 10
-3918.351449560867
 20
412.7855101459049
 30
0.0
 10
-3919.029212435207
 20
413.0319107339016
 30
0.0
 10
-3919.074255053788
 20
413.0481050276752
 30
0.0
 10
-3919.094602910358
 20
413.0554207472616
 30
0.0
  0
SPLINE
  5
427
330
1F
100
AcDbEntity
  8
0
  6
Continuous
 62
   144
370
     0
100
AcDbSpline
210
0.0
220
0.0
230
1.0
 70
     8
 71
     3
 72
    27
 73
    23
 74
     0
 42
0.000000001
 43
0.00000001
 40
0.0
 40
0.0
 40
0.0
 40
0.0
 40
0.0071489671519198
 40
0.0605167832941726
 40
0.1114585899584455
 40
0.1638237697941102
 40
0.2158079732692088
 40
0.2692162726847623
 40
0.3226693901637495
 40
0.3776866099326689
 40
0.4307750350113443
 40
0.4855099579469678
 40
0.5368331922451314
 40
0.5896726253258765
 40
0.6406325847273178
 40
0.6929880041179414
 40
0.7454908581193129
 40
0.7994501249634465
 40
0.8530500270254133
 40
0.9082595343497656
 40
0.9536187644234307
 40
1.0
 40
1.0
 40
1.0
 40
1.0
 10
-3928.433383251583
 20
305.4770554348376
 30
0.0
 10
-3928.442742121506
 20
305.475383710865
 30
0.0
 10
-3928.521965971751
 20
305.4612323858939
 30
0.0
 10
-3928.189619187197
 20
305.5211145044321
 30
0.0
 10
-3927.415473988465
 20
305.654924907685
 30
0.0
 10
-3926.149661002501
 20
305.8568587296364
 30
0.0
 10
-3924.453556243112
 20
306.0927048521448
 30
0.0
 10
-3922.360291101884
 20
306.3285881315099
 30
0.0
 10
-3919.892003667466
 20
306.5256304445092
 30
0.0
 10
-3917.153699774483
 20
306.6380675125253
 30
0.0
 10
-3914.197805200367
 20
306.6308692814684
 30
0.0
 10
-3911.200801615063
 20
306.4836101431243
 30
0.0
 10
-3908.196965350503
 20
306.1925374873373
 30
0.0
 10
-3905.335748975781
 20
305.7810855678746
 30
0.0
 10
-3902.608868719623
 20
305.2661824078683
 30
0.0
 10
-3900.106487512885
 20
304.6889855971307
 30
0.0
 10
-3897.843433009771
 20
304.0807771853291
 30
0.0
 10
-3895.910871073868
 20
303.4969698653566
 30
0.0
 10
-3894.350551102056
 20
302.9829014781234
 30
0.0
 10
-3893.31251891423
 20
302.6194871483657
 30
0.0
 10
-3892.704988799646
 20
302.3996004954375
 30
0.0
 10
-3892.633439188036
 20
302.3733056099272
 30
0.0
 10
-3892.597265844376
 20
302.3600117022643
 30
0.0
  0
SPLINE
  5
428
330
1F
100
AcDbEntity
  8
0
  6
Continuous
 62
   144
370
     0
100
AcDbSpline
210
0.0
220
0.0
230
1.0
 70
     8
 71
     3
 72
    26
 73
    22
 74
     0
 42
0.000000001
 43
0.00000001
 40
0.0
 40
0.0
 40
0.0
 40
0.0
 40
0.0523801035824174
 40
0.1047652500836019
 40
0.1570902323029724
 40
0.2094226842854801
 40
0.2628788140871171
 40
0.3163338448278582
 40
0.3707418764593059
 40
0.4251397973874327
 40
0.4782701752651151
 40
0.5313978323737991
 40
0.5829911511654378
 40
0.6345919557935096
 40
0.6867910454405863
 40
0.7389958001187545
 40
0.792963122118435
 40
0.8469255689280925
 40
0.9011365957868429
 40
0.9553387784173287
 40
1.0
 40
1.0
 40
1.0
 40
1.0
 10
-3792.971499589429
 20
-293.7167080169796
 30
0.0
 10
-3793.018685195405
 20
-293.7342721500956
 30
0.0
 10
-3793.113060950174
 20
-293.7694021073226
 30
0.0
 10
-3793.847773273715
 20
-294.0336599854157
 30
0.0
 10
-3795.005143908313
 20
-294.434605550625
 30
0.0
 10
-3796.590054452119
 20
-294.9494566984019
 30
0.0
 10
-3798.57535516475
 20
-295.5386750825073
 30
0.0
 10
-3800.924562254422
 20
-296.1568503528575
 30
0.0
 10
-3803.584868828344
 20
-296.7472884554039
 30
0.0
 10
-3806.459437850363
 20
-297.2608098886146
 30
0.0
 10
-3809.454037771819
 20
-297.6483827436757
 30
0.0
 10
-3812.444483281295
 20
-297.8976951558183
 30
0.0
 10
-3815.364464381568
 20
-297.9992283843909
 30
0.0
 10
-3818.147975037
 20
-297.9781931564814
 30
0.0
 10
-3820.740922994614
 20
-297.8494909022201
 30
0.0
 10
-3823.108156343321
 20
-297.6479130853085
 30
0.0
 10
-3825.154936311151
 20
-297.4074734278433
 30
0.0
 10
-3826.8309526127
 20
-297.1666965223114
 30
0.0
 10
-3828.024200393382
 20
-296.9728569779958
 30
0.0
 10
-3828.734273231102
 20
-296.846871547369
 30
0.0
 10
-3828.78143193388
 20
-296.838677074125
 30
0.0
 10
-3828.802735724611
 20
-296.8349752474662
 30
0.0
  0
SPLINE
  5
42A
330
1F
100
AcDbEntity
  8
0
  6
Continuous
 62
   144
370
     0
100
AcDbSpline
210
0.0
220
0.0
230
1.0
 70
     8
 71
     3
 72
    26
 73
    22
 74
     0
 42
0.000000001
 43
0.00000001
 40
0.0
 40
0.0
 40
0.0
 40
0.0
 40
0.0523801035824185
 40
0.1047652500836016
 40
0.1570902323029727
 40
0.2094226842854807
 40
0.2628788140871183
 40
0.3163338448278598
 40
0.3707418764593146
 40
0.4251397973874347
 40
0.4782701752651175
 40
0.5313978323738022
 40
0.5829911511654413
 40
0.6345919557935137
 40
0.6867910454405909
 40
0.7389958001187594
 40
0.7929631221184403
 40
0.8469255689280983
 40
0.9011365957868492
 40
0.9553387784173356
 40
0.9999999999999999
 40
0.9999999999999999
 40
0.9999999999999999
 40
0.9999999999999999
 10
-3892.597205853779
 20
-302.3607031193276
 30
0.0
 10
-3892.644391459755
 20
-302.3782672524435
 30
0.0
 10
-3892.738767214524
 20
-302.4133972096706
 30
0.0
 10
-3893.473479538066
 20
-302.6776550877639
 30
0.0
 10
-3894.630850172663
 20
-303.078600652973
 30
0.0
 10
-3896.215760716469
 20
-303.5934518007499
 30
0.0
 10
-3898.201061429099
 20
-304.1826701848552
 30
0.0
 10
-3900.550268518772
 20
-304.8008454552055
 30
0.0
 10
-3903.210575092693
 20
-305.3912835577516
 30
0.0
 10
-3906.085144114714
 20
-305.9048049909627
 30
0.0
 10
-3909.079744036169
 20
-306.2923778460237
 30
0.0
 10
-3912.070189545644
 20
-306.5416902581662
 30
0.0
 10
-3914.990170645918
 20
-306.6432234867389
 30
0.0
 10
-3917.77368130135
 20
-306.6221882588294
 30
0.0
 10
-3920.366629258964
 20
-306.4934860045681
 30
0.0
 10
-3922.73386260767
 20
-306.2919081876564
 30
0.0
 10
-3924.780642575501
 20
-306.0514685301912
 30
0.0
 10
-3926.456658877052
 20
-305.8106916246595
 30
0.0
 10
-3927.649906657732
 20
-305.6168520803437
 30
0.0
 10
-3928.359979495453
 20
-305.490866649717
 30
0.0
 10
-3928.40713819823
 20
-305.482672176473
 30
0.0
 10
-3928.428441988961
 20
-305.4789703498142
 30
0.0
  0
SPLINE
  5
42B
330
1F
100
AcDbEntity
  8
0
  6
Continuous
 62
   144
370
     0
100
AcDbSpline
210
0.0
220
0.0
230
1.0
 70
     8
 71
     3
 72
    27
 73
    23
 74
     0
 42
0.000000001
 43
0.00000001
 40
0.0
 40
0.0
 40
0.0
 40
0.0
 40
0.0079267434224243
 40
0.0605149818251009
 40
0.1121647560976188
 40
0.1638221520691464
 40
0.2165170717820053
 40
0.2692155903234112
 40
0.3234546104246746
 40
0.3776861508993463
 40
0.4316011045569651
 40
0.485508171458531
 40
0.5375869643190883
 40
0.5896699833317987
 40
0.6413239813853423
 40
0.6929859523751394
 40
0.7462174177756993
 40
0.7994489811039817
 40
0.8538580761427561
 40
0.9082580579013366
 40
0.9541303654322798
 40
0.9999999999999999
 40
0.9999999999999999
 40
0.9999999999999999
 40
0.9999999999999999
 10
-3919.094542919761
 20
-413.0561121643249
 30
0.0
 10
-3919.10429580562
 20
-413.0596449164634
 30
0.0
 10
-3919.17875207083
 20
-413.0866149368183
 30
0.0
 10
-3918.862995363799
 20
-412.9718284623813
 30
0.0
 10
-3918.119428279466
 20
-412.7044077387726
 30
0.0
 10
-3916.903448050643
 20
-412.2869880456884
 30
0.0
 10
-3915.274118605338
 20
-411.763002849171
 30
0.0
 10
-3913.244081119152
 20
-411.167746093629
 30
0.0
 10
-3910.851368229538
 20
-410.5516562482348
 30
0.0
 10
-3908.161095954203
 20
-409.9657779535675
 30
0.0
 10
-3905.258317612568
 20
-409.4692258540522
 30
0.0
 10
-3902.267912291667
 20
-409.0947508545283
 30
0.0
 10
-3899.274060804853
 20
-408.8691278403516
 30
0.0
 10
-3896.372345998827
 20
-408.7795555210839
 30
0.0
 10
-3893.613341242113
 20
-408.819601648817
 30
0.0
 10
-3891.036865198168
 20
-408.956874794227
 30
0.0
 10
-3888.717822566623
 20
-409.1662412712578
 30
0.0
 10
-3886.702926346261
 20
-409.4096691199125
 30
0.0
 10
-3885.092222950969
 20
-409.6451553789692
 30
0.0
 10
-3884.002601617047
 20
-409.8256607831742
 30
0.0
 10
-3883.375060436704
 20
-409.935584659604
 30
0.0
 10
-3883.299480173703
 20
-409.9495056116173
 30
0.0
 10
-3883.261691143243
 20
-409.9564658848257
 30
0.0
  0
SPLINE
  5
42D
330
1F
100
AcDbEntity
  8
0
  6
Continuous
 62
   144
370
     0
100
AcDbSpline
210
0.0
220
0.0
230
1.0
 70
     8
 71
     3
 72
    14
 73
    10
 74
     0
 42
0.000000001
 43
0.00000001
 40
0.0
 40
0.0
 40
0.0
 40
0.0
 40
0.0552522803312017
 40
0.2181555116025184
 40
0.385871254873751
 40
0.5476214283667057
 40
0.7138008811999302
 40
0.8804483009261039
 40
1.0
 40
1.0
 40
1.0
 40
1.0
 10
5039.935668798717
 20
-507.8150907214296
 30
0.0
 10
5040.219829740046
 20
-507.8259702550347
 30
0.0
 10
5041.341797469917
 20
-507.8689264951285
 30
0.0
 10
5043.029899015346
 20
-508.0610150340484
 30
0.0
 10
5044.896277929003
 20
-508.3782913881244
 30
0.0
 10
5046.349082436713
 20
-508.784898325003
 30
0.0
 10
5047.347101329271
 20
-509.2302570610246
 30
0.0
 10
5047.893365982363
 20
-509.6499653128621
 30
0.0
 10
5047.879736429057
 20
-509.8781169218342
 30
0.0
 10
5047.874043063323
 20
-509.9734208927669
 30
0.0
  0
SPLINE
  5
42F
330
1F
100
AcDbEntity
  8
0
  6
Continuous
 62
   144
370
     0
100
AcDbSpline
210
0.0
220
0.0
230
1.0
 70
     8
 71
     3
 72
    14
 73
    10
 74
     0
 42
0.000000001
 43
0.00000001
 40
0.0
 40
0.0
 40
0.0
 40
0.0
 40
0.0526719092214024
 40
0.2184252189781425
 40
0.3841919794825729
 40
0.5485932773864179
 40
0.7130199510814199
 40
0.8824419190015677
 40
1.0
 40
1.0
 40
1.0
 40
1.0
 10
-5039.977969007303
 20
507.8117426361293
 30
0.0
 10
-5040.247883409714
 20
507.8221149748726
 30
0.0
 10
-5041.367191847992
 20
507.8651280418909
 30
0.0
 10
-5043.037678611902
 20
508.0588773152786
 30
0.0
 10
-5044.91348632479
 20
508.3758996094292
 30
0.0
 10
-5046.352298553271
 20
508.7824673027
 30
0.0
 10
-5047.356202613938
 20
509.229046413539
 30
0.0
 10
-5047.893533477515
 20
509.6467684617043
 30
0.0
 10
-5047.880431091751
 20
509.8748698641773
 30
0.0
 10
-5047.875063849907
 20
509.968308983896
 30
0.0
  0
LINE
  5
466
330
1F
100
AcDbEntity
  8
0
  6
Continuous
 62
     7
370
    15
100
AcDbLine
 10
1970.0
 20
-38.0
 30
0.0
 11
4828.0
 21
-38.0
 31
0.0
  0
LINE
  5
467
330
1F
100
AcDbEntity
  8
0
  6
Continuous
 62
     7
370
    15
100
AcDbLine
 10
4828.0
 20
38.0
 30
0.0
 11
1970.0
 21
38.0
 31
0.0
  0
LINE
  5
468
330
1F
100
AcDbEntity
  8
0
  6
Continuous
 62
     7
370
    15
100
AcDbLine
 10
-1761.0
 20
38.0
 30
0.0
 11
-1762.0032894262
 21
38.0
 31
0.0
  0
LINE
  5
469
330
1F
100
AcDbEntity
  8
0
  6
Continuous
 62
     7
370
    15
100
AcDbLine
 10
-1669.4312091385
 20
38.0
 30
0.0
 11
-1758.0
 21
38.0
 31
0.0
  0
LINE
  5
46A
330
1F
100
AcDbEntity
  8
0
  6
Continuous
 62
     7
370
    15
100
AcDbLine
 10
-1634.0
 20
38.0
 30
0.0
 11
-1658.5051879039
 21
38.0
 31
0.0
  0
LINE
  5
46B
330
1F
100
AcDbEntity
  8
0
  6
Continuous
 62
     7
370
    15
100
AcDbLine
 10
-1658.5687908615
 20
-38.0
 30
0.0
 11
-1634.0
 21
-38.0
 31
0.0
  0
LINE
  5
46C
330
1F
100
AcDbEntity
  8
0
  6
Continuous
 62
     7
370
    15
100
AcDbLine
 10
-1758.0
 20
-38.0
 30
0.0
 11
-1669.4948120961
 21
-38.0
 31
0.0
  0
LINE
  5
46D
330
1F
100
AcDbEntity
  8
0
  6
Continuous
 62
     7
370
    15
100
AcDbLine
 10
-1762.0032894262
 20
-38.0
 30
0.0
 11
-1761.0
 21
-38.0
 31
0.0
  0
LINE
  5
46E
330
1F
100
AcDbEntity
  8
0
  6
Continuous
 62
     7
370
    15
100
AcDbLine
 10
1761.0
 20
-38.0
 30
0.0
 11
1762.0032894262
 21
-38.0
 31
0.0
  0
LINE
  5
46F
330
1F
100
AcDbEntity
  8
0
  6
Continuous
 62
     7
370
    15
100
AcDbLine
 10
1669.4312091385
 20
-38.0
 30
0.0
 11
1758.0
 21
-38.0
 31
0.0
  0
LINE
  5
470
330
1F
100
AcDbEntity
  8
0
  6
Continuous
 62
     7
370
    15
100
AcDbLine
 10
1634.0
 20
-38.0
 30
0.0
 11
1658.5051879039
 21
-38.0
 31
0.0
  0
LINE
  5
471
330
1F
100
AcDbEntity
  8
0
  6
Continuous
 62
     7
370
    15
100
AcDbLine
 10
1658.5687908615
 20
38.0
 30
0.0
 11
1634.0
 21
38.0
 31
0.0
  0
LINE
  5
472
330
1F
100
AcDbEntity
  8
0
  6
Continuous
 62
     7
370
    15
100
AcDbLine
 10
1758.0
 20
38.0
 30
0.0
 11
1669.4948120961
 21
38.0
 31
0.0
  0
LINE
  5
473
330
1F
100
AcDbEntity
  8
0
  6
Continuous
 62
     7
370
    15
100
AcDbLine
 10
1762.0032894262
 20
38.0
 30
0.0
 11
1761.0
 21
38.0
 31
0.0
  0
LINE
  5
474
330
1F
100
AcDbEntity
  8
0
  6
Continuous
 62
     7
370
    15
100
AcDbLine
 10
-1839.0
 20
-38.0
 30
0.0
 11
-1837.9967105738
 21
-38.0
 31
0.0
  0
LINE
  5
475
330
1F
100
AcDbEntity
  8
0
  6
Continuous
 62
     7
370
    15
100
AcDbLine
 10
-1930.5051879039
 20
-38.0
 30
0.0
 11
-1842.0
 21
-38.0
 31
0.0
  0
LINE
  5
476
330
1F
100
AcDbEntity
  8
0
  6
Continuous
 62
     7
370
    15
100
AcDbLine
 10
-1966.0
 20
-38.0
 30
0.0
 11
-1941.4312091385
 21
-38.0
 31
0.0
  0
LINE
  5
477
330
1F
100
AcDbEntity
  8
0
  6
Continuous
 62
     7
370
    15
100
AcDbLine
 10
-1941.4948120961
 20
38.0
 30
0.0
 11
-1966.0
 21
38.0
 31
0.0
  0
LINE
  5
478
330
1F
100
AcDbEntity
  8
0
  6
Continuous
 62
     7
370
    15
100
AcDbLine
 10
-1842.0
 20
38.0
 30
0.0
 11
-1930.5687908615
 21
38.0
 31
0.0
  0
LINE
  5
479
330
1F
100
AcDbEntity
  8
0
  6
Continuous
 62
     7
370
    15
100
AcDbLine
 10
-1837.9967105738
 20
38.0
 30
0.0
 11
-1839.0
 21
38.0
 31
0.0
  0
LINE
  5
47A
330
1F
100
AcDbEntity
  8
0
  6
Continuous
 62
     7
370
    15
100
AcDbLine
 10
1839.0
 20
38.0
 30
0.0
 11
1837.9967105738
 21
38.0
 31
0.0
  0
LINE
  5
47B
330
1F
100
AcDbEntity
  8
0
  6
Continuous
 62
     7
370
    15
100
AcDbLine
 10
1930.5051879039
 20
38.0
 30
0.0
 11
1842.0
 21
38.0
 31
0.0
  0
LINE
  5
47C
330
1F
100
AcDbEntity
  8
0
  6
Continuous
 62
     7
370
    15
100
AcDbLine
 10
1966.0
 20
38.0
 30
0.0
 11
1941.4312091385
 21
38.0
 31
0.0
  0
LINE
  5
47D
330
1F
100
AcDbEntity
  8
0
  6
Continuous
 62
     7
370
    15
100
AcDbLine
 10
1941.4948120961
 20
-38.0
 30
0.0
 11
1966.0
 21
-38.0
 31
0.0
  0
LINE
  5
47E
330
1F
100
AcDbEntity
  8
0
  6
Continuous
 62
     7
370
    15
100
AcDbLine
 10
1842.0
 20
-38.0
 30
0.0
 11
1930.5687908615
 21
-38.0
 31
0.0
  0
LINE
  5
47F
330
1F
100
AcDbEntity
  8
0
  6
Continuous
 62
     7
370
    15
100
AcDbLine
 10
1837.9967105738
 20
-38.0
 30
0.0
 11
1839.0
 21
-38.0
 31
0.0
  0
LINE
  5
480
330
1F
100
AcDbEntity
  8
0
  6
Continuous
 62
     7
370
    15
100
AcDbLine
 10
4941.473806089
 20
389.2906560624
 30
0.0
 11
4942.8136253298
 21
373.8486715914
 31
0.0
  0
LINE
  5
481
330
1F
100
AcDbEntity
  8
0
  6
Continuous
 62
     7
370
    15
100
AcDbLine
 10
4980.6713937103
 20
377.1333897303
 30
0.0
 11
4979.3315744694
 21
392.5753742013
 31
0.0
  0
LINE
  5
482
330
1F
100
AcDbEntity
  8
0
  6
Continuous
 62
     7
370
    15
100
AcDbLine
 10
4979.3315744694
 20
-392.5753742013
 30
0.0
 11
4980.6713937103
 21
-377.1333897303
 31
0.0
  0
LINE
  5
483
330
1F
100
AcDbEntity
  8
0
  6
Continuous
 62
     7
370
    15
100
AcDbLine
 10
4942.8136253298
 20
-373.8486715914
 30
0.0
 11
4941.473806089
 21
-389.2906560624
 31
0.0
  0
LINE
  5
484
330
1F
100
AcDbEntity
  8
0
  6
Continuous
 62
     7
370
    15
100
AcDbLine
 10
-4979.3315744694
 20
392.5753742013
 30
0.0
 11
-4980.6713937103
 21
377.1333897303
 31
0.0
  0
LINE
  5
485
330
1F
100
AcDbEntity
  8
0
  6
Continuous
 62
     7
370
    15
100
AcDbLine
 10
-4942.8136253298
 20
373.8486715914
 30
0.0
 11
-4941.473806089
 21
389.2906560624
 31
0.0
  0
LINE
  5
486
330
1F
100
AcDbEntity
  8
0
  6
Continuous
 62
     7
370
    15
100
AcDbLine
 10
-4941.473806089
 20
-389.2906560624
 30
0.0
 11
-4942.8136253298
 21
-373.8486715914
 31
0.0
  0
LINE
  5
487
330
1F
100
AcDbEntity
  8
0
  6
Continuous
 62
     7
370
    15
100
AcDbLine
 10
-4980.6713937103
 20
-377.1333897303
 30
0.0
 11
-4979.3315744694
 21
-392.5753742013
 31
0.0
  0
LINE
  5
488
330
1F
100
AcDbEntity
  8
0
  6
Continuous
 62
     7
370
    15
100
AcDbLine
 10
-1630.0
 20
-38.0
 30
0.0
 11
1630.0
 21
-38.0
 31
0.0
  0
LINE
  5
489
330
1F
100
AcDbEntity
  8
0
  6
Continuous
 62
     7
370
    15
100
AcDbLine
 10
1630.0
 20
38.0
 30
0.0
 11
-1630.0
 21
38.0
 31
0.0
  0
LINE
  5
48A
330
1F
100
AcDbEntity
  8
0
  6
Continuous
 62
     7
370
    15
100
AcDbLine
 10
1762.0
 20
-38.0
 30
0.0
 11
1762.0
 21
-116.8673794683
 31
0.0
  0
LINE
  5
48B
330
1F
100
AcDbEntity
  8
0
  6
Continuous
 62
     7
370
    15
100
AcDbLine
 10
1762.0
 20
116.8673794683
 30
0.0
 11
1762.0
 21
38.0
 31
0.0
  0
LINE
  5
48C
330
1F
100
AcDbEntity
  8
0
  6
Continuous
 62
     7
370
    15
100
AcDbLine
 10
-2543.0
 20
55.0
 30
0.0
 11
-2547.0
 21
55.0
 31
0.0
  0
LINE
  5
48D
330
1F
100
AcDbEntity
  8
0
  6
Continuous
 62
     7
370
    15
100
AcDbLine
 10
-2547.0
 20
-55.0
 30
0.0
 11
-2543.0
 21
-55.0
 31
0.0
  0
LINE
  5
48E
330
1F
100
AcDbEntity
  8
0
  6
Continuous
 62
     7
370
    15
100
AcDbLine
 10
-2593.0
 20
55.0
 30
0.0
 11
-2597.0
 21
55.0
 31
0.0
  0
LINE
  5
48F
330
1F
100
AcDbEntity
  8
0
  6
Continuous
 62
     7
370
    15
100
AcDbLine
 10
-2597.0
 20
-55.0
 30
0.0
 11
-2593.0
 21
-55.0
 31
0.0
  0
LINE
  5
490
330
1F
100
AcDbEntity
  8
0
  6
Continuous
 62
     7
370
    15
100
AcDbLine
 10
-3372.0
 20
55.0
 30
0.0
 11
-3376.0
 21
55.0
 31
0.0
  0
LINE
  5
491
330
1F
100
AcDbEntity
  8
0
  6
Continuous
 62
     7
370
    15
100
AcDbLine
 10
-3376.0
 20
-55.0
 30
0.0
 11
-3372.0
 21
-55.0
 31
0.0
  0
LINE
  5
492
330
1F
100
AcDbEntity
  8
0
  6
Continuous
 62
     7
370
    15
100
AcDbLine
 10
-3422.0
 20
55.0
 30
0.0
 11
-3426.0
 21
55.0
 31
0.0
  0
LINE
  5
493
330
1F
100
AcDbEntity
  8
0
  6
Continuous
 62
     7
370
    15
100
AcDbLine
 10
-3426.0
 20
-55.0
 30
0.0
 11
-3422.0
 21
-55.0
 31
0.0
  0
LINE
  5
494
330
1F
100
AcDbEntity
  8
0
  6
Continuous
 62
     7
370
    15
100
AcDbLine
 10
-3746.0346336987
 20
-398.3187258277
 30
0.0
 11
-1497.0110164611
 21
-202.8730323279
 31
0.0
  0
LINE
  5
495
330
1F
100
AcDbEntity
  8
0
  6
Continuous
 62
     7
370
    15
100
AcDbLine
 10
-3776.4201133557
 20
-400.9592988738
 30
0.0
 11
-3756.9250593933
 21
-399.2651306524
 31
0.0
  0
LINE
  5
496
330
1F
100
AcDbEntity
  8
0
  6
Continuous
 62
     7
370
    15
100
AcDbLine
 10
-3778.7966225815
 20
-292.7587803728
 30
0.0
 11
-3785.7703392241
 21
-293.3648135309
 31
0.0
  0
LINE
  5
497
330
1F
100
AcDbEntity
  8
0
  6
Continuous
 62
     7
370
    15
100
AcDbLine
 10
-1506.3612423295
 20
-95.278546985
 30
0.0
 11
-3742.9317941339
 21
-289.6420384166
 31
0.0
  0
LINE
  5
498
330
1F
100
AcDbEntity
  8
0
  6
Continuous
 62
     7
370
    15
100
AcDbLine
 10
-3742.9317941339
 20
289.6420384166
 30
0.0
 11
-1506.3612423295
 21
95.278546985
 31
0.0
  0
LINE
  5
499
330
1F
100
AcDbEntity
  8
0
  6
Continuous
 62
     7
370
    15
100
AcDbLine
 10
-3785.7703392241
 20
293.3648135309
 30
0.0
 11
-3778.7966225815
 21
292.7587803727
 31
0.0
  0
LINE
  5
49A
330
1F
100
AcDbEntity
  8
0
  6
Continuous
 62
     7
370
    15
100
AcDbLine
 10
-3756.9250593933
 20
399.2651306524
 30
0.0
 11
-3776.4201133557
 21
400.9592988738
 31
0.0
  0
LINE
  5
49B
330
1F
100
AcDbEntity
  8
0
  6
Continuous
 62
     7
370
    15
100
AcDbLine
 10
-1497.0110164611
 20
202.8730323279
 30
0.0
 11
-3746.0346336987
 21
398.3187258276
 31
0.0
  0
LINE
  5
49C
330
1F
100
AcDbEntity
  8
0
  6
Continuous
 62
     7
370
    15
100
AcDbLine
 10
3742.9317941339
 20
-289.6420384166
 30
0.0
 11
1506.3612423295
 21
-95.278546985
 31
0.0
  0
LINE
  5
49D
330
1F
100
AcDbEntity
  8
0
  6
Continuous
 62
     7
370
    15
100
AcDbLine
 10
3785.7703392241
 20
-293.3648135309
 30
0.0
 11
3778.7966225815
 21
-292.7587803728
 31
0.0
  0
LINE
  5
49E
330
1F
100
AcDbEntity
  8
0
  6
Continuous
 62
     7
370
    15
100
AcDbLine
 10
3756.9250593933
 20
-399.2651306524
 30
0.0
 11
3776.4201133557
 21
-400.9592988738
 31
0.0
  0
LINE
  5
49F
330
1F
100
AcDbEntity
  8
0
  6
Continuous
 62
     7
370
    15
100
AcDbLine
 10
1497.0110164611
 20
-202.8730323279
 30
0.0
 11
3746.0346336987
 21
-398.3187258277
 31
0.0
  0
LINE
  5
4A0
330
1F
100
AcDbEntity
  8
0
  6
Continuous
 62
     7
370
    15
100
AcDbLine
 10
3746.0346336987
 20
398.3187258276
 30
0.0
 11
1497.0110164611
 21
202.8730323279
 31
0.0
  0
LINE
  5
4A1
330
1F
100
AcDbEntity
  8
0
  6
Continuous
 62
     7
370
    15
100
AcDbLine
 10
3776.4201133557
 20
400.9592988738
 30
0.0
 11
3756.9250593933
 21
399.2651306524
 31
0.0
  0
LINE
  5
4A2
330
1F
100
AcDbEntity
  8
0
  6
Continuous
 62
     7
370
    15
100
AcDbLine
 10
3778.7966225815
 20
292.7587803727
 30
0.0
 11
3785.7703392241
 21
293.3648135309
 31
0.0
  0
LINE
  5
4A3
330
1F
100
AcDbEntity
  8
0
  6
Continuous
 62
     7
370
    15
100
AcDbLine
 10
1506.3612423295
 20
95.278546985
 30
0.0
 11
3742.9317941339
 21
289.6420384166
 31
0.0
  0
LINE
  5
4A4
330
1F
100
AcDbEntity
  8
0
  6
Continuous
 62
     7
370
    15
100
AcDbLine
 10
3919.1269453984
 20
-413.0683041217
 30
0.0
 11
4947.0222897368
 21
-502.253341351
 31
0.0
  0
LINE
  5
4A5
330
1F
100
AcDbEntity
  8
0
  6
Continuous
 62
     7
370
    15
100
AcDbLine
 10
3807.048025851
 20
-403.3438096315
 30
0.0
 11
3883.2616911432
 21
-409.9564658848
 31
0.0
  0
LINE
  5
4A6
330
1F
100
AcDbEntity
  8
0
  6
Continuous
 62
     7
370
    15
100
AcDbLine
 10
3776.6621854404
 20
-400.7073911253
 30
0.0
 11
3796.1574708591
 21
-402.3988938308
 31
0.0
  0
LINE
  5
4A7
330
1F
100
AcDbEntity
  8
0
  6
Continuous
 62
     7
370
    15
100
AcDbLine
 10
3792.9740550587
 20
-293.7169297415
 30
0.0
 11
3785.9977001509
 21
-293.1116283598
 31
0.0
  0
LINE
  5
4A8
330
1F
100
AcDbEntity
  8
0
  6
Continuous
 62
     7
370
    15
100
AcDbLine
 10
3892.5997613231
 20
-302.3609248439
 30
0.0
 11
3828.8367538446
 21
-296.8285462538
 31
0.0
  0
LINE
  5
4A9
330
1F
100
AcDbEntity
  8
0
  6
Continuous
 62
     7
370
    15
100
AcDbLine
 10
4956.4023874828
 20
-394.6614468195
 30
0.0
 11
3928.4624601089
 21
-305.4725413562
 31
0.0
  0
LINE
  5
4AA
330
1F
100
AcDbEntity
  8
0
  6
Continuous
 62
     7
370
    15
100
AcDbLine
 10
4992.1936209361
 20
-397.7668626632
 30
0.0
 11
4963.6764508854
 21
-395.2925787912
 31
0.0
  0
LINE
  5
4AB
330
1F
100
AcDbEntity
  8
0
  6
Continuous
 62
     7
370
    15
100
AcDbLine
 10
5204.6677573553
 20
-416.2021186173
 30
0.0
 11
5063.3640803686
 21
-403.9419466434
 31
0.0
  0
LINE
  5
4AC
330
1F
100
AcDbEntity
  8
0
  6
Continuous
 62
     7
370
    15
100
AcDbLine
 10
5047.8391081007
 20
-511.0006829444
 30
0.0
 11
5195.3322426447
 21
-523.7978813827
 31
0.0
  0
LINE
  5
4AD
330
1F
100
AcDbEntity
  8
0
  6
Continuous
 62
     7
370
    15
100
AcDbLine
 10
4954.3698050138
 20
-502.890846353
 30
0.0
 11
5020.5196091154
 21
-508.6303146501
 31
0.0
  0
LINE
  5
4AE
330
1F
100
AcDbEntity
  8
0
  6
Continuous
 62
     7
370
    15
100
AcDbLine
 10
4947.0668727722
 20
502.257209585
 30
0.0
 11
3919.1269453984
 21
413.0683041217
 31
0.0
  0
LINE
  5
4AF
330
1F
100
AcDbEntity
  8
0
  6
Continuous
 62
     7
370
    15
100
AcDbLine
 10
5020.5196091154
 20
508.6303146501
 30
0.0
 11
4954.3409361749
 21
502.8883415567
 31
0.0
  0
LINE
  5
4B0
330
1F
100
AcDbEntity
  8
0
  6
Continuous
 62
     7
370
    15
100
AcDbLine
 10
5195.3322426447
 20
523.7978813827
 30
0.0
 11
5047.8391081007
 21
511.0006829444
 31
0.0
  0
LINE
  5
4B1
330
1F
100
AcDbEntity
  8
0
  6
Continuous
 62
     7
370
    15
100
AcDbLine
 10
5063.3640803686
 20
403.9419466434
 30
0.0
 11
5204.6677573553
 21
416.2021186173
 31
0.0
  0
LINE
  5
4B2
330
1F
100
AcDbEntity
  8
0
  6
Continuous
 62
     7
370
    15
100
AcDbLine
 10
4963.7053197244
 20
395.2950835875
 30
0.0
 11
4992.193620936
 21
397.7668626632
 31
0.0
  0
LINE
  5
4B3
330
1F
100
AcDbEntity
  8
0
  6
Continuous
 62
     7
370
    15
100
AcDbLine
 10
3928.4624601089
 20
305.4725413562
 30
0.0
 11
4956.3578044473
 21
394.6575785855
 31
0.0
  0
LINE
  5
4B4
330
1F
100
AcDbEntity
  8
0
  6
Continuous
 62
     7
370
    15
100
AcDbLine
 10
3828.8367538446
 20
296.8285462538
 30
0.0
 11
3892.5972058538
 21
302.3607031193
 31
0.0
  0
LINE
  5
4B5
330
1F
100
AcDbEntity
  8
0
  6
Continuous
 62
     7
370
    15
100
AcDbLine
 10
3785.9977001509
 20
293.1116283598
 30
0.0
 11
3792.9714995894
 21
293.716708017
 31
0.0
  0
LINE
  5
4B6
330
1F
100
AcDbEntity
  8
0
  6
Continuous
 62
     7
370
    15
100
AcDbLine
 10
3796.0891981619
 20
402.3929701703
 30
0.0
 11
3776.6621854404
 21
400.7073911253
 31
0.0
  0
LINE
  5
4B7
330
1F
100
AcDbEntity
  8
0
  6
Continuous
 62
     7
370
    15
100
AcDbLine
 10
3883.2616911432
 20
409.9564658848
 30
0.0
 11
3806.9797531538
 21
403.337885971
 31
0.0
  0
LINE
  5
4B8
330
1F
100
AcDbEntity
  8
0
  6
Continuous
 62
     7
370
    15
100
AcDbLine
 10
-4947.0668727722
 20
-502.257209585
 30
0.0
 11
-3919.1269453984
 21
-413.0683041217
 31
0.0
  0
LINE
  5
4B9
330
1F
100
AcDbEntity
  8
0
  6
Continuous
 62
     7
370
    15
100
AcDbLine
 10
-5020.5196091154
 20
-508.6303146501
 30
0.0
 11
-4954.3409361749
 21
-502.8883415567
 31
0.0
  0
LINE
  5
4BA
330
1F
100
AcDbEntity
  8
0
  6
Continuous
 62
     7
370
    15
100
AcDbLine
 10
-5195.3322426447
 20
-523.7978813827
 30
0.0
 11
-5047.8391081007
 21
-511.0006829444
 31
0.0
  0
LINE
  5
4BB
330
1F
100
AcDbEntity
  8
0
  6
Continuous
 62
     7
370
    15
100
AcDbLine
 10
-5063.3640803686
 20
-403.9419466434
 30
0.0
 11
-5204.6677573553
 21
-416.2021186173
 31
0.0
  0
LINE
  5
4BC
330
1F
100
AcDbEntity
  8
0
  6
Continuous
 62
     7
370
    15
100
AcDbLine
 10
-4963.7053197244
 20
-395.2950835875
 30
0.0
 11
-4992.193620936
 21
-397.7668626632
 31
0.0
  0
LINE
  5
4BD
330
1F
100
AcDbEntity
  8
0
  6
Continuous
 62
     7
370
    15
100
AcDbLine
 10
-3928.4624601089
 20
-305.4725413562
 30
0.0
 11
-4956.3578044473
 21
-394.6575785855
 31
0.0
  0
LINE
  5
4BE
330
1F
100
AcDbEntity
  8
0
  6
Continuous
 62
     7
370
    15
100
AcDbLine
 10
-3828.8367538446
 20
-296.8285462538
 30
0.0
 11
-3892.5972058538
 21
-302.3607031193
 31
0.0
  0
LINE
  5
4BF
330
1F
100
AcDbEntity
  8
0
  6
Continuous
 62
     7
370
    15
100
AcDbLine
 10
-3785.9977001509
 20
-293.1116283598
 30
0.0
 11
-3792.9714995894
 21
-293.716708017
 31
0.0
  0
LINE
  5
4C0
330
1F
100
AcDbEntity
  8
0
  6
Continuous
 62
     7
370
    15
100
AcDbLine
 10
-3796.0891981619
 20
-402.3929701703
 30
0.0
 11
-3776.6621854404
 21
-400.7073911253
 31
0.0
  0
LINE
  5
4C1
330
1F
100
AcDbEntity
  8
0
  6
Continuous
 62
     7
370
    15
100
AcDbLine
 10
-3883.2616911432
 20
-409.9564658848
 30
0.0
 11
-3806.9797531538
 21
-403.337885971
 31
0.0
  0
LINE
  5
4C2
330
1F
100
AcDbEntity
  8
0
  6
Continuous
 62
     7
370
    15
100
AcDbLine
 10
-3919.1269453984
 20
413.0683041217
 30
0.0
 11
-4947.0222897368
 21
502.253341351
 31
0.0
  0
LINE
  5
4C3
330
1F
100
AcDbEntity
  8
0
  6
Continuous
 62
     7
370
    15
100
AcDbLine
 10
-3807.048025851
 20
403.3438096315
 30
0.0
 11
-3883.2616911432
 21
409.9564658848
 31
0.0
  0
LINE
  5
4C4
330
1F
100
AcDbEntity
  8
0
  6
Continuous
 62
     7
370
    15
100
AcDbLine
 10
-3776.6621854404
 20
400.7073911253
 30
0.0
 11
-3796.1574708591
 21
402.3988938308
 31
0.0
  0
LINE
  5
4C5
330
1F
100
AcDbEntity
  8
0
  6
Continuous
 62
     7
370
    15
100
AcDbLine
 10
-3792.9740550587
 20
293.7169297415
 30
0.0
 11
-3785.9977001509
 21
293.1116283598
 31
0.0
  0
LINE
  5
4C6
330
1F
100
AcDbEntity
  8
0
  6
Continuous
 62
     7
370
    15
100
AcDbLine
 10
-3892.5997729786
 20
302.3609258552
 30
0.0
 11
-3828.8367538446
 21
296.8285462538
 31
0.0
  0
LINE
  5
4C7
330
1F
100
AcDbEntity
  8
0
  6
Continuous
 62
     7
370
    15
100
AcDbLine
 10
-4956.4023874828
 20
394.6614468195
 30
0.0
 11
-3928.4624601089
 21
305.4725413562
 31
0.0
  0
LINE
  5
4C8
330
1F
100
AcDbEntity
  8
0
  6
Continuous
 62
     7
370
    15
100
AcDbLine
 10
-4992.1936209361
 20
397.7668626632
 30
0.0
 11
-4963.6764508854
 21
395.2925787912
 31
0.0
  0
LINE
  5
4C9
330
1F
100
AcDbEntity
  8
0
  6
Continuous
 62
     7
370
    15
100
AcDbLine
 10
-5204.6677573553
 20
416.2021186173
 30
0.0
 11
-5063.3640803686
 21
403.9419466434
 31
0.0
  0
LINE
  5
4CA
330
1F
100
AcDbEntity
  8
0
  6
Continuous
 62
     7
370
    15
100
AcDbLine
 10
-5047.8391081007
 20
511.0006829444
 30
0.0
 11
-5195.3322426447
 21
523.7978813827
 31
0.0
  0
LINE
  5
4CB
330
1F
100
AcDbEntity
  8
0
  6
Continuous
 62
     7
370
    15
100
AcDbLine
 10
-4954.3698050138
 20
502.890846353
 30
0.0
 11
-5020.5196091154
 21
508.6303146501
 31
0.0
  0
LINE
  5
4CC
330
1F
100
AcDbEntity
  8
0
  6
Continuous
 62
     7
370
    15
100
AcDbLine
 10
1619.7
 20
-288.85
 30
0.0
 11
960.85
 21
-288.85
 31
0.0
  0
LINE
  5
4CD
330
1F
100
AcDbEntity
  8
0
  6
Continuous
 62
     7
370
    15
100
AcDbLine
 10
960.85
 20
-331.15
 30
0.0
 11
1348.35
 21
-331.15
 31
0.0
  0
LINE
  5
4CE
330
1F
100
AcDbEntity
  8
0
  6
Continuous
 62
     7
370
    15
100
AcDbLine
 10
1600.35
 20
-331.15
 30
0.0
 11
1619.7
 21
-331.15
 31
0.0
  0
LINE
  5
4CF
330
1F
100
AcDbEntity
  8
0
  6
Continuous
 62
     7
370
    15
100
AcDbLine
 10
960.85
 20
288.85
 30
0.0
 11
1619.7
 21
288.85
 31
0.0
  0
LINE
  5
4D0
330
1F
100
AcDbEntity
  8
0
  6
Continuous
 62
     7
370
    15
100
AcDbLine
 10
1348.35
 20
331.15
 30
0.0
 11
960.85
 21
331.15
 31
0.0
  0
LINE
  5
4D1
330
1F
100
AcDbEntity
  8
0
  6
Continuous
 62
     7
370
    15
100
AcDbLine
 10
1619.7
 20
331.15
 30
0.0
 11
1600.35
 21
331.15
 31
0.0
  0
LINE
  5
4D2
330
1F
100
AcDbEntity
  8
0
  6
Continuous
 62
     7
370
    15
100
AcDbLine
 10
-4828.0
 20
-38.0
 30
0.0
 11
-4243.0
 21
-38.0
 31
0.0
  0
LINE
  5
4D3
330
1F
100
AcDbEntity
  8
0
  6
Continuous
 62
     7
370
    15
100
AcDbLine
 10
-4213.0
 20
-38.0
 30
0.0
 11
-3426.0
 21
-38.0
 31
0.0
  0
LINE
  5
4D4
330
1F
100
AcDbEntity
  8
0
  6
Continuous
 62
     7
370
    15
100
AcDbLine
 10
-3422.0
 20
-38.0
 30
0.0
 11
-3414.0
 21
-38.0
 31
0.0
  0
LINE
  5
4D5
330
1F
100
AcDbEntity
  8
0
  6
Continuous
 62
     7
370
    15
100
AcDbLine
 10
-3384.0
 20
-38.0
 30
0.0
 11
-3376.0
 21
-38.0
 31
0.0
  0
LINE
  5
4D6
330
1F
100
AcDbEntity
  8
0
  6
Continuous
 62
     7
370
    15
100
AcDbLine
 10
-3372.0
 20
-38.0
 30
0.0
 11
-2597.0
 21
-38.0
 31
0.0
  0
LINE
  5
4D7
330
1F
100
AcDbEntity
  8
0
  6
Continuous
 62
     7
370
    15
100
AcDbLine
 10
-2593.0
 20
-38.0
 30
0.0
 11
-2585.0
 21
-38.0
 31
0.0
  0
LINE
  5
4D8
330
1F
100
AcDbEntity
  8
0
  6
Continuous
 62
     7
370
    15
100
AcDbLine
 10
-2555.0
 20
-38.0
 30
0.0
 11
-2547.0
 21
-38.0
 31
0.0
  0
LINE
  5
4D9
330
1F
100
AcDbEntity
  8
0
  6
Continuous
 62
     7
370
    15
100
AcDbLine
 10
-2543.0
 20
-38.0
 30
0.0
 11
-1970.0
 21
-38.0
 31
0.0
  0
LINE
  5
4DA
330
1F
100
AcDbEntity
  8
0
  6
Continuous
 62
     7
370
    15
100
AcDbLine
 10
-1970.0
 20
38.0
 30
0.0
 11
-2543.0
 21
38.0
 31
0.0
  0
LINE
  5
4DB
330
1F
100
AcDbEntity
  8
0
  6
Continuous
 62
     7
370
    15
100
AcDbLine
 10
-2547.0
 20
38.0
 30
0.0
 11
-2555.0
 21
38.0
 31
0.0
  0
LINE
  5
4DC
330
1F
100
AcDbEntity
  8
0
  6
Continuous
 62
     7
370
    15
100
AcDbLine
 10
-2585.0
 20
38.0
 30
0.0
 11
-2593.0
 21
38.0
 31
0.0
  0
LINE
  5
4DD
330
1F
100
AcDbEntity
  8
0
  6
Continuous
 62
     7
370
    15
100
AcDbLine
 10
-2597.0
 20
38.0
 30
0.0
 11
-3372.0
 21
38.0
 31
0.0
  0
LINE
  5
4DE
330
1F
100
AcDbEntity
  8
0
  6
Continuous
 62
     7
370
    15
100
AcDbLine
 10
-3376.0
 20
38.0
 30
0.0
 11
-3384.0
 21
38.0
 31
0.0
  0
LINE
  5
4DF
330
1F
100
AcDbEntity
  8
0
  6
Continuous
 62
     7
370
    15
100
AcDbLine
 10
-3414.0
 20
38.0
 30
0.0
 11
-3422.0
 21
38.0
 31
0.0
  0
LINE
  5
4E0
330
1F
100
AcDbEntity
  8
0
  6
Continuous
 62
     7
370
    15
100
AcDbLine
 10
-3426.0
 20
38.0
 30
0.0
 11
-4213.0
 21
38.0
 31
0.0
  0
LINE
  5
4E1
330
1F
100
AcDbEntity
  8
0
  6
Continuous
 62
     7
370
    15
100
AcDbLine
 10
-4243.0
 20
38.0
 30
0.0
 11
-4828.0
 21
38.0
 31
0.0
  0
LINE
  5
4E2
330
1F
100
AcDbEntity
  8
0
  6
Continuous
 62
     7
370
    15
100
AcDbLine
 10
2537.8178905971
 20
90.1561531852
 30
0.0
 11
2537.8178905971
 21
38.0
 31
0.0
  0
LINE
  5
4E3
330
1F
100
AcDbEntity
  8
0
  6
Continuous
 62
     7
370
    15
100
AcDbLine
 10
2537.8178905971
 20
-38.0
 30
0.0
 11
2537.8178905971
 21
-89.8438468148
 31
0.0
  0
LINE
  5
4E4
330
1F
100
AcDbEntity
  8
0
  6
Continuous
 62
     7
370
    15
100
AcDbLine
 10
2862.8178905971
 20
-89.8438468148
 30
0.0
 11
2862.8178905971
 21
-38.0
 31
0.0
  0
LINE
  5
4E5
330
1F
100
AcDbEntity
  8
0
  6
Continuous
 62
     7
370
    15
100
AcDbLine
 10
2862.8178905971
 20
38.0
 30
0.0
 11
2862.8178905971
 21
90.1561531852
 31
0.0
  0
LINE
  5
4E6
330
1F
100
AcDbEntity
  8
0
  6
Continuous
 62
     7
370
    15
100
AcDbLine
 10
-5036.0
 20
397.5
 30
0.0
 11
-5036.0
 21
-397.5
 31
0.0
  0
LINE
  5
4E7
330
1F
100
AcDbEntity
  8
0
  6
Continuous
 62
     7
370
    15
100
AcDbLine
 10
-4960.0
 20
41.0
 30
0.0
 11
-4960.0
 21
370.8769655455
 31
0.0
  0
LINE
  5
4E8
330
1F
100
AcDbEntity
  8
0
  6
Continuous
 62
     7
370
    15
100
AcDbLine
 10
-4960.0
 20
373.8510837582
 30
0.0
 11
-4960.0
 21
375.3398423349
 31
0.0
  0
LINE
  5
4E9
330
1F
100
AcDbEntity
  8
0
  6
Continuous
 62
     7
370
    15
100
AcDbLine
 10
-4960.0
 20
-375.3398423349
 30
0.0
 11
-4960.0
 21
-373.8510837582
 31
0.0
  0
LINE
  5
4EA
330
1F
100
AcDbEntity
  8
0
  6
Continuous
 62
     7
370
    15
100
AcDbLine
 10
-4960.0
 20
-370.8769655455
 30
0.0
 11
-4960.0
 21
-41.0
 31
0.0
  0
LINE
  5
4EB
330
1F
100
AcDbEntity
  8
0
  6
Continuous
 62
     7
370
    15
100
AcDbLine
 10
5036.0
 20
-397.5
 30
0.0
 11
5036.0
 21
397.5
 31
0.0
  0
LINE
  5
4EC
330
1F
100
AcDbEntity
  8
0
  6
Continuous
 62
     7
370
    15
100
AcDbLine
 10
4960.0
 20
-41.0
 30
0.0
 11
4960.0
 21
-370.8769655455
 31
0.0
  0
LINE
  5
4ED
330
1F
100
AcDbEntity
  8
0
  6
Continuous
 62
     7
370
    15
100
AcDbLine
 10
4960.0
 20
-373.8510837582
 30
0.0
 11
4960.0
 21
-375.3398423349
 31
0.0
  0
LINE
  5
4EE
330
1F
100
AcDbEntity
  8
0
  6
Continuous
 62
     7
370
    15
100
AcDbLine
 10
4960.0
 20
375.3398423349
 30
0.0
 11
4960.0
 21
373.8510837582
 31
0.0
  0
LINE
  5
4EF
330
1F
100
AcDbEntity
  8
0
  6
Continuous
 62
     7
370
    15
100
AcDbLine
 10
4960.0
 20
370.8769655455
 30
0.0
 11
4960.0
 21
41.0
 31
0.0
  0
LINE
  5
4F0
330
1F
100
AcDbEntity
  8
0
  6
Continuous
 62
     7
370
    15
100
AcDbLine
 10
-1838.0
 20
-41.0
 30
0.0
 11
-1838.0
 21
-123.4719667177
 31
0.0
  0
LINE
  5
4F1
330
1F
100
AcDbEntity
  8
0
  6
Continuous
 62
     7
370
    15
100
AcDbLine
 10
-1838.0
 20
123.4719667177
 30
0.0
 11
-1838.0
 21
41.0
 31
0.0
  0
LINE
  5
4F2
330
1F
100
AcDbEntity
  8
0
  6
Continuous
 62
     7
370
    15
100
AcDbLine
 10
-1762.0
 20
41.0
 30
0.0
 11
-1762.0
 21
116.8673794683
 31
0.0
  0
LINE
  5
4F3
330
1F
100
AcDbEntity
  8
0
  6
Continuous
 62
     7
370
    15
100
AcDbLine
 10
-1762.0
 20
-116.8673794683
 30
0.0
 11
-1762.0
 21
-41.0
 31
0.0
  0
LINE
  5
4F4
330
1F
100
AcDbEntity
  8
0
  6
Continuous
 62
     7
370
    15
100
AcDbLine
 10
1838.0
 20
41.0
 30
0.0
 11
1838.0
 21
123.4719667177
 31
0.0
  0
LINE
  5
4F5
330
1F
100
AcDbEntity
  8
0
  6
Continuous
 62
     7
370
    15
100
AcDbLine
 10
1838.0
 20
-123.4719667177
 30
0.0
 11
1838.0
 21
-41.0
 31
0.0
  0
LINE
  5
4F6
330
1F
100
AcDbEntity
  8
0
  6
Continuous
 62
     7
370
    15
100
AcDbLine
 10
-4959.0
 20
38.0
 30
0.0
 11
-4960.0032894262
 21
38.0
 31
0.0
  0
LINE
  5
4F7
330
1F
100
AcDbEntity
  8
0
  6
Continuous
 62
     7
370
    15
100
AcDbLine
 10
-4867.4312091385
 20
38.0
 30
0.0
 11
-4956.0
 21
38.0
 31
0.0
  0
LINE
  5
4F8
330
1F
100
AcDbEntity
  8
0
  6
Continuous
 62
     7
370
    15
100
AcDbLine
 10
-4832.0
 20
38.0
 30
0.0
 11
-4856.5051879039
 21
38.0
 31
0.0
  0
LINE
  5
4F9
330
1F
100
AcDbEntity
  8
0
  6
Continuous
 62
     7
370
    15
100
AcDbLine
 10
-4856.5687908615
 20
-38.0
 30
0.0
 11
-4832.0
 21
-38.0
 31
0.0
  0
LINE
  5
4FA
330
1F
100
AcDbEntity
  8
0
  6
Continuous
 62
     7
370
    15
100
AcDbLine
 10
-4956.0
 20
-38.0
 30
0.0
 11
-4867.4948120961
 21
-38.0
 31
0.0
  0
LINE
  5
4FB
330
1F
100
AcDbEntity
  8
0
  6
Continuous
 62
     7
370
    15
100
AcDbLine
 10
-4960.0032894262
 20
-38.0
 30
0.0
 11
-4959.0
 21
-38.0
 31
0.0
  0
LINE
  5
4FC
330
1F
100
AcDbEntity
  8
0
  6
Continuous
 62
     7
370
    15
100
AcDbLine
 10
4959.0
 20
-38.0
 30
0.0
 11
4960.0032894262
 21
-38.0
 31
0.0
  0
LINE
  5
4FD
330
1F
100
AcDbEntity
  8
0
  6
Continuous
 62
     7
370
    15
100
AcDbLine
 10
4867.4312091385
 20
-38.0
 30
0.0
 11
4956.0
 21
-38.0
 31
0.0
  0
LINE
  5
4FE
330
1F
100
AcDbEntity
  8
0
  6
Continuous
 62
     7
370
    15
100
AcDbLine
 10
4832.0
 20
-38.0
 30
0.0
 11
4856.5051879039
 21
-38.0
 31
0.0
  0
LINE
  5
4FF
330
1F
100
AcDbEntity
  8
0
  6
Continuous
 62
     7
370
    15
100
AcDbLine
 10
4856.5687908615
 20
38.0
 30
0.0
 11
4832.0
 21
38.0
 31
0.0
  0
LINE
  5
500
330
1F
100
AcDbEntity
  8
0
  6
Continuous
 62
     7
370
    15
100
AcDbLine
 10
4956.0
 20
38.0
 30
0.0
 11
4867.4948120961
 21
38.0
 31
0.0
  0
LINE
  5
501
330
1F
100
AcDbEntity
  8
0
  6
Continuous
 62
     7
370
    15
100
AcDbLine
 10
4960.0032894262
 20
38.0
 30
0.0
 11
4959.0
 21
38.0
 31
0.0
  0
LINE
  5
502
330
1F
100
AcDbEntity
  8
0
  6
Continuous
 62
     7
370
    15
100
AcDbLine
 10
5047.8902297201
 20
510.4114846185
 30
0.0
 11
5047.5326430234
 21
514.5328228183
 31
0.0
  0
LINE
  5
503
330
1F
100
AcDbEntity
  8
0
  6
Continuous
 62
     7
370
    15
100
AcDbLine
 10
5011.6673887682
 20
511.4209845815
 30
0.0
 11
5011.9738538455
 21
507.8888447075
 31
0.0
  0
LINE
  5
504
330
1F
100
AcDbEntity
  8
0
  6
Continuous
 62
     7
370
    15
100
AcDbLine
 10
-5047.9714875487
 20
-509.4749537126
 30
0.0
 11
-5047.5321939137
 21
-514.5379989972
 31
0.0
  0
LINE
  5
505
330
1F
100
AcDbEntity
  8
0
  6
Continuous
 62
     7
370
    15
100
AcDbLine
 10
-5011.6669396586
 20
-511.4261607604
 30
0.0
 11
-5011.9738538455
 21
-507.8888447075
 31
0.0
  0
LINE
  5
506
330
1F
100
AcDbEntity
  8
0
  6
Continuous
 62
     7
370
    15
100
AcDbLine
 10
-4243.0
 20
-40.0
 30
0.0
 11
-4213.0
 21
-40.0
 31
0.0
  0
LINE
  5
507
330
1F
100
AcDbEntity
  8
0
  6
Continuous
 62
     7
370
    15
100
AcDbLine
 10
-4213.0
 20
40.0
 30
0.0
 11
-4243.0
 21
40.0
 31
0.0
  0
LINE
  5
508
330
1F
100
AcDbEntity
  8
0
  6
Continuous
 62
     7
370
    15
100
AcDbLine
 10
-3414.0
 20
-40.0
 30
0.0
 11
-3384.0
 21
-40.0
 31
0.0
  0
LINE
  5
509
330
1F
100
AcDbEntity
  8
0
  6
Continuous
 62
     7
370
    15
100
AcDbLine
 10
-3384.0
 20
40.0
 30
0.0
 11
-3414.0
 21
40.0
 31
0.0
  0
LINE
  5
50A
330
1F
100
AcDbEntity
  8
0
  6
Continuous
 62
     7
370
    15
100
AcDbLine
 10
-2585.0
 20
-40.0
 30
0.0
 11
-2555.0
 21
-40.0
 31
0.0
  0
LINE
  5
50B
330
1F
100
AcDbEntity
  8
0
  6
Continuous
 62
     7
370
    15
100
AcDbLine
 10
-2555.0
 20
40.0
 30
0.0
 11
-2585.0
 21
40.0
 31
0.0
  0
LINE
  5
50C
330
1F
100
AcDbEntity
  8
0
  6
Continuous
 62
     7
370
    15
100
AcDbLine
 10
3919.1269453984
 20
413.0683041217
 30
0.0
 11
3918.8157615747
 21
416.6548295472
 31
0.0
  0
LINE
  5
50D
330
1F
100
AcDbEntity
  8
0
  6
Continuous
 62
     7
370
    15
100
AcDbLine
 10
3882.9505073196
 20
413.5429913103
 30
0.0
 11
3883.2616911432
 21
409.9564658848
 31
0.0
  0
LINE
  5
50E
330
1F
100
AcDbEntity
  8
0
  6
Continuous
 62
     7
370
    15
100
AcDbLine
 10
3792.9714995894
 20
293.716708017
 30
0.0
 11
3793.2826834131
 21
290.1301825915
 31
0.0
  0
LINE
  5
50F
330
1F
100
AcDbEntity
  8
0
  6
Continuous
 62
     7
370
    15
100
AcDbLine
 10
3829.1479376683
 20
293.2420208283
 30
0.0
 11
3828.8367538446
 21
296.8285462538
 31
0.0
  0
LINE
  5
510
330
1F
100
AcDbEntity
  8
0
  6
Continuous
 62
     7
370
    15
100
AcDbLine
 10
3742.9317941339
 20
289.6420384166
 30
0.0
 11
3743.2434683295
 21
286.0555555718
 31
0.0
  0
LINE
  5
511
330
1F
100
AcDbEntity
  8
0
  6
Continuous
 62
     7
370
    15
100
AcDbLine
 10
3779.1082967771
 20
289.172297528
 30
0.0
 11
3778.7966225815
 21
292.7587803727
 31
0.0
  0
LINE
  5
512
330
1F
100
AcDbEntity
  8
0
  6
Continuous
 62
     7
370
    15
100
AcDbLine
 10
3883.2616911432
 20
-409.9564658848
 30
0.0
 11
3882.9505673102
 21
-413.5422998933
 31
0.0
  0
LINE
  5
513
330
1F
100
AcDbEntity
  8
0
  6
Continuous
 62
     7
370
    15
100
AcDbLine
 10
3918.8158215653
 20
-416.6541381301
 30
0.0
 11
3919.1269453984
 21
-413.0683041217
 31
0.0
  0
LINE
  5
514
330
1F
100
AcDbEntity
  8
0
  6
Continuous
 62
     7
370
    15
100
AcDbLine
 10
3928.4624601089
 20
-305.4725413562
 30
0.0
 11
3928.7737039232
 21
-301.8853245136
 31
0.0
  0
LINE
  5
515
330
1F
100
AcDbEntity
  8
0
  6
Continuous
 62
     7
370
    15
100
AcDbLine
 10
3892.9084496681
 20
-298.7734862767
 30
0.0
 11
3892.5972658444
 21
-302.3600117023
 31
0.0
  0
LINE
  5
516
330
1F
100
AcDbEntity
  8
0
  6
Continuous
 62
     7
370
    15
100
AcDbLine
 10
3828.8367538446
 20
-296.8285462538
 30
0.0
 11
3829.1479976589
 21
-293.2413294112
 31
0.0
  0
LINE
  5
517
330
1F
100
AcDbEntity
  8
0
  6
Continuous
 62
     7
370
    15
100
AcDbLine
 10
3793.2827434037
 20
-290.1294911744
 30
0.0
 11
3792.97155958
 21
-293.7160165999
 31
0.0
  0
LINE
  5
518
330
1F
100
AcDbEntity
  8
0
  6
Continuous
 62
     7
370
    15
100
AcDbLine
 10
3892.5972058538
 20
302.3607031193
 30
0.0
 11
3892.9083896775
 21
298.7741776938
 31
0.0
  0
LINE
  5
519
330
1F
100
AcDbEntity
  8
0
  6
Continuous
 62
     7
370
    15
100
AcDbLine
 10
3928.7736439326
 20
301.8860159307
 30
0.0
 11
3928.4624601089
 21
305.4725413562
 31
0.0
  0
LINE
  5
51A
330
1F
100
AcDbEntity
  8
0
  6
Continuous
 62
     7
370
    15
100
AcDbLine
 10
3778.7966225815
 20
-292.7587803728
 30
0.0
 11
3779.1082967771
 21
-289.172297528
 31
0.0
  0
LINE
  5
51B
330
1F
100
AcDbEntity
  8
0
  6
Continuous
 62
     7
370
    15
100
AcDbLine
 10
3743.2434683295
 20
-286.0555555718
 30
0.0
 11
3742.9317941339
 21
-289.6420384166
 31
0.0
  0
LINE
  5
51C
330
1F
100
AcDbEntity
  8
0
  6
Continuous
 62
     7
370
    15
100
AcDbLine
 10
-3742.9317941339
 20
-289.6420384166
 30
0.0
 11
-3743.2434683295
 21
-286.0555555718
 31
0.0
  0
LINE
  5
51D
330
1F
100
AcDbEntity
  8
0
  6
Continuous
 62
     7
370
    15
100
AcDbLine
 10
-3779.1082967771
 20
-289.172297528
 30
0.0
 11
-3778.7966225815
 21
-292.7587803728
 31
0.0
  0
LINE
  5
51E
330
1F
100
AcDbEntity
  8
0
  6
Continuous
 62
     7
370
    15
100
AcDbLine
 10
-3778.7966225815
 20
292.7587803727
 30
0.0
 11
-3779.1082967771
 21
289.172297528
 31
0.0
  0
LINE
  5
51F
330
1F
100
AcDbEntity
  8
0
  6
Continuous
 62
     7
370
    15
100
AcDbLine
 10
-3743.2434683295
 20
286.0555555718
 30
0.0
 11
-3742.9317941339
 21
289.6420384166
 31
0.0
  0
LINE
  5
520
330
1F
100
AcDbEntity
  8
0
  6
Continuous
 62
     7
370
    15
100
AcDbLine
 10
-3828.8367538446
 20
296.8285462538
 30
0.0
 11
-3829.1479976589
 21
293.2413294112
 31
0.0
  0
LINE
  5
521
330
1F
100
AcDbEntity
  8
0
  6
Continuous
 62
     7
370
    15
100
AcDbLine
 10
-3793.2827434037
 20
290.1294911744
 30
0.0
 11
-3792.97155958
 21
293.7160165999
 31
0.0
  0
LINE
  5
522
330
1F
100
AcDbEntity
  8
0
  6
Continuous
 62
     7
370
    15
100
AcDbLine
 10
-3883.2616911432
 20
409.9564658848
 30
0.0
 11
-3882.9505673102
 21
413.5422998933
 31
0.0
  0
LINE
  5
523
330
1F
100
AcDbEntity
  8
0
  6
Continuous
 62
     7
370
    15
100
AcDbLine
 10
-3918.8158215653
 20
416.6541381301
 30
0.0
 11
-3919.1269453984
 21
413.0683041217
 31
0.0
  0
LINE
  5
524
330
1F
100
AcDbEntity
  8
0
  6
Continuous
 62
     7
370
    15
100
AcDbLine
 10
-3928.4624601089
 20
305.4725413562
 30
0.0
 11
-3928.7737039232
 21
301.8853245136
 31
0.0
  0
LINE
  5
525
330
1F
100
AcDbEntity
  8
0
  6
Continuous
 62
     7
370
    15
100
AcDbLine
 10
-3892.9084496681
 20
298.7734862767
 30
0.0
 11
-3892.5972658444
 21
302.3600117023
 31
0.0
  0
LINE
  5
526
330
1F
100
AcDbEntity
  8
0
  6
Continuous
 62
     7
370
    15
100
AcDbLine
 10
-3792.9714995894
 20
-293.716708017
 30
0.0
 11
-3793.2826834131
 21
-290.1301825915
 31
0.0
  0
LINE
  5
527
330
1F
100
AcDbEntity
  8
0
  6
Continuous
 62
     7
370
    15
100
AcDbLine
 10
-3829.1479376683
 20
-293.2420208283
 30
0.0
 11
-3828.8367538446
 21
-296.8285462538
 31
0.0
  0
LINE
  5
528
330
1F
100
AcDbEntity
  8
0
  6
Continuous
 62
     7
370
    15
100
AcDbLine
 10
-3892.5972058538
 20
-302.3607031193
 30
0.0
 11
-3892.9083896775
 21
-298.7741776938
 31
0.0
  0
LINE
  5
529
330
1F
100
AcDbEntity
  8
0
  6
Continuous
 62
     7
370
    15
100
AcDbLine
 10
-3928.7736439326
 20
-301.8860159307
 30
0.0
 11
-3928.4624601089
 21
-305.4725413562
 31
0.0
  0
LINE
  5
52A
330
1F
100
AcDbEntity
  8
0
  6
Continuous
 62
     7
370
    15
100
AcDbLine
 10
-3919.1269453984
 20
-413.0683041217
 30
0.0
 11
-3918.8157615747
 21
-416.6548295472
 31
0.0
  0
LINE
  5
52B
330
1F
100
AcDbEntity
  8
0
  6
Continuous
 62
     7
370
    15
100
AcDbLine
 10
-3882.9505073196
 20
-413.5429913103
 30
0.0
 11
-3883.2616911432
 21
-409.9564658848
 31
0.0
  0
LINE
  5
52C
330
1F
100
AcDbEntity
  8
0
  6
Continuous
 62
     7
370
    15
100
AcDbLine
 10
5011.9738538455
 20
-507.8888447075
 30
0.0
 11
5011.6669396586
 21
-511.4261607604
 31
0.0
  0
LINE
  5
52D
330
1F
100
AcDbEntity
  8
0
  6
Continuous
 62
     7
370
    15
100
AcDbLine
 10
5047.5321939137
 20
-514.5379989972
 30
0.0
 11
5047.9278332518
 21
-509.9780879826
 31
0.0
  0
LINE
  5
52E
330
1F
100
AcDbEntity
  8
0
  6
Continuous
 62
     7
370
    15
100
AcDbLine
 10
-5011.9738538455
 20
507.8888447075
 30
0.0
 11
-5011.6673887682
 21
511.4209845815
 31
0.0
  0
LINE
  5
52F
330
1F
100
AcDbEntity
  8
0
  6
Continuous
 62
     7
370
    15
100
AcDbLine
 10
-5047.5326430234
 20
514.5328228183
 30
0.0
 11
-5047.9282810982
 21
509.9729263628
 31
0.0
  0
LINE
  5
530
330
1F
100
AcDbEntity
  8
0
  6
Continuous
 62
   144
370
     0
100
AcDbLine
 10
2650.0
 20
-9.3530743609
 30
0.0
 11
2658.1
 21
-4.6765371805
 31
0.0
  0
LINE
  5
531
330
1F
100
AcDbEntity
  8
0
  6
Continuous
 62
   144
370
     0
100
AcDbLine
 10
2658.1
 20
-4.6765371805
 30
0.0
 11
2658.1
 21
4.6765371804
 31
0.0
  0
LINE
  5
532
330
1F
100
AcDbEntity
  8
0
  6
Continuous
 62
   144
370
     0
100
AcDbLine
 10
2658.1
 20
4.6765371804
 30
0.0
 11
2650.0
 21
9.3530743609
 31
0.0
  0
LINE
  5
533
330
1F
100
AcDbEntity
  8
0
  6
Continuous
 62
   144
370
     0
100
AcDbLine
 10
2650.0
 20
9.3530743609
 30
0.0
 11
2641.9
 21
4.6765371804
 31
0.0
  0
LINE
  5
534
330
1F
100
AcDbEntity
  8
0
  6
Continuous
 62
   144
370
     0
100
AcDbLine
 10
2641.9
 20
4.6765371804
 30
0.0
 11
2641.9
 21
-4.6765371805
 31
0.0
  0
LINE
  5
535
330
1F
100
AcDbEntity
  8
0
  6
Continuous
 62
   144
370
     0
100
AcDbLine
 10
2641.9
 20
-4.6765371805
 30
0.0
 11
2650.0
 21
-9.3530743609
 31
0.0
  0
LINE
  5
536
330
1F
100
AcDbEntity
  8
0
  6
Continuous
 62
     7
370
    15
100
AcDbLine
 10
-6754.0
 20
1024.0
 30
0.0
 11
-6754.0
 21
-1024.0
 31
0.0
  0
LINE
  5
537
330
1F
100
AcDbEntity
  8
0
  6
Continuous
 62
     7
370
    15
100
AcDbLine
 10
5754.0
 20
2024.0
 30
0.0
 11
-5754.0
 21
2024.0
 31
0.0
  0
LINE
  5
538
330
1F
100
AcDbEntity
  8
0
  6
Continuous
 62
     7
370
    15
100
AcDbLine
 10
6754.0
 20
-1024.0
 30
0.0
 11
6754.0
 21
1024.0
 31
0.0
  0
LINE
  5
539
330
1F
100
AcDbEntity
  8
0
  6
Continuous
 62
     7
370
    15
100
AcDbLine
 10
-5754.0
 20
-2024.0
 30
0.0
 11
5754.0
 21
-2024.0
 31
0.0
  0
LINE
  5
53A
330
1F
100
AcDbEntity
  8
0
  6
Continuous
 62
   144
370
     0
100
AcDbLine
 10
4828.0
 20
-38.0
 30
0.0
 11
4828.0
 21
38.0
 31
0.0
  0
LINE
  5
53B
330
1F
100
AcDbEntity
  8
0
  6
Continuous
 62
   144
370
     0
100
AcDbLine
 10
1970.0
 20
-38.0
 30
0.0
 11
1970.0
 21
38.0
 31
0.0
  0
LINE
  5
53C
330
1F
100
AcDbEntity
  8
0
  6
Continuous
 62
   144
370
     0
100
AcDbLine
 10
-1890.9075061774
 20
-8.50005
 30
0.0
 11
-1890.9075061556
 21
-8.50005
 31
0.0
  0
LINE
  5
53D
330
1F
100
AcDbEntity
  8
0
  6
Continuous
 62
   144
370
     0
100
AcDbLine
 10
-4857.749975
 20
47.113888
 30
0.0
 11
-4866.250025
 21
47.113888
 31
0.0
  0
LINE
  5
53E
330
1F
100
AcDbEntity
  8
0
  6
Continuous
 62
   144
370
     0
100
AcDbLine
 10
-4861.999999951
 20
40.759193828
 30
0.0
 11
-4862.0
 21
46.3546941556
 31
0.0
  0
LINE
  5
53F
330
1F
100
AcDbEntity
  8
0
  6
Continuous
 62
   144
370
     0
100
AcDbLine
 10
-4870.50005
 20
46.3546941556
 30
0.0
 11
-4870.500049951
 21
40.759193828
 31
0.0
  0
LINE
  5
540
330
1F
100
AcDbEntity
  8
0
  6
Continuous
 62
   144
370
     0
100
AcDbLine
 10
-1870.043279665
 20
-235.2904550801
 30
0.0
 11
-1869.9892170144
 21
-235.9125623056
 31
0.0
  0
LINE
  5
541
330
1F
100
AcDbEntity
  8
0
  6
Continuous
 62
   144
370
     0
100
AcDbLine
 10
-1879.4475681841
 20
-127.0738625117
 30
0.0
 11
-1879.3935055335
 21
-127.6959697372
 31
0.0
  0
LINE
  5
542
330
1F
100
AcDbEntity
  8
0
  6
Continuous
 62
   144
370
     0
100
AcDbLine
 10
-1730.0107829856
 20
-114.0874376945
 30
0.0
 11
-1879.4475681841
 21
-127.0738625117
 31
0.0
  0
LINE
  5
543
330
1F
100
AcDbEntity
  8
0
  6
Continuous
 62
   144
370
     0
100
AcDbLine
 10
-1720.5524318159
 20
-222.9261374883
 30
0.0
 11
-1869.9892170144
 21
-235.9125623056
 31
0.0
  0
LINE
  5
544
330
1F
100
AcDbEntity
  8
0
  6
Continuous
 62
   144
370
     0
100
AcDbLine
 10
-1869.9892170144
 20
235.9125623055
 30
0.0
 11
-1870.043279665
 21
235.2904550801
 31
0.0
  0
LINE
  5
545
330
1F
100
AcDbEntity
  8
0
  6
Continuous
 62
   144
370
     0
100
AcDbLine
 10
-1879.3935055335
 20
127.6959697372
 30
0.0
 11
-1879.4475681841
 21
127.0738625117
 31
0.0
  0
LINE
  5
546
330
1F
100
AcDbEntity
  8
0
  6
Continuous
 62
   144
370
     0
100
AcDbLine
 10
-1720.5524318159
 20
222.9261374883
 30
0.0
 11
-1869.9892170144
 21
235.9125623055
 31
0.0
  0
LINE
  5
547
330
1F
100
AcDbEntity
  8
0
  6
Continuous
 62
   144
370
     0
100
AcDbLine
 10
-1730.0107829856
 20
114.0874376944
 30
0.0
 11
-1879.4475681841
 21
127.0738625117
 31
0.0
  0
LINE
  5
548
330
1F
100
AcDbEntity
  8
0
  6
Continuous
 62
   144
370
     0
100
AcDbLine
 10
1879.4475681841
 20
127.0738625117
 30
0.0
 11
1879.3935055335
 21
127.6959697372
 31
0.0
  0
LINE
  5
549
330
1F
100
AcDbEntity
  8
0
  6
Continuous
 62
   144
370
     0
100
AcDbLine
 10
1870.043279665
 20
235.2904550801
 30
0.0
 11
1869.9892170144
 21
235.9125623055
 31
0.0
  0
LINE
  5
54A
330
1F
100
AcDbEntity
  8
0
  6
Continuous
 62
   144
370
     0
100
AcDbLine
 10
1720.5524318159
 20
222.9261374883
 30
0.0
 11
1869.9892170144
 21
235.9125623055
 31
0.0
  0
LINE
  5
54B
330
1F
100
AcDbEntity
  8
0
  6
Continuous
 62
   144
370
     0
100
AcDbLine
 10
1730.0107829856
 20
114.0874376944
 30
0.0
 11
1879.4475681841
 21
127.0738625117
 31
0.0
  0
LINE
  5
54C
330
1F
100
AcDbEntity
  8
0
  6
Continuous
 62
   144
370
     0
100
AcDbLine
 10
1879.3935055335
 20
-127.6959697372
 30
0.0
 11
1879.4475681841
 21
-127.0738625117
 31
0.0
  0
LINE
  5
54D
330
1F
100
AcDbEntity
  8
0
  6
Continuous
 62
   144
370
     0
100
AcDbLine
 10
1869.9892170144
 20
-235.9125623056
 30
0.0
 11
1870.043279665
 21
-235.2904550801
 31
0.0
  0
LINE
  5
54E
330
1F
100
AcDbEntity
  8
0
  6
Continuous
 62
   144
370
     0
100
AcDbLine
 10
1730.0107829856
 20
-114.0874376945
 30
0.0
 11
1879.4475681841
 21
-127.0738625117
 31
0.0
  0
LINE
  5
54F
330
1F
100
AcDbEntity
  8
0
  6
Continuous
 62
   144
370
     0
100
AcDbLine
 10
1720.5524318159
 20
-222.9261374883
 30
0.0
 11
1869.9892170144
 21
-235.9125623056
 31
0.0
  0
LINE
  5
550
330
1F
100
AcDbEntity
  8
0
  6
Continuous
 62
   144
370
     0
100
AcDbLine
 10
2754.3178905971
 20
4.1004013534
 30
0.0
 11
2754.3178905971
 21
-4.0869739726
 31
0.0
  0
LINE
  5
551
330
1F
100
AcDbEntity
  8
0
  6
Continuous
 62
   144
370
     0
100
AcDbLine
 10
4870.7489108973
 20
46.1
 30
0.0
 11
4870.6396968729
 21
46.5
 31
0.0
  0
LINE
  5
552
330
1F
100
AcDbEntity
  8
0
  6
Continuous
 62
   144
370
     0
100
AcDbLine
 10
4863.5946953896
 20
46.1
 30
0.0
 11
4863.2171514711
 21
46.5
 31
0.0
  0
LINE
  5
553
330
1F
100
AcDbEntity
  8
0
  6
Continuous
 62
   144
370
     0
100
AcDbLine
 10
4870.7489108973
 20
46.1
 30
0.0
 11
4863.5946953896
 21
46.1
 31
0.0
  0
LINE
  5
554
330
1F
100
AcDbEntity
  8
0
  6
Continuous
 62
   144
370
     0
100
AcDbLine
 10
4853.3603031271
 20
46.5
 30
0.0
 11
4870.6396968729
 21
46.5
 31
0.0
  0
LINE
  5
555
330
1F
100
AcDbEntity
  8
0
  6
Continuous
 62
   144
370
     0
100
AcDbLine
 10
4920.1535898385
 20
-5.1074772881
 30
0.0
 11
4912.9464101615
 21
-9.2685444147
 31
0.0
  0
LINE
  5
556
330
1F
100
AcDbEntity
  8
0
  6
Continuous
 62
   144
370
     0
100
AcDbLine
 10
1929.220377901
 20
40.4
 30
0.0
 11
1936.2677889619
 21
40.4
 31
0.0
  0
LINE
  5
557
330
1F
100
AcDbEntity
  8
0
  6
Continuous
 62
   144
370
     0
100
AcDbLine
 10
1936.2677889619
 20
40.4
 30
0.0
 11
1936.2677889619
 21
46.1
 31
0.0
  0
LINE
  5
558
330
1F
100
AcDbEntity
  8
0
  6
Continuous
 62
   144
370
     0
100
AcDbLine
 10
1936.2677889619
 20
46.1
 30
0.0
 11
1929.220377901
 21
46.1
 31
0.0
  0
LINE
  5
559
330
1F
100
AcDbEntity
  8
0
  6
Continuous
 62
   144
370
     0
100
AcDbLine
 10
1929.220377901
 20
46.1
 30
0.0
 11
1929.220377901
 21
40.4
 31
0.0
  0
LINE
  5
55A
330
1F
100
AcDbEntity
  8
0
  6
Continuous
 62
   144
370
     0
100
AcDbLine
 10
1705.8464101615
 20
5.1074772881
 30
0.0
 11
1713.0535898385
 21
9.2685444147
 31
0.0
  0
LINE
  5
55B
330
1F
100
AcDbEntity
  8
0
  6
Continuous
 62
   144
370
     0
100
AcDbLine
 10
-1713.6535898385
 20
9.6149545762
 30
0.0
 11
-1706.4464101615
 21
5.4538874496
 31
0.0
  0
LINE
  5
55C
330
1F
100
AcDbEntity
  8
0
  6
Continuous
 62
   144
370
     0
100
AcDbLine
 10
-1932.1853430349
 20
-46.1
 30
0.0
 11
-1932.1853430349
 21
-40.4
 31
0.0
  0
LINE
  5
55D
330
1F
100
AcDbEntity
  8
0
  6
Continuous
 62
   144
370
     0
100
AcDbLine
 10
-1939.8146569651
 20
-46.1
 30
0.0
 11
-1932.1853430349
 21
-46.1
 31
0.0
  0
LINE
  5
55E
330
1F
100
AcDbEntity
  8
0
  6
Continuous
 62
   144
370
     0
100
AcDbLine
 10
-1939.8146569651
 20
-40.4
 30
0.0
 11
-1939.8146569651
 21
-46.1
 31
0.0
  0
LINE
  5
55F
330
1F
100
AcDbEntity
  8
0
  6
Continuous
 62
   144
370
     0
100
AcDbLine
 10
-1932.1853430349
 20
-40.4
 30
0.0
 11
-1939.8146569651
 21
-40.4
 31
0.0
  0
LINE
  5
560
330
1F
100
AcDbEntity
  8
0
  6
Continuous
 62
   144
370
     0
100
AcDbLine
 10
-1784.0
 20
-16.0
 30
0.0
 11
-1762.0
 21
-38.0
 31
0.0
  0
LINE
  5
561
330
1F
100
AcDbEntity
  8
0
  6
Continuous
 62
   144
370
     0
100
AcDbLine
 10
-1784.0
 20
16.0
 30
0.0
 11
-1784.0
 21
-16.0
 31
0.0
  0
LINE
  5
562
330
1F
100
AcDbEntity
  8
0
  6
Continuous
 62
   144
370
     0
100
AcDbLine
 10
-1762.0
 20
38.0
 30
0.0
 11
-1784.0
 21
16.0
 31
0.0
  0
LINE
  5
563
330
1F
100
AcDbEntity
  8
0
  6
Continuous
 62
   144
370
     0
100
AcDbLine
 10
-1634.0
 20
38.0
 30
0.0
 11
-1634.0
 21
-38.0
 31
0.0
  0
LINE
  5
564
330
1F
100
AcDbEntity
  8
0
  6
Continuous
 62
   144
370
     0
100
AcDbLine
 10
-1783.0
 20
0.4999855726
 30
0.0
 11
-1783.0
 21
-0.4999855726
 31
0.0
  0
LINE
  5
565
330
1F
100
AcDbEntity
  8
0
  6
Continuous
 62
   144
370
     0
100
AcDbLine
 10
-1783.0
 20
-0.4999855726
 30
0.0
 11
-1780.0
 21
-0.4999855726
 31
0.0
  0
LINE
  5
566
330
1F
100
AcDbEntity
  8
0
  6
Continuous
 62
   144
370
     0
100
AcDbLine
 10
-1780.0
 20
0.4999855726
 30
0.0
 11
-1780.0
 21
-0.4999855726
 31
0.0
  0
LINE
  5
567
330
1F
100
AcDbEntity
  8
0
  6
Continuous
 62
   144
370
     0
100
AcDbLine
 10
-1780.0
 20
0.4999855726
 30
0.0
 11
-1783.0
 21
0.4999855726
 31
0.0
  0
LINE
  5
568
330
1F
100
AcDbEntity
  8
0
  6
Continuous
 62
   144
370
     0
100
AcDbLine
 10
-1761.0
 20
-37.9967105738
 30
0.0
 11
-1761.0
 21
-38.0
 31
0.0
  0
LINE
  5
569
330
1F
100
AcDbEntity
  8
0
  6
Continuous
 62
   144
370
     0
100
AcDbLine
 10
-1758.0
 20
-37.9967105738
 30
0.0
 11
-1758.0
 21
-38.0
 31
0.0
  0
LINE
  5
56A
330
1F
100
AcDbEntity
  8
0
  6
Continuous
 62
   144
370
     0
100
AcDbLine
 10
-1758.0
 20
-37.9967105738
 30
0.0
 11
-1761.0
 21
-37.9967105738
 31
0.0
  0
LINE
  5
56B
330
1F
100
AcDbEntity
  8
0
  6
Continuous
 62
   144
370
     0
100
AcDbLine
 10
-1761.0
 20
38.0
 30
0.0
 11
-1761.0
 21
37.9967105738
 31
0.0
  0
LINE
  5
56C
330
1F
100
AcDbEntity
  8
0
  6
Continuous
 62
   144
370
     0
100
AcDbLine
 10
-1758.0
 20
37.9967105738
 30
0.0
 11
-1761.0
 21
37.9967105738
 31
0.0
  0
LINE
  5
56D
330
1F
100
AcDbEntity
  8
0
  6
Continuous
 62
   144
370
     0
100
AcDbLine
 10
-1758.0
 20
38.0
 30
0.0
 11
-1758.0
 21
37.9967105738
 31
0.0
  0
LINE
  5
56E
330
1F
100
AcDbEntity
  8
0
  6
Continuous
 62
   144
370
     0
100
AcDbLine
 10
1784.0
 20
16.0
 30
0.0
 11
1762.0
 21
38.0
 31
0.0
  0
LINE
  5
56F
330
1F
100
AcDbEntity
  8
0
  6
Continuous
 62
   144
370
     0
100
AcDbLine
 10
1784.0
 20
-16.0
 30
0.0
 11
1784.0
 21
16.0
 31
0.0
  0
LINE
  5
570
330
1F
100
AcDbEntity
  8
0
  6
Continuous
 62
   144
370
     0
100
AcDbLine
 10
1762.0
 20
-38.0
 30
0.0
 11
1784.0
 21
-16.0
 31
0.0
  0
LINE
  5
571
330
1F
100
AcDbEntity
  8
0
  6
Continuous
 62
   144
370
     0
100
AcDbLine
 10
1634.0
 20
-38.0
 30
0.0
 11
1634.0
 21
38.0
 31
0.0
  0
LINE
  5
572
330
1F
100
AcDbEntity
  8
0
  6
Continuous
 62
   144
370
     0
100
AcDbLine
 10
1783.0
 20
-0.4999855726
 30
0.0
 11
1783.0
 21
0.4999855726
 31
0.0
  0
LINE
  5
573
330
1F
100
AcDbEntity
  8
0
  6
Continuous
 62
   144
370
     0
100
AcDbLine
 10
1783.0
 20
0.4999855726
 30
0.0
 11
1780.0
 21
0.4999855726
 31
0.0
  0
LINE
  5
574
330
1F
100
AcDbEntity
  8
0
  6
Continuous
 62
   144
370
     0
100
AcDbLine
 10
1780.0
 20
-0.4999855726
 30
0.0
 11
1780.0
 21
0.4999855726
 31
0.0
  0
LINE
  5
575
330
1F
100
AcDbEntity
  8
0
  6
Continuous
 62
   144
370
     0
100
AcDbLine
 10
1780.0
 20
-0.4999855726
 30
0.0
 11
1783.0
 21
-0.4999855726
 31
0.0
  0
LINE
  5
576
330
1F
100
AcDbEntity
  8
0
  6
Continuous
 62
   144
370
     0
100
AcDbLine
 10
1761.0
 20
37.9967105738
 30
0.0
 11
1761.0
 21
38.0
 31
0.0
  0
LINE
  5
577
330
1F
100
AcDbEntity
  8
0
  6
Continuous
 62
   144
370
     0
100
AcDbLine
 10
1758.0
 20
37.9967105738
 30
0.0
 11
1758.0
 21
38.0
 31
0.0
  0
LINE
  5
578
330
1F
100
AcDbEntity
  8
0
  6
Continuous
 62
   144
370
     0
100
AcDbLine
 10
1758.0
 20
37.9967105738
 30
0.0
 11
1761.0
 21
37.9967105738
 31
0.0
  0
LINE
  5
579
330
1F
100
AcDbEntity
  8
0
  6
Continuous
 62
   144
370
     0
100
AcDbLine
 10
1761.0
 20
-38.0
 30
0.0
 11
1761.0
 21
-37.9967105738
 31
0.0
  0
LINE
  5
57A
330
1F
100
AcDbEntity
  8
0
  6
Continuous
 62
   144
370
     0
100
AcDbLine
 10
1758.0
 20
-37.9967105738
 30
0.0
 11
1761.0
 21
-37.9967105738
 31
0.0
  0
LINE
  5
57B
330
1F
100
AcDbEntity
  8
0
  6
Continuous
 62
   144
370
     0
100
AcDbLine
 10
1758.0
 20
-38.0
 30
0.0
 11
1758.0
 21
-37.9967105738
 31
0.0
  0
LINE
  5
57C
330
1F
100
AcDbEntity
  8
0
  6
Continuous
 62
     7
370
    15
100
AcDbLine
 10
-1966.0
 20
-38.0
 30
0.0
 11
-1966.0
 21
38.0
 31
0.0
  0
LINE
  5
57D
330
1F
100
AcDbEntity
  8
0
  6
Continuous
 62
   144
370
     0
100
AcDbLine
 10
-1839.0
 20
37.9967105738
 30
0.0
 11
-1842.0
 21
37.9967105738
 31
0.0
  0
LINE
  5
57E
330
1F
100
AcDbEntity
  8
0
  6
Continuous
 62
   144
370
     0
100
AcDbLine
 10
-1842.0
 20
37.9967105738
 30
0.0
 11
-1842.0
 21
38.0
 31
0.0
  0
LINE
  5
57F
330
1F
100
AcDbEntity
  8
0
  6
Continuous
 62
   144
370
     0
100
AcDbLine
 10
-1839.0
 20
37.9967105738
 30
0.0
 11
-1839.0
 21
38.0
 31
0.0
  0
LINE
  5
580
330
1F
100
AcDbEntity
  8
0
  6
Continuous
 62
   144
370
     0
100
AcDbLine
 10
-1817.0
 20
-0.4999855726
 30
0.0
 11
-1820.0
 21
-0.4999855726
 31
0.0
  0
LINE
  5
581
330
1F
100
AcDbEntity
  8
0
  6
Continuous
 62
   144
370
     0
100
AcDbLine
 10
-1820.0
 20
-0.4999855726
 30
0.0
 11
-1820.0
 21
0.4999855726
 31
0.0
  0
LINE
  5
582
330
1F
100
AcDbEntity
  8
0
  6
Continuous
 62
   144
370
     0
100
AcDbLine
 10
-1820.0
 20
0.4999855726
 30
0.0
 11
-1817.0
 21
0.4999855726
 31
0.0
  0
LINE
  5
583
330
1F
100
AcDbEntity
  8
0
  6
Continuous
 62
   144
370
     0
100
AcDbLine
 10
-1817.0
 20
-0.4999855726
 30
0.0
 11
-1817.0
 21
0.4999855726
 31
0.0
  0
LINE
  5
584
330
1F
100
AcDbEntity
  8
0
  6
Continuous
 62
   144
370
     0
100
AcDbLine
 10
-1842.0
 20
-38.0
 30
0.0
 11
-1842.0
 21
-37.9967105738
 31
0.0
  0
LINE
  5
585
330
1F
100
AcDbEntity
  8
0
  6
Continuous
 62
   144
370
     0
100
AcDbLine
 10
-1839.0
 20
-37.9967105738
 30
0.0
 11
-1842.0
 21
-37.9967105738
 31
0.0
  0
LINE
  5
586
330
1F
100
AcDbEntity
  8
0
  6
Continuous
 62
   144
370
     0
100
AcDbLine
 10
-1839.0
 20
-38.0
 30
0.0
 11
-1839.0
 21
-37.9967105738
 31
0.0
  0
LINE
  5
587
330
1F
100
AcDbEntity
  8
0
  6
Continuous
 62
   144
370
     0
100
AcDbLine
 10
-1816.0
 20
-16.0
 30
0.0
 11
-1816.0
 21
16.0
 31
0.0
  0
LINE
  5
588
330
1F
100
AcDbEntity
  8
0
  6
Continuous
 62
   144
370
     0
100
AcDbLine
 10
-1816.0
 20
16.0
 30
0.0
 11
-1838.0
 21
38.0
 31
0.0
  0
LINE
  5
589
330
1F
100
AcDbEntity
  8
0
  6
Continuous
 62
   144
370
     0
100
AcDbLine
 10
-1838.0
 20
-38.0
 30
0.0
 11
-1816.0
 21
-16.0
 31
0.0
  0
LINE
  5
58A
330
1F
100
AcDbEntity
  8
0
  6
Continuous
 62
     7
370
    15
100
AcDbLine
 10
1966.0
 20
38.0
 30
0.0
 11
1966.0
 21
-38.0
 31
0.0
  0
LINE
  5
58B
330
1F
100
AcDbEntity
  8
0
  6
Continuous
 62
   144
370
     0
100
AcDbLine
 10
1838.0
 20
38.0
 30
0.0
 11
1816.0
 21
16.0
 31
0.0
  0
LINE
  5
58C
330
1F
100
AcDbEntity
  8
0
  6
Continuous
 62
   144
370
     0
100
AcDbLine
 10
1816.0
 20
-16.0
 30
0.0
 11
1838.0
 21
-38.0
 31
0.0
  0
LINE
  5
58D
330
1F
100
AcDbEntity
  8
0
  6
Continuous
 62
   144
370
     0
100
AcDbLine
 10
1816.0
 20
16.0
 30
0.0
 11
1816.0
 21
-16.0
 31
0.0
  0
LINE
  5
58E
330
1F
100
AcDbEntity
  8
0
  6
Continuous
 62
   144
370
     0
100
AcDbLine
 10
1839.0
 20
38.0
 30
0.0
 11
1839.0
 21
37.9967105738
 31
0.0
  0
LINE
  5
58F
330
1F
100
AcDbEntity
  8
0
  6
Continuous
 62
   144
370
     0
100
AcDbLine
 10
1839.0
 20
37.9967105738
 30
0.0
 11
1842.0
 21
37.9967105738
 31
0.0
  0
LINE
  5
590
330
1F
100
AcDbEntity
  8
0
  6
Continuous
 62
   144
370
     0
100
AcDbLine
 10
1842.0
 20
38.0
 30
0.0
 11
1842.0
 21
37.9967105738
 31
0.0
  0
LINE
  5
591
330
1F
100
AcDbEntity
  8
0
  6
Continuous
 62
   144
370
     0
100
AcDbLine
 10
1817.0
 20
0.4999855726
 30
0.0
 11
1817.0
 21
-0.4999855726
 31
0.0
  0
LINE
  5
592
330
1F
100
AcDbEntity
  8
0
  6
Continuous
 62
   144
370
     0
100
AcDbLine
 10
1820.0
 20
-0.4999855726
 30
0.0
 11
1817.0
 21
-0.4999855726
 31
0.0
  0
LINE
  5
593
330
1F
100
AcDbEntity
  8
0
  6
Continuous
 62
   144
370
     0
100
AcDbLine
 10
1820.0
 20
0.4999855726
 30
0.0
 11
1820.0
 21
-0.4999855726
 31
0.0
  0
LINE
  5
594
330
1F
100
AcDbEntity
  8
0
  6
Continuous
 62
   144
370
     0
100
AcDbLine
 10
1817.0
 20
0.4999855726
 30
0.0
 11
1820.0
 21
0.4999855726
 31
0.0
  0
LINE
  5
595
330
1F
100
AcDbEntity
  8
0
  6
Continuous
 62
   144
370
     0
100
AcDbLine
 10
1839.0
 20
-37.9967105738
 30
0.0
 11
1839.0
 21
-38.0
 31
0.0
  0
LINE
  5
596
330
1F
100
AcDbEntity
  8
0
  6
Continuous
 62
   144
370
     0
100
AcDbLine
 10
1842.0
 20
-37.9967105738
 30
0.0
 11
1842.0
 21
-38.0
 31
0.0
  0
LINE
  5
597
330
1F
100
AcDbEntity
  8
0
  6
Continuous
 62
   144
370
     0
100
AcDbLine
 10
1839.0
 20
-37.9967105738
 30
0.0
 11
1842.0
 21
-37.9967105738
 31
0.0
  0
LINE
  5
598
330
1F
100
AcDbEntity
  8
0
  6
Continuous
 62
   144
370
     0
100
AcDbLine
 10
-199.6535898385
 20
9.6149545762
 30
0.0
 11
-200.9464101615
 21
9.2685444147
 31
0.0
  0
LINE
  5
599
330
1F
100
AcDbEntity
  8
0
  6
Continuous
 62
   144
370
     0
100
AcDbLine
 10
-200.3464101615
 20
-9.6149545762
 30
0.0
 11
-207.5535898385
 21
-5.4538874496
 31
0.0
  0
LINE
  5
59A
330
1F
100
AcDbEntity
  8
0
  6
Continuous
 62
   144
370
     0
100
AcDbLine
 10
4912.3464101615
 20
9.6149545762
 30
0.0
 11
4920.1535898385
 21
5.1074772881
 31
0.0
  0
LINE
  5
59B
330
1F
100
AcDbEntity
  8
0
  6
Continuous
 62
   144
370
     0
100
AcDbLine
 10
4920.1535898385
 20
5.1074772881
 30
0.0
 11
4920.1
 21
4.6765371804
 31
0.0
  0
LINE
  5
59C
330
1F
100
AcDbEntity
  8
0
  6
Continuous
 62
   144
370
     0
100
AcDbLine
 10
4920.1
 20
4.6765371804
 30
0.0
 11
4912.0
 21
9.3530743609
 31
0.0
  0
LINE
  5
59D
330
1F
100
AcDbEntity
  8
0
  6
Continuous
 62
   144
370
     0
100
AcDbLine
 10
4912.3464101615
 20
9.6149545762
 30
0.0
 11
4912.0
 21
9.3530743609
 31
0.0
  0
LINE
  5
59E
330
1F
100
AcDbEntity
  8
0
  6
Continuous
 62
   144
370
     0
100
AcDbLine
 10
1713.6535898385
 20
-9.6149545762
 30
0.0
 11
1705.8464101615
 21
-5.1074772881
 31
0.0
  0
LINE
  5
59F
330
1F
100
AcDbEntity
  8
0
  6
Continuous
 62
   144
370
     0
100
AcDbLine
 10
-1705.8464101615
 20
-5.1074772881
 30
0.0
 11
-1713.0535898385
 21
-9.2685444147
 31
0.0
  0
LINE
  5
5A0
330
1F
100
AcDbEntity
  8
0
  6
Continuous
 62
   144
370
     0
100
AcDbLine
 10
-5065.9004066211
 20
-400.0984190043
 30
0.0
 11
-4931.7922027025
 21
-388.4440856669
 31
0.0
  0
LINE
  5
5A1
330
1F
100
AcDbEntity
  8
0
  6
Continuous
 62
   144
370
     0
100
AcDbLine
 10
-5063.4669683499
 20
-403.3702350759
 30
0.0
 11
-5058.9016782045
 21
-428.737913129
 31
0.0
  0
LINE
  5
5A2
330
1F
100
AcDbEntity
  8
0
  6
Continuous
 62
   144
370
     0
100
AcDbLine
 10
-5051.1787342284
 20
-435.4818779555
 30
0.0
 11
-5029.8862833645
 21
-433.6315115149
 31
0.0
  0
LINE
  5
5A3
330
1F
100
AcDbEntity
  8
0
  6
Continuous
 62
   144
370
     0
100
AcDbLine
 10
-5016.3591720387
 20
-425.0408645266
 30
0.0
 11
-4991.6268160678
 21
-397.1271488423
 31
0.0
  0
LINE
  5
5A4
330
1F
100
AcDbEntity
  8
0
  6
Continuous
 62
   144
370
     0
100
AcDbLine
 10
-4933.6247662097
 20
-392.0866278037
 30
0.0
 11
-4933.6275741637
 21
-392.6853968403
 31
0.0
  0
LINE
  5
5A5
330
1F
100
AcDbEntity
  8
0
  6
Continuous
 62
   144
370
     0
100
AcDbLine
 10
-4931.4458980407
 20
-392.4290666055
 30
0.0
 11
-4992.1373018107
 21
-397.7032991251
 31
0.0
  0
LINE
  5
5A6
330
1F
100
AcDbEntity
  8
0
  6
Continuous
 62
   144
370
     0
100
AcDbLine
 10
-5065.5541019593
 20
-404.0833999429
 30
0.0
 11
-5063.372738931
 21
-403.8938341213
 31
0.0
  0
LINE
  5
5A7
330
1F
100
AcDbEntity
  8
0
  6
Continuous
 62
   144
370
     0
100
AcDbLine
 10
-5065.9004066211
 20
400.0984190042
 30
0.0
 11
-4931.7922027025
 21
388.4440856668
 31
0.0
  0
LINE
  5
5A8
330
1F
100
AcDbEntity
  8
0
  6
Continuous
 62
   144
370
     0
100
AcDbLine
 10
-4991.6268160678
 20
397.1271488422
 30
0.0
 11
-5016.3591720387
 21
425.0408645265
 31
0.0
  0
LINE
  5
5A9
330
1F
100
AcDbEntity
  8
0
  6
Continuous
 62
   144
370
     0
100
AcDbLine
 10
-5051.1787342284
 20
435.4818779554
 30
0.0
 11
-5029.8862833645
 21
433.6315115148
 31
0.0
  0
LINE
  5
5AA
330
1F
100
AcDbEntity
  8
0
  6
Continuous
 62
   144
370
     0
100
AcDbLine
 10
-5058.9016782045
 20
428.7379131289
 30
0.0
 11
-5063.4669683499
 21
403.3702350758
 31
0.0
  0
LINE
  5
5AB
330
1F
100
AcDbEntity
  8
0
  6
Continuous
 62
   144
370
     0
100
AcDbLine
 10
-4933.6275741637
 20
392.6853968403
 30
0.0
 11
-4933.6247662097
 21
392.0866278036
 31
0.0
  0
LINE
  5
5AC
330
1F
100
AcDbEntity
  8
0
  6
Continuous
 62
   144
370
     0
100
AcDbLine
 10
-4992.1373018107
 20
397.703299125
 30
0.0
 11
-4931.4458980407
 21
392.4290666055
 31
0.0
  0
LINE
  5
5AD
330
1F
100
AcDbEntity
  8
0
  6
Continuous
 62
   144
370
     0
100
AcDbLine
 10
-5065.5541019593
 20
404.0833999428
 30
0.0
 11
-5063.372738931
 21
403.8938341212
 31
0.0
  0
LINE
  5
5AE
330
1F
100
AcDbEntity
  8
0
  6
Continuous
 62
   144
370
     0
100
AcDbLine
 10
5065.9004066211
 20
400.0984190043
 30
0.0
 11
4931.7922027025
 21
388.4440856669
 31
0.0
  0
LINE
  5
5AF
330
1F
100
AcDbEntity
  8
0
  6
Continuous
 62
   144
370
     0
100
AcDbLine
 10
5063.4669683499
 20
403.3702350759
 30
0.0
 11
5058.9016782045
 21
428.737913129
 31
0.0
  0
LINE
  5
5B0
330
1F
100
AcDbEntity
  8
0
  6
Continuous
 62
   144
370
     0
100
AcDbLine
 10
5051.1787342284
 20
435.4818779555
 30
0.0
 11
5029.8862833645
 21
433.6315115149
 31
0.0
  0
LINE
  5
5B1
330
1F
100
AcDbEntity
  8
0
  6
Continuous
 62
   144
370
     0
100
AcDbLine
 10
5016.3591720387
 20
425.0408645266
 30
0.0
 11
4991.6268160678
 21
397.1271488423
 31
0.0
  0
LINE
  5
5B2
330
1F
100
AcDbEntity
  8
0
  6
Continuous
 62
   144
370
     0
100
AcDbLine
 10
4933.6247662097
 20
392.0866278037
 30
0.0
 11
4933.6275741637
 21
392.6853968403
 31
0.0
  0
LINE
  5
5B3
330
1F
100
AcDbEntity
  8
0
  6
Continuous
 62
   144
370
     0
100
AcDbLine
 10
5065.5541019593
 20
404.0833999429
 30
0.0
 11
5063.372738931
 21
403.8938341213
 31
0.0
  0
LINE
  5
5B4
330
1F
100
AcDbEntity
  8
0
  6
Continuous
 62
   144
370
     0
100
AcDbLine
 10
4931.4458980407
 20
392.4290666055
 30
0.0
 11
4992.1373018107
 21
397.7032991251
 31
0.0
  0
LINE
  5
5B5
330
1F
100
AcDbEntity
  8
0
  6
Continuous
 62
   144
370
     0
100
AcDbLine
 10
5065.9004066211
 20
-400.0984190042
 30
0.0
 11
4931.7922027025
 21
-388.4440856668
 31
0.0
  0
LINE
  5
5B6
330
1F
100
AcDbEntity
  8
0
  6
Continuous
 62
   144
370
     0
100
AcDbLine
 10
4991.6268160678
 20
-397.1271488422
 30
0.0
 11
5016.3591720387
 21
-425.0408645265
 31
0.0
  0
LINE
  5
5B7
330
1F
100
AcDbEntity
  8
0
  6
Continuous
 62
   144
370
     0
100
AcDbLine
 10
5051.1787342284
 20
-435.4818779554
 30
0.0
 11
5029.8862833645
 21
-433.6315115148
 31
0.0
  0
LINE
  5
5B8
330
1F
100
AcDbEntity
  8
0
  6
Continuous
 62
   144
370
     0
100
AcDbLine
 10
5058.9016782045
 20
-428.7379131289
 30
0.0
 11
5063.4669683499
 21
-403.3702350758
 31
0.0
  0
LINE
  5
5B9
330
1F
100
AcDbEntity
  8
0
  6
Continuous
 62
   144
370
     0
100
AcDbLine
 10
4933.6275741637
 20
-392.6853968403
 30
0.0
 11
4933.6247662097
 21
-392.0866278036
 31
0.0
  0
LINE
  5
5BA
330
1F
100
AcDbEntity
  8
0
  6
Continuous
 62
   144
370
     0
100
AcDbLine
 10
5063.372738931
 20
-403.8938341212
 30
0.0
 11
5065.5541019593
 21
-404.0833999428
 31
0.0
  0
LINE
  5
5BB
330
1F
100
AcDbEntity
  8
0
  6
Continuous
 62
   144
370
     0
100
AcDbLine
 10
4992.1373018107
 20
-397.703299125
 30
0.0
 11
4931.4458980407
 21
-392.4290666055
 31
0.0
  0
LINE
  5
5BC
330
1F
100
AcDbEntity
  8
0
  6
Continuous
 62
   144
370
     0
100
AcDbLine
 10
1699.7
 20
38.0
 30
0.0
 11
1699.7
 21
112.0801613761
 31
0.0
  0
LINE
  5
5BD
330
1F
100
AcDbEntity
  8
0
  6
Continuous
 62
   144
370
     0
100
AcDbLine
 10
-1041.5
 20
3.8146569651
 30
0.0
 11
-1041.5
 21
-3.8146569651
 31
0.0
  0
LINE
  5
5BE
330
1F
100
AcDbEntity
  8
0
  6
Continuous
 62
   144
370
     0
100
AcDbLine
 10
5036.0
 20
381.9396537946
 30
0.0
 11
5059.8611776652
 21
384.0099618568
 31
0.0
  0
LINE
  5
5BF
330
1F
100
AcDbEntity
  8
0
  6
Continuous
 62
   144
370
     0
100
AcDbLine
 10
5036.0
 20
380.5723923091
 30
0.0
 11
5056.9901501303
 21
382.3935965115
 31
0.0
  0
LINE
  5
5C0
330
1F
100
AcDbEntity
  8
0
  6
Continuous
 62
   144
370
     0
100
AcDbLine
 10
5036.0
 20
380.450895218
 30
0.0
 11
5056.701735905
 21
382.247075245
 31
0.0
  0
LINE
  5
5C1
330
1F
100
AcDbEntity
  8
0
  6
Continuous
 62
   144
370
     0
100
AcDbLine
 10
4941.473806089
 20
389.2906560624
 30
0.0
 11
4979.3315744694
 21
392.5753742013
 31
0.0
  0
LINE
  5
5C2
330
1F
100
AcDbEntity
  8
0
  6
Continuous
 62
   144
370
     0
100
AcDbLine
 10
4942.8136253298
 20
373.8486715914
 30
0.0
 11
4980.6713937103
 21
377.1333897303
 31
0.0
  0
LINE
  5
5C3
330
1F
100
AcDbEntity
  8
0
  6
Continuous
 62
   144
370
     0
100
AcDbLine
 10
4946.2294801831
 20
372.6562886565
 30
0.0
 11
4977.5119519501
 21
375.3705031186
 31
0.0
  0
LINE
  5
5C4
330
1F
100
AcDbEntity
  8
0
  6
Continuous
 62
   144
370
     0
100
AcDbLine
 10
5059.8607285556
 20
-384.0151380357
 30
0.0
 11
5036.0
 21
-381.9448689404
 31
0.0
  0
LINE
  5
5C5
330
1F
100
AcDbEntity
  8
0
  6
Continuous
 62
   144
370
     0
100
AcDbLine
 10
5056.9897010206
 20
-382.3987726904
 30
0.0
 11
5036.0
 21
-380.5776074548
 31
0.0
  0
LINE
  5
5C6
330
1F
100
AcDbEntity
  8
0
  6
Continuous
 62
   144
370
     0
100
AcDbLine
 10
5056.7012867953
 20
-382.2522514239
 30
0.0
 11
5036.0
 21
-380.4561103638
 31
0.0
  0
LINE
  5
5C7
330
1F
100
AcDbEntity
  8
0
  6
Continuous
 62
   144
370
     0
100
AcDbLine
 10
4979.3315744694
 20
-392.5753742013
 30
0.0
 11
4941.473806089
 21
-389.2906560624
 31
0.0
  0
LINE
  5
5C8
330
1F
100
AcDbEntity
  8
0
  6
Continuous
 62
   144
370
     0
100
AcDbLine
 10
4980.6713937103
 20
-377.1333897303
 30
0.0
 11
4942.8136253298
 21
-373.8486715914
 31
0.0
  0
LINE
  5
5C9
330
1F
100
AcDbEntity
  8
0
  6
Continuous
 62
   144
370
     0
100
AcDbLine
 10
4977.5119519501
 20
-375.3705031186
 30
0.0
 11
4946.2294801831
 21
-372.6562886565
 31
0.0
  0
LINE
  5
5CA
330
1F
100
AcDbEntity
  8
0
  6
Continuous
 62
   144
370
     0
100
AcDbLine
 10
-5059.8611776652
 20
384.0099618568
 30
0.0
 11
-5036.0
 21
381.9396537946
 31
0.0
  0
LINE
  5
5CB
330
1F
100
AcDbEntity
  8
0
  6
Continuous
 62
   144
370
     0
100
AcDbLine
 10
-5056.9901501303
 20
382.3935965115
 30
0.0
 11
-5036.0
 21
380.5723923091
 31
0.0
  0
LINE
  5
5CC
330
1F
100
AcDbEntity
  8
0
  6
Continuous
 62
   144
370
     0
100
AcDbLine
 10
-5056.701735905
 20
382.247075245
 30
0.0
 11
-5036.0
 21
380.450895218
 31
0.0
  0
LINE
  5
5CD
330
1F
100
AcDbEntity
  8
0
  6
Continuous
 62
   144
370
     0
100
AcDbLine
 10
-4979.3315744694
 20
392.5753742013
 30
0.0
 11
-4941.473806089
 21
389.2906560624
 31
0.0
  0
LINE
  5
5CE
330
1F
100
AcDbEntity
  8
0
  6
Continuous
 62
   144
370
     0
100
AcDbLine
 10
-4980.6713937103
 20
377.1333897303
 30
0.0
 11
-4942.8136253298
 21
373.8486715914
 31
0.0
  0
LINE
  5
5CF
330
1F
100
AcDbEntity
  8
0
  6
Continuous
 62
   144
370
     0
100
AcDbLine
 10
-4977.5119519501
 20
375.3705031186
 30
0.0
 11
-4946.2294801831
 21
372.6562886565
 31
0.0
  0
LINE
  5
5D0
330
1F
100
AcDbEntity
  8
0
  6
Continuous
 62
   144
370
     0
100
AcDbLine
 10
-5036.0
 20
-380.5776074548
 30
0.0
 11
-5056.9897010206
 21
-382.3987726904
 31
0.0
  0
LINE
  5
5D1
330
1F
100
AcDbEntity
  8
0
  6
Continuous
 62
   144
370
     0
100
AcDbLine
 10
-5036.0
 20
-381.9448689404
 30
0.0
 11
-5059.8607285556
 21
-384.0151380357
 31
0.0
  0
LINE
  5
5D2
330
1F
100
AcDbEntity
  8
0
  6
Continuous
 62
   144
370
     0
100
AcDbLine
 10
-5036.0
 20
-380.4561103638
 30
0.0
 11
-5056.7012867953
 21
-382.2522514239
 31
0.0
  0
LINE
  5
5D3
330
1F
100
AcDbEntity
  8
0
  6
Continuous
 62
   144
370
     0
100
AcDbLine
 10
-4941.473806089
 20
-389.2906560624
 30
0.0
 11
-4979.3315744694
 21
-392.5753742013
 31
0.0
  0
LINE
  5
5D4
330
1F
100
AcDbEntity
  8
0
  6
Continuous
 62
   144
370
     0
100
AcDbLine
 10
-4942.8136253298
 20
-373.8486715914
 30
0.0
 11
-4980.6713937103
 21
-377.1333897303
 31
0.0
  0
LINE
  5
5D5
330
1F
100
AcDbEntity
  8
0
  6
Continuous
 62
   144
370
     0
100
AcDbLine
 10
-4946.2294801831
 20
-372.6562886565
 30
0.0
 11
-4977.5119519501
 21
-375.3705031186
 31
0.0
  0
LINE
  5
5D6
330
1F
100
AcDbEntity
  8
0
  6
Continuous
 62
   144
370
     0
100
AcDbLine
 10
1348.35
 20
-349.0
 30
0.0
 11
1348.35
 21
-301.0
 31
0.0
  0
LINE
  5
5D7
330
1F
100
AcDbEntity
  8
0
  6
Continuous
 62
   144
370
     0
100
AcDbLine
 10
1600.35
 20
-301.0
 30
0.0
 11
1348.35
 21
-301.0
 31
0.0
  0
LINE
  5
5D8
330
1F
100
AcDbEntity
  8
0
  6
Continuous
 62
   144
370
     0
100
AcDbLine
 10
1600.35
 20
-357.0
 30
0.0
 11
1600.35
 21
-293.0
 31
0.0
  0
LINE
  5
5D9
330
1F
100
AcDbEntity
  8
0
  6
Continuous
 62
     7
370
    15
100
AcDbLine
 10
1600.35
 20
-357.0
 30
0.0
 11
1356.35
 21
-357.0
 31
0.0
  0
LINE
  5
5DA
330
1F
100
AcDbEntity
  8
0
  6
Continuous
 62
     7
370
    15
100
AcDbLine
 10
1356.35
 20
-293.0
 30
0.0
 11
1600.35
 21
-293.0
 31
0.0
  0
LINE
  5
5DB
330
1F
100
AcDbEntity
  8
0
  6
Continuous
 62
   144
370
     0
100
AcDbLine
 10
1356.35
 20
-293.0
 30
0.0
 11
1356.35
 21
-357.0
 31
0.0
  0
LINE
  5
5DC
330
1F
100
AcDbEntity
  8
0
  6
Continuous
 62
   144
370
     0
100
AcDbLine
 10
1608.35
 20
-301.0
 30
0.0
 11
1608.35
 21
-349.0
 31
0.0
  0
LINE
  5
5DD
330
1F
100
AcDbEntity
  8
0
  6
Continuous
 62
   144
370
     0
100
AcDbLine
 10
-1155.0
 20
-38.0
 30
0.0
 11
-1155.0
 21
-38.0173535792
 31
0.0
  0
LINE
  5
5DE
330
1F
100
AcDbEntity
  8
0
  6
Continuous
 62
   144
370
     0
100
AcDbLine
 10
-1045.0
 20
-38.0173535792
 30
0.0
 11
-1045.0
 21
-38.0
 31
0.0
  0
LINE
  5
5DF
330
1F
100
AcDbEntity
  8
0
  6
Continuous
 62
     7
370
    15
100
AcDbLine
 10
-1045.0
 20
-38.0173535792
 30
0.0
 11
-1155.0
 21
-38.0173535792
 31
0.0
  0
LINE
  5
5E0
330
1F
100
AcDbEntity
  8
0
  6
Continuous
 62
   144
370
     0
100
AcDbLine
 10
-1044.0415633957
 20
-38.0
 30
0.0
 11
-1045.0
 21
-38.0173535792
 31
0.0
  0
LINE
  5
5E1
330
1F
100
AcDbEntity
  8
0
  6
Continuous
 62
   144
370
     0
100
AcDbLine
 10
-1155.0
 20
-38.0173535792
 30
0.0
 11
-1155.9584366042
 21
-38.0
 31
0.0
  0
LINE
  5
5E2
330
1F
100
AcDbEntity
  8
0
  6
Continuous
 62
   144
370
     0
100
AcDbLine
 10
-4871.3530743609
 20
-46.5
 30
0.0
 11
-4857.3234628196
 21
-46.5
 31
0.0
  0
LINE
  5
5E3
330
1F
100
AcDbEntity
  8
0
  6
Continuous
 62
   144
370
     0
100
AcDbLine
 10
-4857.3234628196
 20
-46.5
 30
0.0
 11
-4857.4925227119
 21
-46.1
 31
0.0
  0
LINE
  5
5E4
330
1F
100
AcDbEntity
  8
0
  6
Continuous
 62
   144
370
     0
100
AcDbLine
 10
-4857.4925227119
 20
-46.1
 30
0.0
 11
-4865.8146569651
 21
-46.1
 31
0.0
  0
LINE
  5
5E5
330
1F
100
AcDbEntity
  8
0
  6
Continuous
 62
   144
370
     0
100
AcDbLine
 10
-4866.6765371804
 20
-46.5
 30
0.0
 11
-4865.8146569651
 21
-46.1
 31
0.0
  0
LINE
  5
5E6
330
1F
100
AcDbEntity
  8
0
  6
Continuous
 62
   144
370
     0
100
AcDbLine
 10
-4871.6149545762
 20
-46.1
 30
0.0
 11
-4871.3530743609
 21
-46.5
 31
0.0
  0
LINE
  5
5E7
330
1F
100
AcDbEntity
  8
0
  6
Continuous
 62
   144
370
     0
100
AcDbLine
 10
-4867.1074772881
 20
-46.1
 30
0.0
 11
-4866.6765371804
 21
-46.5
 31
0.0
  0
LINE
  5
5E8
330
1F
100
AcDbEntity
  8
0
  6
Continuous
 62
   144
370
     0
100
AcDbLine
 10
-4871.6149545762
 20
-46.1
 30
0.0
 11
-4867.1074772881
 21
-46.1
 31
0.0
  0
LINE
  5
5E9
330
1F
100
AcDbEntity
  8
0
  6
Continuous
 62
     7
370
    15
100
AcDbLine
 10
1600.35
 20
293.0
 30
0.0
 11
1356.35
 21
293.0
 31
0.0
  0
LINE
  5
5EA
330
1F
100
AcDbEntity
  8
0
  6
Continuous
 62
   144
370
     0
100
AcDbLine
 10
1600.35
 20
293.0
 30
0.0
 11
1600.35
 21
357.0
 31
0.0
  0
LINE
  5
5EB
330
1F
100
AcDbEntity
  8
0
  6
Continuous
 62
   144
370
     0
100
AcDbLine
 10
1356.35
 20
357.0
 30
0.0
 11
1356.35
 21
293.0
 31
0.0
  0
LINE
  5
5EC
330
1F
100
AcDbEntity
  8
0
  6
Continuous
 62
   144
370
     0
100
AcDbLine
 10
1348.35
 20
301.0
 30
0.0
 11
1348.35
 21
349.0
 31
0.0
  0
LINE
  5
5ED
330
1F
100
AcDbEntity
  8
0
  6
Continuous
 62
   144
370
     0
100
AcDbLine
 10
1348.35
 20
301.0
 30
0.0
 11
1600.35
 21
301.0
 31
0.0
  0
LINE
  5
5EE
330
1F
100
AcDbEntity
  8
0
  6
Continuous
 62
     7
370
    15
100
AcDbLine
 10
1356.35
 20
357.0
 30
0.0
 11
1600.35
 21
357.0
 31
0.0
  0
LINE
  5
5EF
330
1F
100
AcDbEntity
  8
0
  6
Continuous
 62
   144
370
     0
100
AcDbLine
 10
1608.35
 20
349.0
 30
0.0
 11
1608.35
 21
301.0
 31
0.0
  0
LINE
  5
5F0
330
1F
100
AcDbEntity
  8
0
  6
Continuous
 62
     7
370
    15
100
AcDbLine
 10
-1045.0
 20
38.0173535792
 30
0.0
 11
-1155.0
 21
38.0173535792
 31
0.0
  0
LINE
  5
5F1
330
1F
100
AcDbEntity
  8
0
  6
Continuous
 62
   144
370
     0
100
AcDbLine
 10
-1045.0
 20
38.0
 30
0.0
 11
-1045.0
 21
38.0173535792
 31
0.0
  0
LINE
  5
5F2
330
1F
100
AcDbEntity
  8
0
  6
Continuous
 62
   144
370
     0
100
AcDbLine
 10
-1155.0
 20
38.0173535792
 30
0.0
 11
-1155.0
 21
38.0
 31
0.0
  0
LINE
  5
5F3
330
1F
100
AcDbEntity
  8
0
  6
Continuous
 62
   144
370
     0
100
AcDbLine
 10
-1045.0
 20
38.0173535792
 30
0.0
 11
-1044.0415633949
 21
38.0
 31
0.0
  0
LINE
  5
5F4
330
1F
100
AcDbEntity
  8
0
  6
Continuous
 62
   144
370
     0
100
AcDbLine
 10
-1155.9584366051
 20
38.0
 30
0.0
 11
-1155.0
 21
38.0173535792
 31
0.0
  0
LINE
  5
5F5
330
1F
100
AcDbEntity
  8
0
  6
Continuous
 62
   144
370
     0
100
AcDbLine
 10
1630.0
 20
-38.0
 30
0.0
 11
1630.0
 21
38.0
 31
0.0
  0
LINE
  5
5F6
330
1F
100
AcDbEntity
  8
0
  6
Continuous
 62
   144
370
     0
100
AcDbLine
 10
-1630.0
 20
-38.0
 30
0.0
 11
-1630.0
 21
38.0
 31
0.0
  0
LINE
  5
5F7
330
1F
100
AcDbEntity
  8
0
  6
Continuous
 62
   144
370
     0
100
AcDbLine
 10
-4907.3234628196
 20
-8.1
 30
0.0
 11
-4902.6469256391
 21
0.0
 31
0.0
  0
LINE
  5
5F8
330
1F
100
AcDbEntity
  8
0
  6
Continuous
 62
   144
370
     0
100
AcDbLine
 10
-4916.6765371804
 20
-8.1
 30
0.0
 11
-4907.3234628196
 21
-8.1
 31
0.0
  0
LINE
  5
5F9
330
1F
100
AcDbEntity
  8
0
  6
Continuous
 62
   144
370
     0
100
AcDbLine
 10
-4921.3530743609
 20
0.0
 30
0.0
 11
-4916.6765371804
 21
-8.1
 31
0.0
  0
LINE
  5
5FA
330
1F
100
AcDbEntity
  8
0
  6
Continuous
 62
   144
370
     0
100
AcDbLine
 10
-4916.6765371804
 20
8.1
 30
0.0
 11
-4921.3530743609
 21
0.0
 31
0.0
  0
LINE
  5
5FB
330
1F
100
AcDbEntity
  8
0
  6
Continuous
 62
   144
370
     0
100
AcDbLine
 10
-4907.3234628196
 20
8.1
 30
0.0
 11
-4916.6765371804
 21
8.1
 31
0.0
  0
LINE
  5
5FC
330
1F
100
AcDbEntity
  8
0
  6
Continuous
 62
   144
370
     0
100
AcDbLine
 10
-4902.6469256391
 20
0.0
 30
0.0
 11
-4907.3234628196
 21
8.1
 31
0.0
  0
LINE
  5
5FD
330
1F
100
AcDbEntity
  8
0
  6
Continuous
 62
     7
370
    15
100
AcDbLine
 10
-2543.0
 20
55.0
 30
0.0
 11
-2543.0
 21
-55.0
 31
0.0
  0
LINE
  5
5FE
330
1F
100
AcDbEntity
  8
0
  6
Continuous
 62
     7
370
    15
100
AcDbLine
 10
-2547.0
 20
-55.0
 30
0.0
 11
-2547.0
 21
55.0
 31
0.0
  0
LINE
  5
5FF
330
1F
100
AcDbEntity
  8
0
  6
Continuous
 62
     7
370
    15
100
AcDbLine
 10
-2597.0
 20
-55.0
 30
0.0
 11
-2597.0
 21
55.0
 31
0.0
  0
LINE
  5
600
330
1F
100
AcDbEntity
  8
0
  6
Continuous
 62
     7
370
    15
100
AcDbLine
 10
-2593.0
 20
55.0
 30
0.0
 11
-2593.0
 21
-55.0
 31
0.0
  0
LINE
  5
601
330
1F
100
AcDbEntity
  8
0
  6
Continuous
 62
     7
370
    15
100
AcDbLine
 10
-3372.0
 20
55.0
 30
0.0
 11
-3372.0
 21
-55.0
 31
0.0
  0
LINE
  5
602
330
1F
100
AcDbEntity
  8
0
  6
Continuous
 62
     7
370
    15
100
AcDbLine
 10
-3376.0
 20
-55.0
 30
0.0
 11
-3376.0
 21
55.0
 31
0.0
  0
LINE
  5
603
330
1F
100
AcDbEntity
  8
0
  6
Continuous
 62
   144
370
     0
100
AcDbLine
 10
-4201.0
 20
55.0
 30
0.0
 11
-4201.0
 21
-55.0
 31
0.0
  0
LINE
  5
604
330
1F
100
AcDbEntity
  8
0
  6
Continuous
 62
   144
370
     0
100
AcDbLine
 10
-4205.0
 20
-55.0
 30
0.0
 11
-4205.0
 21
55.0
 31
0.0
  0
LINE
  5
605
330
1F
100
AcDbEntity
  8
0
  6
Continuous
 62
     7
370
    15
100
AcDbLine
 10
-3426.0
 20
-55.0
 30
0.0
 11
-3426.0
 21
55.0
 31
0.0
  0
LINE
  5
606
330
1F
100
AcDbEntity
  8
0
  6
Continuous
 62
     7
370
    15
100
AcDbLine
 10
-3422.0
 20
55.0
 30
0.0
 11
-3422.0
 21
-55.0
 31
0.0
  0
LINE
  5
607
330
1F
100
AcDbEntity
  8
0
  6
Continuous
 62
   144
370
     0
100
AcDbLine
 10
-4251.0
 20
55.0
 30
0.0
 11
-4251.0
 21
-55.0
 31
0.0
  0
LINE
  5
608
330
1F
100
AcDbEntity
  8
0
  6
Continuous
 62
   144
370
     0
100
AcDbLine
 10
-4255.0
 20
-55.0
 30
0.0
 11
-4255.0
 21
55.0
 31
0.0
  0
LINE
  5
609
330
1F
100
AcDbEntity
  8
0
  6
Continuous
 62
   144
370
     0
100
AcDbLine
 10
-3785.7703392241
 20
-293.3648135309
 30
0.0
 11
-3776.4201133557
 21
-400.9592988738
 31
0.0
  0
LINE
  5
60A
330
1F
100
AcDbEntity
  8
0
  6
Continuous
 62
   144
370
     0
100
AcDbLine
 10
-1512.3387137375
 20
-95.7980039777
 30
0.0
 11
-1502.988487869
 21
-203.3924893206
 31
0.0
  0
LINE
  5
60B
330
1F
100
AcDbEntity
  8
0
  6
Continuous
 62
   144
370
     0
100
AcDbLine
 10
-1502.988487869
 20
203.3924893206
 30
0.0
 11
-1512.3387137375
 21
95.7980039777
 31
0.0
  0
LINE
  5
60C
330
1F
100
AcDbEntity
  8
0
  6
Continuous
 62
   144
370
     0
100
AcDbLine
 10
-3776.4201133557
 20
400.9592988738
 30
0.0
 11
-3785.7703392241
 21
293.3648135309
 31
0.0
  0
LINE
  5
60D
330
1F
100
AcDbEntity
  8
0
  6
Continuous
 62
   144
370
     0
100
AcDbLine
 10
1502.988487869
 20
-203.3924893206
 30
0.0
 11
1512.3387137374
 21
-95.7980039777
 31
0.0
  0
LINE
  5
60E
330
1F
100
AcDbEntity
  8
0
  6
Continuous
 62
   144
370
     0
100
AcDbLine
 10
3776.4201133557
 20
-400.9592988738
 30
0.0
 11
3785.7703392241
 21
-293.3648135309
 31
0.0
  0
LINE
  5
60F
330
1F
100
AcDbEntity
  8
0
  6
Continuous
 62
   144
370
     0
100
AcDbLine
 10
1512.3387137375
 20
95.7980039777
 30
0.0
 11
1502.988487869
 21
203.3924893206
 31
0.0
  0
LINE
  5
610
330
1F
100
AcDbEntity
  8
0
  6
Continuous
 62
   144
370
     0
100
AcDbLine
 10
3785.7703392241
 20
293.3648135309
 30
0.0
 11
3776.4201133557
 21
400.9592988738
 31
0.0
  0
LINE
  5
611
330
1F
100
AcDbEntity
  8
0
  6
Continuous
 62
   144
370
     0
100
AcDbLine
 10
3776.6621854404
 20
-400.7073911253
 30
0.0
 11
3785.9977001509
 21
-293.1116283598
 31
0.0
  0
LINE
  5
612
330
1F
100
AcDbEntity
  8
0
  6
Continuous
 62
   144
370
     0
100
AcDbLine
 10
3785.9977001509
 20
293.1116283598
 30
0.0
 11
3776.6621854404
 21
400.7073911253
 31
0.0
  0
LINE
  5
613
330
1F
100
AcDbEntity
  8
0
  6
Continuous
 62
   144
370
     0
100
AcDbLine
 10
-3785.9977001509
 20
-293.1116283598
 30
0.0
 11
-3776.6621854404
 21
-400.7073911253
 31
0.0
  0
LINE
  5
614
330
1F
100
AcDbEntity
  8
0
  6
Continuous
 62
   144
370
     0
100
AcDbLine
 10
-3776.6621854404
 20
400.7073911253
 30
0.0
 11
-3785.9977001509
 21
293.1116283598
 31
0.0
  0
LINE
  5
615
330
1F
100
AcDbEntity
  8
0
  6
Continuous
 62
   144
370
     0
100
AcDbLine
 10
-205.0
 20
-38.0173535792
 30
0.0
 11
-205.9584366043
 21
-38.0
 31
0.0
  0
LINE
  5
616
330
1F
100
AcDbEntity
  8
0
  6
Continuous
 62
   144
370
     0
100
AcDbLine
 10
-95.0
 20
-38.0173535792
 30
0.0
 11
-205.0
 21
-38.0173535792
 31
0.0
  0
LINE
  5
617
330
1F
100
AcDbEntity
  8
0
  6
Continuous
 62
   144
370
     0
100
AcDbLine
 10
-94.0415633957
 20
-38.0
 30
0.0
 11
-95.0
 21
-38.0173535792
 31
0.0
  0
LINE
  5
618
330
1F
100
AcDbEntity
  8
0
  6
Continuous
 62
   144
370
     0
100
AcDbLine
 10
-95.0
 20
38.0173535792
 30
0.0
 11
-205.0
 21
38.0173535792
 31
0.0
  0
LINE
  5
619
330
1F
100
AcDbEntity
  8
0
  6
Continuous
 62
   144
370
     0
100
AcDbLine
 10
-95.0
 20
38.0173535792
 30
0.0
 11
-94.0415633949
 21
38.0
 31
0.0
  0
LINE
  5
61A
330
1F
100
AcDbEntity
  8
0
  6
Continuous
 62
   144
370
     0
100
AcDbLine
 10
-205.9584366051
 20
38.0
 30
0.0
 11
-205.0
 21
38.0173535792
 31
0.0
  0
LINE
  5
61B
330
1F
100
AcDbEntity
  8
0
  6
Continuous
 62
     7
370
    15
100
AcDbLine
 10
2755.3178905971
 20
38.1735067644
 30
0.0
 11
2645.3178905971
 21
38.1735067644
 31
0.0
  0
LINE
  5
61C
330
1F
100
AcDbEntity
  8
0
  6
Continuous
 62
   144
370
     0
100
AcDbLine
 10
2755.3178905971
 20
38.0
 30
0.0
 11
2755.3178905971
 21
38.1735067644
 31
0.0
  0
LINE
  5
61D
330
1F
100
AcDbEntity
  8
0
  6
Continuous
 62
   144
370
     0
100
AcDbLine
 10
2645.3178905971
 20
38.1735067644
 30
0.0
 11
2645.3178905971
 21
38.0
 31
0.0
  0
LINE
  5
61E
330
1F
100
AcDbEntity
  8
0
  6
Continuous
 62
   144
370
     0
100
AcDbLine
 10
2748.6894226294
 20
-5.8438468148
 30
0.0
 11
2750.8280985379
 21
-5.8438468148
 31
0.0
  0
LINE
  5
61F
330
1F
100
AcDbEntity
  8
0
  6
Continuous
 62
     7
370
    15
100
AcDbLine
 10
1719.7
 20
113.8182106522
 30
0.0
 11
1719.7
 21
38.0
 31
0.0
  0
LINE
  5
620
330
1F
100
AcDbEntity
  8
0
  6
Continuous
 62
     7
370
    15
100
AcDbLine
 10
1719.7
 20
-38.0
 30
0.0
 11
1719.7
 21
-113.8182106522
 31
0.0
  0
LINE
  5
621
330
1F
100
AcDbEntity
  8
0
  6
Continuous
 62
     7
370
    15
100
AcDbLine
 10
1699.7
 20
-112.0801613761
 30
0.0
 11
1699.7
 21
-38.0
 31
0.0
  0
LINE
  5
622
330
1F
100
AcDbEntity
  8
0
  6
Continuous
 62
   144
370
     0
100
AcDbLine
 10
-1970.0
 20
-38.0
 30
0.0
 11
-1970.0
 21
38.0
 31
0.0
  0
LINE
  5
623
330
1F
100
AcDbEntity
  8
0
  6
Continuous
 62
   144
370
     0
100
AcDbLine
 10
-4828.0
 20
-38.0
 30
0.0
 11
-4828.0
 21
38.0
 31
0.0
  0
LINE
  5
624
330
1F
100
AcDbEntity
  8
0
  6
Continuous
 62
   144
370
     0
100
AcDbLine
 10
2862.8178905971
 20
90.1561531852
 30
0.0
 11
2537.8178905971
 21
90.1561531852
 31
0.0
  0
LINE
  5
625
330
1F
100
AcDbEntity
  8
0
  6
Continuous
 62
     7
370
    15
100
AcDbLine
 10
2862.8178905971
 20
-89.8438468148
 30
0.0
 11
2537.8178905971
 21
-89.8438468148
 31
0.0
  0
LINE
  5
626
330
1F
100
AcDbEntity
  8
0
  6
Continuous
 62
     7
370
    15
100
AcDbLine
 10
-1506.3612423295
 20
-95.278546985
 30
0.0
 11
-1497.0110164611
 21
-202.8730323279
 31
0.0
  0
LINE
  5
627
330
1F
100
AcDbEntity
  8
0
  6
Continuous
 62
     7
370
    15
100
AcDbLine
 10
-1497.0110164611
 20
202.8730323279
 30
0.0
 11
-1506.3612423295
 21
95.278546985
 31
0.0
  0
LINE
  5
628
330
1F
100
AcDbEntity
  8
0
  6
Continuous
 62
     7
370
    15
100
AcDbLine
 10
1497.0110164611
 20
-202.8730323279
 30
0.0
 11
1506.3612423295
 21
-95.278546985
 31
0.0
  0
LINE
  5
629
330
1F
100
AcDbEntity
  8
0
  6
Continuous
 62
     7
370
    15
100
AcDbLine
 10
1506.3612423295
 20
95.278546985
 30
0.0
 11
1497.0110164611
 21
202.8730323279
 31
0.0
  0
LINE
  5
62A
330
1F
100
AcDbEntity
  8
0
  6
Continuous
 62
   144
370
     0
100
AcDbLine
 10
2741.5
 20
-4.5074772881
 30
0.0
 11
2741.5
 21
3.8146569651
 31
0.0
  0
LINE
  5
62B
330
1F
100
AcDbEntity
  8
0
  6
Continuous
 62
   144
370
     0
100
AcDbLine
 10
-4960.0032894262
 20
38.0
 30
0.0
 11
-4960.0032894262
 21
41.0
 31
0.0
  0
LINE
  5
62C
330
1F
100
AcDbEntity
  8
0
  6
Continuous
 62
   144
370
     0
100
AcDbLine
 10
-4960.0032894262
 20
41.0
 30
0.0
 11
-4960.0
 21
41.0
 31
0.0
  0
LINE
  5
62D
330
1F
100
AcDbEntity
  8
0
  6
Continuous
 62
   144
370
     0
100
AcDbLine
 10
-4984.735648116
 20
0.5
 30
0.0
 11
-4984.735648116
 21
-0.5
 31
0.0
  0
LINE
  5
62E
330
1F
100
AcDbEntity
  8
0
  6
Continuous
 62
   144
370
     0
100
AcDbLine
 10
-4984.735648116
 20
0.5
 30
0.0
 11
-4981.9685833252
 21
0.5
 31
0.0
  0
LINE
  5
62F
330
1F
100
AcDbEntity
  8
0
  6
Continuous
 62
   144
370
     0
100
AcDbLine
 10
-4984.735648116
 20
-0.5
 30
0.0
 11
-4981.9685833252
 21
-0.5
 31
0.0
  0
LINE
  5
630
330
1F
100
AcDbEntity
  8
0
  6
Continuous
 62
   144
370
     0
100
AcDbLine
 10
-4960.0032894262
 20
-38.0
 30
0.0
 11
-4960.0032894262
 21
-41.0
 31
0.0
  0
LINE
  5
631
330
1F
100
AcDbEntity
  8
0
  6
Continuous
 62
   144
370
     0
100
AcDbLine
 10
-4960.0032894262
 20
-41.0
 30
0.0
 11
-4960.0
 21
-41.0
 31
0.0
  0
LINE
  5
632
330
1F
100
AcDbEntity
  8
0
  6
Continuous
 62
   144
370
     0
100
AcDbLine
 10
4960.0032894262
 20
41.0
 30
0.0
 11
4960.0
 21
41.0
 31
0.0
  0
LINE
  5
633
330
1F
100
AcDbEntity
  8
0
  6
Continuous
 62
   144
370
     0
100
AcDbLine
 10
4960.0032894262
 20
38.0
 30
0.0
 11
4960.0032894262
 21
41.0
 31
0.0
  0
LINE
  5
634
330
1F
100
AcDbEntity
  8
0
  6
Continuous
 62
   144
370
     0
100
AcDbLine
 10
4984.735648116
 20
0.5
 30
0.0
 11
4981.9685833252
 21
0.5
 31
0.0
  0
LINE
  5
635
330
1F
100
AcDbEntity
  8
0
  6
Continuous
 62
   144
370
     0
100
AcDbLine
 10
4984.735648116
 20
-0.5
 30
0.0
 11
4981.9685833252
 21
-0.5
 31
0.0
  0
LINE
  5
636
330
1F
100
AcDbEntity
  8
0
  6
Continuous
 62
   144
370
     0
100
AcDbLine
 10
4984.735648116
 20
-0.5
 30
0.0
 11
4984.735648116
 21
0.5
 31
0.0
  0
LINE
  5
637
330
1F
100
AcDbEntity
  8
0
  6
Continuous
 62
   144
370
     0
100
AcDbLine
 10
4960.0032894262
 20
-41.0
 30
0.0
 11
4960.0
 21
-41.0
 31
0.0
  0
LINE
  5
638
330
1F
100
AcDbEntity
  8
0
  6
Continuous
 62
   144
370
     0
100
AcDbLine
 10
4960.0032894262
 20
-38.0
 30
0.0
 11
4960.0032894262
 21
-41.0
 31
0.0
  0
LINE
  5
639
330
1F
100
AcDbEntity
  8
0
  6
Continuous
 62
   144
370
     0
100
AcDbLine
 10
-1838.0
 20
-41.0
 30
0.0
 11
-1837.9967105738
 21
-41.0
 31
0.0
  0
LINE
  5
63A
330
1F
100
AcDbEntity
  8
0
  6
Continuous
 62
   144
370
     0
100
AcDbLine
 10
-1837.9967105738
 20
-41.0
 30
0.0
 11
-1837.9967105738
 21
-38.0
 31
0.0
  0
LINE
  5
63B
330
1F
100
AcDbEntity
  8
0
  6
Continuous
 62
   144
370
     0
100
AcDbLine
 10
-1762.0032894262
 20
38.0
 30
0.0
 11
-1762.0032894262
 21
41.0
 31
0.0
  0
LINE
  5
63C
330
1F
100
AcDbEntity
  8
0
  6
Continuous
 62
   144
370
     0
100
AcDbLine
 10
-1762.0032894262
 20
41.0
 30
0.0
 11
-1762.0
 21
41.0
 31
0.0
  0
LINE
  5
63D
330
1F
100
AcDbEntity
  8
0
  6
Continuous
 62
   144
370
     0
100
AcDbLine
 10
-1837.9967105738
 20
41.0
 30
0.0
 11
-1837.9967105738
 21
38.0
 31
0.0
  0
LINE
  5
63E
330
1F
100
AcDbEntity
  8
0
  6
Continuous
 62
   144
370
     0
100
AcDbLine
 10
-1838.0
 20
41.0
 30
0.0
 11
-1837.9967105738
 21
41.0
 31
0.0
  0
LINE
  5
63F
330
1F
100
AcDbEntity
  8
0
  6
Continuous
 62
   144
370
     0
100
AcDbLine
 10
-1762.0032894262
 20
-38.0
 30
0.0
 11
-1762.0032894262
 21
-41.0
 31
0.0
  0
LINE
  5
640
330
1F
100
AcDbEntity
  8
0
  6
Continuous
 62
   144
370
     0
100
AcDbLine
 10
-1762.0032894262
 20
-41.0
 30
0.0
 11
-1762.0
 21
-41.0
 31
0.0
  0
LINE
  5
641
330
1F
100
AcDbEntity
  8
0
  6
Continuous
 62
   144
370
     0
100
AcDbLine
 10
-1815.5314121827
 20
0.5
 30
0.0
 11
-1812.7479017358
 21
0.5
 31
0.0
  0
LINE
  5
642
330
1F
100
AcDbEntity
  8
0
  6
Continuous
 62
   144
370
     0
100
AcDbLine
 10
-1815.5314121827
 20
0.5
 30
0.0
 11
-1815.5314121827
 21
-0.5
 31
0.0
  0
LINE
  5
643
330
1F
100
AcDbEntity
  8
0
  6
Continuous
 62
   144
370
     0
100
AcDbLine
 10
-1815.5314121827
 20
-0.5
 30
0.0
 11
-1812.7479017358
 21
-0.5
 31
0.0
  0
LINE
  5
644
330
1F
100
AcDbEntity
  8
0
  6
Continuous
 62
   144
370
     0
100
AcDbLine
 10
-1812.7479017358
 20
-0.5
 30
0.0
 11
-1812.7479017358
 21
0.5
 31
0.0
  0
LINE
  5
645
330
1F
100
AcDbEntity
  8
0
  6
Continuous
 62
   144
370
     0
100
AcDbLine
 10
-1787.2520982642
 20
0.5
 30
0.0
 11
-1784.4685878173
 21
0.5
 31
0.0
  0
LINE
  5
646
330
1F
100
AcDbEntity
  8
0
  6
Continuous
 62
   144
370
     0
100
AcDbLine
 10
-1787.2520982642
 20
0.5
 30
0.0
 11
-1787.2520982642
 21
-0.5
 31
0.0
  0
LINE
  5
647
330
1F
100
AcDbEntity
  8
0
  6
Continuous
 62
   144
370
     0
100
AcDbLine
 10
-1787.2520982642
 20
-0.5
 30
0.0
 11
-1784.4685878173
 21
-0.5
 31
0.0
  0
LINE
  5
648
330
1F
100
AcDbEntity
  8
0
  6
Continuous
 62
   144
370
     0
100
AcDbLine
 10
-1784.4685878173
 20
-0.5
 30
0.0
 11
-1784.4685878173
 21
0.5
 31
0.0
  0
LINE
  5
649
330
1F
100
AcDbEntity
  8
0
  6
Continuous
 62
   144
370
     0
100
AcDbLine
 10
1838.0
 20
41.0
 30
0.0
 11
1837.9967105738
 21
41.0
 31
0.0
  0
LINE
  5
64A
330
1F
100
AcDbEntity
  8
0
  6
Continuous
 62
   144
370
     0
100
AcDbLine
 10
1837.9967105738
 20
41.0
 30
0.0
 11
1837.9967105738
 21
38.0
 31
0.0
  0
LINE
  5
64B
330
1F
100
AcDbEntity
  8
0
  6
Continuous
 62
   144
370
     0
100
AcDbLine
 10
1762.0032894262
 20
-38.0
 30
0.0
 11
1762.0032894262
 21
-41.0
 31
0.0
  0
LINE
  5
64C
330
1F
100
AcDbEntity
  8
0
  6
Continuous
 62
   144
370
     0
100
AcDbLine
 10
1762.0032894262
 20
-41.0
 30
0.0
 11
1762.0
 21
-41.0
 31
0.0
  0
LINE
  5
64D
330
1F
100
AcDbEntity
  8
0
  6
Continuous
 62
   144
370
     0
100
AcDbLine
 10
1837.9967105738
 20
-41.0
 30
0.0
 11
1837.9967105738
 21
-38.0
 31
0.0
  0
LINE
  5
64E
330
1F
100
AcDbEntity
  8
0
  6
Continuous
 62
   144
370
     0
100
AcDbLine
 10
1838.0
 20
-41.0
 30
0.0
 11
1837.9967105738
 21
-41.0
 31
0.0
  0
LINE
  5
64F
330
1F
100
AcDbEntity
  8
0
  6
Continuous
 62
   144
370
     0
100
AcDbLine
 10
1762.0032894262
 20
38.0
 30
0.0
 11
1762.0032894262
 21
41.0
 31
0.0
  0
LINE
  5
650
330
1F
100
AcDbEntity
  8
0
  6
Continuous
 62
   144
370
     0
100
AcDbLine
 10
1762.0032894262
 20
41.0
 30
0.0
 11
1762.0
 21
41.0
 31
0.0
  0
LINE
  5
651
330
1F
100
AcDbEntity
  8
0
  6
Continuous
 62
   144
370
     0
100
AcDbLine
 10
1815.5314121827
 20
-0.5
 30
0.0
 11
1812.7479017358
 21
-0.5
 31
0.0
  0
LINE
  5
652
330
1F
100
AcDbEntity
  8
0
  6
Continuous
 62
   144
370
     0
100
AcDbLine
 10
1815.5314121827
 20
-0.5
 30
0.0
 11
1815.5314121827
 21
0.5
 31
0.0
  0
LINE
  5
653
330
1F
100
AcDbEntity
  8
0
  6
Continuous
 62
   144
370
     0
100
AcDbLine
 10
1815.5314121827
 20
0.5
 30
0.0
 11
1812.7479017358
 21
0.5
 31
0.0
  0
LINE
  5
654
330
1F
100
AcDbEntity
  8
0
  6
Continuous
 62
   144
370
     0
100
AcDbLine
 10
1812.7479017358
 20
0.5
 30
0.0
 11
1812.7479017358
 21
-0.5
 31
0.0
  0
LINE
  5
655
330
1F
100
AcDbEntity
  8
0
  6
Continuous
 62
   144
370
     0
100
AcDbLine
 10
1787.2520982642
 20
-0.5
 30
0.0
 11
1784.4685878173
 21
-0.5
 31
0.0
  0
LINE
  5
656
330
1F
100
AcDbEntity
  8
0
  6
Continuous
 62
   144
370
     0
100
AcDbLine
 10
1787.2520982642
 20
-0.5
 30
0.0
 11
1787.2520982642
 21
0.5
 31
0.0
  0
LINE
  5
657
330
1F
100
AcDbEntity
  8
0
  6
Continuous
 62
   144
370
     0
100
AcDbLine
 10
1787.2520982642
 20
0.5
 30
0.0
 11
1784.4685878173
 21
0.5
 31
0.0
  0
LINE
  5
658
330
1F
100
AcDbEntity
  8
0
  6
Continuous
 62
   144
370
     0
100
AcDbLine
 10
1784.4685878173
 20
0.5
 30
0.0
 11
1784.4685878173
 21
-0.5
 31
0.0
  0
LINE
  5
659
330
1F
100
AcDbEntity
  8
0
  6
Continuous
 62
     7
370
    15
100
AcDbLine
 10
-4832.0
 20
38.0
 30
0.0
 11
-4832.0
 21
-38.0
 31
0.0
  0
LINE
  5
65A
330
1F
100
AcDbEntity
  8
0
  6
Continuous
 62
   144
370
     0
100
AcDbLine
 10
-4982.0
 20
-16.0
 30
0.0
 11
-4960.0
 21
-38.0
 31
0.0
  0
LINE
  5
65B
330
1F
100
AcDbEntity
  8
0
  6
Continuous
 62
   144
370
     0
100
AcDbLine
 10
-4982.0
 20
16.0
 30
0.0
 11
-4982.0
 21
-16.0
 31
0.0
  0
LINE
  5
65C
330
1F
100
AcDbEntity
  8
0
  6
Continuous
 62
   144
370
     0
100
AcDbLine
 10
-4960.0
 20
38.0
 30
0.0
 11
-4982.0
 21
16.0
 31
0.0
  0
LINE
  5
65D
330
1F
100
AcDbEntity
  8
0
  6
Continuous
 62
   144
370
     0
100
AcDbLine
 10
-4981.0
 20
0.4999855726
 30
0.0
 11
-4981.0
 21
-0.4999855726
 31
0.0
  0
LINE
  5
65E
330
1F
100
AcDbEntity
  8
0
  6
Continuous
 62
   144
370
     0
100
AcDbLine
 10
-4981.0
 20
-0.4999855726
 30
0.0
 11
-4978.0
 21
-0.4999855726
 31
0.0
  0
LINE
  5
65F
330
1F
100
AcDbEntity
  8
0
  6
Continuous
 62
   144
370
     0
100
AcDbLine
 10
-4978.0
 20
0.4999855726
 30
0.0
 11
-4978.0
 21
-0.4999855726
 31
0.0
  0
LINE
  5
660
330
1F
100
AcDbEntity
  8
0
  6
Continuous
 62
   144
370
     0
100
AcDbLine
 10
-4978.0
 20
0.4999855726
 30
0.0
 11
-4981.0
 21
0.4999855726
 31
0.0
  0
LINE
  5
661
330
1F
100
AcDbEntity
  8
0
  6
Continuous
 62
   144
370
     0
100
AcDbLine
 10
-4959.0
 20
-37.9967105738
 30
0.0
 11
-4959.0
 21
-38.0
 31
0.0
  0
LINE
  5
662
330
1F
100
AcDbEntity
  8
0
  6
Continuous
 62
   144
370
     0
100
AcDbLine
 10
-4956.0
 20
-37.9967105738
 30
0.0
 11
-4956.0
 21
-38.0
 31
0.0
  0
LINE
  5
663
330
1F
100
AcDbEntity
  8
0
  6
Continuous
 62
   144
370
     0
100
AcDbLine
 10
-4956.0
 20
-37.9967105738
 30
0.0
 11
-4959.0
 21
-37.9967105738
 31
0.0
  0
LINE
  5
664
330
1F
100
AcDbEntity
  8
0
  6
Continuous
 62
   144
370
     0
100
AcDbLine
 10
-4959.0
 20
38.0
 30
0.0
 11
-4959.0
 21
37.9967105737
 31
0.0
  0
LINE
  5
665
330
1F
100
AcDbEntity
  8
0
  6
Continuous
 62
   144
370
     0
100
AcDbLine
 10
-4956.0
 20
37.9967105737
 30
0.0
 11
-4959.0
 21
37.9967105737
 31
0.0
  0
LINE
  5
666
330
1F
100
AcDbEntity
  8
0
  6
Continuous
 62
   144
370
     0
100
AcDbLine
 10
-4956.0
 20
38.0
 30
0.0
 11
-4956.0
 21
37.9967105737
 31
0.0
  0
LINE
  5
667
330
1F
100
AcDbEntity
  8
0
  6
Continuous
 62
     7
370
    15
100
AcDbLine
 10
4832.0
 20
-38.0
 30
0.0
 11
4832.0
 21
38.0
 31
0.0
  0
LINE
  5
668
330
1F
100
AcDbEntity
  8
0
  6
Continuous
 62
   144
370
     0
100
AcDbLine
 10
4956.0
 20
-38.0
 30
0.0
 11
4956.0
 21
-37.9967105737
 31
0.0
  0
LINE
  5
669
330
1F
100
AcDbEntity
  8
0
  6
Continuous
 62
   144
370
     0
100
AcDbLine
 10
4956.0
 20
-37.9967105737
 30
0.0
 11
4959.0
 21
-37.9967105737
 31
0.0
  0
LINE
  5
66A
330
1F
100
AcDbEntity
  8
0
  6
Continuous
 62
   144
370
     0
100
AcDbLine
 10
4959.0
 20
-38.0
 30
0.0
 11
4959.0
 21
-37.9967105737
 31
0.0
  0
LINE
  5
66B
330
1F
100
AcDbEntity
  8
0
  6
Continuous
 62
   144
370
     0
100
AcDbLine
 10
4956.0
 20
37.9967105738
 30
0.0
 11
4959.0
 21
37.9967105738
 31
0.0
  0
LINE
  5
66C
330
1F
100
AcDbEntity
  8
0
  6
Continuous
 62
   144
370
     0
100
AcDbLine
 10
4956.0
 20
37.9967105738
 30
0.0
 11
4956.0
 21
38.0
 31
0.0
  0
LINE
  5
66D
330
1F
100
AcDbEntity
  8
0
  6
Continuous
 62
   144
370
     0
100
AcDbLine
 10
4959.0
 20
37.9967105738
 30
0.0
 11
4959.0
 21
38.0
 31
0.0
  0
LINE
  5
66E
330
1F
100
AcDbEntity
  8
0
  6
Continuous
 62
   144
370
     0
100
AcDbLine
 10
4978.0
 20
-0.4999855726
 30
0.0
 11
4981.0
 21
-0.4999855726
 31
0.0
  0
LINE
  5
66F
330
1F
100
AcDbEntity
  8
0
  6
Continuous
 62
   144
370
     0
100
AcDbLine
 10
4978.0
 20
-0.4999855726
 30
0.0
 11
4978.0
 21
0.4999855726
 31
0.0
  0
LINE
  5
670
330
1F
100
AcDbEntity
  8
0
  6
Continuous
 62
   144
370
     0
100
AcDbLine
 10
4981.0
 20
0.4999855726
 30
0.0
 11
4978.0
 21
0.4999855726
 31
0.0
  0
LINE
  5
671
330
1F
100
AcDbEntity
  8
0
  6
Continuous
 62
   144
370
     0
100
AcDbLine
 10
4981.0
 20
-0.4999855726
 30
0.0
 11
4981.0
 21
0.4999855726
 31
0.0
  0
LINE
  5
672
330
1F
100
AcDbEntity
  8
0
  6
Continuous
 62
   144
370
     0
100
AcDbLine
 10
4960.0
 20
-38.0
 30
0.0
 11
4982.0
 21
-16.0
 31
0.0
  0
LINE
  5
673
330
1F
100
AcDbEntity
  8
0
  6
Continuous
 62
   144
370
     0
100
AcDbLine
 10
4982.0
 20
-16.0
 30
0.0
 11
4982.0
 21
16.0
 31
0.0
  0
LINE
  5
674
330
1F
100
AcDbEntity
  8
0
  6
Continuous
 62
   144
370
     0
100
AcDbLine
 10
4982.0
 20
16.0
 30
0.0
 11
4960.0
 21
38.0
 31
0.0
  0
LINE
  5
675
330
1F
100
AcDbEntity
  8
0
  6
Continuous
 62
   144
370
     0
100
AcDbLine
 10
4968.3428590685
 20
507.6562506919
 30
0.0
 11
4932.4776048133
 21
504.544412455
 31
0.0
  0
LINE
  5
676
330
1F
100
AcDbEntity
  8
0
  6
Continuous
 62
   144
370
     0
100
AcDbLine
 10
-4213.0
 20
-40.0
 30
0.0
 11
-4213.0
 21
40.0
 31
0.0
  0
LINE
  5
677
330
1F
100
AcDbEntity
  8
0
  6
Continuous
 62
   144
370
     0
100
AcDbLine
 10
-4243.0
 20
-40.0
 30
0.0
 11
-4243.0
 21
40.0
 31
0.0
  0
LINE
  5
678
330
1F
100
AcDbEntity
  8
0
  6
Continuous
 62
   144
370
     0
100
AcDbLine
 10
-3384.0
 20
-40.0
 30
0.0
 11
-3384.0
 21
40.0
 31
0.0
  0
LINE
  5
679
330
1F
100
AcDbEntity
  8
0
  6
Continuous
 62
   144
370
     0
100
AcDbLine
 10
-3414.0
 20
-40.0
 30
0.0
 11
-3414.0
 21
40.0
 31
0.0
  0
LINE
  5
67A
330
1F
100
AcDbEntity
  8
0
  6
Continuous
 62
   144
370
     0
100
AcDbLine
 10
-2585.0
 20
-40.0
 30
0.0
 11
-2585.0
 21
40.0
 31
0.0
  0
LINE
  5
67B
330
1F
100
AcDbEntity
  8
0
  6
Continuous
 62
   144
370
     0
100
AcDbLine
 10
-2555.0
 20
-40.0
 30
0.0
 11
-2555.0
 21
40.0
 31
0.0
  0
LINE
  5
67C
330
1F
100
AcDbEntity
  8
0
  6
Continuous
 62
   144
370
     0
100
AcDbLine
 10
3819.1900553104
 20
408.0108344448
 30
0.0
 11
3783.3248010552
 21
404.898996208
 31
0.0
  0
LINE
  5
67D
330
1F
100
AcDbEntity
  8
0
  6
Continuous
 62
   144
370
     0
100
AcDbLine
 10
3769.1347225175
 20
403.9397485604
 30
0.0
 11
3733.2698940698
 21
400.8230066043
 31
0.0
  0
LINE
  5
67E
330
1F
100
AcDbEntity
  8
0
  6
Continuous
 62
   144
370
     0
100
AcDbLine
 10
3783.3248610458
 20
-404.8983047909
 30
0.0
 11
3819.190115301
 21
-408.0101430278
 31
0.0
  0
LINE
  5
67F
330
1F
100
AcDbEntity
  8
0
  6
Continuous
 62
   144
370
     0
100
AcDbLine
 10
3733.2698940698
 20
-400.8230066043
 30
0.0
 11
3769.1347225175
 21
-403.9397485604
 31
0.0
  0
LINE
  5
680
330
1F
100
AcDbEntity
  8
0
  6
Continuous
 62
   144
370
     0
100
AcDbLine
 10
4856.0280809971
 20
-46.3546941556
 30
0.0
 11
4856.0280810533
 21
-40.759193828
 31
0.0
  0
LINE
  5
681
330
1F
100
AcDbEntity
  8
0
  6
Continuous
 62
   144
370
     0
100
AcDbLine
 10
4865.7596307644
 20
-40.759193828
 30
0.0
 11
4865.75963073
 21
-46.3546941556
 31
0.0
  0
LINE
  5
682
330
1F
100
AcDbEntity
  8
0
  6
Continuous
 62
   144
370
     0
100
AcDbLine
 10
4867.9719190029
 20
-46.3546941556
 30
0.0
 11
4867.9719189467
 21
-40.759193828
 31
0.0
  0
LINE
  5
683
330
1F
100
AcDbEntity
  8
0
  6
Continuous
 62
   144
370
     0
100
AcDbLine
 10
4871.7315497412
 20
-40.7591938506
 30
0.0
 11
4871.7315497328
 21
-46.3546941556
 31
0.0
  0
LINE
  5
684
330
1F
100
AcDbEntity
  8
0
  6
Continuous
 62
   144
370
     0
100
AcDbLine
 10
1941.9719190029
 20
-46.3546941556
 30
0.0
 11
1941.9719189467
 21
-40.759193828
 31
0.0
  0
LINE
  5
685
330
1F
100
AcDbEntity
  8
0
  6
Continuous
 62
   144
370
     0
100
AcDbLine
 10
1932.2403692356
 20
-40.759193828
 30
0.0
 11
1932.24036927
 21
-46.3546941556
 31
0.0
  0
LINE
  5
686
330
1F
100
AcDbEntity
  8
0
  6
Continuous
 62
   144
370
     0
100
AcDbLine
 10
1890.9075061774
 20
8.50005
 30
0.0
 11
1890.9075061556
 21
8.50005
 31
0.0
  0
LINE
  5
687
330
1F
100
AcDbEntity
  8
0
  6
Continuous
 62
   144
370
     0
100
AcDbLine
 10
-1935.999999951
 20
40.759193828
 30
0.0
 11
-1936.0
 21
46.3546941556
 31
0.0
  0
LINE
  5
688
330
1F
100
AcDbEntity
  8
0
  6
Continuous
 62
   144
370
     0
100
AcDbLine
 10
-1927.49995
 20
40.7591938506
 30
0.0
 11
-1927.49995
 21
46.3546941556
 31
0.0
  0
LINE
  5
689
330
1F
100
AcDbEntity
  8
0
  6
Continuous
 62
   144
370
     0
100
AcDbLine
 10
-4968.3428590685
 20
-507.6562506919
 30
0.0
 11
-4932.4776048133
 21
-504.544412455
 31
0.0
  0
LINE
  5
68A
330
1F
100
AcDbEntity
  8
0
  6
Continuous
 62
   144
370
     0
100
AcDbLine
 10
-3769.1347225175
 20
-403.9397485604
 30
0.0
 11
-3733.2698940698
 21
-400.8230066043
 31
0.0
  0
LINE
  5
68B
330
1F
100
AcDbEntity
  8
0
  6
Continuous
 62
   144
370
     0
100
AcDbLine
 10
-3733.2698940698
 20
400.8230066043
 30
0.0
 11
-3769.1347225175
 21
403.9397485604
 31
0.0
  0
LINE
  5
68C
330
1F
100
AcDbEntity
  8
0
  6
Continuous
 62
   144
370
     0
100
AcDbLine
 10
-3783.3248610458
 20
404.8983047909
 30
0.0
 11
-3819.190115301
 21
408.0101430278
 31
0.0
  0
LINE
  5
68D
330
1F
100
AcDbEntity
  8
0
  6
Continuous
 62
   144
370
     0
100
AcDbLine
 10
-3819.1900553104
 20
-408.0108344448
 30
0.0
 11
-3783.3248010552
 21
-404.898996208
 31
0.0
  0
LINE
  5
68E
330
1F
100
AcDbEntity
  8
0
  6
Continuous
 62
   144
370
     0
100
AcDbLine
 10
4932.4776048133
 20
-504.544412455
 30
0.0
 11
4968.3428590685
 21
-507.6562506919
 31
0.0
  0
LINE
  5
68F
330
1F
100
AcDbEntity
  8
0
  6
Continuous
 62
   144
370
     0
100
AcDbLine
 10
-4932.4776048133
 20
504.544412455
 30
0.0
 11
-4968.3428590685
 21
507.6562506919
 31
0.0
  0
LINE
  5
690
330
1F
100
AcDbEntity
  8
0
  6
Continuous
 62
   144
370
     0
100
AcDbLine
 10
-99.6535898385
 20
9.6149545762
 30
0.0
 11
-91.8464101615
 21
5.1074772881
 31
0.0
  0
LINE
  5
691
330
1F
100
AcDbEntity
  8
0
  6
Continuous
 62
   144
370
     0
100
AcDbLine
 10
-91.8464101615
 20
-5.1074772881
 30
0.0
 11
-99.0535898385
 21
-9.2685444147
 31
0.0
  0
LINE
  5
692
330
1F
100
AcDbEntity
  8
0
  6
PHANTOM
 62
     8
370
     0
100
AcDbLine
 10
-5063.4669683499
 20
-403.3702350759
 30
0.0
 11
-4933.6247662097
 21
-392.0866278037
 31
0.0
  0
LINE
  5
693
330
1F
100
AcDbEntity
  8
0
  6
PHANTOM
 62
     8
370
     0
100
AcDbLine
 10
-5063.4669683499
 20
403.3702350758
 30
0.0
 11
-4933.6247662097
 21
392.0866278036
 31
0.0
  0
LINE
  5
694
330
1F
100
AcDbEntity
  8
0
  6
PHANTOM
 62
     8
370
     0
100
AcDbLine
 10
5063.4669683499
 20
403.3702350759
 30
0.0
 11
4933.6247662097
 21
392.0866278037
 31
0.0
  0
LINE
  5
695
330
1F
100
AcDbEntity
  8
0
  6
PHANTOM
 62
     8
370
     0
100
AcDbLine
 10
5063.4669683499
 20
-403.3702350758
 30
0.0
 11
4933.6247662097
 21
-392.0866278036
 31
0.0
  0
LINE
  5
696
330
1F
100
AcDbEntity
  8
0
  6
PHANTOM
 62
     8
370
     0
100
AcDbLine
 10
1348.35
 20
-349.0
 30
0.0
 11
1600.35
 21
-349.0
 31
0.0
  0
LINE
  5
697
330
1F
100
AcDbEntity
  8
0
  6
PHANTOM
 62
     8
370
     0
100
AcDbLine
 10
1600.35
 20
349.0
 30
0.0
 11
1348.35
 21
349.0
 31
0.0
  0
LINE
  5
698
330
1F
100
AcDbEntity
  8
0
  6
PHANTOM
 62
     8
370
     0
100
AcDbLine
 10
4045.6515923541
 20
-424.0461779017
 30
0.0
 11
4054.9871070647
 21
-316.4504151362
 31
0.0
  0
LINE
  5
699
330
1F
100
AcDbEntity
  8
0
  6
PHANTOM
 62
     8
370
     0
100
AcDbLine
 10
4054.9871070647
 20
316.4504151362
 30
0.0
 11
4045.6515923541
 21
424.0461779017
 31
0.0
  0
LINE
  5
69A
330
1F
100
AcDbEntity
  8
0
  6
PHANTOM
 62
     8
370
     0
100
AcDbLine
 10
-4054.9871070647
 20
-316.4504151362
 30
0.0
 11
-4045.6515923541
 21
-424.0461779017
 31
0.0
  0
LINE
  5
69B
330
1F
100
AcDbEntity
  8
0
  6
PHANTOM
 62
     8
370
     0
100
AcDbLine
 10
-4045.6515923541
 20
424.0461779017
 30
0.0
 11
-4054.9871070647
 21
316.4504151362
 31
0.0
  0
LINE
  5
69C
330
1F
100
AcDbEntity
  8
0
  6
PHANTOM
 62
     8
370
     0
100
AcDbLine
 10
1619.7
 20
-331.15
 30
0.0
 11
1619.7
 21
-288.85
 31
0.0
  0
LINE
  5
69D
330
1F
100
AcDbEntity
  8
0
  6
PHANTOM
 62
     8
370
     0
100
AcDbLine
 10
1082.0
 20
-331.15
 30
0.0
 11
1082.0
 21
-288.85
 31
0.0
  0
LINE
  5
69E
330
1F
100
AcDbEntity
  8
0
  6
PHANTOM
 62
     8
370
     0
100
AcDbLine
 10
1082.0
 20
331.15
 30
0.0
 11
1082.0
 21
288.85
 31
0.0
  0
LINE
  5
69F
330
1F
100
AcDbEntity
  8
0
  6
PHANTOM
 62
     8
370
     0
100
AcDbLine
 10
1619.7
 20
331.15
 30
0.0
 11
1619.7
 21
288.85
 31
0.0
  0
LINE
  5
6A0
330
1F
100
AcDbEntity
  8
0
  6
PHANTOM
 62
     8
370
     0
100
AcDbLine
 10
1714.7
 20
-113.3836983332
 30
0.0
 11
1714.7
 21
-38.0
 31
0.0
  0
LINE
  5
6A1
330
1F
100
AcDbEntity
  8
0
  6
PHANTOM
 62
     8
370
     0
100
AcDbLine
 10
1714.7
 20
38.0
 30
0.0
 11
1714.7
 21
113.3836983332
 31
0.0
  0
LINE
  5
6A2
330
1F
100
AcDbEntity
  8
0
  6
PHANTOM
 62
     8
370
     0
100
AcDbLine
 10
1704.7
 20
112.5146736951
 30
0.0
 11
1704.7
 21
38.0
 31
0.0
  0
LINE
  5
6A3
330
1F
100
AcDbEntity
  8
0
  6
PHANTOM
 62
     8
370
     0
100
AcDbLine
 10
1704.7
 20
-38.0
 30
0.0
 11
1704.7
 21
-112.5146736951
 31
0.0
  0
LINE
  5
6A4
330
1F
100
AcDbEntity
  8
0
  6
PHANTOM
 62
     8
370
     0
100
AcDbLine
 10
5047.5326430234
 20
514.5328228183
 30
0.0
 11
5011.6673887682
 21
511.4209845815
 31
0.0
  0
LINE
  5
6A5
330
1F
100
AcDbEntity
  8
0
  6
PHANTOM
 62
     8
370
     0
100
AcDbLine
 10
-5047.5321939137
 20
-514.5379989972
 30
0.0
 11
-5011.6669396586
 21
-511.4261607604
 31
0.0
  0
LINE
  5
6A6
330
1F
100
AcDbEntity
  8
0
  6
PHANTOM
 62
     8
370
     0
100
AcDbLine
 10
3918.8157615747
 20
416.6548295472
 30
0.0
 11
3882.9505073196
 21
413.5429913103
 31
0.0
  0
LINE
  5
6A7
330
1F
100
AcDbEntity
  8
0
  6
PHANTOM
 62
     8
370
     0
100
AcDbLine
 10
3793.2826834131
 20
290.1301825915
 30
0.0
 11
3829.1479376683
 21
293.2420208283
 31
0.0
  0
LINE
  5
6A8
330
1F
100
AcDbEntity
  8
0
  6
PHANTOM
 62
     8
370
     0
100
AcDbLine
 10
3743.2434683295
 20
286.0555555718
 30
0.0
 11
3779.1082967771
 21
289.172297528
 31
0.0
  0
LINE
  5
6A9
330
1F
100
AcDbEntity
  8
0
  6
PHANTOM
 62
     8
370
     0
100
AcDbLine
 10
3882.9505673102
 20
-413.5422998933
 30
0.0
 11
3918.8158215653
 21
-416.6541381301
 31
0.0
  0
LINE
  5
6AA
330
1F
100
AcDbEntity
  8
0
  6
PHANTOM
 62
     8
370
     0
100
AcDbLine
 10
3928.7737039232
 20
-301.8853245136
 30
0.0
 11
3892.9084496681
 21
-298.7734862767
 31
0.0
  0
LINE
  5
6AB
330
1F
100
AcDbEntity
  8
0
  6
PHANTOM
 62
     8
370
     0
100
AcDbLine
 10
3829.1479976589
 20
-293.2413294112
 30
0.0
 11
3793.2827434037
 21
-290.1294911744
 31
0.0
  0
LINE
  5
6AC
330
1F
100
AcDbEntity
  8
0
  6
PHANTOM
 62
     8
370
     0
100
AcDbLine
 10
3892.9083896775
 20
298.7741776938
 30
0.0
 11
3928.7736439326
 21
301.8860159307
 31
0.0
  0
LINE
  5
6AD
330
1F
100
AcDbEntity
  8
0
  6
PHANTOM
 62
     8
370
     0
100
AcDbLine
 10
3779.1082967771
 20
-289.172297528
 30
0.0
 11
3743.2434683295
 21
-286.0555555718
 31
0.0
  0
LINE
  5
6AE
330
1F
100
AcDbEntity
  8
0
  6
PHANTOM
 62
     8
370
     0
100
AcDbLine
 10
-3743.2434683295
 20
-286.0555555718
 30
0.0
 11
-3779.1082967771
 21
-289.172297528
 31
0.0
  0
LINE
  5
6AF
330
1F
100
AcDbEntity
  8
0
  6
PHANTOM
 62
     8
370
     0
100
AcDbLine
 10
-3779.1082967771
 20
289.172297528
 30
0.0
 11
-3743.2434683295
 21
286.0555555718
 31
0.0
  0
LINE
  5
6B0
330
1F
100
AcDbEntity
  8
0
  6
PHANTOM
 62
     8
370
     0
100
AcDbLine
 10
-3829.1479976589
 20
293.2413294112
 30
0.0
 11
-3793.2827434037
 21
290.1294911744
 31
0.0
  0
LINE
  5
6B1
330
1F
100
AcDbEntity
  8
0
  6
PHANTOM
 62
     8
370
     0
100
AcDbLine
 10
-3882.9505673102
 20
413.5422998933
 30
0.0
 11
-3918.8158215653
 21
416.6541381301
 31
0.0
  0
LINE
  5
6B2
330
1F
100
AcDbEntity
  8
0
  6
PHANTOM
 62
     8
370
     0
100
AcDbLine
 10
-3928.7737039232
 20
301.8853245136
 30
0.0
 11
-3892.9084496681
 21
298.7734862767
 31
0.0
  0
LINE
  5
6B3
330
1F
100
AcDbEntity
  8
0
  6
PHANTOM
 62
     8
370
     0
100
AcDbLine
 10
-3793.2826834131
 20
-290.1301825915
 30
0.0
 11
-3829.1479376683
 21
-293.2420208283
 31
0.0
  0
LINE
  5
6B4
330
1F
100
AcDbEntity
  8
0
  6
PHANTOM
 62
     8
370
     0
100
AcDbLine
 10
-3892.9083896775
 20
-298.7741776938
 30
0.0
 11
-3928.7736439326
 21
-301.8860159307
 31
0.0
  0
LINE
  5
6B5
330
1F
100
AcDbEntity
  8
0
  6
PHANTOM
 62
     8
370
     0
100
AcDbLine
 10
-3918.8157615747
 20
-416.6548295472
 30
0.0
 11
-3882.9505073196
 21
-413.5429913103
 31
0.0
  0
LINE
  5
6B6
330
1F
100
AcDbEntity
  8
0
  6
PHANTOM
 62
     8
370
     0
100
AcDbLine
 10
5011.6669396586
 20
-511.4261607604
 30
0.0
 11
5047.5321939137
 21
-514.5379989972
 31
0.0
  0
LINE
  5
6B7
330
1F
100
AcDbEntity
  8
0
  6
PHANTOM
 62
     8
370
     0
100
AcDbLine
 10
-5011.6673887682
 20
511.4209845815
 30
0.0
 11
-5047.5326430234
 21
514.5328228183
 31
0.0
  0
ARC
  5
6B8
330
1F
100
AcDbEntity
  8
0
  6
Continuous
 62
     7
370
    15
100
AcDbCircle
 10
2700.3178905971
 20
24.8561531852
 30
0.0
 40
18.00000000000078
100
AcDbArc
 50
47.7188929411
 51
132.2811070589
  0
ARC
  5
6B9
330
1F
100
AcDbEntity
  8
0
  6
Continuous
 62
     7
370
    15
100
AcDbCircle
 10
2700.3178905971
 20
-24.5438468148
 30
0.0
 40
18.00000000000023
100
AcDbArc
 50
228.3798080507
 51
311.6201919493
  0
ARC
  5
6BA
330
1F
100
AcDbEntity
  8
0
  6
Continuous
 62
     7
370
    15
100
AcDbCircle
 10
-150.0
 20
24.85
 30
0.0
 40
18.00000000000009
100
AcDbArc
 50
47.0139428459
 51
132.9860571541
  0
ARC
  5
6BB
330
1F
100
AcDbEntity
  8
0
  6
Continuous
 62
     7
370
    15
100
AcDbCircle
 10
-150.0
 20
-24.85
 30
0.0
 40
18.0000000000001
100
AcDbArc
 50
227.0139428459
 51
312.9860571541
  0
ARC
  5
6BC
330
1F
100
AcDbEntity
  8
0
  6
Continuous
 62
     7
370
    15
100
AcDbCircle
 10
-1100.0
 20
24.85
 30
0.0
 40
17.99999999999994
100
AcDbArc
 50
46.932988473
 51
133.067011527
  0
ARC
  5
6BD
330
1F
100
AcDbEntity
  8
0
  6
Continuous
 62
     7
370
    15
100
AcDbCircle
 10
-1100.0
 20
-24.85
 30
0.0
 40
18.00000000000041
100
AcDbArc
 50
226.9329884732
 51
313.0670115268
  0
ARC
  5
6BE
330
1F
100
AcDbEntity
  8
0
  6
Continuous
 62
     7
370
    15
100
AcDbCircle
 10
5037.6595808851
 20
420.0870021309
 30
0.0
 40
42.36111111064211
100
AcDbArc
 50
297.1504250515
 51
301.6078953108
  0
ARC
  5
6BF
330
1F
100
AcDbEntity
  8
0
  6
Continuous
 62
     7
370
    15
100
AcDbCircle
 10
5037.6595808848
 20
420.0870021313
 30
0.0
 40
42.36111111110029
100
AcDbArc
 50
270.0
 51
296.7128741849
  0
ARC
  5
6C0
330
1F
100
AcDbEntity
  8
0
  6
Continuous
 62
     7
370
    15
100
AcDbCircle
 10
4958.4697969299
 20
413.2104300048
 30
0.0
 40
42.36111111111956
100
AcDbArc
 50
253.2047913891
 51
296.7128741849
  0
ARC
  5
6C1
330
1F
100
AcDbEntity
  8
0
  6
Continuous
 62
     7
370
    15
100
AcDbCircle
 10
5037.6591317752
 20
-420.0921783102
 30
0.0
 40
42.36111111108484
100
AcDbArc
 50
58.3921046892
 51
62.8495749485
  0
ARC
  5
6C2
330
1F
100
AcDbEntity
  8
0
  6
Continuous
 62
     7
370
    15
100
AcDbCircle
 10
5037.6591317752
 20
-420.0921783102
 30
0.0
 40
42.36111111111601
100
AcDbArc
 50
63.2871258151
 51
92.2446429464
  0
ARC
  5
6C3
330
1F
100
AcDbEntity
  8
0
  6
Continuous
 62
     7
370
    15
100
AcDbCircle
 10
4958.4697969299
 20
-413.2104300048
 30
0.0
 40
42.36111111111449
100
AcDbArc
 50
63.2871258151
 51
106.7952086109
  0
ARC
  5
6C4
330
1F
100
AcDbEntity
  8
0
  6
Continuous
 62
     7
370
    15
100
AcDbCircle
 10
-5037.6595808848
 20
420.0870021313
 30
0.0
 40
42.36111111108833
100
AcDbArc
 50
238.3921046893
 51
242.8495749485
  0
ARC
  5
6C5
330
1F
100
AcDbEntity
  8
0
  6
Continuous
 62
     7
370
    15
100
AcDbCircle
 10
-5037.6595808848
 20
420.0870021313
 30
0.0
 40
42.3611111111042
100
AcDbArc
 50
243.2871258151
 51
272.2452508589
  0
ARC
  5
6C6
330
1F
100
AcDbEntity
  8
0
  6
Continuous
 62
     7
370
    15
100
AcDbCircle
 10
-4958.4697969299
 20
413.2104300049
 30
0.0
 40
42.3611111111372
100
AcDbArc
 50
243.2871258151
 51
286.7952086109
  0
ARC
  5
6C7
330
1F
100
AcDbEntity
  8
0
  6
Continuous
 62
     7
370
    15
100
AcDbCircle
 10
-5037.6591317754
 20
-420.0921783099
 30
0.0
 40
42.36111111072628
100
AcDbArc
 50
117.1504250515
 51
121.6078953108
  0
ARC
  5
6C8
330
1F
100
AcDbEntity
  8
0
  6
Continuous
 62
     7
370
    15
100
AcDbCircle
 10
-5037.6591317752
 20
-420.0921783102
 30
0.0
 40
42.36111111111975
100
AcDbArc
 50
87.7553570536
 51
116.7128741849
  0
ARC
  5
6C9
330
1F
100
AcDbEntity
  8
0
  6
Continuous
 62
     7
370
    15
100
AcDbCircle
 10
-4958.4697969299
 20
-413.2104300048
 30
0.0
 40
42.36111111111189
100
AcDbArc
 50
73.2047913891
 51
116.7128741849
  0
ARC
  5
6CA
330
1F
100
AcDbEntity
  8
0
  6
Continuous
 62
     7
370
    15
100
AcDbCircle
 10
1619.7
 20
-188.85
 30
0.0
 40
99.99999999999946
100
AcDbArc
 50
270.0
 51
340.6874605134
  0
ARC
  5
6CB
330
1F
100
AcDbEntity
  8
0
  6
Continuous
 62
     7
370
    15
100
AcDbCircle
 10
1619.7
 20
-188.85
 30
0.0
 40
142.3000000000008
100
AcDbArc
 50
270.0
 51
344.8261271619
  0
ARC
  5
6CC
330
1F
100
AcDbEntity
  8
0
  6
Continuous
 62
     7
370
    15
100
AcDbCircle
 10
1619.7
 20
188.85
 30
0.0
 40
99.9999999999998
100
AcDbArc
 50
19.3125394866
 51
90.0
  0
ARC
  5
6CD
330
1F
100
AcDbEntity
  8
0
  6
Continuous
 62
     7
370
    15
100
AcDbCircle
 10
1619.7
 20
188.85
 30
0.0
 40
142.3000000000001
100
AcDbArc
 50
15.1738728381
 51
90.0
  0
ARC
  5
6CE
330
1F
100
AcDbEntity
  8
0
  6
Continuous
 62
     7
370
    15
100
AcDbCircle
 10
5029.6000158958
 20
512.9769036999
 30
0.0
 40
18.00000000000014
100
AcDbArc
 50
4.958832787
 51
184.958832787
  0
ARC
  5
6CF
330
1F
100
AcDbEntity
  8
0
  6
Continuous
 62
     7
370
    15
100
AcDbCircle
 10
4950.4102319409
 20
506.1003315734
 30
0.0
 40
18.00000000000109
100
AcDbArc
 50
4.958832787
 51
184.958832787
  0
ARC
  5
6D0
330
1F
100
AcDbEntity
  8
0
  6
Continuous
 62
     7
370
    15
100
AcDbCircle
 10
-5029.5995667861
 20
-512.9820798788
 30
0.0
 40
18.00000000000199
100
AcDbArc
 50
184.958832787
 51
4.958832787
  0
ARC
  5
6D1
330
1F
100
AcDbEntity
  8
0
  6
Continuous
 62
     7
370
    15
100
AcDbCircle
 10
3900.8831344471
 20
415.0989104288
 30
0.0
 40
17.99999999999962
100
AcDbArc
 50
4.958832787
 51
184.958832787
  0
ARC
  5
6D2
330
1F
100
AcDbEntity
  8
0
  6
Continuous
 62
     7
370
    15
100
AcDbCircle
 10
3811.2153105407
 20
291.6861017099
 30
0.0
 40
18.00000000000178
100
AcDbArc
 50
184.958832787
 51
4.958832787
  0
ARC
  5
6D3
330
1F
100
AcDbEntity
  8
0
  6
Continuous
 62
     7
370
    15
100
AcDbCircle
 10
3801.2574281828
 20
406.4549153264
 30
0.0
 40
18.00000000000057
100
AcDbArc
 50
4.958832787
 51
184.958832787
  0
ARC
  5
6D4
330
1F
100
AcDbEntity
  8
0
  6
Continuous
 62
     7
370
    15
100
AcDbCircle
 10
3761.1758825533
 20
287.6139265499
 30
0.0
 40
18.00000000000068
100
AcDbArc
 50
184.9666666667
 51
4.9666666667
  0
ARC
  5
6D5
330
1F
100
AcDbEntity
  8
0
  6
Continuous
 62
     7
370
    15
100
AcDbCircle
 10
3751.2023082937
 20
402.3813775824
 30
0.0
 40
18.00000000000033
100
AcDbArc
 50
4.9666666667
 51
184.9666666667
  0
ARC
  5
6D6
330
1F
100
AcDbEntity
  8
0
  6
Continuous
 62
     7
370
    15
100
AcDbCircle
 10
3900.8831944377
 20
-415.0982190117
 30
0.0
 40
18.0000000000011
100
AcDbArc
 50
175.041167213
 51
355.041167213
  0
ARC
  5
6D7
330
1F
100
AcDbEntity
  8
0
  6
Continuous
 62
     7
370
    15
100
AcDbCircle
 10
3910.8410767956
 20
-300.3294053952
 30
0.0
 40
18.00000000000012
100
AcDbArc
 50
355.041167213
 51
175.041167213
  0
ARC
  5
6D8
330
1F
100
AcDbEntity
  8
0
  6
Continuous
 62
     7
370
    15
100
AcDbCircle
 10
3801.2574881734
 20
-406.4542239094
 30
0.0
 40
17.99999999999969
100
AcDbArc
 50
175.041167213
 51
355.041167213
  0
ARC
  5
6D9
330
1F
100
AcDbEntity
  8
0
  6
Continuous
 62
     7
370
    15
100
AcDbCircle
 10
3811.2153705313
 20
-291.6854102928
 30
0.0
 40
18.00000000000057
100
AcDbArc
 50
355.041167213
 51
175.041167213
  0
ARC
  5
6DA
330
1F
100
AcDbEntity
  8
0
  6
Continuous
 62
     7
370
    15
100
AcDbCircle
 10
3751.2023082937
 20
-402.3813775824
 30
0.0
 40
18.0000000000003
100
AcDbArc
 50
175.0333333333
 51
355.0333333333
  0
ARC
  5
6DB
330
1F
100
AcDbEntity
  8
0
  6
Continuous
 62
     7
370
    15
100
AcDbCircle
 10
-4950.4102319409
 20
-506.1003315734
 30
0.0
 40
18.00000000000007
100
AcDbArc
 50
184.958832787
 51
4.958832787
  0
ARC
  5
6DC
330
1F
100
AcDbEntity
  8
0
  6
Continuous
 62
     7
370
    15
100
AcDbCircle
 10
3910.841016805
 20
300.3300968122
 30
0.0
 40
18.00000000000091
100
AcDbArc
 50
184.958832787
 51
4.958832787
  0
ARC
  5
6DD
330
1F
100
AcDbEntity
  8
0
  6
Continuous
 62
     7
370
    15
100
AcDbCircle
 10
3761.1758825533
 20
-287.6139265499
 30
0.0
 40
17.99999999999985
100
AcDbArc
 50
355.0333333333
 51
175.0333333333
  0
ARC
  5
6DE
330
1F
100
AcDbEntity
  8
0
  6
Continuous
 62
     7
370
    15
100
AcDbCircle
 10
-3761.1758825533
 20
-287.6139265499
 30
0.0
 40
17.99999999999988
100
AcDbArc
 50
4.9666666667
 51
184.9666666667
  0
ARC
  5
6DF
330
1F
100
AcDbEntity
  8
0
  6
Continuous
 62
     7
370
    15
100
AcDbCircle
 10
-3751.2023082937
 20
-402.3813775824
 30
0.0
 40
17.99999999999984
100
AcDbArc
 50
184.9666666667
 51
4.9666666667
  0
ARC
  5
6E0
330
1F
100
AcDbEntity
  8
0
  6
Continuous
 62
     7
370
    15
100
AcDbCircle
 10
-3751.2023082937
 20
402.3813775824
 30
0.0
 40
17.99999999999984
100
AcDbArc
 50
355.0333333333
 51
175.0333333333
  0
ARC
  5
6E1
330
1F
100
AcDbEntity
  8
0
  6
Continuous
 62
     7
370
    15
100
AcDbCircle
 10
-3761.1758825533
 20
287.6139265499
 30
0.0
 40
17.99999999999983
100
AcDbArc
 50
175.0333333333
 51
355.0333333333
  0
ARC
  5
6E2
330
1F
100
AcDbEntity
  8
0
  6
Continuous
 62
     7
370
    15
100
AcDbCircle
 10
-3801.2574881734
 20
406.4542239094
 30
0.0
 40
17.99999999999963
100
AcDbArc
 50
355.041167213
 51
175.041167213
  0
ARC
  5
6E3
330
1F
100
AcDbEntity
  8
0
  6
Continuous
 62
     7
370
    15
100
AcDbCircle
 10
-3811.2153705313
 20
291.6854102928
 30
0.0
 40
18.00000000000017
100
AcDbArc
 50
175.041167213
 51
355.041167213
  0
ARC
  5
6E4
330
1F
100
AcDbEntity
  8
0
  6
Continuous
 62
     7
370
    15
100
AcDbCircle
 10
-3900.8831944377
 20
415.0982190117
 30
0.0
 40
18.00000000000098
100
AcDbArc
 50
355.041167213
 51
175.041167213
  0
ARC
  5
6E5
330
1F
100
AcDbEntity
  8
0
  6
Continuous
 62
     7
370
    15
100
AcDbCircle
 10
-3910.8410767956
 20
300.3294053952
 30
0.0
 40
18.00000000000009
100
AcDbArc
 50
175.041167213
 51
355.041167213
  0
ARC
  5
6E6
330
1F
100
AcDbEntity
  8
0
  6
Continuous
 62
     7
370
    15
100
AcDbCircle
 10
-3811.2153105407
 20
-291.6861017099
 30
0.0
 40
18.00000000000014
100
AcDbArc
 50
4.958832787
 51
184.958832787
  0
ARC
  5
6E7
330
1F
100
AcDbEntity
  8
0
  6
Continuous
 62
     7
370
    15
100
AcDbCircle
 10
-3801.2574281828
 20
-406.4549153264
 30
0.0
 40
18.0000000000001
100
AcDbArc
 50
184.958832787
 51
4.958832787
  0
ARC
  5
6E8
330
1F
100
AcDbEntity
  8
0
  6
Continuous
 62
     7
370
    15
100
AcDbCircle
 10
-3910.841016805
 20
-300.3300968122
 30
0.0
 40
18.00000000000014
100
AcDbArc
 50
4.958832787
 51
184.958832787
  0
ARC
  5
6E9
330
1F
100
AcDbEntity
  8
0
  6
Continuous
 62
     7
370
    15
100
AcDbCircle
 10
-3900.8831344471
 20
-415.0989104288
 30
0.0
 40
18.00000000000004
100
AcDbArc
 50
184.958832787
 51
4.958832787
  0
ARC
  5
6EA
330
1F
100
AcDbEntity
  8
0
  6
Continuous
 62
     7
370
    15
100
AcDbCircle
 10
4950.4102319409
 20
-506.1003315734
 30
0.0
 40
18.00000000000094
100
AcDbArc
 50
175.041167213
 51
355.041167213
  0
ARC
  5
6EB
330
1F
100
AcDbEntity
  8
0
  6
Continuous
 62
     7
370
    15
100
AcDbCircle
 10
5029.5995667861
 20
-512.9820798788
 30
0.0
 40
18.00000000000097
100
AcDbArc
 50
175.041167213
 51
355.041167213
  0
ARC
  5
6EC
330
1F
100
AcDbEntity
  8
0
  6
Continuous
 62
     7
370
    15
100
AcDbCircle
 10
-4950.4102319409
 20
506.1003315734
 30
0.0
 40
18.00000000000108
100
AcDbArc
 50
355.041167213
 51
175.041167213
  0
ARC
  5
6ED
330
1F
100
AcDbEntity
  8
0
  6
Continuous
 62
     7
370
    15
100
AcDbCircle
 10
-5029.6000158958
 20
512.9769036999
 30
0.0
 40
18.00000000000018
100
AcDbArc
 50
355.041167213
 51
175.041167213
  0
ARC
  5
6EE
330
1F
100
AcDbEntity
  8
0
  6
Continuous
 62
     7
370
    15
100
AcDbCircle
 10
-5754.0
 20
1024.0
 30
0.0
 40
1000.0
100
AcDbArc
 50
90.0
 51
180.0
  0
ARC
  5
6EF
330
1F
100
AcDbEntity
  8
0
  6
Continuous
 62
     7
370
    15
100
AcDbCircle
 10
5754.0
 20
-1024.0
 30
0.0
 40
1000.0
100
AcDbArc
 50
270.0
 51
0.0
  0
ARC
  5
6F0
330
1F
100
AcDbEntity
  8
0
  6
Continuous
 62
     7
370
    15
100
AcDbCircle
 10
-5754.0
 20
-1024.0
 30
0.0
 40
1000.0
100
AcDbArc
 50
180.0
 51
270.0
  0
ARC
  5
6F1
330
1F
100
AcDbEntity
  8
0
  6
Continuous
 62
     7
370
    15
100
AcDbCircle
 10
5754.0
 20
1024.0
 30
0.0
 40
1000.0
100
AcDbArc
 50
0.0
 51
90.0
  0
ARC
  5
6F2
330
1F
100
AcDbEntity
  8
0
  6
Continuous
 62
     7
370
    15
100
AcDbCircle
 10
-1874.1967085522
 20
-188.2802379813
 30
0.0
 40
47.81779277189939
100
AcDbArc
 50
265.696599037
 51
275.0479885227
  0
ARC
  5
6F3
330
1F
100
AcDbEntity
  8
0
  6
Continuous
 62
     7
370
    15
100
AcDbCircle
 10
-1875.375305785
 20
-174.7179385813
 30
0.0
 40
47.81779277182719
100
AcDbArc
 50
94.8853448107
 51
104.2367342965
  0
ARC
  5
6F4
330
1F
100
AcDbEntity
  8
0
  6
Continuous
 62
   144
370
     0
100
AcDbCircle
 10
-1725.8032914478
 20
-161.7197620187
 30
0.0
 40
47.81779277183924
100
AcDbArc
 50
85.6965990368
 51
95.0479885227
  0
ARC
  5
6F5
330
1F
100
AcDbEntity
  8
0
  6
Continuous
 62
   144
370
     0
100
AcDbCircle
 10
-1724.624694215
 20
-175.2820614187
 30
0.0
 40
47.81779277185917
100
AcDbArc
 50
274.8853448107
 51
284.2367342963
  0
ARC
  5
6F6
330
1F
100
AcDbEntity
  8
0
  6
Continuous
 62
     7
370
    15
100
AcDbCircle
 10
-1874.1967085522
 20
188.2802379813
 30
0.0
 40
47.81779277187189
100
AcDbArc
 50
84.9520114773
 51
94.3034009629
  0
ARC
  5
6F7
330
1F
100
AcDbEntity
  8
0
  6
Continuous
 62
     7
370
    15
100
AcDbCircle
 10
-1875.375305785
 20
174.7179385813
 30
0.0
 40
47.81779277183826
100
AcDbArc
 50
255.7632657035
 51
265.1146551893
  0
ARC
  5
6F8
330
1F
100
AcDbEntity
  8
0
  6
Continuous
 62
   144
370
     0
100
AcDbCircle
 10
-1724.624694215
 20
175.2820614187
 30
0.0
 40
47.81779277187994
100
AcDbArc
 50
75.7632657037
 51
85.1146551893
  0
ARC
  5
6F9
330
1F
100
AcDbEntity
  8
0
  6
Continuous
 62
   144
370
     0
100
AcDbCircle
 10
-1725.8032914478
 20
161.7197620186
 30
0.0
 40
47.81779277181432
100
AcDbArc
 50
264.9520114773
 51
274.3034009632
  0
ARC
  5
6FA
330
1F
100
AcDbEntity
  8
0
  6
Continuous
 62
     7
370
    15
100
AcDbCircle
 10
1875.375305785
 20
174.7179385812
 30
0.0
 40
47.81779277180759
100
AcDbArc
 50
274.8853448107
 51
284.2367342965
  0
ARC
  5
6FB
330
1F
100
AcDbEntity
  8
0
  6
Continuous
 62
     7
370
    15
100
AcDbCircle
 10
1874.1967085522
 20
188.2802379812
 30
0.0
 40
47.817792771897
100
AcDbArc
 50
85.6965990371
 51
95.0479885227
  0
ARC
  5
6FC
330
1F
100
AcDbEntity
  8
0
  6
Continuous
 62
   144
370
     0
100
AcDbCircle
 10
1724.624694215
 20
175.2820614187
 30
0.0
 40
47.81779277187788
100
AcDbArc
 50
94.8853448107
 51
104.2367342963
  0
ARC
  5
6FD
330
1F
100
AcDbEntity
  8
0
  6
Continuous
 62
   144
370
     0
100
AcDbCircle
 10
1725.8032914478
 20
161.7197620187
 30
0.0
 40
47.81779277183691
100
AcDbArc
 50
265.6965990368
 51
275.0479885227
  0
ARC
  5
6FE
330
1F
100
AcDbEntity
  8
0
  6
Continuous
 62
     7
370
    15
100
AcDbCircle
 10
1875.375305785
 20
-174.7179385813
 30
0.0
 40
47.8177927718346
100
AcDbArc
 50
75.7632657035
 51
85.1146551893
  0
ARC
  5
6FF
330
1F
100
AcDbEntity
  8
0
  6
Continuous
 62
     7
370
    15
100
AcDbCircle
 10
1874.1967085522
 20
-188.2802379813
 30
0.0
 40
47.81779277187282
100
AcDbArc
 50
264.9520114773
 51
274.303400963
  0
ARC
  5
700
330
1F
100
AcDbEntity
  8
0
  6
Continuous
 62
   144
370
     0
100
AcDbCircle
 10
1725.8032914478
 20
-161.7197620187
 30
0.0
 40
47.8177927718124
100
AcDbArc
 50
84.9520114773
 51
94.3034009632
  0
ARC
  5
701
330
1F
100
AcDbEntity
  8
0
  6
Continuous
 62
   144
370
     0
100
AcDbCircle
 10
1724.624694215
 20
-175.2820614187
 30
0.0
 40
47.81779277188083
100
AcDbArc
 50
255.7632657037
 51
265.1146551893
  0
ARC
  5
702
330
1F
100
AcDbEntity
  8
0
  6
Continuous
 62
   144
370
     0
100
AcDbCircle
 10
-4980.4800998744
 20
-409.0016381976
 30
0.0
 40
16.28658280136533
100
AcDbArc
 50
92.0270790947
 51
133.1893021257
  0
ARC
  5
703
330
1F
100
AcDbEntity
  8
0
  6
Continuous
 62
   144
370
     0
100
AcDbCircle
 10
-4980.4800998744
 20
409.0016381975
 30
0.0
 40
16.28658280136461
100
AcDbArc
 50
226.8106978743
 51
267.9729209053
  0
ARC
  5
704
330
1F
100
AcDbEntity
  8
0
  6
Continuous
 62
   144
370
     0
100
AcDbCircle
 10
4980.4800998744
 20
409.0016381976
 30
0.0
 40
16.28658280136573
100
AcDbArc
 50
272.0270790946
 51
313.1893021257
  0
ARC
  5
705
330
1F
100
AcDbEntity
  8
0
  6
Continuous
 62
   144
370
     0
100
AcDbCircle
 10
4980.4800998744
 20
-409.0016381975
 30
0.0
 40
16.28658280136445
100
AcDbArc
 50
46.8106978743
 51
87.9729209054
  0
ARC
  5
706
330
1F
100
AcDbEntity
  8
0
  6
Continuous
 62
     7
370
    15
100
AcDbCircle
 10
1356.35
 20
-349.0
 30
0.0
 40
7.999999999999886
100
AcDbArc
 50
180.0
 51
270.0
  0
ARC
  5
707
330
1F
100
AcDbEntity
  8
0
  6
Continuous
 62
     7
370
    15
100
AcDbCircle
 10
1356.35
 20
349.0
 30
0.0
 40
8.0
100
AcDbArc
 50
90.0
 51
180.0
  0
ARC
  5
708
330
1F
100
AcDbEntity
  8
0
  6
Continuous
 62
   144
370
     0
100
AcDbCircle
 10
1699.010271008
 20
99.9991464622
 30
0.0
 40
21.54192758398545
100
AcDbArc
 50
343.8300760196
 51
15.9507921528
  0
ARC
  5
709
330
1F
100
AcDbEntity
  8
0
  6
Continuous
 62
   144
370
     0
100
AcDbCircle
 10
1699.010271008
 20
-100.0008535378
 30
0.0
 40
21.54192758398971
100
AcDbArc
 50
343.8300760196
 51
15.9507921528
  0
ARC
  5
70A
330
1F
100
AcDbEntity
  8
0
  6
Continuous
 62
   144
370
     0
100
AcDbCircle
 10
-3746.8517037108
 20
-452.4420918489
 30
0.0
 40
54.12953309307465
100
AcDbArc
 50
89.1351035459
 51
100.7257543388
  0
ARC
  5
70B
330
1F
100
AcDbEntity
  8
0
  6
Continuous
 62
   144
370
     0
100
AcDbCircle
 10
3746.8517037108
 20
452.4420918488
 30
0.0
 40
54.12953309300028
100
AcDbArc
 50
269.1351035459
 51
280.7257543388
  0
ARC
  5
70C
330
1F
100
AcDbEntity
  8
0
  6
Continuous
 62
     7
370
    15
100
AcDbCircle
 10
5200.0
 20
-470.0
 30
0.0
 40
54.00000000000011
100
AcDbArc
 50
265.041167213
 51
85.041167213
  0
ARC
  5
70D
330
1F
100
AcDbEntity
  8
0
  6
Continuous
 62
     7
370
    15
100
AcDbCircle
 10
5200.0
 20
470.0
 30
0.0
 40
54.00000000000011
100
AcDbArc
 50
274.958832787
 51
94.958832787
  0
ARC
  5
70E
330
1F
100
AcDbEntity
  8
0
  6
Continuous
 62
     7
370
    15
100
AcDbCircle
 10
-5200.0
 20
-470.0
 30
0.0
 40
54.00000000000005
100
AcDbArc
 50
94.958832787
 51
274.958832787
  0
ARC
  5
70F
330
1F
100
AcDbEntity
  8
0
  6
Continuous
 62
     7
370
    15
100
AcDbCircle
 10
-5200.0
 20
470.0
 30
0.0
 40
53.99999999999997
100
AcDbArc
 50
85.041167213
 51
265.041167213
  0
ARC
  5
710
330
1F
100
AcDbEntity
  8
0
  6
Continuous
 62
   144
370
     0
100
AcDbCircle
 10
2718.8178905971
 20
32.1990931253
 30
0.0
 40
6.249999999998887
100
AcDbArc
 50
72.9220652704
 51
107.0779347296
  0
ARC
  5
711
330
1F
100
AcDbEntity
  8
0
  6
Continuous
 62
   144
370
     0
100
AcDbCircle
 10
2681.8178905971
 20
32.1990931253
 30
0.0
 40
6.249999999998753
100
AcDbArc
 50
72.9220652704
 51
107.0779347296
  0
ARC
  5
712
330
1F
100
AcDbEntity
  8
0
  6
Continuous
 62
   144
370
     0
100
AcDbCircle
 10
2681.8178905971
 20
-31.8867867548
 30
0.0
 40
6.249999999998213
100
AcDbArc
 50
257.9907767458
 51
282.0092232542
  0
ARC
  5
713
330
1F
100
AcDbEntity
  8
0
  6
Continuous
 62
   144
370
     0
100
AcDbCircle
 10
2718.8178905971
 20
-31.8867867548
 30
0.0
 40
6.249999999998308
100
AcDbArc
 50
257.9907767458
 51
282.0092232542
  0
ARC
  5
714
330
1F
100
AcDbEntity
  8
0
  6
Continuous
 62
   144
370
     0
100
AcDbCircle
 10
2700.3178905971
 20
0.1561531852
 30
0.0
 40
54.00000000000092
100
AcDbArc
 50
44.7508343557
 51
135.2491656443
  0
ARC
  5
715
330
1F
100
AcDbEntity
  8
0
  6
Continuous
 62
   144
370
     0
100
AcDbCircle
 10
2700.3178905946
 20
0.1561531852
 30
0.0
 40
54.00000000251104
100
AcDbArc
 50
355.3318195349
 51
4.3374181044
  0
ARC
  5
716
330
1F
100
AcDbEntity
  8
0
  6
Continuous
 62
   144
370
     0
100
AcDbCircle
 10
2700.3178905971
 20
0.1561531852
 30
0.0
 40
54.0
100
AcDbArc
 50
224.9585809117
 51
315.0414190883
  0
ENDSEC
  0
SECTION
  2
OBJECTS
  0
DICTIONARY
  5
C
330
0
100
AcDbDictionary
281
     1
  3
ACAD_GROUP
350
D
  3
ACAD_LAYOUT
350
1A
  3
ACAD_MLINESTYLE
350
17
  3
ACAD_PLOTSETTINGS
350
19
  3
ACAD_PLOTSTYLENAME
350
E
  3
ACAD_SCALELIST
350
47
  0
DICTIONARY
  5
D
102
{ACAD_REACTORS
330
C
102
}
330
C
100
AcDbDictionary
281
     1
  0
DICTIONARY
  5
1A
102
{ACAD_REACTORS
330
C
102
}
330
C
100
AcDbDictionary
281
     1
  3
Layout1
350
1E
  3
Layout2
350
26
  3
Model
350
22
  0
DICTIONARY
  5
17
102
{ACAD_REACTORS
330
C
102
}
330
C
100
AcDbDictionary
281
     1
  3
Standard
350
18
  0
DICTIONARY
  5
19
102
{ACAD_REACTORS
330
C
102
}
330
C
100
AcDbDictionary
281
     1
  0
ACDBDICTIONARYWDFLT
  5
E
102
{ACAD_REACTORS
330
C
102
}
330
C
100
AcDbDictionary
281
     1
  3
Normal
350
F
100
AcDbDictionaryWithDefault
340
F
  0
DICTIONARY
  5
47
102
{ACAD_REACTORS
330
C
102
}
330
C
100
AcDbDictionary
281
     1
  3
A0
350
48
  3
A1
350
49
  3
A2
350
4A
  3
A3
350
4B
  3
A4
350
4C
  3
A5
350
4D
  3
A6
350
4E
  3
A7
350
4F
  3
A8
350
50
  3
A9
350
51
  3
B0
350
52
  3
B1
350
53
  3
B2
350
54
  3
B3
350
55
  3
B4
350
56
  3
B5
350
57
  3
B6
350
58
  3
B7
350
59
  3
B8
350
5A
  3
B9
350
5B
  3
C0
350
5C
  3
C1
350
5D
  3
C2
350
5E
  3
C3
350
5F
  3
C4
350
60
  3
C5
350
61
  3
C6
350
62
  3
C7
350
63
  3
C8
350
64
  3
C9
350
65
  3
D0
350
66
  3
D1
350
67
  3
D2
350
68
  0
LAYOUT
  5
1E
102
{ACAD_REACTORS
330
1A
102
}
330
1A
100
AcDbPlotSettings
  1

  2
none_device
  4

  6

 40
0.0
 41
0.0
 42
0.0
 43
0.0
 44
0.0
 45
0.0
 46
0.0
 47
0.0
 48
0.0
 49
0.0
140
0.0
141
0.0
142
1.0
143
1.0
 70
   688
 72
     1
 73
     0
 74
     5
  7

 75
    16
147
1.0
148
0.0
149
0.0
100
AcDbLayout
  1
Layout1
 70
     1
 71
     1
 10
0.0
 20
0.0
 11
420.0
 21
297.0
 12
0.0
 22
0.0
 32
0.0
 14
1.0000000000E+20
 24
1.0000000000E+20
 34
1.0000000000E+20
 15
-1.0000000000E+20
 25
-1.0000000000E+20
 35
-1.0000000000E+20
146
0.0
 13
0.0
 23
0.0
 33
0.0
 16
1.0
 26
0.0
 36
0.0
 17
0.0
 27
1.0
 37
0.0
 76
     0
330
1B
  0
LAYOUT
  5
26
102
{ACAD_REACTORS
330
1A
102
}
330
1A
100
AcDbPlotSettings
  1

  2
none_device
  4

  6

 40
0.0
 41
0.0
 42
0.0
 43
0.0
 44
0.0
 45
0.0
 46
0.0
 47
0.0
 48
0.0
 49
0.0
140
0.0
141
0.0
142
1.0
143
1.0
 70
   688
 72
     1
 73
     0
 74
     5
  7

 75
    16
147
1.0
148
0.0
149
0.0
100
AcDbLayout
  1
Layout2
 70
     1
 71
     2
 10
0.0
 20
0.0
 11
0.0
 21
0.0
 12
0.0
 22
0.0
 32
0.0
 14
0.0
 24
0.0
 34
0.0
 15
0.0
 25
0.0
 35
0.0
146
0.0
 13
0.0
 23
0.0
 33
0.0
 16
1.0
 26
0.0
 36
0.0
 17
0.0
 27
1.0
 37
0.0
 76
     0
330
23
  0
LAYOUT
  5
22
102
{ACAD_REACTORS
330
1A
102
}
330
1A
100
AcDbPlotSettings
  1

  2
none_device
  4
ANSI_A_(11.00_x_8.50_Inches)
  6

 40
6.35
 41
19.05
 42
6.35000508
 43
19.05000254
 44
279.4
 45
215.9
 46
133.34999746
 47
88.89999873
 48
0.0
 49
0.0
140
0.0
141
0.0
142
0.0008061889
143
1.0
 70
  1696
 72
     0
 73
     0
 74
     0
  7

 75
     0
147
0.0179189148
148
-1300.4909072572
149
0.0
100
AcDbLayout
  1
Model
 70
     1
 71
     0
 10
0.0
 20
0.0
 11
420.0
 21
297.0
 12
0.0
 22
0.0
 32
0.0
 14
-6754.0
 24
-2024.0
 34
0.0
 15
6754.0
 25
2024.0
 35
0.0
146
0.0
 13
0.0
 23
0.0
 33
0.0
 16
1.0
 26
0.0
 36
0.0
 17
0.0
 27
1.0
 37
0.0
 76
     0
330
1F
331
29
  0
MLINESTYLE
  5
18
102
{ACAD_REACTORS
330
17
102
}
330
17
100
AcDbMlineStyle
  2
Standard
 70
     0
  3

 62
   256
 51
90.0
 52
90.0
 71
     2
 49
0.5
 62
   256
  6
BYLAYER
 49
-0.5
 62
   256
  6
BYLAYER
  0
ACDBPLACEHOLDER
  5
F
102
{ACAD_REACTORS
330
E
102
}
330
E
  0
SCALE
  5
48
102
{ACAD_REACTORS
330
47
102
}
330
47
100
AcDbScale
 70
     0
300
1:1
140
1.0
141
1.0
290
     1
  0
SCALE
  5
49
102
{ACAD_REACTORS
330
47
102
}
330
47
100
AcDbScale
 70
     0
300
1:2
140
1.0
141
2.0
290
     0
  0
SCALE
  5
4A
102
{ACAD_REACTORS
330
47
102
}
330
47
100
AcDbScale
 70
     0
300
1:4
140
1.0
141
4.0
290
     0
  0
SCALE
  5
4B
102
{ACAD_REACTORS
330
47
102
}
330
47
100
AcDbScale
 70
     0
300
1:5
140
1.0
141
5.0
290
     0
  0
SCALE
  5
4C
102
{ACAD_REACTORS
330
47
102
}
330
47
100
AcDbScale
 70
     0
300
1:8
140
1.0
141
8.0
290
     0
  0
SCALE
  5
4D
102
{ACAD_REACTORS
330
47
102
}
330
47
100
AcDbScale
 70
     0
300
1:10
140
1.0
141
10.0
290
     0
  0
SCALE
  5
4E
102
{ACAD_REACTORS
330
47
102
}
330
47
100
AcDbScale
 70
     0
300
1:16
140
1.0
141
16.0
290
     0
  0
SCALE
  5
4F
102
{ACAD_REACTORS
330
47
102
}
330
47
100
AcDbScale
 70
     0
300
1:20
140
1.0
141
20.0
290
     0
  0
SCALE
  5
50
102
{ACAD_REACTORS
330
47
102
}
330
47
100
AcDbScale
 70
     0
300
1:30
140
1.0
141
30.0
290
     0
  0
SCALE
  5
51
102
{ACAD_REACTORS
330
47
102
}
330
47
100
AcDbScale
 70
     0
300
1:40
140
1.0
141
40.0
290
     0
  0
SCALE
  5
52
102
{ACAD_REACTORS
330
47
102
}
330
47
100
AcDbScale
 70
     0
300
1:50
140
1.0
141
50.0
290
     0
  0
SCALE
  5
53
102
{ACAD_REACTORS
330
47
102
}
330
47
100
AcDbScale
 70
     0
300
1:100
140
1.0
141
100.0
290
     0
  0
SCALE
  5
54
102
{ACAD_REACTORS
330
47
102
}
330
47
100
AcDbScale
 70
     0
300
2:1
140
2.0
141
1.0
290
     0
  0
SCALE
  5
55
102
{ACAD_REACTORS
330
47
102
}
330
47
100
AcDbScale
 70
     0
300
4:1
140
4.0
141
1.0
290
     0
  0
SCALE
  5
56
102
{ACAD_REACTORS
330
47
102
}
330
47
100
AcDbScale
 70
     0
300
8:1
140
8.0
141
1.0
290
     0
  0
SCALE
  5
57
102
{ACAD_REACTORS
330
47
102
}
330
47
100
AcDbScale
 70
     0
300
10:1
140
10.0
141
1.0
290
     0
  0
SCALE
  5
58
102
{ACAD_REACTORS
330
47
102
}
330
47
100
AcDbScale
 70
     0
300
100:1
140
100.0
141
1.0
290
     0
  0
SCALE
  5
59
102
{ACAD_REACTORS
330
47
102
}
330
47
100
AcDbScale
 70
     0
300
1/128" = 1'-0"
140
0.0078125
141
12.0
290
     0
  0
SCALE
  5
5A
102
{ACAD_REACTORS
330
47
102
}
330
47
100
AcDbScale
 70
     0
300
1/64" = 1'-0"
140
0.015625
141
12.0
290
     0
  0
SCALE
  5
5B
102
{ACAD_REACTORS
330
47
102
}
330
47
100
AcDbScale
 70
     0
300
1/32" = 1'-0"
140
0.03125
141
12.0
290
     0
  0
SCALE
  5
5C
102
{ACAD_REACTORS
330
47
102
}
330
47
100
AcDbScale
 70
     0
300
1/16" = 1'-0"
140
0.0625
141
12.0
290
     0
  0
SCALE
  5
5D
102
{ACAD_REACTORS
330
47
102
}
330
47
100
AcDbScale
 70
     0
300
3/32" = 1'-0"
140
0.09375
141
12.0
290
     0
  0
SCALE
  5
5E
102
{ACAD_REACTORS
330
47
102
}
330
47
100
AcDbScale
 70
     0
300
1/8" = 1'-0"
140
0.125
141
12.0
290
     0
  0
SCALE
  5
5F
102
{ACAD_REACTORS
330
47
102
}
330
47
100
AcDbScale
 70
     0
300
3/16" = 1'-0"
140
0.1875
141
12.0
290
     0
  0
SCALE
  5
60
102
{ACAD_REACTORS
330
47
102
}
330
47
100
AcDbScale
 70
     0
300
1/4" = 1'-0"
140
0.25
141
12.0
290
     0
  0
SCALE
  5
61
102
{ACAD_REACTORS
330
47
102
}
330
47
100
AcDbScale
 70
     0
300
3/8" = 1'-0"
140
0.375
141
12.0
290
     0
  0
SCALE
  5
62
102
{ACAD_REACTORS
330
47
102
}
330
47
100
AcDbScale
 70
     0
300
1/2" = 1'-0"
140
0.5
141
12.0
290
     0
  0
SCALE
  5
63
102
{ACAD_REACTORS
330
47
102
}
330
47
100
AcDbScale
 70
     0
300
3/4" = 1'-0"
140
0.75
141
12.0
290
     0
  0
SCALE
  5
64
102
{ACAD_REACTORS
330
47
102
}
330
47
100
AcDbScale
 70
     0
300
1" = 1'-0"
140
1.0
141
12.0
290
     0
  0
SCALE
  5
65
102
{ACAD_REACTORS
330
47
102
}
330
47
100
AcDbScale
 70
     0
300
1-1/2" = 1'-0"
140
1.5
141
12.0
290
     0
  0
SCALE
  5
66
102
{ACAD_REACTORS
330
47
102
}
330
47
100
AcDbScale
 70
     0
300
3" = 1'-0"
140
3.0
141
12.0
290
     0
  0
SCALE
  5
67
102
{ACAD_REACTORS
330
47
102
}
330
47
100
AcDbScale
 70
     0
300
6" = 1'-0"
140
6.0
141
12.0
290
     0
  0
SCALE
  5
68
102
{ACAD_REACTORS
330
47
102
}
330
47
100
AcDbScale
 70
     0
300
1'-0" = 1'-0"
140
12.0
141
12.0
290
     0
  0
ENDSEC
  0
EOF
