  0
SECTION
  2
HEADER
  9
$ACADVER
  1
AC1015
  9
$ACADMAINTVER
 70
     6
  9
$DWGCODEPAGE
  3
ANSI_1251
  9
$INSBASE
 10
0.0
 20
0.0
 30
0.0
  9
$EXTMIN
 10
-1595.3097662415
 20
-639.6093806431
 30
0.0
  9
$EXTMAX
 10
1595.3093669547
 20
231.6417632215
 30
0.0
  9
$LIMMIN
 10
0.0
 20
0.0
  9
$LIMMAX
 10
420.0
 20
297.0
  9
$ORTHOMODE
 70
     0
  9
$REGENMODE
 70
     1
  9
$FILLMODE
 70
     1
  9
$QTEXTMODE
 70
     0
  9
$MIRRTEXT
 70
     1
  9
$LTSCALE
 40
1.0
  9
$ATTMODE
 70
     1
  9
$TEXTSIZE
 40
3.0
  9
$TRACEWID
 40
1.0
  9
$TEXTSTYLE
  7
Standard
  9
$CLAYER
  8
0
  9
$CELTYPE
  6
ByLayer
  9
$CECOLOR
 62
   256
  9
$CELTSCALE
 40
1.0
  9
$DISPSILH
 70
     0
  9
$DIMSCALE
 40
1.0
  9
$DIMASZ
 40
3.0
  9
$DIMEXO
 40
0.0
  9
$DIMDLI
 40
3.75
  9
$DIMRND
 40
0.0
  9
$DIMDLE
 40
0.0
  9
$DIMEXE
 40
2.0
  9
$DIMTP
 40
0.0
  9
$DIMTM
 40
0.0
  9
$DIMTXT
 40
3.0
  9
$DIMCEN
 40
2.5
  9
$DIMTSZ
 40
0.0
  9
$DIMTOL
 70
     0
  9
$DIMLIM
 70
     0
  9
$DIMTIH
 70
     1
  9
$DIMTOH
 70
     1
  9
$DIMSE1
 70
     0
  9
$DIMSE2
 70
     0
  9
$DIMTAD
 70
     1
  9
$DIMZIN
 70
     0
  9
$DIMBLK
  1

  9
$DIMASO
 70
     1
  9
$DIMSHO
 70
     1
  9
$DIMPOST
  1

  9
$DIMAPOST
  1

  9
$DIMALT
 70
     0
  9
$DIMALTD
 70
     3
  9
$DIMALTF
 40
0.0393700787
  9
$DIMLFAC
 40
1.0
  9
$DIMTOFL
 70
     1
  9
$DIMTVP
 40
0.0
  9
$DIMTIX
 70
     0
  9
$DIMSOXD
 70
     0
  9
$DIMSAH
 70
     0
  9
$DIMBLK1
  1

  9
$DIMBLK2
  1

  9
$DIMSTYLE
  2
ISO-25
  9
$DIMCLRD
 70
     0
  9
$DIMCLRE
 70
     0
  9
$DIMCLRT
 70
     0
  9
$DIMTFAC
 40
1.0
  9
$DIMGAP
 40
2.0
  9
$DIMJUST
 70
     0
  9
$DIMSD1
 70
     0
  9
$DIMSD2
 70
     0
  9
$DIMTOLJ
 70
     0
  9
$DIMTZIN
 70
     0
  9
$DIMALTZ
 70
     0
  9
$DIMALTTZ
 70
     0
  9
$DIMUPT
 70
     0
  9
$DIMDEC
 70
     2
  9
$DIMTDEC
 70
     2
  9
$DIMALTU
 70
     2
  9
$DIMALTTD
 70
     3
  9
$DIMTXSTY
  7
Standard
  9
$DIMAUNIT
 70
     0
  9
$DIMADEC
 70
     2
  9
$DIMALTRND
 40
0.0
  9
$DIMAZIN
 70
     0
  9
$DIMDSEP
 70
    44
  9
$DIMATFIT
 70
     3
  9
$DIMFRAC
 70
     0
  9
$DIMLDRBLK
  1

  9
$DIMLUNIT
 70
     2
  9
$DIMLWD
 70
    -2
  9
$DIMLWE
 70
    -2
  9
$DIMTMOVE
 70
     0
  9
$LUNITS
 70
     2
  9
$LUPREC
 70
     2
  9
$SKETCHINC
 40
1.0
  9
$FILLETRAD
 40
10.0
  9
$AUNITS
 70
     1
  9
$AUPREC
 70
     2
  9
$MENU
  1
.
  9
$ELEVATION
 40
0.0
  9
$PELEVATION
 40
0.0
  9
$THICKNESS
 40
0.0
  9
$LIMCHECK
 70
     0
  9
$CHAMFERA
 40
0.0
  9
$CHAMFERB
 40
0.0
  9
$CHAMFERC
 40
0.0
  9
$CHAMFERD
 40
0.0
  9
$SKPOLY
 70
     0
  9
$TDCREATE
 40
2459306.444631123
  9
$TDUCREATE
 40
2459306.319631123
  9
$TDUPDATE
 40
2459306.444662558
  9
$TDUUPDATE
 40
2459306.319662558
  9
$TDINDWG
 40
0.0000000116
  9
$TDUSRTIMER
 40
0.0000000116
  9
$USRTIMER
 70
     1
  9
$ANGBASE
 50
0.0
  9
$ANGDIR
 70
     0
  9
$PDMODE
 70
     0
  9
$PDSIZE
 40
-1.0
  9
$PLINEWID
 40
0.0
  9
$SPLFRAME
 70
     0
  9
$SPLINETYPE
 70
     6
  9
$SPLINESEGS
 70
     8
  9
$HANDSEED
  5
7CC
  9
$SURFTAB1
 70
     6
  9
$SURFTAB2
 70
     6
  9
$SURFTYPE
 70
     6
  9
$SURFU
 70
     6
  9
$SURFV
 70
     6
  9
$UCSBASE
  2

  9
$UCSNAME
  2

  9
$UCSORG
 10
0.0
 20
0.0
 30
0.0
  9
$UCSXDIR
 10
1.0
 20
0.0
 30
0.0
  9
$UCSYDIR
 10
0.0
 20
1.0
 30
0.0
  9
$UCSORTHOREF
  2

  9
$UCSORTHOVIEW
 70
     0
  9
$UCSORGTOP
 10
0.0
 20
0.0
 30
0.0
  9
$UCSORGBOTTOM
 10
0.0
 20
0.0
 30
0.0
  9
$UCSORGLEFT
 10
0.0
 20
0.0
 30
0.0
  9
$UCSORGRIGHT
 10
0.0
 20
0.0
 30
0.0
  9
$UCSORGFRONT
 10
0.0
 20
0.0
 30
0.0
  9
$UCSORGBACK
 10
0.0
 20
0.0
 30
0.0
  9
$PUCSBASE
  2

  9
$PUCSNAME
  2

  9
$PUCSORG
 10
0.0
 20
0.0
 30
0.0
  9
$PUCSXDIR
 10
1.0
 20
0.0
 30
0.0
  9
$PUCSYDIR
 10
0.0
 20
1.0
 30
0.0
  9
$PUCSORTHOREF
  2

  9
$PUCSORTHOVIEW
 70
     0
  9
$PUCSORGTOP
 10
0.0
 20
0.0
 30
0.0
  9
$PUCSORGBOTTOM
 10
0.0
 20
0.0
 30
0.0
  9
$PUCSORGLEFT
 10
0.0
 20
0.0
 30
0.0
  9
$PUCSORGRIGHT
 10
0.0
 20
0.0
 30
0.0
  9
$PUCSORGFRONT
 10
0.0
 20
0.0
 30
0.0
  9
$PUCSORGBACK
 10
0.0
 20
0.0
 30
0.0
  9
$USERI1
 70
     0
  9
$USERI2
 70
     0
  9
$USERI3
 70
     0
  9
$USERI4
 70
     0
  9
$USERI5
 70
     0
  9
$USERR1
 40
0.0
  9
$USERR2
 40
0.0
  9
$USERR3
 40
0.0
  9
$USERR4
 40
0.0
  9
$USERR5
 40
0.0
  9
$WORLDVIEW
 70
     1
  9
$SHADEDGE
 70
     3
  9
$SHADEDIF
 70
    70
  9
$TILEMODE
 70
     1
  9
$MAXACTVP
 70
    64
  9
$PINSBASE
 10
0.0
 20
0.0
 30
0.0
  9
$PLIMCHECK
 70
     0
  9
$PEXTMIN
 10
1.0000000000E+20
 20
1.0000000000E+20
 30
1.0000000000E+20
  9
$PEXTMAX
 10
-1.0000000000E+20
 20
-1.0000000000E+20
 30
-1.0000000000E+20
  9
$PLIMMIN
 10
0.0
 20
0.0
  9
$PLIMMAX
 10
420.0
 20
297.0
  9
$UNITMODE
 70
     0
  9
$VISRETAIN
 70
     1
  9
$PLINEGEN
 70
     0
  9
$PSLTSCALE
 70
     1
  9
$TREEDEPTH
 70
  3020
  9
$CMLSTYLE
  2
Standard
  9
$CMLJUST
 70
     0
  9
$CMLSCALE
 40
20.0
  9
$PROXYGRAPHICS
 70
     1
  9
$MEASUREMENT
 70
     1
  9
$CELWEIGHT
370
    -1
  9
$ENDCAPS
280
     0
  9
$JOINSTYLE
280
     0
  9
$LWDISPLAY
290
     1
  9
$INSUNITS
 70
     4
  9
$HYPERLINKBASE
  1

  9
$STYLESHEET
  1

  9
$XEDIT
290
     1
  9
$CEPSNTYPE
380
     0
  9
$PSTYLEMODE
290
     1
  9
$FINGERPRINTGUID
  2
{280EDF45-8804-48AA-A87D-0A25B20E9D85}
  9
$VERSIONGUID
  2
{FAEB1C32-E019-11D5-929B-00C0DF256EC4}
  9
$EXTNAMES
290
     1
  9
$PSVPSCALE
 40
0.0
  9
$OLESTARTUP
290
     0
  0
ENDSEC
  0
SECTION
  2
CLASSES
  0
CLASS
  1
ACDBDICTIONARYWDFLT
  2
AcDbDictionaryWithDefault
  3
ObjectDBX Classes
 90
        0
280
     0
281
     0
  0
CLASS
  1
VISUALSTYLE
  2
AcDbVisualStyle
  3
ObjectDBX Classes
 90
     4095
280
     0
281
     0
  0
CLASS
  1
MATERIAL
  2
AcDbMaterial
  3
ObjectDBX Classes
 90
     1153
280
     0
281
     0
  0
CLASS
  1
SCALE
  2
AcDbScale
  3
ObjectDBX Classes
 90
     1153
280
     0
281
     0
  0
CLASS
  1
SUN
  2
AcDbSun
  3
SCENEOE
 90
     1153
280
     0
281
     0
  0
CLASS
  1
ACDBPLACEHOLDER
  2
AcDbPlaceHolder
  3
ObjectDBX Classes
 90
        0
280
     0
281
     0
  0
CLASS
  1
LAYOUT
  2
AcDbLayout
  3
ObjectDBX Classes
 90
        0
280
     0
281
     0
  0
ENDSEC
  0
SECTION
  2
TABLES
  0
TABLE
  2
VPORT
  5
8
330
0
100
AcDbSymbolTable
 70
     1
  0
VPORT
  5
29
330
8
100
AcDbSymbolTableRecord
100
AcDbViewportTableRecord
  2
*Active
 70
     0
 10
0.0
 20
0.0
 11
1.0
 21
1.0
 12
-0.0001996434
 22
-203.9838087108
 13
0.0
 23
0.0
 14
10.0
 24
10.0
 15
10.0
 25
10.0
 16
0.0
 26
0.0
 36
1.0
 17
0.0
 27
0.0
 37
0.0
 40
888.6761667419
 41
3.6621118442
 42
50.0
 43
0.0
 44
0.0
 50
0.0
 51
0.0
 71
     0
 72
   100
 73
     1
 74
     3
 75
     0
 76
     0
 77
     0
 78
     0
281
     0
 65
     1
110
0.0
120
0.0
130
0.0
111
1.0
121
0.0
131
0.0
112
0.0
122
1.0
132
0.0
 79
     0
146
0.0
  0
ENDTAB
  0
TABLE
  2
LTYPE
  5
5
330
0
100
AcDbSymbolTable
 70
     6
  0
LTYPE
  5
14
330
5
100
AcDbSymbolTableRecord
100
AcDbLinetypeTableRecord
  2
ByBlock
 70
     0
  3

 72
    65
 73
     0
 40
0.0
  0
LTYPE
  5
15
330
5
100
AcDbSymbolTableRecord
100
AcDbLinetypeTableRecord
  2
ByLayer
 70
     0
  3

 72
    65
 73
     0
 40
0.0
  0
LTYPE
  5
16
330
5
100
AcDbSymbolTableRecord
100
AcDbLinetypeTableRecord
  2
Continuous
 70
     0
  3
Solid line
 72
    65
 73
     0
 40
0.0
  0
LTYPE
  5
6A
330
5
100
AcDbSymbolTableRecord
100
AcDbLinetypeTableRecord
  2
HIDDEN
 70
     0
  3
Hidden __ __ __ __ __ __ __ __ __ __ __ __ __ __
 72
    65
 73
     2
 40
1.905
 49
1.27
 74
     0
 49
-0.635
 74
     0
  0
LTYPE
  5
6B
330
5
100
AcDbSymbolTableRecord
100
AcDbLinetypeTableRecord
  2
PHANTOM
 70
     0
  3
Phantom ______  __  __  ______  __  __  ______
 72
    65
 73
     6
 40
12.7
 49
6.35
 74
     0
 49
-1.27
 74
     0
 49
1.27
 74
     0
 49
-1.27
 74
     0
 49
1.27
 74
     0
 49
-1.27
 74
     0
  0
LTYPE
  5
6C
330
5
100
AcDbSymbolTableRecord
100
AcDbLinetypeTableRecord
  2
CENTER
 70
     0
  3
Center ____ _ ____ _ ____ _ ____ _ ____ _ ____
 72
    65
 73
     4
 40
10.16
 49
6.35
 74
     0
 49
-1.27
 74
     0
 49
1.27
 74
     0
 49
-1.27
 74
     0
  0
LTYPE
  5
6D
330
5
100
AcDbSymbolTableRecord
100
AcDbLinetypeTableRecord
  2
CENTERX2
 70
     0
  3
Center (2x) ________  __  ________  __  _____
 72
    65
 73
     4
 40
20.32
 49
12.7
 74
     0
 49
-2.54
 74
     0
 49
2.54
 74
     0
 49
-2.54
 74
     0
  0
LTYPE
  5
6E
330
5
100
AcDbSymbolTableRecord
100
AcDbLinetypeTableRecord
  2
DOT2
 70
     0
  3
Dot (.5x) ........................................
 72
    65
 73
     2
 40
0.635
 49
0.0
 74
     0
 49
-0.635
 74
     0
  0
ENDTAB
  0
TABLE
  2
LAYER
  5
2
330
0
100
AcDbSymbolTable
 70
     1
  0
LAYER
  5
10
330
2
100
AcDbSymbolTableRecord
100
AcDbLayerTableRecord
  2
0
 70
     0
 62
     7
  6
Continuous
370
    -3
390
F
  0
ENDTAB
  0
TABLE
  2
STYLE
  5
3
330
0
100
AcDbSymbolTable
 70
     1
  0
STYLE
  5
11
330
3
100
AcDbSymbolTableRecord
100
AcDbTextStyleTableRecord
  2
Standard
 70
     0
 40
0.0
 41
1.0
 50
0.0
 71
     0
 42
3.0
  3
txt
  4

  0
ENDTAB
  0
TABLE
  2
VIEW
  5
6
330
0
100
AcDbSymbolTable
 70
     0
  0
ENDTAB
  0
TABLE
  2
UCS
  5
7
330
0
100
AcDbSymbolTable
 70
     0
  0
ENDTAB
  0
TABLE
  2
APPID
  5
9
330
0
100
AcDbSymbolTable
 70
     1
  0
APPID
  5
12
330
9
100
AcDbSymbolTableRecord
100
AcDbRegAppTableRecord
  2
ACAD
 70
     0
  0
ENDTAB
  0
TABLE
  2
DIMSTYLE
  5
A
330
0
100
AcDbSymbolTable
 70
     1
100
AcDbDimStyleTable
  0
DIMSTYLE
105
27
330
A
100
AcDbSymbolTableRecord
100
AcDbDimStyleTableRecord
  2
ISO-25
 70
     0
 41
2.5
 42
0.625
 43
3.75
 44
1.25
 73
     0
 74
     0
 77
     1
 78
     8
140
2.5
141
2.5
143
0.0393700787
147
0.625
171
     3
172
     1
178
     0
271
     2
272
     2
274
     3
278
    44
283
     0
284
     8
340
11
  0
ENDTAB
  0
TABLE
  2
BLOCK_RECORD
  5
1
330
0
100
AcDbSymbolTable
 70
     1
  0
BLOCK_RECORD
  5
1F
330
1
100
AcDbSymbolTableRecord
100
AcDbBlockTableRecord
  2
*Model_Space
340
22
  0
BLOCK_RECORD
  5
1B
330
1
100
AcDbSymbolTableRecord
100
AcDbBlockTableRecord
  2
*Paper_Space
340
1E
  0
BLOCK_RECORD
  5
23
330
1
100
AcDbSymbolTableRecord
100
AcDbBlockTableRecord
  2
*Paper_Space0
340
26
  0
ENDTAB
  0
ENDSEC
  0
SECTION
  2
BLOCKS
  0
BLOCK
  5
20
330
1F
100
AcDbEntity
  8
0
100
AcDbBlockBegin
  2
*Model_Space
 70
     0
 10
0.0
 20
0.0
 30
0.0
  3
*Model_Space
  1
*Model_Space
  0
ENDBLK
  5
21
330
1F
100
AcDbEntity
  8
0
100
AcDbBlockEnd
  0
BLOCK
  5
1C
330
1B
100
AcDbEntity
 67
     1
  8
0
100
AcDbBlockBegin
  2
*Paper_Space
 70
     0
 10
0.0
 20
0.0
 30
0.0
  3
*Paper_Space
  1
*Paper_Space
  0
ENDBLK
  5
1D
330
1B
100
AcDbEntity
 67
     1
  8
0
100
AcDbBlockEnd
  0
BLOCK
  5
24
330
23
100
AcDbEntity
  8
0
100
AcDbBlockBegin
  2
*Paper_Space0
 70
     0
 10
0.0
 20
0.0
 30
0.0
  3
*Paper_Space0
  1
*Paper_Space0
  0
ENDBLK
  5
25
330
23
100
AcDbEntity
  8
0
100
AcDbBlockEnd
  0
ENDSEC
  0
SECTION
  2
ENTITIES
  0
LWPOLYLINE
  5
F2
330
1F
100
AcDbEntity
  8
0
  6
Continuous
 62
     7
370
    15
100
AcDbPolyline
 90
        3
 70
   128
 43
0.0
 10
-862.4746599763
 20
-31.8465476518
 10
-875.2897953355
 20
-28.0108933962
 10
-880.48096888
 20
-26.4399173358
  0
LWPOLYLINE
  5
F3
330
1F
100
AcDbEntity
  8
0
  6
Continuous
 62
     7
370
    15
100
AcDbPolyline
 90
        3
 70
   128
 43
0.0
 10
-994.6077315648
 20
10.642181298
 10
-999.7308732997
 20
12.4225353371
 10
-1012.3530694658
 20
16.851985654
  0
LWPOLYLINE
  5
F8
330
1F
100
AcDbEntity
  8
0
  6
Continuous
 62
     7
370
    15
100
AcDbPolyline
 90
        3
 70
   128
 43
0.0
 10
-863.2583609153
 20
-34.6958137502
 10
-876.1412186989
 20
-30.8400201308
 10
-881.3941204132
 20
-29.2503087763
  0
LWPOLYLINE
  5
F9
330
1F
100
AcDbEntity
  8
0
  6
Continuous
 62
     7
370
    15
100
AcDbPolyline
 90
        3
 70
   128
 43
0.0
 10
-995.520883117
 20
7.8317897991
 10
-1000.70497929
 20
9.6332706749
 10
-1013.3937986591
 20
14.0862331606
  0
LWPOLYLINE
  5
FE
330
1F
100
AcDbEntity
  8
0
  6
Continuous
 62
     7
370
    15
100
AcDbPolyline
 90
        3
 70
   128
 43
0.0
 10
-1016.4504396785
 20
5.9631665887
 10
-1003.3873106136
 20
1.377903719
 10
-998.2032144406
 20
-0.4235771568
  0
LWPOLYLINE
  5
FF
330
1F
100
AcDbEntity
  8
0
  6
Continuous
 62
     7
370
    15
100
AcDbPolyline
 90
        3
 70
   128
 43
0.0
 10
-884.0764517368
 20
-37.5056757322
 10
-878.8235500225
 20
-39.0953870867
 10
-865.5601052285
 20
-43.0641615632
  0
LWPOLYLINE
  5
104
330
1F
100
AcDbEntity
  8
0
  6
Continuous
 62
     7
370
    15
100
AcDbPolyline
 90
        3
 70
   128
 43
0.0
 10
-848.663898246
 20
18.3646148374
 10
-859.1958073939
 20
21.5213083392
 10
-864.3869809384
 20
23.0922843996
  0
LWPOLYLINE
  5
105
330
1F
100
AcDbEntity
  8
0
  6
Continuous
 62
     7
370
    15
100
AcDbPolyline
 90
        3
 70
   128
 43
0.0
 10
-978.5137436232
 20
60.1743830334
 10
-983.6368853581
 20
61.9547370725
 10
-994.0128304704
 20
65.5914291677
  0
LWPOLYLINE
  5
10A
330
1F
100
AcDbEntity
  8
0
  6
Continuous
 62
     7
370
    15
100
AcDbPolyline
 90
        3
 70
   128
 43
0.0
 10
-849.447611165
 20
15.5153051839
 10
-860.0472307573
 20
18.6921816046
 10
-865.3001324716
 20
20.2818929591
  0
LWPOLYLINE
  5
10B
330
1F
100
AcDbEntity
  8
0
  6
Continuous
 62
     7
370
    15
100
AcDbPolyline
 90
        3
 70
   128
 43
0.0
 10
-979.4268951754
 20
57.3639915344
 10
-984.6109913484
 20
59.1654724102
 10
-995.053575572
 20
62.8256343981
  0
LWPOLYLINE
  5
110
330
1F
100
AcDbEntity
  8
0
  6
Continuous
 62
     7
370
    15
100
AcDbPolyline
 90
        3
 70
   128
 43
0.0
 10
-998.110324298
 20
54.702281594
 10
-987.293322672
 20
50.9101054543
 10
-982.109226499
 20
49.1086245785
  0
LWPOLYLINE
  5
111
330
1F
100
AcDbEntity
  8
0
  6
Continuous
 62
     7
370
    15
100
AcDbPolyline
 90
        3
 70
   128
 43
0.0
 10
-867.9824637952
 20
12.0265260032
 10
-862.7295620809
 20
10.4368146487
 10
-851.7494365847
 20
7.1466624958
  0
LWPOLYLINE
  5
157
330
1F
100
AcDbEntity
  8
0
  6
Continuous
 62
     7
370
    15
100
AcDbPolyline
 90
        3
 70
   128
 43
0.0
 10
-1372.2654007461
 20
184.3434521869
 10
-1371.7446404916
 20
185.1591926325
 10
-1371.6515377357
 20
185.2743458299
  0
LWPOLYLINE
  5
15D
330
1F
100
AcDbEntity
  8
0
  6
Continuous
 62
     7
370
    15
100
AcDbPolyline
 90
        3
 70
   128
 43
0.0
 10
-1247.7440146281
 20
124.4415861197
 10
-1247.2610796847
 20
125.2802741176
 10
-1247.1733369712
 20
125.3995619973
  0
LWPOLYLINE
  5
15E
330
1F
100
AcDbEntity
  8
0
  6
Continuous
 62
     7
370
    15
100
AcDbPolyline
 90
        3
 70
   128
 43
0.0
 10
-1136.9104337167
 20
78.0488263548
 10
-1136.9365150032
 20
77.9030589081
 10
-1137.212135546
 20
76.9753428774
  0
LWPOLYLINE
  5
166
330
1F
100
AcDbEntity
  8
0
  6
Continuous
 62
     7
370
    15
100
AcDbPolyline
 90
        3
 70
   128
 43
0.0
 10
-1120.6146525268
 20
70.2928839371
 10
-1120.170552444
 20
71.1527669721
 10
-1120.0883531823
 20
71.2759402783
  0
LWPOLYLINE
  5
16D
330
1F
100
AcDbEntity
  8
0
  6
Continuous
 62
     7
370
    15
100
AcDbPolyline
 90
        3
 70
   128
 43
0.0
 10
-876.4678039704
 20
-14.0886657616
 10
-876.4804626785
 20
-14.2362060581
 10
-876.6701989226
 20
-15.1852181102
  0
LWPOLYLINE
  5
16E
330
1F
100
AcDbEntity
  8
0
  6
Continuous
 62
     7
370
    15
100
AcDbPolyline
 90
        3
 70
   128
 43
0.0
 10
-991.0753822689
 20
21.9872793101
 10
-990.6710668263
 20
22.8665703542
 10
-990.5945859258
 20
22.9933735634
  0
LWPOLYLINE
  5
176
330
1F
100
AcDbEntity
  8
0
  6
Continuous
 62
     7
370
    15
100
AcDbPolyline
 90
        3
 70
   128
 43
0.0
 10
-743.3253649365
 20
-51.1417754143
 10
-743.3312637897
 20
-51.2897402261
 10
-743.4774058422
 20
-52.2464356938
  0
LWPOLYLINE
  5
17D
330
1F
100
AcDbEntity
  8
0
  6
Continuous
 62
     7
370
    15
100
AcDbPolyline
 90
        3
 70
   128
 43
0.0
 10
-608.6983866743
 20
-82.0535249056
 10
-608.6975169845
 20
-82.2016047004
 10
-608.7997828444
 20
-83.1639795812
  0
LWPOLYLINE
  5
17E
330
1F
100
AcDbEntity
  8
0
  6
Continuous
 62
     7
370
    15
100
AcDbPolyline
 90
        3
 70
   128
 43
0.0
 10
-726.1219092016
 20
-56.5959685908
 10
-725.7995931036
 20
-55.6834248657
 10
-725.7350133522
 20
-55.5501663285
  0
LWPOLYLINE
  5
181
330
1F
100
AcDbEntity
  8
0
  6
Continuous
 62
     7
370
    15
100
AcDbPolyline
 90
        3
 70
   128
 43
0.0
 10
-472.7997747803
 20
-106.7802673003
 10
-472.7921385877
 20
-106.9281526294
 10
-472.8503159926
 20
-107.8941956445
  0
LWPOLYLINE
  5
23F
330
1F
100
AcDbEntity
  8
0
  6
Continuous
 62
     7
370
    15
100
AcDbPolyline
 90
        3
 70
   128
 43
0.0
 10
-1145.3159316955
 20
-422.4249521485
 10
-1164.0662587067
 20
-415.8575397627
 10
-1164.9082552559
 20
-415.5598135282
  0
LWPOLYLINE
  5
240
330
1F
100
AcDbEntity
  8
0
  6
Continuous
 62
     7
370
    15
100
AcDbPolyline
 90
        3
 70
   128
 43
0.0
 10
-1146.2995726213
 20
-425.259109965
 10
-1165.0647885061
 20
-418.6864865451
 10
-1165.9087243614
 20
-418.3880747553
  0
LWPOLYLINE
  5
241
330
1F
100
AcDbEntity
  8
0
  6
Continuous
 62
     7
370
    15
100
AcDbPolyline
 90
        3
 70
   128
 43
0.0
 10
-994.0731925791
 20
-474.220823544
 10
-994.9313530776
 20
-473.9661907036
 10
-1013.9760227464
 20
-468.2536375949
  0
LWPOLYLINE
  5
242
330
1F
100
AcDbEntity
  8
0
  6
Continuous
 62
     7
370
    15
100
AcDbPolyline
 90
        3
 70
   128
 43
0.0
 10
-993.2201788489
 20
-471.3446511612
 10
-994.0763674564
 20
-471.0906035904
 10
-1013.1059288045
 20
-465.3825861268
  0
LWPOLYLINE
  5
248
330
1F
100
AcDbEntity
  8
0
  6
Continuous
 62
     7
370
    15
100
AcDbPolyline
 90
        3
 70
   128
 43
0.0
 10
-337.8635402636
 20
-143.8291926709
 10
-348.5963884973
 20
-142.6096968634
 10
-355.7416587172
 20
-141.7764042592
  0
LWPOLYLINE
  5
24B
330
1F
100
AcDbEntity
  8
0
  6
Continuous
 62
     7
370
    15
100
AcDbPolyline
 90
        3
 70
   128
 43
0.0
 10
-338.1969345548
 20
-146.810609825
 10
-348.9403724031
 20
-145.5899107941
 10
-356.0926933513
 20
-144.7557959229
  0
LWPOLYLINE
  5
24C
330
1F
100
AcDbEntity
  8
0
  6
Continuous
 62
     7
370
    15
100
AcDbPolyline
 90
        3
 70
   128
 43
0.0
 10
356.0927821281
 20
-144.7557854631
 10
348.9403724031
 20
-145.5899107941
 10
338.1969345548
 20
-146.810609825
  0
LWPOLYLINE
  5
24F
330
1F
100
AcDbEntity
  8
0
  6
Continuous
 62
     7
370
    15
100
AcDbPolyline
 90
        3
 70
   128
 43
0.0
 10
355.7417508777
 20
-141.7763934008
 10
348.5963884973
 20
-142.6096968634
 10
337.8635402636
 20
-143.8291926709
  0
LWPOLYLINE
  5
251
330
1F
100
AcDbEntity
  8
0
  6
Continuous
 62
     7
370
    15
100
AcDbPolyline
 90
        3
 70
   128
 43
0.0
 10
78.6369825552
 20
-164.644918324
 10
76.1222469172
 20
-164.7088807638
 10
60.5553304297
 20
-165.0585411812
  0
LWPOLYLINE
  5
252
330
1F
100
AcDbEntity
  8
0
  6
Continuous
 62
     7
370
    15
100
AcDbPolyline
 90
        3
 70
   128
 43
0.0
 10
78.5594606768
 20
-161.6459200982
 10
76.0472059363
 20
-161.7098194355
 10
60.4956352476
 20
-162.0591351591
  0
LWPOLYLINE
  5
253
330
1F
100
AcDbEntity
  8
0
  6
Continuous
 62
     7
370
    15
100
AcDbPolyline
 90
        3
 70
   128
 43
0.0
 10
-60.4956352476
 20
-162.0591351591
 10
-76.0472059363
 20
-161.7098194355
 10
-78.5594606768
 20
-161.6459200982
  0
LWPOLYLINE
  5
254
330
1F
100
AcDbEntity
  8
0
  6
Continuous
 62
     7
370
    15
100
AcDbPolyline
 90
        3
 70
   128
 43
0.0
 10
-60.5553304297
 20
-165.0585411811
 10
-76.1222469172
 20
-164.7088807638
 10
-78.6369825552
 20
-164.644918324
  0
LWPOLYLINE
  5
25C
330
1F
100
AcDbEntity
  8
0
  6
Continuous
 62
     7
370
    15
100
AcDbPolyline
 90
        3
 70
   128
 43
0.0
 10
612.3351223769
 20
-100.3571647529
 10
601.7507321967
 20
-102.5139878208
 10
594.6976748174
 20
-103.929489387
  0
LWPOLYLINE
  5
25F
330
1F
100
AcDbEntity
  8
0
  6
Continuous
 62
     7
370
    15
100
AcDbPolyline
 90
        3
 70
   128
 43
0.0
 10
612.9393541317
 20
-103.2956854669
 10
602.3445208131
 20
-105.4546365723
 10
595.2845036982
 20
-106.8715349109
  0
LWPOLYLINE
  5
260
330
1F
100
AcDbEntity
  8
0
  6
Continuous
 62
     7
370
    15
100
AcDbPolyline
 90
        3
 70
   128
 43
0.0
 10
1272.6131377313
 20
113.2058901071
 10
1266.0685507579
 20
110.2023736199
 10
1256.2281509304
 20
105.721514979
  0
LWPOLYLINE
  5
263
330
1F
100
AcDbEntity
  8
0
  6
Continuous
 62
     7
370
    15
100
AcDbPolyline
 90
        3
 70
   128
 43
0.0
 10
1271.3586043931
 20
115.9309857207
 10
1264.8204658713
 20
112.9304286259
 10
1254.9897655493
 20
108.4539866894
  0
LWPOLYLINE
  5
265
330
1F
100
AcDbEntity
  8
0
  6
Continuous
 62
     7
370
    15
100
AcDbPolyline
 90
        3
 70
   128
 43
0.0
 10
881.7610378888
 20
-31.9834740038
 10
866.8626707517
 20
-36.4569546407
 10
864.4536285289
 20
-37.1725121686
  0
LWPOLYLINE
  5
266
330
1F
100
AcDbEntity
  8
0
  6
Continuous
 62
     7
370
    15
100
AcDbPolyline
 90
        3
 70
   128
 43
0.0
 10
882.6311318307
 20
-34.8545254719
 10
867.7180634554
 20
-39.3324203981
 10
865.3066422592
 20
-40.0486845514
  0
LWPOLYLINE
  5
267
330
1F
100
AcDbEntity
  8
0
  6
Continuous
 62
     7
370
    15
100
AcDbPolyline
 90
        3
 70
   128
 43
0.0
 10
1013.8826025156
 20
11.3799046676
 10
1011.5130522552
 20
10.5428033774
 10
996.8305741081
 20
5.4048847502
  0
LWPOLYLINE
  5
268
330
1F
100
AcDbEntity
  8
0
  6
Continuous
 62
     7
370
    15
100
AcDbPolyline
 90
        3
 70
   128
 43
0.0
 10
1014.8830716211
 20
8.5516434404
 10
1012.5111813867
 20
7.7137154967
 10
997.8142150339
 20
2.5707269337
  0
LWPOLYLINE
  5
2C1
330
1F
100
AcDbEntity
  8
0
  6
Continuous
 62
     7
370
    15
100
AcDbPolyline
 90
        3
 70
   128
 43
0.0
 10
-69.5069118532
 20
-614.8339883174
 10
-89.3689745761
 20
-614.3821776692
 10
-90.2617633471
 20
-614.3592144368
  0
LWPOLYLINE
  5
2C2
330
1F
100
AcDbEntity
  8
0
  6
Continuous
 62
     7
370
    15
100
AcDbPolyline
 90
        3
 70
   128
 43
0.0
 10
-69.5666070353
 20
-617.8333943395
 10
-89.4444402166
 20
-617.3812286183
 10
-90.3392852255
 20
-617.3582126626
  0
LWPOLYLINE
  5
2C3
330
1F
100
AcDbEntity
  8
0
  6
Continuous
 62
     7
370
    15
100
AcDbPolyline
 90
        3
 70
   128
 43
0.0
 10
90.3392852255
 20
-617.3582126626
 10
89.4444402164
 20
-617.3812286184
 10
69.5666070353
 20
-617.8333943395
  0
LWPOLYLINE
  5
2C4
330
1F
100
AcDbEntity
  8
0
  6
Continuous
 62
     7
370
    15
100
AcDbPolyline
 90
        3
 70
   128
 43
0.0
 10
90.2617633471
 20
-614.3592144368
 10
89.3689745759
 20
-614.3821776693
 10
69.5069118532
 20
-614.8339883174
  0
LWPOLYLINE
  5
2DB
330
1F
100
AcDbEntity
  8
0
  6
Continuous
 62
     7
370
    15
100
AcDbPolyline
 90
        3
 70
   128
 43
0.0
 10
1013.1059288045
 20
-465.3825861268
 10
994.0763674562
 20
-471.0906035904
 10
993.2201788489
 20
-471.3446511612
  0
LWPOLYLINE
  5
2DC
330
1F
100
AcDbEntity
  8
0
  6
Continuous
 62
     7
370
    15
100
AcDbPolyline
 90
        3
 70
   128
 43
0.0
 10
1013.9760227464
 20
-468.2536375949
 10
994.9313530774
 20
-473.9661907037
 10
994.0731925791
 20
-474.220823544
  0
LWPOLYLINE
  5
2DD
330
1F
100
AcDbEntity
  8
0
  6
Continuous
 62
     7
370
    15
100
AcDbPolyline
 90
        3
 70
   128
 43
0.0
 10
1165.9087243614
 20
-418.3880747553
 10
1165.0647885059
 20
-418.6864865452
 10
1146.2995726213
 20
-425.259109965
  0
LWPOLYLINE
  5
2DE
330
1F
100
AcDbEntity
  8
0
  6
Continuous
 62
     7
370
    15
100
AcDbPolyline
 90
        3
 70
   128
 43
0.0
 10
1164.9082552559
 20
-415.5598135282
 10
1164.0662587065
 20
-415.8575397627
 10
1145.3159316955
 20
-422.4249521485
  0
LWPOLYLINE
  5
3A5
330
1F
100
AcDbEntity
  8
0
  6
PHANTOM
 62
     8
370
     0
100
AcDbPolyline
 90
        9
 70
   128
 43
0.0
 10
-1259.7464577984
 20
141.0241099002
 10
-1259.7597219574
 20
141.2170105259
 10
-1259.9453826869
 20
141.486307126
 10
-1260.2963051491
 20
141.8216507833
 10
-1260.7990035906
 20
142.210154429
 10
-1261.4341595922
 20
142.6368880859
 10
-1262.177364465
 20
143.085452619
 10
-1263.0000572625
 20
143.5386099446
 10
-1263.8706223618
 20
143.9789454812
  0
LWPOLYLINE
  5
3AB
330
1F
100
AcDbEntity
  8
0
  6
PHANTOM
 62
     8
370
     0
100
AcDbPolyline
 90
        9
 70
   128
 43
0.0
 10
-1362.8556396254
 20
191.9577570269
 10
-1363.7406216981
 20
192.3683489263
 10
-1364.6060113794
 20
192.7334183722
 10
-1365.4185522291
 20
193.0389359507
 10
-1366.1470187581
 20
193.2731607925
 10
-1366.7634164062
 20
193.4270917682
 10
-1367.2440573574
 20
193.4948133969
 10
-1367.5704708496
 20
193.4737231744
 10
-1367.7301129951
 20
193.3646315862
  0
LWPOLYLINE
  5
3AD
330
1F
100
AcDbEntity
  8
0
  6
PHANTOM
 62
     8
370
     0
100
AcDbPolyline
 90
        9
 70
   128
 43
0.0
 10
-1242.5596944985
 20
176.482096606
 10
-1242.5729586575
 20
176.6749972317
 10
-1242.758619387
 20
176.9442938319
 10
-1243.1095418492
 20
177.2796374892
 10
-1243.6122402907
 20
177.6681411349
 10
-1244.2473962923
 20
178.0948747918
 10
-1244.9906011651
 20
178.5434393248
 10
-1245.8132939627
 20
178.9965966504
 10
-1246.683859062
 20
179.4369321868
  0
LWPOLYLINE
  5
3B0
330
1F
100
AcDbEntity
  8
0
  6
PHANTOM
 62
     8
370
     0
100
AcDbPolyline
 90
        9
 70
   128
 43
0.0
 10
-1345.6688763256
 20
227.4157437325
 10
-1346.5538583983
 20
227.8263356319
 10
-1347.4192480795
 20
228.191405078
 10
-1348.2317889293
 20
228.4969226565
 10
-1348.9602554582
 20
228.7311474983
 10
-1349.5766531063
 20
228.8850784741
 10
-1350.0572940575
 20
228.9528001028
 10
-1350.3837075497
 20
228.9317098802
 10
-1350.5433496953
 20
228.8226182918
  0
LWPOLYLINE
  5
3BB
330
1F
100
AcDbEntity
  8
0
  6
PHANTOM
 62
     8
370
     0
100
AcDbPolyline
 90
        9
 70
   128
 43
0.0
 10
-1133.9236652337
 20
85.0039403528
 10
-1133.9457315253
 20
85.196033216
 10
-1134.143505719
 20
85.4565633172
 10
-1134.5093874635
 20
85.7755186307
 10
-1135.0293161285
 20
86.1406418827
 10
-1135.683311147
 20
86.5379015914
 10
-1136.4462398572
 20
86.9520312889
 10
-1137.2887833366
 20
87.3671162033
 10
-1138.1785631118
 20
87.7672048542
  0
LWPOLYLINE
  5
3BE
330
1F
100
AcDbEntity
  8
0
  6
PHANTOM
 62
     8
370
     0
100
AcDbPolyline
 90
        9
 70
   128
 43
0.0
 10
-1239.252891095
 20
131.17204586
 10
-1240.1557134284
 20
131.5417630645
 10
-1241.0368833638
 20
131.8669007981
 10
-1241.8625380348
 20
132.1349641999
 10
-1242.6009479955
 20
132.3356517438
 10
-1243.2237365652
 20
132.4612511201
 10
-1243.7069703284
 20
132.506935615
 10
-1244.0320788826
 20
132.4709495992
 10
-1244.1865684883
 20
132.3546759952
  0
LWPOLYLINE
  5
3C3
330
1F
100
AcDbEntity
  8
0
  6
PHANTOM
 62
     8
370
     0
100
AcDbPolyline
 90
        9
 70
   128
 43
0.0
 10
-1118.3753699675
 20
121.2103509491
 10
-1118.3974362591
 20
121.4024438124
 10
-1118.5952104528
 20
121.6629739136
 10
-1118.9610921973
 20
121.9819292271
 10
-1119.4810208622
 20
122.3470524791
 10
-1120.1350158807
 20
122.7443121878
 10
-1120.897944591
 20
123.1584418853
 10
-1121.7404880704
 20
123.5735267996
 10
-1122.6302678457
 20
123.9736154503
  0
LWPOLYLINE
  5
3C6
330
1F
100
AcDbEntity
  8
0
  6
PHANTOM
 62
     8
370
     0
100
AcDbPolyline
 90
        9
 70
   128
 43
0.0
 10
-1223.7045958289
 20
167.3784564561
 10
-1224.6074181622
 20
167.7481736607
 10
-1225.4885880976
 20
168.0733113943
 10
-1226.3142427686
 20
168.3413747962
 10
-1227.0526527293
 20
168.5420623402
 10
-1227.675441299
 20
168.6676617165
 10
-1228.1586750622
 20
168.7133462114
 10
-1228.4837836164
 20
168.6773601956
 10
-1228.6382732222
 20
168.5610865913
  0
LWPOLYLINE
  5
3D5
330
1F
100
AcDbEntity
  8
0
  6
PHANTOM
 62
     8
370
     0
100
AcDbPolyline
 90
        9
 70
   128
 43
0.0
 10
-1112.2533744742
 20
77.9003403722
 10
-1113.172150483
 20
78.2284099114
 10
-1114.0672593202
 20
78.5129361325
 10
-1114.9043024551
 20
78.7429848524
 10
-1115.6511127895
 20
78.9097154277
 10
-1116.2789908212
 20
79.0067204959
 10
-1116.7638075493
 20
79.0302722067
 10
-1117.086931739
 20
78.9794654811
 10
-1117.2359459088
 20
78.8562527933
  0
LWPOLYLINE
  5
3D6
330
1F
100
AcDbEntity
  8
0
  6
PHANTOM
 62
     8
370
     0
100
AcDbPolyline
 90
        9
 70
   128
 43
0.0
 10
-1004.9242049587
 20
36.594297742
 10
-1004.9550273397
 20
36.785181398
 10
-1005.1645017846
 20
37.0364004702
 10
-1005.5445783082
 20
37.3383007505
 10
-1006.0806507826
 20
37.6792803804
 10
-1006.7521182434
 20
38.0462357039
 10
-1007.5331765725
 20
38.4250648338
 10
-1008.3938101365
 20
38.8012095791
 10
-1009.30094527
 20
39.1602149083
  0
LWPOLYLINE
  5
3D9
330
1F
100
AcDbEntity
  8
0
  6
PHANTOM
 62
     8
370
     0
100
AcDbPolyline
 90
        9
 70
   128
 43
0.0
 10
-991.04688401
 20
73.4734736715
 10
-991.077706391
 20
73.6643573276
 10
-991.2871808359
 20
73.9155763998
 10
-991.6672573595
 20
74.2174766801
 10
-992.2033298339
 20
74.55845631
 10
-992.8747972947
 20
74.9254116335
 10
-993.6558556238
 20
75.3042407634
 10
-994.5164891878
 20
75.6803855087
 10
-995.4236243214
 20
76.0393908376
  0
LWPOLYLINE
  5
3DC
330
1F
100
AcDbEntity
  8
0
  6
PHANTOM
 62
     8
370
     0
100
AcDbPolyline
 90
        9
 70
   128
 43
0.0
 10
-1098.3760535256
 20
114.7795163016
 10
-1099.2948295344
 20
115.1075858409
 10
-1100.1899383715
 20
115.392112062
 10
-1101.0269815064
 20
115.6221607819
 10
-1101.7737918409
 20
115.7888913573
 10
-1102.4016698725
 20
115.8858964255
 10
-1102.8864866006
 20
115.9094481364
 10
-1103.2096107903
 20
115.8586414108
 10
-1103.3586249602
 20
115.7354287226
  0
LWPOLYLINE
  5
3EB
330
1F
100
AcDbEntity
  8
0
  6
PHANTOM
 62
     8
370
     0
100
AcDbPolyline
 90
        9
 70
   128
 43
0.0
 10
-982.3651630779
 20
32.1405928954
 10
-983.2980267125
 20
32.4261615639
 10
-984.2053489695
 20
32.6690310764
 10
-985.0522619636
 20
32.8598680937
 10
-985.8062193034
 20
32.9913388562
 10
-986.4382468309
 20
33.0583910164
 10
-986.924056083
 20
33.0584477972
 10
-987.2449776823
 20
32.9915070166
 10
-987.3886787918
 20
32.8601411716
  0
LWPOLYLINE
  5
3EC
330
1F
100
AcDbEntity
  8
0
  6
PHANTOM
 62
     8
370
     0
100
AcDbPolyline
 90
        9
 70
   128
 43
0.0
 10
-873.2618968363
 20
-4.2218981533
 10
-873.3009385696
 20
-4.0311555591
 10
-873.5212227937
 20
-3.7883663468
 10
-873.9142841096
 20
-3.5028607698
 10
-874.4650173912
 20
-3.1856106472
 10
-875.1522582675
 20
-2.8488077233
 10
-875.9495964568
 20
-2.5053951456
 10
-876.8263906999
 20
-2.1685700669
 10
-877.7489462855
 20
-1.8512764859
  0
LWPOLYLINE
  5
3EF
330
1F
100
AcDbEntity
  8
0
  6
PHANTOM
 62
     8
370
     0
100
AcDbPolyline
 90
        9
 70
   128
 43
0.0
 10
-861.0889075711
 20
33.2427105065
 10
-861.1279493043
 20
33.4334531008
 10
-861.3482335285
 20
33.6762423131
 10
-861.7412948443
 20
33.9617478902
 10
-862.292028126
 20
34.2789980128
 10
-862.9792690022
 20
34.6158009366
 10
-863.7766071916
 20
34.9592135143
 10
-864.6534014346
 20
35.2960385929
 10
-865.5759570203
 20
35.6133321737
  0
LWPOLYLINE
  5
3F2
330
1F
100
AcDbEntity
  8
0
  6
PHANTOM
 62
     8
370
     0
100
AcDbPolyline
 90
        9
 70
   128
 43
0.0
 10
-970.1921738127
 20
69.6052015551
 10
-971.1250374473
 20
69.8907702236
 10
-972.0323597043
 20
70.1336397362
 10
-972.8792726984
 20
70.3244767535
 10
-973.6332300381
 20
70.4559475161
 10
-974.2652575657
 20
70.5229996763
 10
-974.7510668177
 20
70.5230564571
 10
-975.071988417
 20
70.4561156765
 10
-975.2156895266
 20
70.3247498312
  0
LWPOLYLINE
  5
401
330
1F
100
AcDbEntity
  8
0
  6
PHANTOM
 62
     8
370
     0
100
AcDbPolyline
 90
        9
 70
   128
 43
0.0
 10
-851.725607636
 20
-11.6200760425
 10
-852.6705537321
 20
-11.3774633871
 10
-853.5880326526
 20
-11.1763372856
 10
-854.4427861972
 20
-11.0244269012
 10
-855.2019666663
 20
-10.9275700649
 10
-855.8363991805
 20
-10.8894889306
 10
-856.3217028539
 20
-10.9116469348
 10
-856.6392277385
 20
-10.993192558
 10
-856.7767715311
 20
-11.1309920472
  0
LWPOLYLINE
  5
402
330
1F
100
AcDbEntity
  8
0
  6
PHANTOM
 62
     8
370
     0
100
AcDbPolyline
 90
        9
 70
   128
 43
0.0
 10
-741.0737105224
 20
-42.9555371847
 10
-741.1214335526
 20
-42.766779386
 10
-741.3525894363
 20
-42.5343171344
 10
-741.7582949825
 20
-42.2670838238
 10
-742.3229591547
 20
-41.9753490806
 10
-743.0248822254
 20
-41.6703241072
 10
-743.8370896845
 20
-41.3637308424
 10
-744.728368855
 20
-41.0673514934
 10
-745.6644683781
 20
-40.7925757521
  0
LWPOLYLINE
  5
405
330
1F
100
AcDbEntity
  8
0
  6
PHANTOM
 62
     8
370
     0
100
AcDbPolyline
 90
        9
 70
   128
 43
0.0
 10
-730.6266085457
 20
-4.9734805003
 10
-730.6743315759
 20
-4.7847227016
 10
-730.9054874596
 20
-4.5522604499
 10
-731.3111930058
 20
-4.2850271394
 10
-731.875857178
 20
-3.9932923961
 10
-732.5777802487
 20
-3.6882674227
 10
-733.3899877078
 20
-3.3816741579
 10
-734.2812668783
 20
-3.085294809
 10
-735.2173664015
 20
-2.8105190679
  0
LWPOLYLINE
  5
408
330
1F
100
AcDbEntity
  8
0
  6
PHANTOM
 62
     8
370
     0
100
AcDbPolyline
 90
        9
 70
   128
 43
0.0
 10
-841.2785056594
 20
26.3619806417
 10
-842.2234517555
 20
26.6045932972
 10
-843.140930676
 20
26.8057193988
 10
-843.9956842205
 20
26.9576297832
 10
-844.7548646896
 20
27.0544866195
 10
-845.3892972038
 20
27.0925677539
 10
-845.8746008772
 20
27.0704097497
 10
-846.1921257618
 20
26.9888641265
 10
-846.3296695545
 20
26.851064637
  0
LWPOLYLINE
  5
417
330
1F
100
AcDbEntity
  8
0
  6
PHANTOM
 62
     8
370
     0
100
AcDbPolyline
 90
        9
 70
   128
 43
0.0
 10
-718.7080175636
 20
-47.1581777386
 10
-719.663064309
 20
-46.9590051018
 10
-720.5887765354
 20
-46.8000203474
 10
-721.4495796411
 20
-46.6873331702
 10
-722.2123934456
 20
-46.6252740754
 10
-722.847903442
 20
-46.616227959
 10
-723.3316873377
 20
-46.6605424584
 10
-723.6451535888
 20
-46.7565145921
 10
-723.7762558631
 20
-46.9004562045
  0
LWPOLYLINE
  5
418
330
1F
100
AcDbEntity
  8
0
  6
PHANTOM
 62
     8
370
     0
100
AcDbPolyline
 90
        9
 70
   128
 43
0.0
 10
-606.7396291852
 20
-73.4038147814
 10
-606.7959290745
 20
-73.2174352851
 10
-607.0374675544
 20
-72.9957803647
 10
-607.4549624365
 20
-72.7473680945
 10
-608.0323696266
 20
-72.4817448187
 10
-608.7474996901
 20
-72.2091182909
 10
-609.5728705799
 20
-71.9399653956
 10
-610.4767637554
 20
-71.6846295276
 10
-611.4244431089
 20
-71.4529231009
  0
LWPOLYLINE
  5
41B
330
1F
100
AcDbEntity
  8
0
  6
PHANTOM
 62
     8
370
     0
100
AcDbPolyline
 90
        9
 70
   128
 43
0.0
 10
-598.0393229096
 20
-34.9839860416
 10
-598.095622799
 20
-34.7976065452
 10
-598.3371612788
 20
-34.5759516248
 10
-598.7546561609
 20
-34.3275393546
 10
-599.332063351
 20
-34.0619160788
 10
-600.0471934145
 20
-33.789289551
 10
-600.8725643043
 20
-33.5201366557
 10
-601.7764574799
 20
-33.2648007877
 10
-602.7241368334
 20
-33.0330943614
  0
LWPOLYLINE
  5
41E
330
1F
100
AcDbEntity
  8
0
  6
PHANTOM
 62
     8
370
     0
100
AcDbPolyline
 90
        9
 70
   128
 43
0.0
 10
-710.0077112881
 20
-8.738348999
 10
-710.9627580334
 20
-8.5391763621
 10
-711.8884702598
 20
-8.3801916076
 10
-712.7492733655
 20
-8.2675044304
 10
-713.51208717
 20
-8.2054453355
 10
-714.1475971664
 20
-8.1963992191
 10
-714.6313810621
 20
-8.2407137184
 10
-714.9448473132
 20
-8.3366858521
 10
-715.0759495875
 20
-8.4806274649
  0
LWPOLYLINE
  5
429
330
1F
100
AcDbEntity
  8
0
  6
PHANTOM
 62
     8
370
     0
100
AcDbPolyline
 90
        9
 70
   128
 43
0.0
 10
-471.0898142642
 20
-97.2194954754
 10
-471.1545730795
 20
-97.0358836839
 10
-471.4059890666
 20
-96.8254989352
 10
-471.8344004499
 20
-96.5964261974
 10
-472.4233436202
 20
-96.3574686073
 10
-473.1501858219
 20
-96.1178091711
 10
-473.9869949167
 20
-95.8866578664
 10
-474.9016128003
 20
-95.6728977084
 10
-475.8588912205
 20
-95.4847433798
  0
LWPOLYLINE
  5
42C
330
1F
100
AcDbEntity
  8
0
  6
PHANTOM
 62
     8
370
     0
100
AcDbPolyline
 90
        9
 70
   128
 43
0.0
 10
-584.1406682299
 20
-76.1183609687
 10
-585.1038195138
 20
-75.9630431353
 10
-586.0358302977
 20
-75.846530574
 10
-586.9008839299
 20
-75.7733007974
 10
-587.6657368844
 20
-75.7461679845
 10
-588.3009962911
 20
-75.7661748343
 10
-588.7822494872
 20
-75.8325524946
 10
-589.0910021823
 20
-75.9427501092
 10
-589.2153891835
 20
-76.0925328453
  0
LWPOLYLINE
  5
431
330
1F
100
AcDbEntity
  8
0
  6
PHANTOM
 62
     8
370
     0
100
AcDbPolyline
 90
        9
 70
   128
 43
0.0
 10
-464.1544273764
 20
-58.4421956932
 10
-464.2191861918
 20
-58.2585839015
 10
-464.4706021788
 20
-58.0481991529
 10
-464.8990135621
 20
-57.819126415
 10
-465.4879567325
 20
-57.5801688249
 10
-466.2147989342
 20
-57.3405093887
 10
-467.0516080289
 20
-57.1093580841
 10
-467.9662259126
 20
-56.8955979261
 10
-468.9235043328
 20
-56.7074435978
  0
LWPOLYLINE
  5
434
330
1F
100
AcDbEntity
  8
0
  6
PHANTOM
 62
     8
370
     0
100
AcDbPolyline
 90
        9
 70
   128
 43
0.0
 10
-577.2052813422
 20
-37.3410611866
 10
-578.1684326261
 20
-37.1857433531
 10
-579.10044341
 20
-37.0692307918
 10
-579.9654970422
 20
-36.9960010151
 10
-580.7303499966
 20
-36.9688682022
 10
-581.3656094033
 20
-36.9888750519
 10
-581.8468625994
 20
-37.0552527122
 10
-582.1556152946
 20
-37.1654503269
 10
-582.2800022958
 20
-37.3152330633
  0
LINE
  5
474
330
1F
100
AcDbEntity
  8
0
  6
Continuous
 62
     7
370
    15
100
AcDbLine
 10
-487.0079035391
 20
-197.2810284296
 30
0.0
 11
-487.0079164921
 21
-197.2810263781
 31
0.0
  0
LINE
  5
475
330
1F
100
AcDbEntity
  8
0
  6
Continuous
 62
     7
370
    15
100
AcDbLine
 10
-969.3095702362
 20
105.2185437247
 30
0.0
 11
-973.0845333429
 21
106.5412884253
 31
0.0
  0
LINE
  5
476
330
1F
100
AcDbEntity
  8
0
  6
Continuous
 62
     7
370
    15
100
AcDbLine
 10
-1218.4355061214
 20
205.3220385627
 30
0.0
 11
-1222.0739002636
 21
206.9839916504
 31
0.0
  0
LINE
  5
477
330
1F
100
AcDbEntity
  8
0
  6
Continuous
 62
     7
370
    15
100
AcDbLine
 10
-1244.8781583949
 20
183.1622706424
 30
0.0
 11
-1343.8631756585
 21
231.141082188
 31
0.0
  0
LINE
  5
478
330
1F
100
AcDbEntity
  8
0
  6
Continuous
 62
     7
370
    15
100
AcDbLine
 10
-1402.1767806059
 20
110.8343674848
 30
0.0
 11
-1303.1917633423
 21
62.8555559392
 31
0.0
  0
LINE
  5
479
330
1F
100
AcDbEntity
  8
0
  6
Continuous
 62
     7
370
    15
100
AcDbLine
 10
-1120.9967102848
 20
127.7775859029
 30
0.0
 11
-1222.0710382681
 21
171.1824269085
 31
0.0
  0
LINE
  5
47A
330
1F
100
AcDbEntity
  8
0
  6
Continuous
 62
     7
370
    15
100
AcDbLine
 10
-1274.8254244163
 20
48.3363571026
 30
0.0
 11
-1173.751096433
 21
4.9315160969
 31
0.0
  0
LINE
  5
47B
330
1F
100
AcDbEntity
  8
0
  6
Continuous
 62
     7
370
    15
100
AcDbLine
 10
-993.9656250893
 20
79.9140443379
 30
0.0
 11
-1096.9180542935
 21
118.6541698017
 31
0.0
  0
LINE
  5
47C
330
1F
100
AcDbEntity
  8
0
  6
Continuous
 62
     7
370
    15
100
AcDbLine
 10
-1144.0029298694
 20
-6.4745503892
 30
0.0
 11
-1041.0505006652
 21
-45.214675853
 31
0.0
  0
LINE
  5
47D
330
1F
100
AcDbEntity
  8
0
  6
Continuous
 62
     7
370
    15
100
AcDbLine
 10
-864.2991051808
 20
39.5430780596
 30
0.0
 11
-968.9153219733
 21
73.5349474408
 31
0.0
  0
LINE
  5
47E
330
1F
100
AcDbEntity
  8
0
  6
Continuous
 62
     7
370
    15
100
AcDbLine
 10
-1010.4653281534
 20
-54.3428225494
 30
0.0
 11
-905.849111361
 21
-88.3346919306
 31
0.0
  0
LINE
  5
47F
330
1F
100
AcDbEntity
  8
0
  6
Continuous
 62
     7
370
    15
100
AcDbLine
 10
-734.1215467071
 20
1.1735030888
 30
0.0
 11
-840.1826859651
 21
30.3460027983
 31
0.0
  0
LINE
  5
480
330
1F
100
AcDbEntity
  8
0
  6
Continuous
 62
     7
370
    15
100
AcDbLine
 10
-875.8417292976
 20
-99.2979700653
 30
0.0
 11
-769.7805900396
 21
-128.4704697748
 31
0.0
  0
LINE
  5
481
330
1F
100
AcDbEntity
  8
0
  6
Continuous
 62
     7
370
    15
100
AcDbLine
 10
-601.8115424138
 20
-29.0031533229
 30
0.0
 11
-709.0951168686
 21
-4.7084079607
 31
0.0
  0
LINE
  5
482
330
1F
100
AcDbEntity
  8
0
  6
Continuous
 62
     7
370
    15
100
AcDbLine
 10
-738.7918307688
 20
-135.8466260924
 30
0.0
 11
-631.508256314
 21
-160.1413714547
 31
0.0
  0
LINE
  5
483
330
1F
100
AcDbEntity
  8
0
  6
Continuous
 62
     7
370
    15
100
AcDbLine
 10
-468.1960362219
 20
-52.6400066289
 30
0.0
 11
-576.4778132313
 21
-33.2736242179
 31
0.0
  0
LINE
  5
484
330
1F
100
AcDbEntity
  8
0
  6
Continuous
 62
     7
370
    15
100
AcDbLine
 10
-600.1503362055
 20
-165.6319965533
 30
0.0
 11
-491.8685591961
 21
-184.9983789643
 31
0.0
  0
LINE
  5
485
330
1F
100
AcDbEntity
  8
0
  6
Continuous
 62
     7
370
    15
100
AcDbLine
 10
-841.5255018668
 20
63.7951678814
 30
0.0
 11
-845.3570010009
 21
64.9439125815
 31
0.0
  0
LINE
  5
486
330
1F
100
AcDbEntity
  8
0
  6
Continuous
 62
     7
370
    15
100
AcDbLine
 10
-581.0501329532
 20
-1.2972561022
 30
0.0
 11
-584.9705271615
 21
-0.5032099752
 31
0.0
  0
LINE
  5
487
330
1F
100
AcDbEntity
  8
0
  6
Continuous
 62
     7
370
    15
100
AcDbLine
 10
-390.3780461562
 20
-613.4462582549
 30
0.0
 11
-335.9128615578
 21
-126.3850218811
 31
0.0
  0
LINE
  5
488
330
1F
100
AcDbEntity
  8
0
  6
Continuous
 62
     7
370
    15
100
AcDbLine
 10
-216.1229218773
 20
-137.3718727642
 30
0.0
 11
-251.1653409025
 21
-626.2145194105
 31
0.0
  0
LINE
  5
489
330
1F
100
AcDbEntity
  8
0
  6
Continuous
 62
     7
370
    15
100
AcDbLine
 10
-256.6092149964
 20
-630.8361159475
 30
0.0
 11
-385.8656890131
 21
-618.9810168508
 31
0.0
  0
LINE
  5
48A
330
1F
100
AcDbEntity
  8
0
  6
Continuous
 62
     7
370
    15
100
AcDbLine
 10
-330.4871615206
 20
-121.9615775891
 30
0.0
 11
-220.6534530772
 21
-132.0352664133
 31
0.0
  0
LINE
  5
48B
330
1F
100
AcDbEntity
  8
0
  6
Continuous
 62
     7
370
    15
100
AcDbLine
 10
840.1059935701
 20
-538.4193052419
 30
0.0
 11
713.5123545923
 21
-567.0868830988
 31
0.0
  0
LINE
  5
48C
330
1F
100
AcDbEntity
  8
0
  6
Continuous
 62
     7
370
    15
100
AcDbLine
 10
726.1219092016
 20
-56.5959685908
 30
0.0
 11
843.85527363
 21
-532.3416561295
 31
0.0
  0
LINE
  5
48D
330
1F
100
AcDbEntity
  8
0
  6
Continuous
 62
     7
370
    15
100
AcDbLine
 10
707.5105134617
 20
-563.2174099119
 30
0.0
 11
608.7997828444
 21
-83.1639795812
 31
0.0
  0
LINE
  5
48E
330
1F
100
AcDbEntity
  8
0
  6
Continuous
 62
     7
370
    15
100
AcDbLine
 10
612.5930107604
 20
-77.280400545
 30
0.0
 11
720.164015927
 21
-52.9205654801
 31
0.0
  0
LINE
  5
48F
330
1F
100
AcDbEntity
  8
0
  6
Continuous
 62
     7
370
    15
100
AcDbLine
 10
-353.6877836985
 20
-124.3442265908
 30
0.0
 11
-411.0347948859
 21
-611.0745673537
 31
0.0
  0
LINE
  5
490
330
1F
100
AcDbEntity
  8
0
  6
Continuous
 62
     7
370
    15
100
AcDbLine
 10
-467.228239748
 20
-103.7233307175
 30
0.0
 11
-357.9696860694
 21
-118.8061409663
 31
0.0
  0
LINE
  5
491
330
1F
100
AcDbEntity
  8
0
  6
Continuous
 62
     7
370
    15
100
AcDbLine
 10
-416.6841980606
 20
-615.4425375312
 30
0.0
 11
-545.2638081349
 21
-597.6925143493
 31
0.0
  0
LINE
  5
492
330
1F
100
AcDbEntity
  8
0
  6
Continuous
 62
     7
370
    15
100
AcDbLine
 10
-549.5184994359
 20
-591.9573141231
 30
0.0
 11
-488.7789733323
 21
-208.4630391855
 31
0.0
  0
LINE
  5
493
330
1F
100
AcDbEntity
  8
0
  6
Continuous
 62
     7
370
    15
100
AcDbLine
 10
476.908589036
 20
-102.1901140134
 30
0.0
 11
585.4804931629
 21
-82.7719691171
 31
0.0
  0
LINE
  5
494
330
1F
100
AcDbEntity
  8
0
  6
Continuous
 62
     7
370
    15
100
AcDbLine
 10
549.5184994359
 20
-591.9573141231
 30
0.0
 11
488.7924385616
 21
-208.5480552987
 31
0.0
  0
LINE
  5
495
330
1F
100
AcDbEntity
  8
0
  6
Continuous
 62
     7
370
    15
100
AcDbLine
 10
591.2641868891
 20
-86.7158209371
 30
0.0
 11
687.131885183
 21
-567.3450842317
 31
0.0
  0
LINE
  5
496
330
1F
100
AcDbEntity
  8
0
  6
Continuous
 62
     7
370
    15
100
AcDbLine
 10
683.1087604962
 20
-573.2450323211
 30
0.0
 11
555.3372256586
 21
-596.0970417526
 31
0.0
  0
LINE
  5
497
330
1F
100
AcDbEntity
  8
0
  6
Continuous
 62
     7
370
    15
100
AcDbLine
 10
-1273.8896023572
 20
-313.6784019694
 30
0.0
 11
-1292.7571669784
 21
-306.081979681
 31
0.0
  0
LINE
  5
498
330
1F
100
AcDbEntity
  8
0
  6
Continuous
 62
     7
370
    15
100
AcDbLine
 10
-1126.6320086644
 20
-368.5910935584
 30
0.0
 11
-1145.9046867079
 21
-361.8379586421
 31
0.0
  0
LINE
  5
499
330
1F
100
AcDbEntity
  8
0
  6
Continuous
 62
     7
370
    15
100
AcDbLine
 10
-977.0174747304
 20
-416.7127402555
 30
0.0
 11
-996.5787919053
 21
-410.847945242
 31
0.0
  0
LINE
  5
49A
330
1F
100
AcDbEntity
  8
0
  6
Continuous
 62
     7
370
    15
100
AcDbLine
 10
-702.2833017974
 20
-537.7962538246
 30
0.0
 11
-682.0431588457
 21
-541.8308193306
 31
0.0
  0
LINE
  5
49B
330
1F
100
AcDbEntity
  8
0
  6
Continuous
 62
     7
370
    15
100
AcDbLine
 10
-838.3356561502
 20
-507.1863811108
 30
0.0
 11
-837.6687616426
 21
-507.3427408838
 31
0.0
  0
LINE
  5
49C
330
1F
100
AcDbEntity
  8
0
  6
Continuous
 62
     7
370
    15
100
AcDbLine
 10
-844.3251666156
 20
-510.8315434104
 30
0.0
 11
-844.5900712514
 21
-511.8818147944
 31
0.0
  0
LINE
  5
49D
330
1F
100
AcDbEntity
  8
0
  6
Continuous
 62
     7
370
    15
100
AcDbLine
 10
-849.4382350411
 20
-510.6589869783
 30
0.0
 11
-844.5900712514
 21
-511.8818147944
 31
0.0
  0
LINE
  5
49E
330
1F
100
AcDbEntity
  8
0
  6
Continuous
 62
     7
370
    15
100
AcDbLine
 10
-850.1719317308
 20
-513.5678852522
 30
0.0
 11
-849.4382350411
 21
-510.6589869783
 31
0.0
  0
LINE
  5
49F
330
1F
100
AcDbEntity
  8
0
  6
Continuous
 62
     7
370
    15
100
AcDbLine
 10
-859.8682593103
 20
-511.12222962
 30
0.0
 11
-850.1719317308
 21
-513.5678852522
 31
0.0
  0
LINE
  5
4A0
330
1F
100
AcDbEntity
  8
0
  6
Continuous
 62
     7
370
    15
100
AcDbLine
 10
-859.1815315892
 20
-508.2014846009
 30
0.0
 11
-859.1345626206
 21
-508.2133313462
 31
0.0
  0
LINE
  5
4A1
330
1F
100
AcDbEntity
  8
0
  6
Continuous
 62
     7
370
    15
100
AcDbLine
 10
-1162.8427578832
 20
-409.7207865136
 30
0.0
 11
-1143.2437321904
 21
-416.4543380036
 31
0.0
  0
LINE
  5
4A2
330
1F
100
AcDbEntity
  8
0
  6
Continuous
 62
     7
370
    15
100
AcDbLine
 10
-1296.1728983852
 20
-369.3582588268
 30
0.0
 11
-1295.05666397
 21
-366.5736545945
 31
0.0
  0
LINE
  5
4A3
330
1F
100
AcDbEntity
  8
0
  6
Continuous
 62
     7
370
    15
100
AcDbLine
 10
-1308.9796851314
 20
-360.9924825188
 30
0.0
 11
-1304.3386780776
 21
-362.8528732107
 31
0.0
  0
LINE
  5
4A4
330
1F
100
AcDbEntity
  8
0
  6
Continuous
 62
     7
370
    15
100
AcDbLine
 10
-1308.9796851314
 20
-360.9924825188
 30
0.0
 11
-1308.5766634532
 21
-359.9870880822
 31
0.0
  0
LINE
  5
4A5
330
1F
100
AcDbEntity
  8
0
  6
Continuous
 62
     7
370
    15
100
AcDbLine
 10
-1436.9070506695
 20
-243.6731244435
 30
0.0
 11
-1435.652511841
 21
-240.9480169041
 31
0.0
  0
LINE
  5
4A6
330
1F
100
AcDbEntity
  8
0
  6
Continuous
 62
     7
370
    15
100
AcDbLine
 10
-1418.4073244712
 20
-252.1234745476
 30
0.0
 11
-1436.9070506695
 21
-243.6731244435
 31
0.0
  0
LINE
  5
4A7
330
1F
100
AcDbEntity
  8
0
  6
Continuous
 62
     7
370
    15
100
AcDbLine
 10
-1295.05666397
 20
-366.5736545945
 30
0.0
 11
-1295.0117019341
 21
-366.5916780433
 31
0.0
  0
LINE
  5
4A8
330
1F
100
AcDbEntity
  8
0
  6
Continuous
 62
     7
370
    15
100
AcDbLine
 10
-672.1360700008
 20
-492.1622791706
 30
0.0
 11
-692.0696540544
 21
-488.1248897823
 31
0.0
  0
LINE
  5
4A9
330
1F
100
AcDbEntity
  8
0
  6
Continuous
 62
     7
370
    15
100
AcDbLine
 10
-1305.4549124928
 20
-365.6374774429
 30
0.0
 11
-1296.1728983852
 21
-369.3582588268
 31
0.0
  0
LINE
  5
4AA
330
1F
100
AcDbEntity
  8
0
  6
Continuous
 62
     7
370
    15
100
AcDbLine
 10
-825.4387803651
 20
-457.9229279037
 30
0.0
 11
-845.1680257774
 21
-452.9784864005
 31
0.0
  0
LINE
  5
4AB
330
1F
100
AcDbEntity
  8
0
  6
Continuous
 62
     7
370
    15
100
AcDbLine
 10
-1304.3386780776
 20
-362.8528732107
 30
0.0
 11
-1305.4549124928
 21
-365.6374774429
 31
0.0
  0
LINE
  5
4AC
330
1F
100
AcDbEntity
  8
0
  6
Continuous
 62
     7
370
    15
100
AcDbLine
 10
-859.1345626206
 20
-508.2133313462
 30
0.0
 11
-859.8682593103
 21
-511.12222962
 31
0.0
  0
LINE
  5
4AD
330
1F
100
AcDbEntity
  8
0
  6
Continuous
 62
     7
370
    15
100
AcDbLine
 10
-1011.2729344784
 20
-459.3342495078
 30
0.0
 11
-991.4591073583
 21
-465.4067101814
 31
0.0
  0
LINE
  5
4AE
330
1F
100
AcDbEntity
  8
0
  6
Continuous
 62
     7
370
    15
100
AcDbLine
 10
-1458.0868591743
 20
-289.6788849274
 30
0.0
 11
-1439.3404051177
 21
-298.3118837074
 31
0.0
  0
LINE
  5
4AF
330
1F
100
AcDbEntity
  8
0
  6
Continuous
 62
     7
370
    15
100
AcDbLine
 10
-1311.9111415246
 20
-353.2520508717
 30
0.0
 11
-1311.2797065658
 21
-353.5175439146
 31
0.0
  0
LINE
  5
4B0
330
1F
100
AcDbEntity
  8
0
  6
Continuous
 62
     7
370
    15
100
AcDbLine
 10
411.0343365021
 20
-611.0744702399
 30
0.0
 11
353.6878780955
 21
-124.3440643482
 31
0.0
  0
LINE
  5
4B1
330
1F
100
AcDbEntity
  8
0
  6
Continuous
 62
     7
370
    15
100
AcDbLine
 10
488.8143293099
 20
-208.6862680432
 30
0.0
 11
549.5180627636
 21
-591.9573742856
 31
0.0
  0
LINE
  5
4B2
330
1F
100
AcDbEntity
  8
0
  6
Continuous
 62
     7
370
    15
100
AcDbLine
 10
545.263364949
 20
-597.6925696797
 30
0.0
 11
416.6837347161
 21
-615.4424468334
 31
0.0
  0
LINE
  5
4B3
330
1F
100
AcDbEntity
  8
0
  6
Continuous
 62
     7
370
    15
100
AcDbLine
 10
357.969786756
 20
-118.8059835867
 30
0.0
 11
467.2283575641
 21
-103.7232974231
 31
0.0
  0
LINE
  5
4B4
330
1F
100
AcDbEntity
  8
0
  6
Continuous
 62
     7
370
    15
100
AcDbLine
 10
1266.3793454334
 20
138.4656446068
 30
0.0
 11
1365.6296148161
 21
186.5728867268
 31
0.0
  0
LINE
  5
4B5
330
1F
100
AcDbEntity
  8
0
  6
Continuous
 62
     7
370
    15
100
AcDbLine
 10
1468.9660594248
 20
-313.3116597211
 30
0.0
 11
1264.0183693711
 21
131.8754342663
 31
0.0
  0
LINE
  5
4B6
330
1F
100
AcDbEntity
  8
0
  6
Continuous
 62
     7
370
    15
100
AcDbLine
 10
1372.2654999754
 20
184.3435127225
 30
0.0
 11
1594.7644021536
 21
-252.3363961819
 31
0.0
  0
LINE
  5
4B7
330
1F
100
AcDbEntity
  8
0
  6
Continuous
 62
     7
370
    15
100
AcDbLine
 10
1592.490216915
 20
-259.1056650643
 30
0.0
 11
1475.6887354078
 21
-315.7200922673
 31
0.0
  0
LINE
  5
4B8
330
1F
100
AcDbEntity
  8
0
  6
Continuous
 62
     7
370
    15
100
AcDbLine
 10
-593.2755448114
 20
-98.7937713624
 30
0.0
 11
-611.6382823703
 21
-95.0358597311
 31
0.0
  0
LINE
  5
4B9
330
1F
100
AcDbEntity
  8
0
  6
Continuous
 62
     7
370
    15
100
AcDbLine
 10
-728.6318039055
 20
-68.3421524296
 30
0.0
 11
-746.797668553
 21
-63.7658728035
 31
0.0
  0
LINE
  5
4BA
330
1F
100
AcDbEntity
  8
0
  6
Continuous
 62
     7
370
    15
100
AcDbLine
 10
-1124.6993860895
 20
59.0220553656
 30
0.0
 11
-1142.0857325533
 21
65.9974090498
 31
0.0
  0
LINE
  5
4BB
330
1F
100
AcDbEntity
  8
0
  6
Continuous
 62
     7
370
    15
100
AcDbLine
 10
-1252.4255981609
 20
113.1689269381
 30
0.0
 11
-1269.4900943542
 21
120.9220273012
 31
0.0
  0
LINE
  5
4BC
330
1F
100
AcDbEntity
  8
0
  6
Continuous
 62
     7
370
    15
100
AcDbLine
 10
-593.7959299339
 20
-101.7033610108
 30
0.0
 11
-612.2910291676
 21
-97.9183352865
 31
0.0
  0
LINE
  5
4BD
330
1F
100
AcDbEntity
  8
0
  6
Continuous
 62
     7
370
    15
100
AcDbLine
 10
-729.2845215747
 20
-71.2244993579
 30
0.0
 11
-747.581386977
 21
-66.6152024712
 31
0.0
  0
LINE
  5
4BE
330
1F
100
AcDbEntity
  8
0
  6
Continuous
 62
     7
370
    15
100
AcDbLine
 10
-1125.7401385455
 20
56.2562410512
 30
0.0
 11
-1143.25187386
 21
63.2818836342
 31
0.0
  0
LINE
  5
4BF
330
1F
100
AcDbEntity
  8
0
  6
Continuous
 62
     7
370
    15
100
AcDbLine
 10
-1253.591791556
 20
110.4532802275
 30
0.0
 11
-1270.7793108613
 21
118.2622465752
 31
0.0
  0
LINE
  5
4C0
330
1F
100
AcDbEntity
  8
0
  6
Continuous
 62
     7
370
    15
100
AcDbLine
 10
-1274.5410016196
 20
110.5015077687
 30
0.0
 11
-1256.9969900799
 21
102.5237925373
 31
0.0
  0
LINE
  5
4C1
330
1F
100
AcDbEntity
  8
0
  6
Continuous
 62
     7
370
    15
100
AcDbLine
 10
-1146.6692164679
 20
55.3241167221
 30
0.0
 11
-1128.7913544943
 21
48.1475916807
 31
0.0
  0
LINE
  5
4C2
330
1F
100
AcDbEntity
  8
0
  6
Continuous
 62
     7
370
    15
100
AcDbLine
 10
-749.8790460461
 20
-74.9686977467
 30
0.0
 11
-731.1972915427
 21
-79.6711324142
 31
0.0
  0
LINE
  5
4C3
330
1F
100
AcDbEntity
  8
0
  6
Continuous
 62
     7
370
    15
100
AcDbLine
 10
-614.1970017964
 20
-106.3349518582
 30
0.0
 11
-595.3143158134
 21
-110.1929961803
 31
0.0
  0
LINE
  5
4C4
330
1F
100
AcDbEntity
  8
0
  6
Continuous
 62
     7
370
    15
100
AcDbLine
 10
-584.1635195987
 20
-47.8463997137
 30
0.0
 11
-600.2015236003
 21
-44.5320844198
 31
0.0
  0
LINE
  5
4C5
330
1F
100
AcDbEntity
  8
0
  6
Continuous
 62
     7
370
    15
100
AcDbLine
 10
-717.1542209546
 20
-17.6581009319
 30
0.0
 11
-733.0114424501
 21
-13.6439133863
 31
0.0
  0
LINE
  5
4C6
330
1F
100
AcDbEntity
  8
0
  6
Continuous
 62
     7
370
    15
100
AcDbLine
 10
-1106.3917296048
 20
107.6749103981
 30
0.0
 11
-1121.5799561622
 21
113.7480175185
 31
0.0
  0
LINE
  5
4C7
330
1F
100
AcDbEntity
  8
0
  6
Continuous
 62
     7
370
    15
100
AcDbLine
 10
-1231.9927579976
 20
160.7496930567
 30
0.0
 11
-1246.9157134934
 21
167.4952000673
 31
0.0
  0
LINE
  5
4C8
330
1F
100
AcDbEntity
  8
0
  6
Continuous
 62
     7
370
    15
100
AcDbLine
 10
-584.6839280937
 20
-50.7561200433
 30
0.0
 11
-600.8542499282
 21
-47.4144695836
 31
0.0
  0
LINE
  5
4C9
330
1F
100
AcDbEntity
  8
0
  6
Continuous
 62
     7
370
    15
100
AcDbLine
 10
-717.8069583777
 20
-20.5405350915
 30
0.0
 11
-733.7951486796
 21
-16.493198719
 31
0.0
  0
LINE
  5
4CA
330
1F
100
AcDbEntity
  8
0
  6
Continuous
 62
     7
370
    15
100
AcDbLine
 10
-1107.4324658661
 20
104.9091391215
 30
0.0
 11
-1122.7461327591
 21
111.0324099248
 31
0.0
  0
LINE
  5
4CB
330
1F
100
AcDbEntity
  8
0
  6
Continuous
 62
     7
370
    15
100
AcDbLine
 10
-1233.15891482
 20
158.0341315105
 30
0.0
 11
-1248.2049879051
 21
164.8352998782
 31
0.0
  0
LINE
  5
4CC
330
1F
100
AcDbEntity
  8
0
  6
Continuous
 62
     7
370
    15
100
AcDbLine
 10
-1251.9678725159
 20
157.0720980364
 30
0.0
 11
-1236.5645949355
 21
150.103522366
 31
0.0
  0
LINE
  5
4CD
330
1F
100
AcDbEntity
  8
0
  6
Continuous
 62
     7
370
    15
100
AcDbLine
 10
-1126.1639569311
 20
103.0735216221
 30
0.0
 11
-1110.4837895247
 21
96.8002035107
 31
0.0
  0
LINE
  5
4CE
330
1F
100
AcDbEntity
  8
0
  6
Continuous
 62
     7
370
    15
100
AcDbLine
 10
-736.0928888575
 20
-24.846988878
 30
0.0
 11
-719.7199978889
 21
-28.9883584281
 31
0.0
  0
LINE
  5
4CF
330
1F
100
AcDbEntity
  8
0
  6
Continuous
 62
     7
370
    15
100
AcDbLine
 10
-602.7604921154
 20
-55.8322765033
 30
0.0
 11
-586.2027958573
 21
-59.2484495342
 31
0.0
  0
LINE
  5
4D0
330
1F
100
AcDbEntity
  8
0
  6
Continuous
 62
     7
370
    15
100
AcDbLine
 10
220.6534530772
 20
-132.0352664133
 30
0.0
 11
330.4871615206
 21
-121.9615775891
 31
0.0
  0
LINE
  5
4D1
330
1F
100
AcDbEntity
  8
0
  6
Continuous
 62
     7
370
    15
100
AcDbLine
 10
251.1653409024
 20
-626.2145194105
 30
0.0
 11
216.1229218773
 21
-137.3718727642
 31
0.0
  0
LINE
  5
4D2
330
1F
100
AcDbEntity
  8
0
  6
Continuous
 62
     7
370
    15
100
AcDbLine
 10
335.9128615577
 20
-126.3850218811
 30
0.0
 11
390.3780461562
 21
-613.4462582549
 31
0.0
  0
LINE
  5
4D3
330
1F
100
AcDbEntity
  8
0
  6
Continuous
 62
     7
370
    15
100
AcDbLine
 10
385.8656890131
 20
-618.9810168508
 30
0.0
 11
256.6092149964
 21
-630.8361159475
 31
0.0
  0
LINE
  5
4D4
330
1F
100
AcDbEntity
  8
0
  6
Continuous
 62
     7
370
    15
100
AcDbLine
 10
1321.6001418955
 20
-377.1129386558
 30
0.0
 11
1137.212135546
 21
76.9753428774
 31
0.0
  0
LINE
  5
4D5
330
1F
100
AcDbEntity
  8
0
  6
Continuous
 62
     7
370
    15
100
AcDbLine
 10
1139.8718247112
 20
83.4507682566
 30
0.0
 11
1241.2169477924
 21
126.9718981202
 31
0.0
  0
LINE
  5
4D6
330
1F
100
AcDbEntity
  8
0
  6
Continuous
 62
     7
370
    15
100
AcDbLine
 10
1447.4725104936
 20
-328.6087721963
 30
0.0
 11
1328.2057256976
 21
-379.8260885477
 31
0.0
  0
LINE
  5
4D7
330
1F
100
AcDbEntity
  8
0
  6
Continuous
 62
     7
370
    15
100
AcDbLine
 10
1247.7440146281
 20
124.4415861197
 30
0.0
 11
1450.0536826925
 21
-321.9505089256
 31
0.0
  0
LINE
  5
4D8
330
1F
100
AcDbEntity
  8
0
  6
Continuous
 62
     7
370
    15
100
AcDbLine
 10
90.7703006306
 20
-634.0324014493
 30
0.0
 11
78.1058863672
 21
-144.0990213632
 31
0.0
  0
LINE
  5
4D9
330
1F
100
AcDbEntity
  8
0
  6
Continuous
 62
     7
370
    15
100
AcDbLine
 10
198.2727841211
 20
-138.5983645674
 30
0.0
 11
230.4210840177
 21
-627.639867024
 31
0.0
  0
LINE
  5
4DA
330
1F
100
AcDbEntity
  8
0
  6
Continuous
 62
     7
370
    15
100
AcDbLine
 10
225.6604889283
 20
-632.9626157591
 30
0.0
 11
95.9972673037
 21
-638.8979681276
 31
0.0
  0
LINE
  5
4DB
330
1F
100
AcDbEntity
  8
0
  6
Continuous
 62
     7
370
    15
100
AcDbLine
 10
82.8755804469
 20
-138.9750484236
 30
0.0
 11
193.0549164382
 21
-133.9315736847
 31
0.0
  0
LINE
  5
4DC
330
1F
100
AcDbEntity
  8
0
  6
Continuous
 62
     7
370
    15
100
AcDbLine
 10
1010.9817917233
 20
34.2749392624
 30
0.0
 11
1114.2100477739
 21
73.1188560279
 31
0.0
  0
LINE
  5
4DD
330
1F
100
AcDbEntity
  8
0
  6
Continuous
 62
     7
370
    15
100
AcDbLine
 10
1120.6146525268
 20
70.2928839371
 30
0.0
 11
1302.311637845
 21
-384.8788527047
 31
0.0
  0
LINE
  5
4DE
330
1F
100
AcDbEntity
  8
0
  6
Continuous
 62
     7
370
    15
100
AcDbLine
 10
1171.4712520736
 20
-434.1129795699
 30
0.0
 11
1008.0289378052
 21
27.9278348804
 31
0.0
  0
LINE
  5
4DF
330
1F
100
AcDbEntity
  8
0
  6
Continuous
 62
     7
370
    15
100
AcDbLine
 10
1299.4288626798
 20
-391.4121923598
 30
0.0
 11
1177.9459355793
 21
-437.1251869337
 31
0.0
  0
LINE
  5
4E0
330
1F
100
AcDbEntity
  8
0
  6
Continuous
 62
     7
370
    15
100
AcDbLine
 10
-993.6423972558
 20
66.5758606543
 30
0.0
 11
-991.5800594036
 21
65.8532187668
 31
0.0
  0
LINE
  5
4E1
330
1F
100
AcDbEntity
  8
0
  6
Continuous
 62
     7
370
    15
100
AcDbLine
 10
-990.2774101672
 20
69.5708317016
 30
0.0
 11
-992.2547042706
 21
70.263674313
 31
0.0
  0
LINE
  5
4E2
330
1F
100
AcDbEntity
  8
0
  6
Continuous
 62
     7
370
    15
100
AcDbLine
 10
-973.0845333429
 20
106.5412884253
 30
0.0
 11
-985.1997978241
 21
71.9656999358
 31
0.0
  0
LINE
  5
4E3
330
1F
100
AcDbEntity
  8
0
  6
Continuous
 62
     7
370
    15
100
AcDbLine
 10
-984.3785741487
 20
62.2133184542
 30
0.0
 11
-969.3095702362
 21
105.2185437247
 31
0.0
  0
LINE
  5
4E4
330
1F
100
AcDbEntity
  8
0
  6
Continuous
 62
     7
370
    15
100
AcDbLine
 10
-1001.5971075631
 20
13.0735801804
 30
0.0
 11
-988.2253428313
 21
51.2350776416
 31
0.0
  0
LINE
  5
4E5
330
1F
100
AcDbEntity
  8
0
  6
Continuous
 62
     7
370
    15
100
AcDbLine
 10
-1001.6118667412
 20
13.0787343287
 30
0.0
 11
-1001.4343184974
 21
13.5381616805
 31
0.0
  0
LINE
  5
4E6
330
1F
100
AcDbEntity
  8
0
  6
Continuous
 62
     7
370
    15
100
AcDbLine
 10
-1027.5744798443
 20
-48.966828625
 30
0.0
 11
-1023.7995167376
 21
-50.2895733256
 31
0.0
  0
LINE
  5
4E7
330
1F
100
AcDbEntity
  8
0
  6
Continuous
 62
     7
370
    15
100
AcDbLine
 10
-1009.2192705582
 20
3.4168534559
 30
0.0
 11
-1027.5744798443
 21
-48.966828625
 31
0.0
  0
LINE
  5
4E8
330
1F
100
AcDbEntity
  8
0
  6
Continuous
 62
     7
370
    15
100
AcDbLine
 10
-1023.7995167376
 20
-50.2895733256
 30
0.0
 11
-1005.4438507489
 21
2.0954121327
 31
0.0
  0
LINE
  5
4E9
330
1F
100
AcDbEntity
  8
0
  6
Continuous
 62
     7
370
    15
100
AcDbLine
 10
-1246.1630242175
 20
169.0480722324
 30
0.0
 11
-1244.2078401021
 21
168.1549792495
 31
0.0
  0
LINE
  5
4EA
330
1F
100
AcDbEntity
  8
0
  6
Continuous
 62
     7
370
    15
100
AcDbLine
 10
-1242.5711358161
 20
171.7380980092
 30
0.0
 11
-1244.4443968057
 21
172.5937699799
 31
0.0
  0
LINE
  5
4EB
330
1F
100
AcDbEntity
  8
0
  6
Continuous
 62
     7
370
    15
100
AcDbLine
 10
-1222.0739002636
 20
206.9839916504
 30
0.0
 11
-1237.296037388
 21
173.6592636813
 31
0.0
  0
LINE
  5
4EC
330
1F
100
AcDbEntity
  8
0
  6
Continuous
 62
     7
370
    15
100
AcDbLine
 10
-1237.6354015369
 20
163.2890909857
 30
0.0
 11
-1218.4355061214
 21
205.3220385627
 31
0.0
  0
LINE
  5
4ED
330
1F
100
AcDbEntity
  8
0
  6
Continuous
 62
     7
370
    15
100
AcDbLine
 10
-1259.1422604003
 20
116.2056745616
 30
0.0
 11
-1242.447986921
 21
152.7532445772
 31
0.0
  0
LINE
  5
4EE
330
1F
100
AcDbEntity
  8
0
  6
Continuous
 62
     7
370
    15
100
AcDbLine
 10
-1259.1825774837
 20
116.223961116
 30
0.0
 11
-1258.798415563
 21
116.9584292881
 31
0.0
  0
LINE
  5
4EF
330
1F
100
AcDbEntity
  8
0
  6
Continuous
 62
     7
370
    15
100
AcDbLine
 10
-1290.5374025526
 20
57.1017792547
 30
0.0
 11
-1286.8990084103
 21
55.439826167
 31
0.0
  0
LINE
  5
4F0
330
1F
100
AcDbEntity
  8
0
  6
Continuous
 62
     7
370
    15
100
AcDbLine
 10
-1286.8990084103
 20
55.439826167
 30
0.0
 11
-1263.9540545762
 21
105.671560288
 31
0.0
  0
LINE
  5
4F1
330
1F
100
AcDbEntity
  8
0
  6
Continuous
 62
     7
370
    15
100
AcDbLine
 10
-1267.5952784931
 20
107.327318354
 30
0.0
 11
-1290.5374025526
 21
57.1017792547
 31
0.0
  0
LINE
  5
4F2
330
1F
100
AcDbEntity
  8
0
  6
Continuous
 62
     7
370
    15
100
AcDbLine
 10
-1273.9770456559
 20
110.2430062614
 30
0.0
 11
-1468.9665253834
 21
-313.3116104334
 31
0.0
  0
LINE
  5
4F3
330
1F
100
AcDbEntity
  8
0
  6
Continuous
 62
     7
370
    15
100
AcDbLine
 10
-1475.6892041017
 20
-315.7200353446
 30
0.0
 11
-1592.4906213118
 21
-259.10547549
 31
0.0
  0
LINE
  5
4F4
330
1F
100
AcDbEntity
  8
0
  6
Continuous
 62
     7
370
    15
100
AcDbLine
 10
-1594.7647988624
 20
-252.3362040248
 30
0.0
 11
-1372.2654007461
 21
184.3434521869
 31
0.0
  0
LINE
  5
4F5
330
1F
100
AcDbEntity
  8
0
  6
Continuous
 62
     7
370
    15
100
AcDbLine
 10
-1450.0536826925
 20
-321.9505089256
 30
0.0
 11
-1257.5619028676
 21
102.7786189365
 31
0.0
  0
LINE
  5
4F6
330
1F
100
AcDbEntity
  8
0
  6
Continuous
 62
     7
370
    15
100
AcDbLine
 10
-1252.7804182067
 20
113.3288658704
 30
0.0
 11
-1247.7440146281
 21
124.4415861197
 31
0.0
  0
LINE
  5
4F7
330
1F
100
AcDbEntity
  8
0
  6
Continuous
 62
     7
370
    15
100
AcDbLine
 10
-1328.2057256976
 20
-379.8260885477
 30
0.0
 11
-1447.4725104936
 21
-328.6087721963
 31
0.0
  0
LINE
  5
4F8
330
1F
100
AcDbEntity
  8
0
  6
Continuous
 62
     7
370
    15
100
AcDbLine
 10
-1137.212135546
 20
76.9753428774
 30
0.0
 11
-1141.72854756
 21
65.8528744982
 31
0.0
  0
LINE
  5
4F9
330
1F
100
AcDbEntity
  8
0
  6
Continuous
 62
     7
370
    15
100
AcDbLine
 10
-1146.0978268046
 20
55.092746749
 30
0.0
 11
-1321.6001418955
 21
-377.1129386558
 31
0.0
  0
LINE
  5
4FA
330
1F
100
AcDbEntity
  8
0
  6
Continuous
 62
     7
370
    15
100
AcDbLine
 10
-1302.311637845
 20
-384.8788527047
 30
0.0
 11
-1129.3637613351
 21
48.3753653643
 31
0.0
  0
LINE
  5
4FB
330
1F
100
AcDbEntity
  8
0
  6
Continuous
 62
     7
370
    15
100
AcDbLine
 10
-1125.0569991991
 20
59.1642972627
 30
0.0
 11
-1120.6146525268
 21
70.2928839371
 31
0.0
  0
LINE
  5
4FC
330
1F
100
AcDbEntity
  8
0
  6
Continuous
 62
     7
370
    15
100
AcDbLine
 10
-1177.9459355793
 20
-437.1251869337
 30
0.0
 11
-1299.4288626798
 21
-391.4121923598
 31
0.0
  0
LINE
  5
4FD
330
1F
100
AcDbEntity
  8
0
  6
Continuous
 62
     7
370
    15
100
AcDbLine
 10
-1015.8711410074
 20
5.7584354145
 30
0.0
 11
-1171.4712520736
 21
-434.1129795699
 31
0.0
  0
LINE
  5
4FE
330
1F
100
AcDbEntity
  8
0
  6
Continuous
 62
     7
370
    15
100
AcDbLine
 10
-876.6701989226
 20
-15.1852181102
 30
0.0
 11
-880.1147103536
 21
-26.5510823285
 31
0.0
  0
LINE
  5
4FF
330
1F
100
AcDbEntity
  8
0
  6
Continuous
 62
     7
370
    15
100
AcDbLine
 10
-883.4886472521
 20
-37.6840715598
 30
0.0
 11
-1018.813686132
 21
-484.2164893014
 31
0.0
  0
LINE
  5
500
330
1F
100
AcDbEntity
  8
0
  6
Continuous
 62
     7
370
    15
100
AcDbLine
 10
-1025.143856884
 20
-487.5216153131
 30
0.0
 11
-1148.5900381579
 21
-447.4115195924
 31
0.0
  0
LINE
  5
501
330
1F
100
AcDbEntity
  8
0
  6
Continuous
 62
     7
370
    15
100
AcDbLine
 10
-1151.7685495469
 20
-441.016835468
 30
0.0
 11
-998.7836153142
 21
-0.2223994093
 31
0.0
  0
LINE
  5
502
330
1F
100
AcDbEntity
  8
0
  6
Continuous
 62
     7
370
    15
100
AcDbLine
 10
-994.9693807774
 20
10.7675282595
 30
0.0
 11
-991.0753822689
 21
21.9872793101
 31
0.0
  0
LINE
  5
503
330
1F
100
AcDbEntity
  8
0
  6
Continuous
 62
     7
370
    15
100
AcDbLine
 10
-870.1971057486
 20
-530.8780444354
 30
0.0
 11
-995.348282348
 21
-496.4547609545
 31
0.0
  0
LINE
  5
504
330
1F
100
AcDbEntity
  8
0
  6
Continuous
 62
     7
370
    15
100
AcDbLine
 10
-998.815880272
 20
-490.2121105286
 30
0.0
 11
-866.149107053
 21
-42.8892882691
 31
0.0
  0
LINE
  5
505
330
1F
100
AcDbEntity
  8
0
  6
Continuous
 62
     7
370
    15
100
AcDbLine
 10
-743.4774058422
 20
-52.2464356938
 30
0.0
 11
-746.4247418972
 21
-63.860997806
 31
0.0
  0
LINE
  5
506
330
1F
100
AcDbEntity
  8
0
  6
Continuous
 62
     7
370
    15
100
AcDbLine
 10
-749.2820733408
 20
-75.120878901
 30
0.0
 11
-864.0246909515
 21
-527.2869143522
 31
0.0
  0
LINE
  5
507
330
1F
100
AcDbEntity
  8
0
  6
Continuous
 62
     7
370
    15
100
AcDbLine
 10
-843.85527363
 20
-532.3416561295
 30
0.0
 11
-731.7955555755
 21
-79.5224585291
 31
0.0
  0
LINE
  5
508
330
1F
100
AcDbEntity
  8
0
  6
Continuous
 62
     7
370
    15
100
AcDbLine
 10
-729.0057321801
 20
-68.2491337939
 30
0.0
 11
-726.1219092016
 21
-56.5959685908
 31
0.0
  0
LINE
  5
509
330
1F
100
AcDbEntity
  8
0
  6
Continuous
 62
     7
370
    15
100
AcDbLine
 10
-713.5123545924
 20
-567.0868830988
 30
0.0
 11
-840.1059935701
 21
-538.4193052419
 31
0.0
  0
LINE
  5
50A
330
1F
100
AcDbEntity
  8
0
  6
Continuous
 62
     7
370
    15
100
AcDbLine
 10
-608.7997828444
 20
-83.1639795812
 30
0.0
 11
-611.2572104362
 21
-95.1150262187
 31
0.0
  0
LINE
  5
50B
330
1F
100
AcDbEntity
  8
0
  6
Continuous
 62
     7
370
    15
100
AcDbLine
 10
-613.5901878427
 20
-106.4608424219
 30
0.0
 11
-707.5105134617
 21
-563.2174099119
 31
0.0
  0
LINE
  5
50C
330
1F
100
AcDbEntity
  8
0
  6
Continuous
 62
     7
370
    15
100
AcDbLine
 10
-488.8143291921
 20
-208.6862672989
 30
0.0
 11
-549.5189333272
 21
-591.9572364018
 31
0.0
  0
LINE
  5
50D
330
1F
100
AcDbEntity
  8
0
  6
Continuous
 62
     7
370
    15
100
AcDbLine
 10
-687.132291122
 20
-567.3448502227
 30
0.0
 11
-595.922519175
 21
-110.0706406426
 31
0.0
  0
LINE
  5
50E
330
1F
100
AcDbEntity
  8
0
  6
Continuous
 62
     7
370
    15
100
AcDbLine
 10
-555.3376642514
 20
-596.096957423
 30
0.0
 11
-683.1091731359
 21
-573.2448028811
 31
0.0
  0
LINE
  5
50F
330
1F
100
AcDbEntity
  8
0
  6
Continuous
 62
     7
370
    15
100
AcDbLine
 10
-1296.5115893055
 20
65.1740198355
 30
0.0
 11
-1242.5596944985
 21
176.482096606
 31
0.0
  0
LINE
  5
510
330
1F
100
AcDbEntity
  8
0
  6
Continuous
 62
     7
370
    15
100
AcDbLine
 10
-1350.5433496953
 20
228.8226182918
 30
0.0
 11
-1404.4952445021
 21
117.5145415216
 31
0.0
  0
LINE
  5
511
330
1F
100
AcDbEntity
  8
0
  6
Continuous
 62
     7
370
    15
100
AcDbLine
 10
-1167.1838614789
 20
7.5528564141
 30
0.0
 11
-1118.3753699675
 21
121.2103509491
 31
0.0
  0
LINE
  5
512
330
1F
100
AcDbEntity
  8
0
  6
Continuous
 62
     7
370
    15
100
AcDbLine
 10
-1228.6382732222
 20
168.5610865913
 30
0.0
 11
-1277.4467647334
 21
54.9035920566
 31
0.0
  0
LINE
  5
513
330
1F
100
AcDbEntity
  8
0
  6
Continuous
 62
     7
370
    15
100
AcDbLine
 10
-1034.6099299985
 20
-42.2959347739
 30
0.0
 11
-991.04688401
 21
73.4734736715
 31
0.0
  0
LINE
  5
514
330
1F
100
AcDbEntity
  8
0
  6
Continuous
 62
     7
370
    15
100
AcDbLine
 10
-1103.3586249602
 20
115.7354287226
 30
0.0
 11
-1146.9216709486
 21
-0.0339797225
 31
0.0
  0
LINE
  5
515
330
1F
100
AcDbEntity
  8
0
  6
Continuous
 62
     7
370
    15
100
AcDbLine
 10
-899.5487438076
 20
-85.124494321
 30
0.0
 11
-861.0889075711
 21
33.2427105065
 31
0.0
  0
LINE
  5
516
330
1F
100
AcDbEntity
  8
0
  6
Continuous
 62
     7
370
    15
100
AcDbLine
 10
-975.2156895266
 20
70.3247498312
 30
0.0
 11
-1013.675525763
 21
-48.042454996
 31
0.0
  0
LINE
  5
517
330
1F
100
AcDbEntity
  8
0
  6
Continuous
 62
     7
370
    15
100
AcDbLine
 10
-763.6336064502
 20
-124.9755316135
 30
0.0
 11
-730.6266085457
 21
-4.9734805003
 31
0.0
  0
LINE
  5
518
330
1F
100
AcDbEntity
  8
0
  6
Continuous
 62
     7
370
    15
100
AcDbLine
 10
-846.3296695545
 20
26.851064637
 30
0.0
 11
-879.3366674589
 21
-93.1509864759
 31
0.0
  0
LINE
  5
519
330
1F
100
AcDbEntity
  8
0
  6
Continuous
 62
     7
370
    15
100
AcDbLine
 10
-625.5274235951
 20
-156.3691519505
 30
0.0
 11
-598.0393229096
 21
-34.9839860416
 31
0.0
  0
LINE
  5
51A
330
1F
100
AcDbEntity
  8
0
  6
Continuous
 62
     7
370
    15
100
AcDbLine
 10
-715.0759495875
 20
-8.4806274649
 30
0.0
 11
-742.564050273
 21
-129.8657933735
 31
0.0
  0
LINE
  5
51B
330
1F
100
AcDbEntity
  8
0
  6
Continuous
 62
     7
370
    15
100
AcDbLine
 10
-486.0663701316
 20
-180.956770119
 30
0.0
 11
-464.1544273764
 21
-58.4421956932
 31
0.0
  0
LINE
  5
51C
330
1F
100
AcDbEntity
  8
0
  6
Continuous
 62
     7
370
    15
100
AcDbLine
 10
-582.2800022958
 20
-37.3152330633
 30
0.0
 11
-604.1919450509
 21
-159.8298074888
 31
0.0
  0
LINE
  5
51D
330
1F
100
AcDbEntity
  8
0
  6
Continuous
 62
     7
370
    15
100
AcDbLine
 10
73.4868156101
 20
-203.7523278213
 30
0.0
 11
67.4883848305
 21
-203.8895436419
 31
0.0
  0
LINE
  5
51E
330
1F
100
AcDbEntity
  8
0
  6
Continuous
 62
     7
370
    15
100
AcDbLine
 10
72.9379449443
 20
-179.7586048714
 30
0.0
 11
73.4868156101
 21
-203.7523278213
 31
0.0
  0
LINE
  5
51F
330
1F
100
AcDbEntity
  8
0
  6
Continuous
 62
     7
370
    15
100
AcDbLine
 10
-338.8363870248
 20
-152.5289877753
 30
0.0
 11
-356.7657277714
 21
-150.4681472006
 31
0.0
  0
LINE
  5
520
330
1F
100
AcDbEntity
  8
0
  6
Continuous
 62
     7
370
    15
100
AcDbLine
 10
-208.9055852689
 20
-159.4020821331
 30
0.0
 11
-208.8456233724
 21
-158.4864619156
 31
0.0
  0
LINE
  5
521
330
1F
100
AcDbEntity
  8
0
  6
Continuous
 62
     7
370
    15
100
AcDbLine
 10
208.8456233724
 20
-158.4864619156
 30
0.0
 11
203.8563106187
 21
-158.8132007197
 31
0.0
  0
LINE
  5
522
330
1F
100
AcDbEntity
  8
0
  6
Continuous
 62
     7
370
    15
100
AcDbLine
 10
218.0141549336
 20
-163.7546225397
 30
0.0
 11
214.3031577577
 21
-164.058647854
 31
0.0
  0
LINE
  5
523
330
1F
100
AcDbEntity
  8
0
  6
Continuous
 62
     7
370
    15
100
AcDbLine
 10
356.7658100881
 20
-150.4681377389
 30
0.0
 11
338.8363870248
 21
-152.5289877753
 31
0.0
  0
LINE
  5
524
330
1F
100
AcDbEntity
  8
0
  6
Continuous
 62
     7
370
    15
100
AcDbLine
 10
344.5291648446
 20
-203.4373143282
 30
0.0
 11
362.7599950212
 21
-201.3440269655
 31
0.0
  0
LINE
  5
525
330
1F
100
AcDbEntity
  8
0
  6
Continuous
 62
     7
370
    15
100
AcDbLine
 10
-80.1093724503
 20
-221.6055438308
 30
0.0
 11
-61.6891340059
 21
-222.0269120567
 31
0.0
  0
LINE
  5
526
330
1F
100
AcDbEntity
  8
0
  6
Continuous
 62
     7
370
    15
100
AcDbLine
 10
-203.6602673363
 20
-155.8196130675
 30
0.0
 11
-203.8563106187
 21
-158.8132007197
 31
0.0
  0
LINE
  5
527
330
1F
100
AcDbEntity
  8
0
  6
Continuous
 62
     7
370
    15
100
AcDbLine
 10
-199.4231045737
 20
-156.0970952704
 30
0.0
 11
-203.6602673363
 21
-155.8196130675
 31
0.0
  0
LINE
  5
528
330
1F
100
AcDbEntity
  8
0
  6
Continuous
 62
     7
370
    15
100
AcDbLine
 10
78.7888476837
 20
-170.5199469027
 30
0.0
 11
60.6699211265
 21
-170.8161921971
 31
0.0
  0
LINE
  5
529
330
1F
100
AcDbEntity
  8
0
  6
Continuous
 62
     7
370
    15
100
AcDbLine
 10
-203.8563106187
 20
-158.8132007197
 30
0.0
 11
-208.8456233724
 21
-158.4864619156
 31
0.0
  0
LINE
  5
52A
330
1F
100
AcDbEntity
  8
0
  6
Continuous
 62
     7
370
    15
100
AcDbLine
 10
203.3585885883
 20
-215.9638696128
 30
0.0
 11
221.6665718061
 21
-214.7059318466
 31
0.0
  0
LINE
  5
52B
330
1F
100
AcDbEntity
  8
0
  6
Continuous
 62
     7
370
    15
100
AcDbLine
 10
-221.6665718061
 20
-214.7059318466
 30
0.0
 11
-203.3585885883
 21
-215.9638696128
 31
0.0
  0
LINE
  5
52C
330
1F
100
AcDbEntity
  8
0
  6
Continuous
 62
     7
370
    15
100
AcDbLine
 10
-72.9379449443
 20
-179.7586048714
 30
0.0
 11
-66.9395141646
 21
-179.8958206921
 31
0.0
  0
LINE
  5
52D
330
1F
100
AcDbEntity
  8
0
  6
Continuous
 62
     7
370
    15
100
AcDbLine
 10
67.4883848305
 20
-203.8895436419
 30
0.0
 11
66.9395141646
 21
-179.8958206921
 31
0.0
  0
LINE
  5
52E
330
1F
100
AcDbEntity
  8
0
  6
Continuous
 62
     7
370
    15
100
AcDbLine
 10
203.6602673363
 20
-155.8196130675
 30
0.0
 11
199.4231045737
 21
-156.0970952704
 31
0.0
  0
LINE
  5
52F
330
1F
100
AcDbEntity
  8
0
  6
Continuous
 62
     7
370
    15
100
AcDbLine
 10
-214.3031577577
 20
-164.058647854
 30
0.0
 11
-218.0141549336
 21
-163.7546225397
 31
0.0
  0
LINE
  5
530
330
1F
100
AcDbEntity
  8
0
  6
Continuous
 62
     7
370
    15
100
AcDbLine
 10
348.6108768029
 20
-184.8503800926
 30
0.0
 11
345.8731626529
 21
-161.0070388579
 31
0.0
  0
LINE
  5
531
330
1F
100
AcDbEntity
  8
0
  6
Continuous
 62
     7
370
    15
100
AcDbLine
 10
203.8563106187
 20
-158.8132007197
 30
0.0
 11
203.6602673363
 21
-155.8196130675
 31
0.0
  0
LINE
  5
532
330
1F
100
AcDbEntity
  8
0
  6
Continuous
 62
     7
370
    15
100
AcDbLine
 10
345.8731626529
 20
-161.0070388579
 30
0.0
 11
351.833997708
 21
-160.3226081122
 31
0.0
  0
LINE
  5
533
330
1F
100
AcDbEntity
  8
0
  6
Continuous
 62
     7
370
    15
100
AcDbLine
 10
-362.7599950212
 20
-201.3440269655
 30
0.0
 11
-344.5291648446
 21
-203.4373143282
 31
0.0
  0
LINE
  5
534
330
1F
100
AcDbEntity
  8
0
  6
Continuous
 62
     7
370
    15
100
AcDbLine
 10
351.833997708
 20
-160.3226081122
 30
0.0
 11
354.571711858
 21
-184.1659493469
 31
0.0
  0
LINE
  5
535
330
1F
100
AcDbEntity
  8
0
  6
Continuous
 62
     7
370
    15
100
AcDbLine
 10
-354.571711858
 20
-184.1659493469
 30
0.0
 11
-351.833997708
 21
-160.3226081122
 31
0.0
  0
LINE
  5
536
330
1F
100
AcDbEntity
  8
0
  6
Continuous
 62
     7
370
    15
100
AcDbLine
 10
-67.4883848305
 20
-203.8895436419
 30
0.0
 11
-73.4868156101
 21
-203.7523278213
 31
0.0
  0
LINE
  5
537
330
1F
100
AcDbEntity
  8
0
  6
Continuous
 62
     7
370
    15
100
AcDbLine
 10
66.9395141646
 20
-179.8958206921
 30
0.0
 11
72.9379449443
 21
-179.7586048714
 31
0.0
  0
LINE
  5
538
330
1F
100
AcDbEntity
  8
0
  6
Continuous
 62
     7
370
    15
100
AcDbLine
 10
354.571711858
 20
-184.1659493469
 30
0.0
 11
348.6108768029
 21
-184.8503800926
 31
0.0
  0
LINE
  5
539
330
1F
100
AcDbEntity
  8
0
  6
Continuous
 62
     7
370
    15
100
AcDbLine
 10
-348.6108768029
 20
-184.8503800926
 30
0.0
 11
-354.571711858
 21
-184.1659493469
 31
0.0
  0
LINE
  5
53A
330
1F
100
AcDbEntity
  8
0
  6
Continuous
 62
     7
370
    15
100
AcDbLine
 10
-345.8731626529
 20
-161.0070388579
 30
0.0
 11
-348.6108768029
 21
-184.8503800926
 31
0.0
  0
LINE
  5
53B
330
1F
100
AcDbEntity
  8
0
  6
Continuous
 62
     7
370
    15
100
AcDbLine
 10
-66.9395141646
 20
-179.8958206921
 30
0.0
 11
-67.4883848305
 21
-203.8895436419
 31
0.0
  0
LINE
  5
53C
330
1F
100
AcDbEntity
  8
0
  6
Continuous
 62
     7
370
    15
100
AcDbLine
 10
-60.6699211265
 20
-170.8161921971
 30
0.0
 11
-78.7888476837
 21
-170.5199469027
 31
0.0
  0
LINE
  5
53D
330
1F
100
AcDbEntity
  8
0
  6
Continuous
 62
     7
370
    15
100
AcDbLine
 10
61.6891340059
 20
-222.0269120567
 30
0.0
 11
80.1093724503
 21
-221.6055438308
 31
0.0
  0
LINE
  5
53E
330
1F
100
AcDbEntity
  8
0
  6
Continuous
 62
     7
370
    15
100
AcDbLine
 10
-351.833997708
 20
-160.3226081122
 30
0.0
 11
-345.8731626529
 21
-161.0070388579
 31
0.0
  0
LINE
  5
53F
330
1F
100
AcDbEntity
  8
0
  6
Continuous
 62
     7
370
    15
100
AcDbLine
 10
-73.4868156101
 20
-203.7523278213
 30
0.0
 11
-72.9379449443
 21
-179.7586048714
 31
0.0
  0
LINE
  5
540
330
1F
100
AcDbEntity
  8
0
  6
Continuous
 62
     7
370
    15
100
AcDbLine
 10
208.8456233724
 20
-158.4864619156
 30
0.0
 11
208.9055852689
 21
-159.4020821331
 31
0.0
  0
LINE
  5
541
330
1F
100
AcDbEntity
  8
0
  6
Continuous
 62
     7
370
    15
100
AcDbLine
 10
-55.1473542361
 20
-139.6093806431
 30
0.0
 11
55.1473542361
 21
-139.6093806431
 31
0.0
  0
LINE
  5
542
330
1F
100
AcDbEntity
  8
0
  6
Continuous
 62
     7
370
    15
100
AcDbLine
 10
60.1463642728
 20
-144.5098886729
 30
0.0
 11
69.8985082048
 21
-634.5098886729
 31
0.0
  0
LINE
  5
543
330
1F
100
AcDbEntity
  8
0
  6
Continuous
 62
     7
370
    15
100
AcDbLine
 10
64.899498168
 20
-639.6093806431
 30
0.0
 11
-64.899498168
 21
-639.6093806431
 31
0.0
  0
LINE
  5
544
330
1F
100
AcDbEntity
  8
0
  6
Continuous
 62
     7
370
    15
100
AcDbLine
 10
-69.8985082047
 20
-634.5098886729
 30
0.0
 11
-60.1463642728
 21
-144.5098886729
 31
0.0
  0
LINE
  5
545
330
1F
100
AcDbEntity
  8
0
  6
Continuous
 62
     7
370
    15
100
AcDbLine
 10
1016.4073812685
 20
-32.2173193582
 30
0.0
 11
1008.4709060954
 21
-9.5675431601
 31
0.0
  0
LINE
  5
546
330
1F
100
AcDbEntity
  8
0
  6
Continuous
 62
     7
370
    15
100
AcDbLine
 10
881.1443838076
 20
-50.9384381042
 30
0.0
 11
888.036844934
 21
-73.9274350293
 31
0.0
  0
LINE
  5
547
330
1F
100
AcDbEntity
  8
0
  6
Continuous
 62
     7
370
    15
100
AcDbLine
 10
888.036844934
 20
-73.9274350293
 30
0.0
 11
882.289596233
 21
-75.6505520794
 31
0.0
  0
LINE
  5
548
330
1F
100
AcDbEntity
  8
0
  6
Continuous
 62
     7
370
    15
100
AcDbLine
 10
608.9094502175
 20
-143.8828090034
 30
0.0
 11
604.1451734554
 21
-120.3604437538
 31
0.0
  0
LINE
  5
549
330
1F
100
AcDbEntity
  8
0
  6
Continuous
 62
     7
370
    15
100
AcDbLine
 10
614.7900419711
 20
-142.6917419913
 30
0.0
 11
608.9094502175
 21
-143.8828090034
 31
0.0
  0
LINE
  5
54A
330
1F
100
AcDbEntity
  8
0
  6
Continuous
 62
     7
370
    15
100
AcDbLine
 10
1277.8873340406
 20
72.7616287208
 30
0.0
 11
1267.9156155143
 21
94.5919935742
 31
0.0
  0
LINE
  5
54B
330
1F
100
AcDbEntity
  8
0
  6
Continuous
 62
     7
370
    15
100
AcDbLine
 10
736.0992747536
 20
-81.4142619001
 30
0.0
 11
732.4759577186
 21
-82.2718778373
 31
0.0
  0
LINE
  5
54C
330
1F
100
AcDbEntity
  8
0
  6
Continuous
 62
     7
370
    15
100
AcDbLine
 10
747.7907912471
 20
-69.2441861245
 30
0.0
 11
743.6752632748
 21
-70.2896401689
 31
0.0
  0
LINE
  5
54D
330
1F
100
AcDbEntity
  8
0
  6
Continuous
 62
     7
370
    15
100
AcDbLine
 10
1016.8429876144
 20
3.0110881327
 30
0.0
 11
999.7024092743
 21
-2.8697141109
 31
0.0
  0
LINE
  5
54E
330
1F
100
AcDbEntity
  8
0
  6
Continuous
 62
     7
370
    15
100
AcDbLine
 10
1136.8157802589
 20
54.6453663649
 30
0.0
 11
1132.1716296958
 21
52.792836865
 31
0.0
  0
LINE
  5
54F
330
1F
100
AcDbEntity
  8
0
  6
Continuous
 62
     7
370
    15
100
AcDbLine
 10
1136.8157802589
 20
54.6453663649
 30
0.0
 11
1137.1557496188
 21
53.7930890356
 31
0.0
  0
LINE
  5
550
330
1F
100
AcDbEntity
  8
0
  6
Continuous
 62
     7
370
    15
100
AcDbLine
 10
1279.7490738372
 20
53.8230854367
 30
0.0
 11
1296.4407623049
 21
61.4475563697
 31
0.0
  0
LINE
  5
551
330
1F
100
AcDbEntity
  8
0
  6
Continuous
 62
     7
370
    15
100
AcDbLine
 10
1149.3587958434
 20
-1.7144837623
 30
0.0
 11
1166.3819984353
 21
5.1393640944
 31
0.0
  0
LINE
  5
552
330
1F
100
AcDbEntity
  8
0
  6
Continuous
 62
     7
370
    15
100
AcDbLine
 10
881.5081175468
 20
-94.6764521119
 30
0.0
 11
899.1570152937
 21
-89.3850303891
 31
0.0
  0
LINE
  5
553
330
1F
100
AcDbEntity
  8
0
  6
Continuous
 62
     7
370
    15
100
AcDbLine
 10
744.7471233132
 20
-131.8581114514
 30
0.0
 11
762.5477742004
 21
-127.3970034141
 31
0.0
  0
LINE
  5
554
330
1F
100
AcDbEntity
  8
0
  6
Continuous
 62
     7
370
    15
100
AcDbLine
 10
1267.9156155143
 20
94.5919935742
 30
0.0
 11
1273.3732058041
 21
97.0849252275
 31
0.0
  0
LINE
  5
555
330
1F
100
AcDbEntity
  8
0
  6
Continuous
 62
     7
370
    15
100
AcDbLine
 10
604.1451734554
 20
-120.3604437538
 30
0.0
 11
610.025765209
 21
-119.1693767418
 31
0.0
  0
LINE
  5
556
330
1F
100
AcDbEntity
  8
0
  6
Continuous
 62
     7
370
    15
100
AcDbLine
 10
743.6752632748
 20
-70.2896401689
 30
0.0
 11
744.4138844922
 21
-73.1972919185
 31
0.0
  0
LINE
  5
557
330
1F
100
AcDbEntity
  8
0
  6
Continuous
 62
     7
370
    15
100
AcDbLine
 10
1008.4709060954
 20
-9.5675431601
 30
0.0
 11
1014.1333507554
 21
-7.5834261092
 31
0.0
  0
LINE
  5
558
330
1F
100
AcDbEntity
  8
0
  6
Continuous
 62
     7
370
    15
100
AcDbLine
 10
1016.4967210556
 20
-51.2590488369
 30
0.0
 11
1033.8851989172
 21
-45.1661371202
 31
0.0
  0
LINE
  5
559
330
1F
100
AcDbEntity
  8
0
  6
Continuous
 62
     7
370
    15
100
AcDbLine
 10
1273.3732058041
 20
97.0849252275
 30
0.0
 11
1283.3449243304
 21
75.2545603741
 31
0.0
  0
LINE
  5
55A
330
1F
100
AcDbEntity
  8
0
  6
Continuous
 62
     7
370
    15
100
AcDbLine
 10
1283.3449243304
 20
75.2545603741
 30
0.0
 11
1277.8873340406
 21
72.7616287208
 31
0.0
  0
LINE
  5
55B
330
1F
100
AcDbEntity
  8
0
  6
Continuous
 62
     7
370
    15
100
AcDbLine
 10
614.0982746601
 20
-108.9317877595
 30
0.0
 11
596.4096235499
 21
-112.5122828905
 31
0.0
  0
LINE
  5
55C
330
1F
100
AcDbEntity
  8
0
  6
Continuous
 62
     7
370
    15
100
AcDbLine
 10
1275.0184392895
 20
107.9810973292
 30
0.0
 11
1258.6033823358
 21
100.4806160471
 31
0.0
  0
LINE
  5
55D
330
1F
100
AcDbEntity
  8
0
  6
Continuous
 62
     7
370
    15
100
AcDbLine
 10
739.793713298
 20
-75.3176631002
 30
0.0
 11
739.5677982428
 21
-74.4283272809
 31
0.0
  0
LINE
  5
55E
330
1F
100
AcDbEntity
  8
0
  6
Continuous
 62
     7
370
    15
100
AcDbLine
 10
1132.1716296958
 20
52.792836865
 30
0.0
 11
1131.0601119959
 21
55.5793272028
 31
0.0
  0
LINE
  5
55F
330
1F
100
AcDbEntity
  8
0
  6
Continuous
 62
     7
370
    15
100
AcDbLine
 10
606.4302480727
 20
-162.7504503122
 30
0.0
 11
624.4156592788
 21
-159.1076485529
 31
0.0
  0
LINE
  5
560
330
1F
100
AcDbEntity
  8
0
  6
Continuous
 62
     7
370
    15
100
AcDbLine
 10
882.289596233
 20
-75.6505520794
 30
0.0
 11
875.3971351065
 21
-52.6615551543
 31
0.0
  0
LINE
  5
561
330
1F
100
AcDbEntity
  8
0
  6
Continuous
 62
     7
370
    15
100
AcDbLine
 10
1022.0698259286
 20
-30.2332023073
 30
0.0
 11
1016.4073812685
 21
-32.2173193582
 31
0.0
  0
LINE
  5
562
330
1F
100
AcDbEntity
  8
0
  6
Continuous
 62
     7
370
    15
100
AcDbLine
 10
884.3013616134
 20
-40.3657874619
 30
0.0
 11
866.9776936124
 21
-45.6830976703
 31
0.0
  0
LINE
  5
563
330
1F
100
AcDbEntity
  8
0
  6
Continuous
 62
     7
370
    15
100
AcDbLine
 10
744.4138844922
 20
-73.1972919185
 30
0.0
 11
739.5677982428
 21
-74.4283272809
 31
0.0
  0
LINE
  5
564
330
1F
100
AcDbEntity
  8
0
  6
Continuous
 62
     7
370
    15
100
AcDbLine
 10
1131.0601119959
 20
55.5793272028
 30
0.0
 11
1127.1160774563
 21
54.006070644
 31
0.0
  0
LINE
  5
565
330
1F
100
AcDbEntity
  8
0
  6
Continuous
 62
     7
370
    15
100
AcDbLine
 10
1147.163523107
 20
52.4682799403
 30
0.0
 11
1143.7281040497
 21
51.0323734906
 31
0.0
  0
LINE
  5
566
330
1F
100
AcDbEntity
  8
0
  6
Continuous
 62
     7
370
    15
100
AcDbLine
 10
610.025765209
 20
-119.1693767418
 30
0.0
 11
614.7900419711
 21
-142.6917419913
 31
0.0
  0
LINE
  5
567
330
1F
100
AcDbEntity
  8
0
  6
Continuous
 62
     7
370
    15
100
AcDbLine
 10
875.3971351065
 20
-52.6615551543
 30
0.0
 11
881.1443838076
 21
-50.9384381042
 31
0.0
  0
LINE
  5
568
330
1F
100
AcDbEntity
  8
0
  6
Continuous
 62
     7
370
    15
100
AcDbLine
 10
1014.1333507554
 20
-7.5834261092
 30
0.0
 11
1022.0698259286
 21
-30.2332023073
 31
0.0
  0
LINE
  5
569
330
1F
100
AcDbEntity
  8
0
  6
Continuous
 62
     7
370
    15
100
AcDbLine
 10
1148.5900381579
 20
-447.4115195924
 30
0.0
 11
1025.143856884
 21
-487.521615313
 31
0.0
  0
LINE
  5
56A
330
1F
100
AcDbEntity
  8
0
  6
Continuous
 62
     7
370
    15
100
AcDbLine
 10
1018.813686132
 20
-484.2164893014
 30
0.0
 11
876.6701989226
 21
-15.1852181102
 31
0.0
  0
LINE
  5
56B
330
1F
100
AcDbEntity
  8
0
  6
Continuous
 62
     7
370
    15
100
AcDbLine
 10
991.0753822689
 20
21.9872793101
 30
0.0
 11
1151.7685495469
 21
-441.016835468
 31
0.0
  0
LINE
  5
56C
330
1F
100
AcDbEntity
  8
0
  6
Continuous
 62
     7
370
    15
100
AcDbLine
 10
879.9101997308
 20
-8.9797789589
 30
0.0
 11
984.8067009361
 21
25.1031603486
 31
0.0
  0
LINE
  5
56D
330
1F
100
AcDbEntity
  8
0
  6
Continuous
 62
     7
370
    15
100
AcDbLine
 10
-68.3730222816
 20
-557.8612965698
 30
0.0
 11
-88.7892617758
 21
-557.3942686448
 31
0.0
  0
LINE
  5
56E
330
1F
100
AcDbEntity
  8
0
  6
Continuous
 62
     7
370
    15
100
AcDbLine
 10
88.7892617755
 20
-557.3942686449
 30
0.0
 11
68.3730222813
 21
-557.8612965699
 31
0.0
  0
LINE
  5
56F
330
1F
100
AcDbEntity
  8
0
  6
Continuous
 62
     7
370
    15
100
AcDbLine
 10
245.6838151078
 20
-549.7470936014
 30
0.0
 11
225.3922712447
 21
-551.1413224089
 31
0.0
  0
LINE
  5
570
330
1F
100
AcDbEntity
  8
0
  6
Continuous
 62
     7
370
    15
100
AcDbLine
 10
402.0638981834
 20
-534.9375089511
 30
0.0
 11
381.8583112422
 21
-537.257539696
 31
0.0
  0
LINE
  5
571
330
1F
100
AcDbEntity
  8
0
  6
Continuous
 62
     7
370
    15
100
AcDbLine
 10
387.4938506239
 20
-587.6540048687
 30
0.0
 11
407.9901197752
 21
-585.236556543
 31
0.0
  0
LINE
  5
572
330
1F
100
AcDbEntity
  8
0
  6
Continuous
 62
     7
370
    15
100
AcDbLine
 10
248.6414015951
 20
-600.5847755811
 30
0.0
 11
249.3239737894
 21
-600.5274008258
 31
0.0
  0
LINE
  5
573
330
1F
100
AcDbEntity
  8
0
  6
Continuous
 62
     7
370
    15
100
AcDbLine
 10
244.0714557354
 20
-605.9023914609
 30
0.0
 11
244.1440681617
 21
-606.9831189389
 31
0.0
  0
LINE
  5
574
330
1F
100
AcDbEntity
  8
0
  6
Continuous
 62
     7
370
    15
100
AcDbLine
 10
239.1553158211
 20
-607.3183055786
 30
0.0
 11
244.1440681617
 21
-606.9831189389
 31
0.0
  0
LINE
  5
575
330
1F
100
AcDbEntity
  8
0
  6
Continuous
 62
     7
370
    15
100
AcDbLine
 10
239.3564278049
 20
-610.311556983
 30
0.0
 11
239.1553158211
 21
-607.3183055786
 31
0.0
  0
LINE
  5
576
330
1F
100
AcDbEntity
  8
0
  6
Continuous
 62
     7
370
    15
100
AcDbLine
 10
229.3789231236
 20
-610.9819302625
 30
0.0
 11
239.3564278049
 21
-610.311556983
 31
0.0
  0
LINE
  5
577
330
1F
100
AcDbEntity
  8
0
  6
Continuous
 62
     7
370
    15
100
AcDbLine
 10
229.1778111397
 20
-607.9886788581
 30
0.0
 11
229.3789231236
 21
-610.9819302625
 31
0.0
  0
LINE
  5
578
330
1F
100
AcDbEntity
  8
0
  6
Continuous
 62
     7
370
    15
100
AcDbLine
 10
229.1294801505
 20
-607.9919261434
 30
0.0
 11
229.1778111397
 21
-607.9886788581
 31
0.0
  0
LINE
  5
579
330
1F
100
AcDbEntity
  8
0
  6
Continuous
 62
     7
370
    15
100
AcDbLine
 10
69.3811542484
 20
-608.5152519659
 30
0.0
 11
90.1017171895
 21
-608.1676959557
 31
0.0
  0
LINE
  5
57A
330
1F
100
AcDbEntity
  8
0
  6
Continuous
 62
     7
370
    15
100
AcDbLine
 10
-90.1017171895
 20
-608.1676959557
 30
0.0
 11
-69.3811542484
 21
-608.5152519659
 31
0.0
  0
LINE
  5
57B
330
1F
100
AcDbEntity
  8
0
  6
Continuous
 62
     7
370
    15
100
AcDbLine
 10
-229.1778111397
 20
-607.9886788581
 30
0.0
 11
-229.1294801505
 21
-607.9919261434
 31
0.0
  0
LINE
  5
57C
330
1F
100
AcDbEntity
  8
0
  6
Continuous
 62
     7
370
    15
100
AcDbLine
 10
-229.3789231236
 20
-610.9819302625
 30
0.0
 11
-229.1778111397
 21
-607.9886788581
 31
0.0
  0
LINE
  5
57D
330
1F
100
AcDbEntity
  8
0
  6
Continuous
 62
     7
370
    15
100
AcDbLine
 10
-239.3564278049
 20
-610.311556983
 30
0.0
 11
-229.3789231236
 21
-610.9819302625
 31
0.0
  0
LINE
  5
57E
330
1F
100
AcDbEntity
  8
0
  6
Continuous
 62
     7
370
    15
100
AcDbLine
 10
-239.1553158211
 20
-607.3183055786
 30
0.0
 11
-239.3564278049
 21
-610.311556983
 31
0.0
  0
LINE
  5
57F
330
1F
100
AcDbEntity
  8
0
  6
Continuous
 62
     7
370
    15
100
AcDbLine
 10
-244.1440681617
 20
-606.9831189389
 30
0.0
 11
-239.1553158211
 21
-607.3183055786
 31
0.0
  0
LINE
  5
580
330
1F
100
AcDbEntity
  8
0
  6
Continuous
 62
     7
370
    15
100
AcDbLine
 10
-244.1440681617
 20
-606.9831189389
 30
0.0
 11
-244.0714557354
 21
-605.9023914609
 31
0.0
  0
LINE
  5
581
330
1F
100
AcDbEntity
  8
0
  6
Continuous
 62
     7
370
    15
100
AcDbLine
 10
-249.3239737894
 20
-600.5274008258
 30
0.0
 11
-248.6414015952
 21
-600.5847755811
 31
0.0
  0
LINE
  5
582
330
1F
100
AcDbEntity
  8
0
  6
Continuous
 62
     7
370
    15
100
AcDbLine
 10
-407.9905312473
 20
-585.2365080116
 30
0.0
 11
-387.4938506239
 21
-587.6540048687
 31
0.0
  0
LINE
  5
583
330
1F
100
AcDbEntity
  8
0
  6
Continuous
 62
     7
370
    15
100
AcDbLine
 10
-402.0638981836
 20
-534.9375089507
 30
0.0
 11
-401.712865397
 21
-531.9581038496
 31
0.0
  0
LINE
  5
584
330
1F
100
AcDbEntity
  8
0
  6
Continuous
 62
     7
370
    15
100
AcDbLine
 10
-381.8583112425
 20
-537.2575396956
 30
0.0
 11
-402.0638981836
 21
-534.9375089507
 31
0.0
  0
LINE
  5
585
330
1F
100
AcDbEntity
  8
0
  6
Continuous
 62
     7
370
    15
100
AcDbLine
 10
-225.3922712449
 20
-551.1413224087
 30
0.0
 11
-245.6838151081
 21
-549.7470936011
 31
0.0
  0
LINE
  5
586
330
1F
100
AcDbEntity
  8
0
  6
Continuous
 62
     7
370
    15
100
AcDbLine
 10
996.578791905
 20
-410.847945242
 30
0.0
 11
977.0174747301
 21
-416.7127402555
 31
0.0
  0
LINE
  5
587
330
1F
100
AcDbEntity
  8
0
  6
Continuous
 62
     7
370
    15
100
AcDbLine
 10
1145.9046867077
 20
-361.8379586422
 30
0.0
 11
1126.6320086641
 21
-368.5910935586
 31
0.0
  0
LINE
  5
588
330
1F
100
AcDbEntity
  8
0
  6
Continuous
 62
     7
370
    15
100
AcDbLine
 10
1292.7571669782
 20
-306.0819796813
 30
0.0
 11
1273.889602357
 21
-313.6784019697
 31
0.0
  0
LINE
  5
589
330
1F
100
AcDbEntity
  8
0
  6
Continuous
 62
     7
370
    15
100
AcDbLine
 10
1439.3404051177
 20
-298.3118837074
 30
0.0
 11
1458.086482838
 21
-289.6790582354
 31
0.0
  0
LINE
  5
58A
330
1F
100
AcDbEntity
  8
0
  6
Continuous
 62
     7
370
    15
100
AcDbLine
 10
1311.2797065658
 20
-353.5175439146
 30
0.0
 11
1311.9111415246
 21
-353.2520508717
 31
0.0
  0
LINE
  5
58B
330
1F
100
AcDbEntity
  8
0
  6
Continuous
 62
     7
370
    15
100
AcDbLine
 10
1308.5766634532
 20
-359.9870880822
 30
0.0
 11
1308.9796851314
 21
-360.9924825188
 31
0.0
  0
LINE
  5
58C
330
1F
100
AcDbEntity
  8
0
  6
Continuous
 62
     7
370
    15
100
AcDbLine
 10
1304.3386780776
 20
-362.8528732107
 30
0.0
 11
1308.9796851314
 21
-360.9924825188
 31
0.0
  0
LINE
  5
58D
330
1F
100
AcDbEntity
  8
0
  6
Continuous
 62
     7
370
    15
100
AcDbLine
 10
1305.4549124928
 20
-365.6374774429
 30
0.0
 11
1304.3386780776
 21
-362.8528732107
 31
0.0
  0
LINE
  5
58E
330
1F
100
AcDbEntity
  8
0
  6
Continuous
 62
     7
370
    15
100
AcDbLine
 10
1296.1728983852
 20
-369.3582588268
 30
0.0
 11
1305.4549124928
 21
-365.6374774429
 31
0.0
  0
LINE
  5
58F
330
1F
100
AcDbEntity
  8
0
  6
Continuous
 62
     7
370
    15
100
AcDbLine
 10
1295.05666397
 20
-366.5736545945
 30
0.0
 11
1296.1728983852
 21
-369.3582588268
 31
0.0
  0
LINE
  5
590
330
1F
100
AcDbEntity
  8
0
  6
Continuous
 62
     7
370
    15
100
AcDbLine
 10
1295.0117019341
 20
-366.5916780433
 30
0.0
 11
1295.05666397
 21
-366.5736545945
 31
0.0
  0
LINE
  5
591
330
1F
100
AcDbEntity
  8
0
  6
Continuous
 62
     7
370
    15
100
AcDbLine
 10
991.4591073583
 20
-465.4067101814
 30
0.0
 11
1011.2729344784
 21
-459.3342495078
 31
0.0
  0
LINE
  5
592
330
1F
100
AcDbEntity
  8
0
  6
Continuous
 62
     7
370
    15
100
AcDbLine
 10
859.1345626206
 20
-508.2133313462
 30
0.0
 11
859.1815315892
 21
-508.2014846009
 31
0.0
  0
LINE
  5
593
330
1F
100
AcDbEntity
  8
0
  6
Continuous
 62
     7
370
    15
100
AcDbLine
 10
859.8682593103
 20
-511.12222962
 30
0.0
 11
859.1345626206
 21
-508.2133313462
 31
0.0
  0
LINE
  5
594
330
1F
100
AcDbEntity
  8
0
  6
Continuous
 62
     7
370
    15
100
AcDbLine
 10
850.1719317308
 20
-513.5678852522
 30
0.0
 11
859.8682593103
 21
-511.12222962
 31
0.0
  0
LINE
  5
595
330
1F
100
AcDbEntity
  8
0
  6
Continuous
 62
     7
370
    15
100
AcDbLine
 10
844.5900712514
 20
-511.8818147944
 30
0.0
 11
849.4382350411
 21
-510.6589869783
 31
0.0
  0
LINE
  5
596
330
1F
100
AcDbEntity
  8
0
  6
Continuous
 62
     7
370
    15
100
AcDbLine
 10
672.1360700004
 20
-492.1622791703
 30
0.0
 11
671.5492352102
 21
-489.2202214376
 31
0.0
  0
LINE
  5
597
330
1F
100
AcDbEntity
  8
0
  6
Continuous
 62
     7
370
    15
100
AcDbLine
 10
692.069654054
 20
-488.1248897821
 30
0.0
 11
672.1360700004
 21
-492.1622791703
 31
0.0
  0
LINE
  5
598
330
1F
100
AcDbEntity
  8
0
  6
Continuous
 62
     7
370
    15
100
AcDbLine
 10
844.5900712514
 20
-511.8818147944
 30
0.0
 11
844.3251666156
 21
-510.8315434104
 31
0.0
  0
LINE
  5
599
330
1F
100
AcDbEntity
  8
0
  6
Continuous
 62
     7
370
    15
100
AcDbLine
 10
845.1680257771
 20
-452.9784864004
 30
0.0
 11
825.4387803648
 21
-457.9229279036
 31
0.0
  0
LINE
  5
59A
330
1F
100
AcDbEntity
  8
0
  6
Continuous
 62
     7
370
    15
100
AcDbLine
 10
849.4382350411
 20
-510.6589869783
 30
0.0
 11
850.1719317308
 21
-513.5678852522
 31
0.0
  0
LINE
  5
59B
330
1F
100
AcDbEntity
  8
0
  6
Continuous
 62
     7
370
    15
100
AcDbLine
 10
837.6687616426
 20
-507.3427408838
 30
0.0
 11
838.3356561502
 21
-507.1863811108
 31
0.0
  0
LINE
  5
59C
330
1F
100
AcDbEntity
  8
0
  6
Continuous
 62
     7
370
    15
100
AcDbLine
 10
682.0427525153
 20
-541.8309003264
 30
0.0
 11
702.2833017974
 21
-537.7962538246
 31
0.0
  0
LINE
  5
59D
330
1F
100
AcDbEntity
  8
0
  6
Continuous
 62
     7
370
    15
100
AcDbLine
 10
1436.9070506694
 20
-243.6731244439
 30
0.0
 11
1418.4073244711
 21
-252.123474548
 31
0.0
  0
LINE
  5
59E
330
1F
100
AcDbEntity
  8
0
  6
Continuous
 62
     7
370
    15
100
AcDbLine
 10
1143.2437321904
 20
-416.4543380036
 30
0.0
 11
1162.8427578832
 21
-409.7207865136
 31
0.0
  0
LINE
  5
59F
330
1F
100
AcDbEntity
  8
0
  6
Continuous
 62
     7
370
    15
100
AcDbLine
 10
-1305.2702880832
 20
-362.4892982929
 30
0.0
 11
-1314.1961079309
 21
-358.8791873072
 31
0.0
  0
LINE
  5
5A0
330
1F
100
AcDbEntity
  8
0
  6
Continuous
 62
     7
370
    15
100
AcDbLine
 10
-1441.9300313664
 20
-304.0258404233
 30
0.0
 11
-1460.7368653886
 21
-295.4352076167
 31
0.0
  0
LINE
  5
5A1
330
1F
100
AcDbEntity
  8
0
  6
Continuous
 62
     7
370
    15
100
AcDbLine
 10
-1306.3865241436
 20
-365.2739066295
 30
0.0
 11
-1305.2702880832
 21
-362.4892982929
 31
0.0
  0
LINE
  5
5A2
330
1F
100
AcDbEntity
  8
0
  6
Continuous
 62
     7
370
    15
100
AcDbLine
 10
-1306.3865241436
 20
-365.2739066295
 30
0.0
 11
-1315.3247905771
 21
-361.6587691973
 31
0.0
  0
LINE
  5
5A3
330
1F
100
AcDbEntity
  8
0
  6
Continuous
 62
     7
370
    15
100
AcDbLine
 10
-1443.1684167474
 20
-306.7583121337
 30
0.0
 11
-1461.9914018218
 21
-298.1603018055
 31
0.0
  0
LINE
  5
5A4
330
1F
100
AcDbEntity
  8
0
  6
Continuous
 62
     7
370
    15
100
AcDbLine
 10
-683.8695796373
 20
-550.9874601822
 30
0.0
 11
-704.1510613978
 21
-546.8796067448
 31
0.0
  0
LINE
  5
5A5
330
1F
100
AcDbEntity
  8
0
  6
Continuous
 62
     7
370
    15
100
AcDbLine
 10
-839.8484065982
 20
-516.1504114457
 30
0.0
 11
-849.2045405112
 21
-513.8213378745
 31
0.0
  0
LINE
  5
5A6
330
1F
100
AcDbEntity
  8
0
  6
Continuous
 62
     7
370
    15
100
AcDbLine
 10
-848.4708427401
 20
-510.9124353131
 30
0.0
 11
-849.2045405112
 21
-513.8213378745
 31
0.0
  0
LINE
  5
5A7
330
1F
100
AcDbEntity
  8
0
  6
Continuous
 62
     7
370
    15
100
AcDbLine
 10
-683.2827474153
 20
-548.0454153248
 30
0.0
 11
-703.546829643
 21
-543.9410860308
 31
0.0
  0
LINE
  5
5A8
330
1F
100
AcDbEntity
  8
0
  6
Continuous
 62
     7
370
    15
100
AcDbLine
 10
-839.1277327977
 20
-513.2382594453
 30
0.0
 11
-848.4708427401
 21
-510.9124353131
 31
0.0
  0
LINE
  5
5A9
330
1F
100
AcDbEntity
  8
0
  6
Continuous
 62
     7
370
    15
100
AcDbLine
 10
-1306.3865241436
 20
-365.2739066295
 30
0.0
 11
-1296.1278664147
 21
-369.3877977706
 31
0.0
  0
LINE
  5
5AA
330
1F
100
AcDbEntity
  8
0
  6
Continuous
 62
     7
370
    15
100
AcDbLine
 10
-1304.3426725237
 20
-362.8628379201
 30
0.0
 11
-1305.2702880832
 21
-362.4892982929
 31
0.0
  0
LINE
  5
5AB
330
1F
100
AcDbEntity
  8
0
  6
Continuous
 62
     7
370
    15
100
AcDbLine
 10
-859.9220534952
 20
-511.1196579994
 30
0.0
 11
-849.2045405112
 21
-513.8213378745
 31
0.0
  0
LINE
  5
5AC
330
1F
100
AcDbEntity
  8
0
  6
Continuous
 62
     7
370
    15
100
AcDbLine
 10
-848.4708427401
 20
-510.9124353131
 30
0.0
 11
-849.4408605756
 21
-510.6693964741
 31
0.0
  0
LINE
  5
5AD
330
1F
100
AcDbEntity
  8
0
  6
Continuous
 62
     7
370
    15
100
AcDbLine
 10
-204.6588166499
 20
-155.7647521993
 30
0.0
 11
-217.3779677865
 21
-154.8797954747
 31
0.0
  0
LINE
  5
5AE
330
1F
100
AcDbEntity
  8
0
  6
Continuous
 62
     7
370
    15
100
AcDbLine
 10
-204.860767506
 20
-158.757947123
 30
0.0
 11
-204.6588166499
 21
-155.7647521993
 31
0.0
  0
LINE
  5
5AF
330
1F
100
AcDbEntity
  8
0
  6
Continuous
 62
     7
370
    15
100
AcDbLine
 10
-204.860767506
 20
-158.757947123
 30
0.0
 11
-217.5924707307
 21
-157.8721170629
 31
0.0
  0
LINE
  5
5B0
330
1F
100
AcDbEntity
  8
0
  6
Continuous
 62
     7
370
    15
100
AcDbLine
 10
217.5924707307
 20
-157.8721170629
 30
0.0
 11
204.860767506
 21
-158.757947123
 31
0.0
  0
LINE
  5
5B1
330
1F
100
AcDbEntity
  8
0
  6
Continuous
 62
     7
370
    15
100
AcDbLine
 10
204.6588166499
 20
-155.7647521993
 30
0.0
 11
204.860767506
 21
-158.757947123
 31
0.0
  0
LINE
  5
5B2
330
1F
100
AcDbEntity
  8
0
  6
Continuous
 62
     7
370
    15
100
AcDbLine
 10
217.3779677865
 20
-154.8797954747
 30
0.0
 11
204.6588166499
 21
-155.7647521993
 31
0.0
  0
LINE
  5
5B3
330
1F
100
AcDbEntity
  8
0
  6
Continuous
 62
     7
370
    15
100
AcDbLine
 10
204.6588166499
 20
-155.7647521993
 30
0.0
 11
203.6610723184
 21
-155.8319051717
 31
0.0
  0
LINE
  5
5B4
330
1F
100
AcDbEntity
  8
0
  6
Continuous
 62
     7
370
    15
100
AcDbLine
 10
-203.6610723184
 20
-155.8319051717
 30
0.0
 11
-204.6588166499
 21
-155.7647521993
 31
0.0
  0
LINE
  5
5B5
330
1F
100
AcDbEntity
  8
0
  6
Continuous
 62
     7
370
    15
100
AcDbLine
 10
1418.5944352603
 20
93.4176023393
 30
0.0
 11
1452.6288817699
 21
26.6212400704
 31
0.0
  0
LINE
  5
5B6
330
1F
100
AcDbEntity
  8
0
  6
Continuous
 62
     7
370
    15
100
AcDbLine
 10
1513.9042350022
 20
-93.6384119118
 30
0.0
 11
1582.6904778291
 21
-228.639014718
 31
0.0
  0
LINE
  5
5B7
330
1F
100
AcDbEntity
  8
0
  6
Continuous
 62
     7
370
    15
100
AcDbLine
 10
742.7086335026
 20
-70.5460330903
 30
0.0
 11
730.3385352653
 21
-73.634823086
 31
0.0
  0
LINE
  5
5B8
330
1F
100
AcDbEntity
  8
0
  6
Continuous
 62
     7
370
    15
100
AcDbLine
 10
743.4415149238
 20
-73.4551368737
 30
0.0
 11
742.7086335026
 21
-70.5460330903
 31
0.0
  0
LINE
  5
5B9
330
1F
100
AcDbEntity
  8
0
  6
Continuous
 62
     7
370
    15
100
AcDbLine
 10
743.4415149238
 20
-73.4551368737
 30
0.0
 11
731.0592090658
 21
-76.5469750864
 31
0.0
  0
LINE
  5
5BA
330
1F
100
AcDbEntity
  8
0
  6
Continuous
 62
     7
370
    15
100
AcDbLine
 10
1144.9446834361
 20
57.9325675212
 30
0.0
 11
1133.1098506635
 21
53.1557804064
 31
0.0
  0
LINE
  5
5BB
330
1F
100
AcDbEntity
  8
0
  6
Continuous
 62
     7
370
    15
100
AcDbLine
 10
1131.9928358869
 20
55.9400716967
 30
0.0
 11
1133.1098506635
 21
53.1557804064
 31
0.0
  0
LINE
  5
5BC
330
1F
100
AcDbEntity
  8
0
  6
Continuous
 62
     7
370
    15
100
AcDbLine
 10
1143.8160007899
 20
60.7121494114
 30
0.0
 11
1131.9928358869
 21
55.9400716967
 31
0.0
  0
LINE
  5
5BD
330
1F
100
AcDbEntity
  8
0
  6
Continuous
 62
     7
370
    15
100
AcDbLine
 10
1131.9928358869
 20
55.9400716967
 30
0.0
 11
1131.0646760485
 21
55.5678854702
 31
0.0
  0
LINE
  5
5BE
330
1F
100
AcDbEntity
  8
0
  6
Continuous
 62
     7
370
    15
100
AcDbLine
 10
743.6782961604
 20
-70.3015794078
 30
0.0
 11
742.7086335026
 21
-70.5460330903
 31
0.0
  0
LINE
  5
5BF
330
1F
100
AcDbEntity
  8
0
  6
Continuous
 62
     7
370
    15
100
AcDbLine
 10
-881.1443838076
 20
-50.9384381042
 30
0.0
 11
-880.1864874594
 21
-51.2256307446
 31
0.0
  0
LINE
  5
5C0
330
1F
100
AcDbEntity
  8
0
  6
Continuous
 62
     7
370
    15
100
AcDbLine
 10
-876.3549883254
 20
-52.3743754447
 30
0.0
 11
-875.3971351065
 21
-52.6615551543
 31
0.0
  0
LINE
  5
5C1
330
1F
100
AcDbEntity
  8
0
  6
Continuous
 62
     7
370
    15
100
AcDbLine
 10
-888.036844934
 20
-73.9274350293
 30
0.0
 11
-881.1443838076
 21
-50.9384381042
 31
0.0
  0
LINE
  5
5C2
330
1F
100
AcDbEntity
  8
0
  6
Continuous
 62
     7
370
    15
100
AcDbLine
 10
-882.289596233
 20
-75.6505520794
 30
0.0
 11
-883.2474565258
 21
-75.3633702489
 31
0.0
  0
LINE
  5
5C3
330
1F
100
AcDbEntity
  8
0
  6
Continuous
 62
     7
370
    15
100
AcDbLine
 10
-887.0789556598
 20
-74.2146255488
 30
0.0
 11
-888.036844934
 21
-73.9274350293
 31
0.0
  0
LINE
  5
5C4
330
1F
100
AcDbEntity
  8
0
  6
Continuous
 62
     7
370
    15
100
AcDbLine
 10
-875.3971351065
 20
-52.6615551543
 30
0.0
 11
-882.289596233
 21
-75.6505520794
 31
0.0
  0
LINE
  5
5C5
330
1F
100
AcDbEntity
  8
0
  6
Continuous
 62
     7
370
    15
100
AcDbLine
 10
-1008.4709060954
 20
-9.5675431601
 30
0.0
 11
-1016.4073812685
 21
-32.2173193582
 31
0.0
  0
LINE
  5
5C6
330
1F
100
AcDbEntity
  8
0
  6
Continuous
 62
     7
370
    15
100
AcDbLine
 10
-1014.1333507554
 20
-7.5834261092
 30
0.0
 11
-1013.1896312252
 21
-7.9141048396
 31
0.0
  0
LINE
  5
5C7
330
1F
100
AcDbEntity
  8
0
  6
Continuous
 62
     7
370
    15
100
AcDbLine
 10
-1009.4146681185
 20
-9.2368495402
 30
0.0
 11
-1008.4709060954
 21
-9.5675431601
 31
0.0
  0
LINE
  5
5C8
330
1F
100
AcDbEntity
  8
0
  6
Continuous
 62
     7
370
    15
100
AcDbLine
 10
-1022.0698259286
 20
-30.2332023073
 30
0.0
 11
-1014.1333507554
 21
-7.5834261092
 31
0.0
  0
LINE
  5
5C9
330
1F
100
AcDbEntity
  8
0
  6
Continuous
 62
     7
370
    15
100
AcDbLine
 10
-1267.9156155143
 20
94.5919935742
 30
0.0
 11
-1277.8873340406
 21
72.7616287208
 31
0.0
  0
LINE
  5
5CA
330
1F
100
AcDbEntity
  8
0
  6
Continuous
 62
     7
370
    15
100
AcDbLine
 10
-610.025765209
 20
-119.1693767418
 30
0.0
 11
-609.0456665835
 21
-119.3678879104
 31
0.0
  0
LINE
  5
5CB
330
1F
100
AcDbEntity
  8
0
  6
Continuous
 62
     7
370
    15
100
AcDbLine
 10
-605.1252720811
 20
-120.1619325851
 30
0.0
 11
-604.1451734554
 21
-120.3604437538
 31
0.0
  0
LINE
  5
5CC
330
1F
100
AcDbEntity
  8
0
  6
Continuous
 62
     7
370
    15
100
AcDbLine
 10
-866.9776936124
 20
-45.6830976703
 30
0.0
 11
-873.7276682632
 21
-43.6112668597
 31
0.0
  0
LINE
  5
5CD
330
1F
100
AcDbEntity
  8
0
  6
Continuous
 62
     7
370
    15
100
AcDbLine
 10
-877.5516743654
 20
-42.4375300573
 30
0.0
 11
-884.3013616134
 21
-40.3657874619
 31
0.0
  0
LINE
  5
5CE
330
1F
100
AcDbEntity
  8
0
  6
Continuous
 62
     7
370
    15
100
AcDbLine
 10
-732.4759577186
 20
-82.2718778373
 30
0.0
 11
-736.0992747536
 21
-81.4142619001
 31
0.0
  0
LINE
  5
5CF
330
1F
100
AcDbEntity
  8
0
  6
Continuous
 62
     7
370
    15
100
AcDbLine
 10
-624.4156592788
 20
-159.1076485529
 30
0.0
 11
-617.3831509172
 21
-160.5320270972
 31
0.0
  0
LINE
  5
5D0
330
1F
100
AcDbEntity
  8
0
  6
Continuous
 62
     7
370
    15
100
AcDbLine
 10
-613.4627564148
 20
-161.3260717719
 30
0.0
 11
-606.4302480727
 21
-162.7504503122
 31
0.0
  0
LINE
  5
5D1
330
1F
100
AcDbEntity
  8
0
  6
Continuous
 62
     7
370
    15
100
AcDbLine
 10
-1166.3819984353
 20
5.1393640944
 30
0.0
 11
-1149.3587958434
 21
-1.7144837623
 31
0.0
  0
LINE
  5
5D2
330
1F
100
AcDbEntity
  8
0
  6
Continuous
 62
     7
370
    15
100
AcDbLine
 10
-1258.6033823358
 20
100.4806160471
 30
0.0
 11
-1264.9918162518
 21
103.399663428
 31
0.0
  0
LINE
  5
5D3
330
1F
100
AcDbEntity
  8
0
  6
Continuous
 62
     7
370
    15
100
AcDbLine
 10
-1268.6300111948
 20
105.0620526082
 30
0.0
 11
-1275.0183639254
 21
107.9810628933
 31
0.0
  0
LINE
  5
5D4
330
1F
100
AcDbEntity
  8
0
  6
Continuous
 62
     7
370
    15
100
AcDbLine
 10
-1283.3449243304
 20
75.2545603741
 30
0.0
 11
-1273.3732058041
 21
97.0849252275
 31
0.0
  0
LINE
  5
5D5
330
1F
100
AcDbEntity
  8
0
  6
Continuous
 62
     7
370
    15
100
AcDbLine
 10
-1016.4073812685
 20
-32.2173193582
 30
0.0
 11
-1017.3511363221
 21
-31.8866281804
 31
0.0
  0
LINE
  5
5D6
330
1F
100
AcDbEntity
  8
0
  6
Continuous
 62
     7
370
    15
100
AcDbLine
 10
-1021.1260994288
 20
-30.5638834798
 30
0.0
 11
-1022.0698259286
 21
-30.2332023073
 31
0.0
  0
LINE
  5
5D7
330
1F
100
AcDbEntity
  8
0
  6
Continuous
 62
     7
370
    15
100
AcDbLine
 10
-999.7024092743
 20
-2.8697141109
 30
0.0
 11
-1006.3807607089
 21
-0.5784224566
 31
0.0
  0
LINE
  5
5D8
330
1F
100
AcDbEntity
  8
0
  6
Continuous
 62
     7
370
    15
100
AcDbLine
 10
-1010.1643518146
 20
0.7196989149
 30
0.0
 11
-1016.8429876144
 21
3.0110881327
 31
0.0
  0
LINE
  5
5D9
330
1F
100
AcDbEntity
  8
0
  6
Continuous
 62
     7
370
    15
100
AcDbLine
 10
-1143.7281040497
 20
51.0323734906
 30
0.0
 11
-1147.163523107
 21
52.4682799403
 31
0.0
  0
LINE
  5
5DA
330
1F
100
AcDbEntity
  8
0
  6
Continuous
 62
     7
370
    15
100
AcDbLine
 10
-596.4095423382
 20
-112.5122993292
 30
0.0
 11
-603.2936606719
 21
-111.1188322965
 31
0.0
  0
LINE
  5
5DB
330
1F
100
AcDbEntity
  8
0
  6
Continuous
 62
     7
370
    15
100
AcDbLine
 10
-607.2141500533
 20
-110.325256062
 30
0.0
 11
-614.0982746601
 21
-108.9317877595
 31
0.0
  0
LINE
  5
5DC
330
1F
100
AcDbEntity
  8
0
  6
Continuous
 62
     7
370
    15
100
AcDbLine
 10
-1296.4407623049
 20
61.4475563697
 30
0.0
 11
-1289.9141148434
 21
58.4662981251
 31
0.0
  0
LINE
  5
5DD
330
1F
100
AcDbEntity
  8
0
  6
Continuous
 62
     7
370
    15
100
AcDbLine
 10
-1286.2757213169
 20
56.8043436896
 30
0.0
 11
-1279.7490738372
 21
53.8230854367
 31
0.0
  0
LINE
  5
5DE
330
1F
100
AcDbEntity
  8
0
  6
Continuous
 62
     7
370
    15
100
AcDbLine
 10
-608.9094502175
 20
-143.8828090034
 30
0.0
 11
-609.8895488432
 21
-143.6842978347
 31
0.0
  0
LINE
  5
5DF
330
1F
100
AcDbEntity
  8
0
  6
Continuous
 62
     7
370
    15
100
AcDbLine
 10
-613.8099433456
 20
-142.89025316
 30
0.0
 11
-614.7900419711
 21
-142.6917419913
 31
0.0
  0
LINE
  5
5E0
330
1F
100
AcDbEntity
  8
0
  6
Continuous
 62
     7
370
    15
100
AcDbLine
 10
-604.1451734554
 20
-120.3604437538
 30
0.0
 11
-608.9094502175
 21
-143.8828090034
 31
0.0
  0
LINE
  5
5E1
330
1F
100
AcDbEntity
  8
0
  6
Continuous
 62
     7
370
    15
100
AcDbLine
 10
-1273.3732058041
 20
97.0849252275
 30
0.0
 11
-1272.4636074224
 21
96.6694366186
 31
0.0
  0
LINE
  5
5E2
330
1F
100
AcDbEntity
  8
0
  6
Continuous
 62
     7
370
    15
100
AcDbLine
 10
-1268.8252138958
 20
95.007482183
 30
0.0
 11
-1267.9156155143
 21
94.5919935742
 31
0.0
  0
LINE
  5
5E3
330
1F
100
AcDbEntity
  8
0
  6
Continuous
 62
     7
370
    15
100
AcDbLine
 10
-614.7900419711
 20
-142.6917419913
 30
0.0
 11
-610.025765209
 21
-119.1693767418
 31
0.0
  0
LINE
  5
5E4
330
1F
100
AcDbEntity
  8
0
  6
Continuous
 62
     7
370
    15
100
AcDbLine
 10
-1033.8851989172
 20
-45.1661371202
 30
0.0
 11
-1027.0784505815
 21
-47.55121746
 31
0.0
  0
LINE
  5
5E5
330
1F
100
AcDbEntity
  8
0
  6
Continuous
 62
     7
370
    15
100
AcDbLine
 10
-1023.3034874748
 20
-48.8739621606
 30
0.0
 11
-1016.4967210556
 21
-51.2590488369
 31
0.0
  0
LINE
  5
5E6
330
1F
100
AcDbEntity
  8
0
  6
Continuous
 62
     7
370
    15
100
AcDbLine
 10
-762.5477742004
 20
-127.3970034141
 30
0.0
 11
-744.7471233132
 21
-131.8581114514
 31
0.0
  0
LINE
  5
5E7
330
1F
100
AcDbEntity
  8
0
  6
Continuous
 62
     7
370
    15
100
AcDbLine
 10
-899.1570152937
 20
-89.3850303891
 30
0.0
 11
-892.2483068101
 21
-91.456371652
 31
0.0
  0
LINE
  5
5E8
330
1F
100
AcDbEntity
  8
0
  6
Continuous
 62
     7
370
    15
100
AcDbLine
 10
-888.4168076761
 20
-92.605116352
 30
0.0
 11
-881.5081175468
 21
-94.6764521119
 31
0.0
  0
LINE
  5
5E9
330
1F
100
AcDbEntity
  8
0
  6
Continuous
 62
     7
370
    15
100
AcDbLine
 10
-1277.8873340406
 20
72.7616287208
 30
0.0
 11
-1278.7969324221
 21
73.1771173296
 31
0.0
  0
LINE
  5
5EA
330
1F
100
AcDbEntity
  8
0
  6
Continuous
 62
     7
370
    15
100
AcDbLine
 10
-1282.4353259487
 20
74.8390717652
 30
0.0
 11
-1283.3449243304
 21
75.2545603741
 31
0.0
  0
LINE
  5
5EB
330
1F
100
AcDbEntity
  8
0
  6
Continuous
 62
     7
370
    15
100
AcDbLine
 10
-850.4781542533
 20
20.0064306075
 30
0.0
 11
-848.3849296385
 21
19.3788484006
 31
0.0
  0
LINE
  5
5EC
330
1F
100
AcDbEntity
  8
0
  6
Continuous
 62
     7
370
    15
100
AcDbLine
 10
-845.3570010009
 20
64.9439125815
 30
0.0
 11
-858.4437776913
 21
21.2945503222
 31
0.0
  0
LINE
  5
5ED
330
1F
100
AcDbEntity
  8
0
  6
Continuous
 62
     7
370
    15
100
AcDbLine
 10
-852.0470680136
 20
28.7017554132
 30
0.0
 11
-841.5255018668
 21
63.7951678814
 31
0.0
  0
LINE
  5
5EE
330
1F
100
AcDbEntity
  8
0
  6
Continuous
 62
     7
370
    15
100
AcDbLine
 10
-847.3399543648
 20
23.178017794
 30
0.0
 11
-849.3468615664
 21
23.7797206603
 31
0.0
  0
LINE
  5
5EF
330
1F
100
AcDbEntity
  8
0
  6
Continuous
 62
     7
370
    15
100
AcDbLine
 10
-873.2559102077
 20
-28.1095278046
 30
0.0
 11
-873.3823311363
 21
-28.5856409658
 31
0.0
  0
LINE
  5
5F0
330
1F
100
AcDbEntity
  8
0
  6
Continuous
 62
     7
370
    15
100
AcDbLine
 10
-861.7845245593
 20
10.1518928361
 30
0.0
 11
-873.3973053551
 21
-28.5811342328
 31
0.0
  0
LINE
  5
5F1
330
1F
100
AcDbEntity
  8
0
  6
Continuous
 62
     7
370
    15
100
AcDbLine
 10
-888.8475869386
 20
-94.0419285273
 30
0.0
 11
-892.6790860726
 21
-92.8931838272
 31
0.0
  0
LINE
  5
5F2
330
1F
100
AcDbEntity
  8
0
  6
Continuous
 62
     7
370
    15
100
AcDbLine
 10
-876.7380300799
 20
-39.723717863
 30
0.0
 11
-892.6790860726
 21
-92.8931838272
 31
0.0
  0
LINE
  5
5F3
330
1F
100
AcDbEntity
  8
0
  6
Continuous
 62
     7
370
    15
100
AcDbLine
 10
-888.8475869386
 20
-94.0419285273
 30
0.0
 11
-872.906928764
 21
-40.8737894372
 31
0.0
  0
LINE
  5
5F4
330
1F
100
AcDbEntity
  8
0
  6
Continuous
 62
     7
370
    15
100
AcDbLine
 10
-585.9665203218
 20
-45.7205904215
 30
0.0
 11
-583.8596369226
 21
-46.1473236821
 31
0.0
  0
LINE
  5
5F5
330
1F
100
AcDbEntity
  8
0
  6
Continuous
 62
     7
370
    15
100
AcDbLine
 10
-584.9705271615
 20
-0.5032099752
 30
0.0
 11
-594.1439019761
 21
-45.7943388782
 31
0.0
  0
LINE
  5
5F6
330
1F
100
AcDbEntity
  8
0
  6
Continuous
 62
     7
370
    15
100
AcDbLine
 10
-588.3229489658
 20
-37.2048750722
 30
0.0
 11
-581.0501329532
 21
-1.2972561022
 31
0.0
  0
LINE
  5
5F7
330
1F
100
AcDbEntity
  8
0
  6
Continuous
 62
     7
370
    15
100
AcDbLine
 10
-583.1659224736
 20
-42.2686109892
 30
0.0
 11
-585.1845375396
 21
-41.8597558104
 31
0.0
  0
LINE
  5
5F8
330
1F
100
AcDbEntity
  8
0
  6
Continuous
 62
     7
370
    15
100
AcDbLine
 10
-604.2550738517
 20
-95.715594472
 30
0.0
 11
-604.3760233
 21
-96.5359548179
 31
0.0
  0
LINE
  5
5F9
330
1F
100
AcDbEntity
  8
0
  6
Continuous
 62
     7
370
    15
100
AcDbLine
 10
-596.4432539564
 20
-57.146785392
 30
0.0
 11
-604.4194266799
 21
-96.5270433964
 31
0.0
  0
LINE
  5
5FA
330
1F
100
AcDbEntity
  8
0
  6
Continuous
 62
     7
370
    15
100
AcDbLine
 10
-613.7605501342
 20
-162.7963500505
 30
0.0
 11
-617.6809443424
 21
-162.0023039235
 31
0.0
  0
LINE
  5
5FB
330
1F
100
AcDbEntity
  8
0
  6
Continuous
 62
     7
370
    15
100
AcDbLine
 10
-606.7184006365
 20
-107.8776235172
 30
0.0
 11
-617.6809443424
 21
-162.0023039235
 31
0.0
  0
LINE
  5
5FC
330
1F
100
AcDbEntity
  8
0
  6
Continuous
 62
     7
370
    15
100
AcDbLine
 10
-613.7605501342
 20
-162.7963500505
 30
0.0
 11
-602.7993592543
 21
-108.6783488675
 31
0.0
  0
LINE
  5
5FD
330
1F
100
AcDbEntity
  8
0
  6
Continuous
 62
     7
370
    15
100
AcDbLine
 10
-240.1536804158
 20
-607.2604086077
 30
0.0
 11
-249.7582251914
 21
-606.5852190519
 31
0.0
  0
LINE
  5
5FE
330
1F
100
AcDbEntity
  8
0
  6
Continuous
 62
     7
370
    15
100
AcDbLine
 10
-388.1910218121
 20
-593.8885391572
 30
0.0
 11
-408.7320353896
 21
-591.5299931707
 31
0.0
  0
LINE
  5
5FF
330
1F
100
AcDbEntity
  8
0
  6
Continuous
 62
     7
370
    15
100
AcDbLine
 10
-240.3547926961
 20
-610.253664424
 30
0.0
 11
-240.1536804158
 21
-607.2604086077
 31
0.0
  0
LINE
  5
600
330
1F
100
AcDbEntity
  8
0
  6
Continuous
 62
     7
370
    15
100
AcDbLine
 10
-240.3547926961
 20
-610.253664424
 30
0.0
 11
-249.9727281356
 21
-609.5775406401
 31
0.0
  0
LINE
  5
601
330
1F
100
AcDbEntity
  8
0
  6
Continuous
 62
     7
370
    15
100
AcDbLine
 10
-388.5244161033
 20
-596.8699563112
 30
0.0
 11
-409.0830700237
 21
-594.5093848343
 31
0.0
  0
LINE
  5
602
330
1F
100
AcDbEntity
  8
0
  6
Continuous
 62
     7
370
    15
100
AcDbLine
 10
409.0826480143
 20
-594.5094345559
 30
0.0
 11
388.5244161033
 21
-596.8699563112
 31
0.0
  0
LINE
  5
603
330
1F
100
AcDbEntity
  8
0
  6
Continuous
 62
     7
370
    15
100
AcDbLine
 10
249.9727281356
 20
-609.5775406401
 30
0.0
 11
240.3547926957
 21
-610.2536644241
 31
0.0
  0
LINE
  5
604
330
1F
100
AcDbEntity
  8
0
  6
Continuous
 62
     7
370
    15
100
AcDbLine
 10
240.1536804154
 20
-607.2604086078
 30
0.0
 11
240.3547926957
 21
-610.2536644241
 31
0.0
  0
LINE
  5
605
330
1F
100
AcDbEntity
  8
0
  6
Continuous
 62
     7
370
    15
100
AcDbLine
 10
408.7316167639
 20
-591.5300424935
 30
0.0
 11
388.1910218121
 21
-593.8885391572
 31
0.0
  0
LINE
  5
606
330
1F
100
AcDbEntity
  8
0
  6
Continuous
 62
     7
370
    15
100
AcDbLine
 10
249.7582251914
 20
-606.5852190519
 30
0.0
 11
240.1536804154
 21
-607.2604086078
 31
0.0
  0
LINE
  5
607
330
1F
100
AcDbEntity
  8
0
  6
Continuous
 62
     7
370
    15
100
AcDbLine
 10
240.1536804154
 20
-607.2604086078
 30
0.0
 11
239.1560355005
 21
-607.3290169322
 31
0.0
  0
LINE
  5
608
330
1F
100
AcDbEntity
  8
0
  6
Continuous
 62
     7
370
    15
100
AcDbLine
 10
229.326967139
 20
-610.9961078233
 30
0.0
 11
240.3547926957
 21
-610.2536644241
 31
0.0
  0
LINE
  5
609
330
1F
100
AcDbEntity
  8
0
  6
Continuous
 62
     7
370
    15
100
AcDbLine
 10
-239.1560355005
 20
-607.3290169322
 30
0.0
 11
-240.1536804158
 21
-607.2604086077
 31
0.0
  0
LINE
  5
60A
330
1F
100
AcDbEntity
  8
0
  6
Continuous
 62
     7
370
    15
100
AcDbLine
 10
-240.3547926961
 20
-610.253664424
 30
0.0
 11
-229.326967139
 21
-610.9961078233
 31
0.0
  0
LINE
  5
60B
330
1F
100
AcDbEntity
  8
0
  6
Continuous
 62
     7
370
    15
100
AcDbLine
 10
-193.0549164383
 20
-133.9315736847
 30
0.0
 11
-82.8755804469
 21
-138.9750484236
 31
0.0
  0
LINE
  5
60C
330
1F
100
AcDbEntity
  8
0
  6
Continuous
 62
     7
370
    15
100
AcDbLine
 10
-230.4210840176
 20
-627.639867024
 30
0.0
 11
-198.2727841211
 21
-138.5983645674
 31
0.0
  0
LINE
  5
60D
330
1F
100
AcDbEntity
  8
0
  6
Continuous
 62
     7
370
    15
100
AcDbLine
 10
-78.1058863673
 20
-144.0990213632
 30
0.0
 11
-90.7703006306
 21
-634.0324014493
 31
0.0
  0
LINE
  5
60E
330
1F
100
AcDbEntity
  8
0
  6
Continuous
 62
     7
370
    15
100
AcDbLine
 10
-95.9972673037
 20
-638.8979681276
 30
0.0
 11
-225.6604889283
 21
-632.9626157592
 31
0.0
  0
LINE
  5
60F
330
1F
100
AcDbEntity
  8
0
  6
Continuous
 62
     7
370
    15
100
AcDbLine
 10
848.4708427397
 20
-510.9124353132
 30
0.0
 11
839.1277327977
 21
-513.2382594453
 31
0.0
  0
LINE
  5
610
330
1F
100
AcDbEntity
  8
0
  6
Continuous
 62
     7
370
    15
100
AcDbLine
 10
703.546829643
 20
-543.9410860308
 30
0.0
 11
683.282334037
 21
-548.0454977784
 31
0.0
  0
LINE
  5
611
330
1F
100
AcDbEntity
  8
0
  6
Continuous
 62
     7
370
    15
100
AcDbLine
 10
849.2045405108
 20
-513.8213378746
 30
0.0
 11
848.4708427397
 21
-510.9124353132
 31
0.0
  0
LINE
  5
612
330
1F
100
AcDbEntity
  8
0
  6
Continuous
 62
     7
370
    15
100
AcDbLine
 10
849.2045405108
 20
-513.8213378746
 30
0.0
 11
839.8484065982
 21
-516.1504114457
 31
0.0
  0
LINE
  5
613
330
1F
100
AcDbEntity
  8
0
  6
Continuous
 62
     7
370
    15
100
AcDbLine
 10
704.1510613978
 20
-546.8796067448
 30
0.0
 11
683.8691629178
 21
-550.9875433023
 31
0.0
  0
LINE
  5
614
330
1F
100
AcDbEntity
  8
0
  6
Continuous
 62
     7
370
    15
100
AcDbLine
 10
1461.9910158318
 20
-298.1604795016
 30
0.0
 11
1443.1684167474
 21
-306.7583121337
 31
0.0
  0
LINE
  5
615
330
1F
100
AcDbEntity
  8
0
  6
Continuous
 62
     7
370
    15
100
AcDbLine
 10
1315.3247905771
 20
-361.6587691973
 30
0.0
 11
1306.3865241432
 21
-365.2739066297
 31
0.0
  0
LINE
  5
616
330
1F
100
AcDbEntity
  8
0
  6
Continuous
 62
     7
370
    15
100
AcDbLine
 10
1305.2702880828
 20
-362.489298293
 30
0.0
 11
1306.3865241432
 21
-365.2739066297
 31
0.0
  0
LINE
  5
617
330
1F
100
AcDbEntity
  8
0
  6
Continuous
 62
     7
370
    15
100
AcDbLine
 10
1460.7364824935
 20
-295.435383888
 30
0.0
 11
1441.9300313664
 21
-304.0258404233
 31
0.0
  0
LINE
  5
618
330
1F
100
AcDbEntity
  8
0
  6
Continuous
 62
     7
370
    15
100
AcDbLine
 10
1314.1961079308
 20
-358.8791873072
 30
0.0
 11
1305.2702880828
 21
-362.489298293
 31
0.0
  0
LINE
  5
619
330
1F
100
AcDbEntity
  8
0
  6
Continuous
 62
     7
370
    15
100
AcDbLine
 10
1296.1278664147
 20
-369.3877977705
 30
0.0
 11
1306.3865241432
 21
-365.2739066297
 31
0.0
  0
LINE
  5
61A
330
1F
100
AcDbEntity
  8
0
  6
Continuous
 62
     7
370
    15
100
AcDbLine
 10
1305.2702880828
 20
-362.489298293
 30
0.0
 11
1304.3426725237
 21
-362.8628379201
 31
0.0
  0
LINE
  5
61B
330
1F
100
AcDbEntity
  8
0
  6
Continuous
 62
     7
370
    15
100
AcDbLine
 10
849.2045405108
 20
-513.8213378746
 30
0.0
 11
859.9220534952
 21
-511.1196579994
 31
0.0
  0
LINE
  5
61C
330
1F
100
AcDbEntity
  8
0
  6
Continuous
 62
     7
370
    15
100
AcDbLine
 10
849.4408605756
 20
-510.6693964741
 30
0.0
 11
848.4708427397
 21
-510.9124353132
 31
0.0
  0
LINE
  5
61D
330
1F
100
AcDbEntity
  8
0
  6
Continuous
 62
     7
370
    15
100
AcDbLine
 10
995.348282348
 20
-496.4547609545
 30
0.0
 11
870.1971057486
 21
-530.8780444354
 31
0.0
  0
LINE
  5
61E
330
1F
100
AcDbEntity
  8
0
  6
Continuous
 62
     7
370
    15
100
AcDbLine
 10
864.0246909515
 20
-527.2869143522
 30
0.0
 11
743.4774058421
 21
-52.2464356938
 31
0.0
  0
LINE
  5
61F
330
1F
100
AcDbEntity
  8
0
  6
Continuous
 62
     7
370
    15
100
AcDbLine
 10
746.9977752111
 20
-46.1956440262
 30
0.0
 11
853.3430700718
 21
-16.9449862911
 31
0.0
  0
LINE
  5
620
330
1F
100
AcDbEntity
  8
0
  6
Continuous
 62
     7
370
    15
100
AcDbLine
 10
859.462713424
 20
-20.344257616
 30
0.0
 11
998.815880272
 21
-490.2121105286
 31
0.0
  0
LINE
  5
621
330
1F
100
AcDbEntity
  8
0
  6
PHANTOM
 62
     8
370
     0
100
AcDbLine
 10
-330.9438329676
 20
-126.9406790331
 30
0.0
 11
-335.9128615578
 21
-126.3850218811
 31
0.0
  0
LINE
  5
622
330
1F
100
AcDbEntity
  8
0
  6
PHANTOM
 62
     8
370
     0
100
AcDbLine
 10
-385.409017566
 20
-614.0019154068
 30
0.0
 11
-330.9438329676
 21
-126.9406790331
 31
0.0
  0
LINE
  5
623
330
1F
100
AcDbEntity
  8
0
  6
PHANTOM
 62
     8
370
     0
100
AcDbLine
 10
-390.3780461562
 20
-613.4462582549
 30
0.0
 11
-385.409017566
 21
-614.0019154068
 31
0.0
  0
LINE
  5
624
330
1F
100
AcDbEntity
  8
0
  6
PHANTOM
 62
     8
370
     0
100
AcDbLine
 10
-385.409017566
 20
-614.0019154068
 30
0.0
 11
-385.8656890131
 21
-618.9810168508
 31
0.0
  0
LINE
  5
625
330
1F
100
AcDbEntity
  8
0
  6
PHANTOM
 62
     8
370
     0
100
AcDbLine
 10
-221.1101245243
 20
-137.0143678573
 30
0.0
 11
-220.6534530772
 21
-132.0352664133
 31
0.0
  0
LINE
  5
626
330
1F
100
AcDbEntity
  8
0
  6
PHANTOM
 62
     8
370
     0
100
AcDbLine
 10
-216.1229218773
 20
-137.3718727642
 30
0.0
 11
-221.1101245243
 21
-137.0143678573
 31
0.0
  0
LINE
  5
627
330
1F
100
AcDbEntity
  8
0
  6
PHANTOM
 62
     8
370
     0
100
AcDbLine
 10
-330.4871615206
 20
-121.9615775891
 30
0.0
 11
-330.9438329676
 21
-126.9406790331
 31
0.0
  0
LINE
  5
628
330
1F
100
AcDbEntity
  8
0
  6
PHANTOM
 62
     8
370
     0
100
AcDbLine
 10
-256.6092149964
 20
-630.8361159475
 30
0.0
 11
-256.1525435494
 21
-625.8570145035
 31
0.0
  0
LINE
  5
629
330
1F
100
AcDbEntity
  8
0
  6
PHANTOM
 62
     8
370
     0
100
AcDbLine
 10
-256.1525435494
 20
-625.8570145035
 30
0.0
 11
-251.1653409025
 21
-626.2145194105
 31
0.0
  0
LINE
  5
62A
330
1F
100
AcDbEntity
  8
0
  6
PHANTOM
 62
     8
370
     0
100
AcDbLine
 10
-221.1101245243
 20
-137.0143678573
 30
0.0
 11
-256.1525435494
 21
-625.8570145035
 31
0.0
  0
LINE
  5
62B
330
1F
100
AcDbEntity
  8
0
  6
PHANTOM
 62
     8
370
     0
100
AcDbLine
 10
-256.1525435494
 20
-625.8570145035
 30
0.0
 11
-385.409017566
 21
-614.0019154068
 31
0.0
  0
LINE
  5
62C
330
1F
100
AcDbEntity
  8
0
  6
PHANTOM
 62
     8
370
     0
100
AcDbLine
 10
-330.9438329676
 20
-126.9406790331
 30
0.0
 11
-221.1101245243
 21
-137.0143678573
 31
0.0
  0
LINE
  5
62D
330
1F
100
AcDbEntity
  8
0
  6
PHANTOM
 62
     8
370
     0
100
AcDbLine
 10
712.408047985
 20
-562.2103569873
 30
0.0
 11
713.5123545923
 21
-567.0868830988
 31
0.0
  0
LINE
  5
62E
330
1F
100
AcDbEntity
  8
0
  6
PHANTOM
 62
     8
370
     0
100
AcDbLine
 10
839.0016869627
 20
-533.5427791304
 30
0.0
 11
712.408047985
 21
-562.2103569873
 31
0.0
  0
LINE
  5
62F
330
1F
100
AcDbEntity
  8
0
  6
PHANTOM
 62
     8
370
     0
100
AcDbLine
 10
840.1059935701
 20
-538.4193052419
 30
0.0
 11
839.0016869627
 21
-533.5427791304
 31
0.0
  0
LINE
  5
630
330
1F
100
AcDbEntity
  8
0
  6
PHANTOM
 62
     8
370
     0
100
AcDbLine
 10
839.0016869627
 20
-533.5427791304
 30
0.0
 11
843.85527363
 21
-532.3416561295
 31
0.0
  0
LINE
  5
631
330
1F
100
AcDbEntity
  8
0
  6
PHANTOM
 62
     8
370
     0
100
AcDbLine
 10
721.2683225344
 20
-57.7970915917
 30
0.0
 11
839.0016869627
 21
-533.5427791304
 31
0.0
  0
LINE
  5
632
330
1F
100
AcDbEntity
  8
0
  6
PHANTOM
 62
     8
370
     0
100
AcDbLine
 10
726.1219092016
 20
-56.5959685908
 30
0.0
 11
721.2683225344
 21
-57.7970915917
 31
0.0
  0
LINE
  5
633
330
1F
100
AcDbEntity
  8
0
  6
PHANTOM
 62
     8
370
     0
100
AcDbLine
 10
721.2683225344
 20
-57.7970915917
 30
0.0
 11
720.164015927
 21
-52.9205654801
 31
0.0
  0
LINE
  5
634
330
1F
100
AcDbEntity
  8
0
  6
PHANTOM
 62
     8
370
     0
100
AcDbLine
 10
613.6973173677
 20
-82.1569266565
 30
0.0
 11
608.7997828444
 21
-83.1639795812
 31
0.0
  0
LINE
  5
635
330
1F
100
AcDbEntity
  8
0
  6
PHANTOM
 62
     8
370
     0
100
AcDbLine
 10
712.408047985
 20
-562.2103569873
 30
0.0
 11
613.6973173677
 21
-82.1569266565
 31
0.0
  0
LINE
  5
636
330
1F
100
AcDbEntity
  8
0
  6
PHANTOM
 62
     8
370
     0
100
AcDbLine
 10
707.5105134617
 20
-563.2174099119
 30
0.0
 11
712.408047985
 21
-562.2103569873
 31
0.0
  0
LINE
  5
637
330
1F
100
AcDbEntity
  8
0
  6
PHANTOM
 62
     8
370
     0
100
AcDbLine
 10
612.5930107604
 20
-77.280400545
 30
0.0
 11
613.6973173677
 21
-82.1569266565
 31
0.0
  0
LINE
  5
638
330
1F
100
AcDbEntity
  8
0
  6
PHANTOM
 62
     8
370
     0
100
AcDbLine
 10
613.6973173677
 20
-82.1569266565
 30
0.0
 11
721.2683225344
 21
-57.7970915917
 31
0.0
  0
LINE
  5
639
330
1F
100
AcDbEntity
  8
0
  6
PHANTOM
 62
     8
370
     0
100
AcDbLine
 10
-416.0004476587
 20
-610.4895096302
 30
0.0
 11
-411.0347948859
 21
-611.0745673537
 31
0.0
  0
LINE
  5
63A
330
1F
100
AcDbEntity
  8
0
  6
PHANTOM
 62
     8
370
     0
100
AcDbLine
 10
-358.6534364713
 20
-123.7591688673
 30
0.0
 11
-416.0004476587
 21
-610.4895096302
 31
0.0
  0
LINE
  5
63B
330
1F
100
AcDbEntity
  8
0
  6
PHANTOM
 62
     8
370
     0
100
AcDbLine
 10
-353.6877836985
 20
-124.3442265908
 30
0.0
 11
-358.6534364713
 21
-123.7591688673
 31
0.0
  0
LINE
  5
63C
330
1F
100
AcDbEntity
  8
0
  6
PHANTOM
 62
     8
370
     0
100
AcDbLine
 10
-358.6534364713
 20
-123.7591688673
 30
0.0
 11
-357.9696860694
 21
-118.8061409663
 31
0.0
  0
LINE
  5
63D
330
1F
100
AcDbEntity
  8
0
  6
PHANTOM
 62
     8
370
     0
100
AcDbLine
 10
-467.9119901499
 20
-108.6763586185
 30
0.0
 11
-358.6534364713
 21
-123.7591688673
 31
0.0
  0
LINE
  5
63E
330
1F
100
AcDbEntity
  8
0
  6
PHANTOM
 62
     8
370
     0
100
AcDbLine
 10
-467.228239748
 20
-103.7233307175
 30
0.0
 11
-467.9119901499
 21
-108.6763586185
 31
0.0
  0
LINE
  5
63F
330
1F
100
AcDbEntity
  8
0
  6
PHANTOM
 62
     8
370
     0
100
AcDbLine
 10
-549.5184994359
 20
-591.9573141231
 30
0.0
 11
-544.580057733
 21
-592.7394864483
 31
0.0
  0
LINE
  5
640
330
1F
100
AcDbEntity
  8
0
  6
PHANTOM
 62
     8
370
     0
100
AcDbLine
 10
-544.580057733
 20
-592.7394864483
 30
0.0
 11
-545.2638081349
 21
-597.6925143493
 31
0.0
  0
LINE
  5
641
330
1F
100
AcDbEntity
  8
0
  6
PHANTOM
 62
     8
370
     0
100
AcDbLine
 10
-416.0004476587
 20
-610.4895096302
 30
0.0
 11
-544.580057733
 21
-592.7394864483
 31
0.0
  0
LINE
  5
642
330
1F
100
AcDbEntity
  8
0
  6
PHANTOM
 62
     8
370
     0
100
AcDbLine
 10
-416.6841980606
 20
-615.4425375312
 30
0.0
 11
-416.0004476587
 21
-610.4895096302
 31
0.0
  0
LINE
  5
643
330
1F
100
AcDbEntity
  8
0
  6
PHANTOM
 62
     8
370
     0
100
AcDbLine
 10
-467.9119901499
 20
-108.6763586185
 30
0.0
 11
-472.8504318529
 21
-107.8941862933
 31
0.0
  0
LINE
  5
644
330
1F
100
AcDbEntity
  8
0
  6
PHANTOM
 62
     8
370
     0
100
AcDbLine
 10
-544.580057733
 20
-592.7394864483
 30
0.0
 11
-467.9119901499
 21
-108.6763586185
 31
0.0
  0
LINE
  5
645
330
1F
100
AcDbEntity
  8
0
  6
PHANTOM
 62
     8
370
     0
100
AcDbLine
 10
586.3607776826
 20
-87.6938690718
 30
0.0
 11
585.4804931629
 21
-82.7719691171
 31
0.0
  0
LINE
  5
646
330
1F
100
AcDbEntity
  8
0
  6
PHANTOM
 62
     8
370
     0
100
AcDbLine
 10
477.7888735558
 20
-107.1120139681
 30
0.0
 11
586.3607776826
 21
-87.6938690718
 31
0.0
  0
LINE
  5
647
330
1F
100
AcDbEntity
  8
0
  6
PHANTOM
 62
     8
370
     0
100
AcDbLine
 10
476.908589036
 20
-102.1901140134
 30
0.0
 11
477.7888735558
 21
-107.1120139681
 31
0.0
  0
LINE
  5
648
330
1F
100
AcDbEntity
  8
0
  6
PHANTOM
 62
     8
370
     0
100
AcDbLine
 10
477.7888735558
 20
-107.1120139681
 30
0.0
 11
472.8504318528
 21
-107.8941862933
 31
0.0
  0
LINE
  5
649
330
1F
100
AcDbEntity
  8
0
  6
PHANTOM
 62
     8
370
     0
100
AcDbLine
 10
549.5184994359
 20
-591.9573141231
 30
0.0
 11
554.4569411389
 21
-591.1751417979
 31
0.0
  0
LINE
  5
64A
330
1F
100
AcDbEntity
  8
0
  6
PHANTOM
 62
     8
370
     0
100
AcDbLine
 10
554.4569411389
 20
-591.1751417979
 30
0.0
 11
555.3372256586
 21
-596.0970417526
 31
0.0
  0
LINE
  5
64B
330
1F
100
AcDbEntity
  8
0
  6
PHANTOM
 62
     8
370
     0
100
AcDbLine
 10
591.2641868891
 20
-86.7158209371
 30
0.0
 11
586.3607776826
 21
-87.6938690718
 31
0.0
  0
LINE
  5
64C
330
1F
100
AcDbEntity
  8
0
  6
PHANTOM
 62
     8
370
     0
100
AcDbLine
 10
554.4569411389
 20
-591.1751417979
 30
0.0
 11
477.7888735558
 21
-107.1120139681
 31
0.0
  0
LINE
  5
64D
330
1F
100
AcDbEntity
  8
0
  6
PHANTOM
 62
     8
370
     0
100
AcDbLine
 10
682.2284759765
 20
-568.3231323664
 30
0.0
 11
687.131885183
 21
-567.3450842317
 31
0.0
  0
LINE
  5
64E
330
1F
100
AcDbEntity
  8
0
  6
PHANTOM
 62
     8
370
     0
100
AcDbLine
 10
586.3607776826
 20
-87.6938690718
 30
0.0
 11
682.2284759765
 21
-568.3231323664
 31
0.0
  0
LINE
  5
64F
330
1F
100
AcDbEntity
  8
0
  6
PHANTOM
 62
     8
370
     0
100
AcDbLine
 10
683.1087604962
 20
-573.2450323211
 30
0.0
 11
682.2284759765
 21
-568.3231323664
 31
0.0
  0
LINE
  5
650
330
1F
100
AcDbEntity
  8
0
  6
PHANTOM
 62
     8
370
     0
100
AcDbLine
 10
682.2284759765
 20
-568.3231323664
 30
0.0
 11
554.4569411389
 21
-591.1751417979
 31
0.0
  0
LINE
  5
651
330
1F
100
AcDbEntity
  8
0
  6
PHANTOM
 62
     8
370
     0
100
AcDbLine
 10
358.6535315327
 20
-123.7590122642
 30
0.0
 11
353.6878780955
 21
-124.3440643482
 31
0.0
  0
LINE
  5
652
330
1F
100
AcDbEntity
  8
0
  6
PHANTOM
 62
     8
370
     0
100
AcDbLine
 10
357.969786756
 20
-118.8059835867
 30
0.0
 11
358.6535315327
 21
-123.7590122642
 31
0.0
  0
LINE
  5
653
330
1F
100
AcDbEntity
  8
0
  6
PHANTOM
 62
     8
370
     0
100
AcDbLine
 10
415.9999899394
 20
-610.4894181559
 30
0.0
 11
358.6535315327
 21
-123.7590122642
 31
0.0
  0
LINE
  5
654
330
1F
100
AcDbEntity
  8
0
  6
PHANTOM
 62
     8
370
     0
100
AcDbLine
 10
411.0343365021
 20
-611.0744702399
 30
0.0
 11
415.9999899394
 21
-610.4894181559
 31
0.0
  0
LINE
  5
655
330
1F
100
AcDbEntity
  8
0
  6
PHANTOM
 62
     8
370
     0
100
AcDbLine
 10
544.5796201723
 20
-592.7395410022
 30
0.0
 11
549.5180627636
 21
-591.9573742856
 31
0.0
  0
LINE
  5
656
330
1F
100
AcDbEntity
  8
0
  6
PHANTOM
 62
     8
370
     0
100
AcDbLine
 10
467.9121023409
 20
-108.6763261006
 30
0.0
 11
544.5796201723
 21
-592.7395410022
 31
0.0
  0
LINE
  5
657
330
1F
100
AcDbEntity
  8
0
  6
PHANTOM
 62
     8
370
     0
100
AcDbLine
 10
472.8505449321
 20
-107.894159384
 30
0.0
 11
467.9121023409
 21
-108.6763261006
 31
0.0
  0
LINE
  5
658
330
1F
100
AcDbEntity
  8
0
  6
PHANTOM
 62
     8
370
     0
100
AcDbLine
 10
415.9999899394
 20
-610.4894181559
 30
0.0
 11
416.6837347161
 21
-615.4424468334
 31
0.0
  0
LINE
  5
659
330
1F
100
AcDbEntity
  8
0
  6
PHANTOM
 62
     8
370
     0
100
AcDbLine
 10
544.5796201723
 20
-592.7395410022
 30
0.0
 11
415.9999899394
 21
-610.4894181559
 31
0.0
  0
LINE
  5
65A
330
1F
100
AcDbEntity
  8
0
  6
PHANTOM
 62
     8
370
     0
100
AcDbLine
 10
545.263364949
 20
-597.6925696797
 30
0.0
 11
544.5796201723
 21
-592.7395410022
 31
0.0
  0
LINE
  5
65B
330
1F
100
AcDbEntity
  8
0
  6
PHANTOM
 62
     8
370
     0
100
AcDbLine
 10
467.9121023409
 20
-108.6763261006
 30
0.0
 11
467.2283575641
 21
-103.7232974231
 31
0.0
  0
LINE
  5
65C
330
1F
100
AcDbEntity
  8
0
  6
PHANTOM
 62
     8
370
     0
100
AcDbLine
 10
358.6535315327
 20
-123.7590122642
 30
0.0
 11
467.9121023409
 21
-108.6763261006
 31
0.0
  0
LINE
  5
65D
330
1F
100
AcDbEntity
  8
0
  6
PHANTOM
 62
     8
370
     0
100
AcDbLine
 10
1367.8104647765
 20
182.0735652834
 30
0.0
 11
1365.6296148161
 21
186.5728867268
 31
0.0
  0
LINE
  5
65E
330
1F
100
AcDbEntity
  8
0
  6
PHANTOM
 62
     8
370
     0
100
AcDbLine
 10
1268.5601953937
 20
133.9663231634
 30
0.0
 11
1367.8104647765
 21
182.0735652834
 31
0.0
  0
LINE
  5
65F
330
1F
100
AcDbEntity
  8
0
  6
PHANTOM
 62
     8
370
     0
100
AcDbLine
 10
1266.3793454334
 20
138.4656446068
 30
0.0
 11
1268.5601953937
 21
133.9663231634
 31
0.0
  0
LINE
  5
660
330
1F
100
AcDbEntity
  8
0
  6
PHANTOM
 62
     8
370
     0
100
AcDbLine
 10
1268.5601953937
 20
133.9663231634
 30
0.0
 11
1264.0183693711
 21
131.8754342663
 31
0.0
  0
LINE
  5
661
330
1F
100
AcDbEntity
  8
0
  6
PHANTOM
 62
     8
370
     0
100
AcDbLine
 10
1473.5078854474
 20
-311.220770824
 30
0.0
 11
1268.5601953937
 21
133.9663231634
 31
0.0
  0
LINE
  5
662
330
1F
100
AcDbEntity
  8
0
  6
PHANTOM
 62
     8
370
     0
100
AcDbLine
 10
1468.9660594248
 20
-313.3116597211
 30
0.0
 11
1473.5078854474
 21
-311.220770824
 31
0.0
  0
LINE
  5
663
330
1F
100
AcDbEntity
  8
0
  6
PHANTOM
 62
     8
370
     0
100
AcDbLine
 10
1473.5078854474
 20
-311.220770824
 30
0.0
 11
1475.6887354078
 21
-315.7200922673
 31
0.0
  0
LINE
  5
664
330
1F
100
AcDbEntity
  8
0
  6
PHANTOM
 62
     8
370
     0
100
AcDbLine
 10
1372.2654999754
 20
184.3435127225
 30
0.0
 11
1367.8104647765
 21
182.0735652834
 31
0.0
  0
LINE
  5
665
330
1F
100
AcDbEntity
  8
0
  6
PHANTOM
 62
     8
370
     0
100
AcDbLine
 10
1590.3093669547
 20
-254.606343621
 30
0.0
 11
1594.7644021536
 21
-252.3363961819
 31
0.0
  0
LINE
  5
666
330
1F
100
AcDbEntity
  8
0
  6
PHANTOM
 62
     8
370
     0
100
AcDbLine
 10
1367.8104647765
 20
182.0735652834
 30
0.0
 11
1590.3093669547
 21
-254.606343621
 31
0.0
  0
LINE
  5
667
330
1F
100
AcDbEntity
  8
0
  6
PHANTOM
 62
     8
370
     0
100
AcDbLine
 10
1592.490216915
 20
-259.1056650643
 30
0.0
 11
1590.3093669547
 21
-254.606343621
 31
0.0
  0
LINE
  5
668
330
1F
100
AcDbEntity
  8
0
  6
PHANTOM
 62
     8
370
     0
100
AcDbLine
 10
1590.3093669547
 20
-254.606343621
 30
0.0
 11
1473.5078854474
 21
-311.220770824
 31
0.0
  0
LINE
  5
669
330
1F
100
AcDbEntity
  8
0
  6
PHANTOM
 62
     8
370
     0
100
AcDbLine
 10
221.1101245243
 20
-137.0143678573
 30
0.0
 11
216.1229218773
 21
-137.3718727642
 31
0.0
  0
LINE
  5
66A
330
1F
100
AcDbEntity
  8
0
  6
PHANTOM
 62
     8
370
     0
100
AcDbLine
 10
220.6534530772
 20
-132.0352664133
 30
0.0
 11
221.1101245243
 21
-137.0143678573
 31
0.0
  0
LINE
  5
66B
330
1F
100
AcDbEntity
  8
0
  6
PHANTOM
 62
     8
370
     0
100
AcDbLine
 10
330.9438329676
 20
-126.9406790331
 30
0.0
 11
330.4871615206
 21
-121.9615775891
 31
0.0
  0
LINE
  5
66C
330
1F
100
AcDbEntity
  8
0
  6
PHANTOM
 62
     8
370
     0
100
AcDbLine
 10
221.1101245243
 20
-137.0143678573
 30
0.0
 11
330.9438329676
 21
-126.9406790331
 31
0.0
  0
LINE
  5
66D
330
1F
100
AcDbEntity
  8
0
  6
PHANTOM
 62
     8
370
     0
100
AcDbLine
 10
256.1525435494
 20
-625.8570145035
 30
0.0
 11
221.1101245243
 21
-137.0143678573
 31
0.0
  0
LINE
  5
66E
330
1F
100
AcDbEntity
  8
0
  6
PHANTOM
 62
     8
370
     0
100
AcDbLine
 10
251.1653409024
 20
-626.2145194105
 30
0.0
 11
256.1525435494
 21
-625.8570145035
 31
0.0
  0
LINE
  5
66F
330
1F
100
AcDbEntity
  8
0
  6
PHANTOM
 62
     8
370
     0
100
AcDbLine
 10
385.409017566
 20
-614.0019154068
 30
0.0
 11
390.3780461562
 21
-613.4462582549
 31
0.0
  0
LINE
  5
670
330
1F
100
AcDbEntity
  8
0
  6
PHANTOM
 62
     8
370
     0
100
AcDbLine
 10
330.9438329676
 20
-126.9406790331
 30
0.0
 11
385.409017566
 21
-614.0019154068
 31
0.0
  0
LINE
  5
671
330
1F
100
AcDbEntity
  8
0
  6
PHANTOM
 62
     8
370
     0
100
AcDbLine
 10
335.9128615577
 20
-126.3850218811
 30
0.0
 11
330.9438329676
 21
-126.9406790331
 31
0.0
  0
LINE
  5
672
330
1F
100
AcDbEntity
  8
0
  6
PHANTOM
 62
     8
370
     0
100
AcDbLine
 10
256.1525435494
 20
-625.8570145035
 30
0.0
 11
256.6092149964
 21
-630.8361159475
 31
0.0
  0
LINE
  5
673
330
1F
100
AcDbEntity
  8
0
  6
PHANTOM
 62
     8
370
     0
100
AcDbLine
 10
385.8656890131
 20
-618.9810168508
 30
0.0
 11
385.409017566
 21
-614.0019154068
 31
0.0
  0
LINE
  5
674
330
1F
100
AcDbEntity
  8
0
  6
PHANTOM
 62
     8
370
     0
100
AcDbLine
 10
385.409017566
 20
-614.0019154068
 30
0.0
 11
256.1525435494
 21
-625.8570145035
 31
0.0
  0
LINE
  5
675
330
1F
100
AcDbEntity
  8
0
  6
PHANTOM
 62
     8
370
     0
100
AcDbLine
 10
1141.8447720296
 20
78.856480621
 30
0.0
 11
1137.212135546
 21
76.9753428774
 31
0.0
  0
LINE
  5
676
330
1F
100
AcDbEntity
  8
0
  6
PHANTOM
 62
     8
370
     0
100
AcDbLine
 10
1326.2327783792
 20
-375.2318009121
 30
0.0
 11
1141.8447720296
 21
78.856480621
 31
0.0
  0
LINE
  5
677
330
1F
100
AcDbEntity
  8
0
  6
PHANTOM
 62
     8
370
     0
100
AcDbLine
 10
1321.6001418955
 20
-377.1129386558
 30
0.0
 11
1326.2327783792
 21
-375.2318009121
 31
0.0
  0
LINE
  5
678
330
1F
100
AcDbEntity
  8
0
  6
PHANTOM
 62
     8
370
     0
100
AcDbLine
 10
1243.1898951108
 20
122.3776104846
 30
0.0
 11
1241.2169477924
 21
126.9718981202
 31
0.0
  0
LINE
  5
679
330
1F
100
AcDbEntity
  8
0
  6
PHANTOM
 62
     8
370
     0
100
AcDbLine
 10
1141.8447720296
 20
78.856480621
 30
0.0
 11
1243.1898951108
 21
122.3776104846
 31
0.0
  0
LINE
  5
67A
330
1F
100
AcDbEntity
  8
0
  6
PHANTOM
 62
     8
370
     0
100
AcDbLine
 10
1139.8718247112
 20
83.4507682566
 30
0.0
 11
1141.8447720296
 21
78.856480621
 31
0.0
  0
LINE
  5
67B
330
1F
100
AcDbEntity
  8
0
  6
PHANTOM
 62
     8
370
     0
100
AcDbLine
 10
1247.7440146281
 20
124.4415861197
 30
0.0
 11
1243.1898951108
 21
122.3776104846
 31
0.0
  0
LINE
  5
67C
330
1F
100
AcDbEntity
  8
0
  6
PHANTOM
 62
     8
370
     0
100
AcDbLine
 10
1326.2327783792
 20
-375.2318009121
 30
0.0
 11
1328.2057256976
 21
-379.8260885477
 31
0.0
  0
LINE
  5
67D
330
1F
100
AcDbEntity
  8
0
  6
PHANTOM
 62
     8
370
     0
100
AcDbLine
 10
1445.4995631752
 20
-324.0144845607
 30
0.0
 11
1326.2327783792
 21
-375.2318009121
 31
0.0
  0
LINE
  5
67E
330
1F
100
AcDbEntity
  8
0
  6
PHANTOM
 62
     8
370
     0
100
AcDbLine
 10
1447.4725104936
 20
-328.6087721963
 30
0.0
 11
1445.4995631752
 21
-324.0144845607
 31
0.0
  0
LINE
  5
67F
330
1F
100
AcDbEntity
  8
0
  6
PHANTOM
 62
     8
370
     0
100
AcDbLine
 10
1445.4995631752
 20
-324.0144845607
 30
0.0
 11
1450.0536826925
 21
-321.9505089256
 31
0.0
  0
LINE
  5
680
330
1F
100
AcDbEntity
  8
0
  6
PHANTOM
 62
     8
370
     0
100
AcDbLine
 10
1243.1898951108
 20
122.3776104846
 30
0.0
 11
1445.4995631752
 21
-324.0144845607
 31
0.0
  0
LINE
  5
681
330
1F
100
AcDbEntity
  8
0
  6
PHANTOM
 62
     8
370
     0
100
AcDbLine
 10
83.1042167436
 20
-143.9698182325
 30
0.0
 11
78.1058863672
 21
-144.0990213632
 31
0.0
  0
LINE
  5
682
330
1F
100
AcDbEntity
  8
0
  6
PHANTOM
 62
     8
370
     0
100
AcDbLine
 10
82.8755804469
 20
-138.9750484236
 30
0.0
 11
83.1042167436
 21
-143.9698182325
 31
0.0
  0
LINE
  5
683
330
1F
100
AcDbEntity
  8
0
  6
PHANTOM
 62
     8
370
     0
100
AcDbLine
 10
193.283552735
 20
-138.9263434936
 30
0.0
 11
193.0549164382
 21
-133.9315736847
 31
0.0
  0
LINE
  5
684
330
1F
100
AcDbEntity
  8
0
  6
PHANTOM
 62
     8
370
     0
100
AcDbLine
 10
198.2727841211
 20
-138.5983645674
 30
0.0
 11
193.283552735
 21
-138.9263434936
 31
0.0
  0
LINE
  5
685
330
1F
100
AcDbEntity
  8
0
  6
PHANTOM
 62
     8
370
     0
100
AcDbLine
 10
225.6604889283
 20
-632.9626157591
 30
0.0
 11
225.4318526316
 21
-627.9678459503
 31
0.0
  0
LINE
  5
686
330
1F
100
AcDbEntity
  8
0
  6
PHANTOM
 62
     8
370
     0
100
AcDbLine
 10
225.4318526316
 20
-627.9678459503
 30
0.0
 11
230.4210840177
 21
-627.639867024
 31
0.0
  0
LINE
  5
687
330
1F
100
AcDbEntity
  8
0
  6
PHANTOM
 62
     8
370
     0
100
AcDbLine
 10
95.7686310069
 20
-633.9031983187
 30
0.0
 11
83.1042167436
 21
-143.9698182325
 31
0.0
  0
LINE
  5
688
330
1F
100
AcDbEntity
  8
0
  6
PHANTOM
 62
     8
370
     0
100
AcDbLine
 10
90.7703006306
 20
-634.0324014493
 30
0.0
 11
95.7686310069
 21
-633.9031983187
 31
0.0
  0
LINE
  5
689
330
1F
100
AcDbEntity
  8
0
  6
PHANTOM
 62
     8
370
     0
100
AcDbLine
 10
193.283552735
 20
-138.9263434936
 30
0.0
 11
225.4318526316
 21
-627.9678459503
 31
0.0
  0
LINE
  5
68A
330
1F
100
AcDbEntity
  8
0
  6
PHANTOM
 62
     8
370
     0
100
AcDbLine
 10
95.7686310069
 20
-633.9031983187
 30
0.0
 11
95.9972673037
 21
-638.8979681276
 31
0.0
  0
LINE
  5
68B
330
1F
100
AcDbEntity
  8
0
  6
PHANTOM
 62
     8
370
     0
100
AcDbLine
 10
225.4318526316
 20
-627.9678459503
 30
0.0
 11
95.7686310069
 21
-633.9031983187
 31
0.0
  0
LINE
  5
68C
330
1F
100
AcDbEntity
  8
0
  6
PHANTOM
 62
     8
370
     0
100
AcDbLine
 10
83.1042167436
 20
-143.9698182325
 30
0.0
 11
193.283552735
 21
-138.9263434936
 31
0.0
  0
LINE
  5
68D
330
1F
100
AcDbEntity
  8
0
  6
PHANTOM
 62
     8
370
     0
100
AcDbLine
 10
1115.9709625678
 20
68.439200155
 30
0.0
 11
1114.2100477739
 21
73.1188560279
 31
0.0
  0
LINE
  5
68E
330
1F
100
AcDbEntity
  8
0
  6
PHANTOM
 62
     8
370
     0
100
AcDbLine
 10
1012.7427065171
 20
29.5952833895
 30
0.0
 11
1115.9709625678
 21
68.439200155
 31
0.0
  0
LINE
  5
68F
330
1F
100
AcDbEntity
  8
0
  6
PHANTOM
 62
     8
370
     0
100
AcDbLine
 10
1010.9817917233
 20
34.2749392624
 30
0.0
 11
1012.7427065171
 21
29.5952833895
 31
0.0
  0
LINE
  5
690
330
1F
100
AcDbEntity
  8
0
  6
PHANTOM
 62
     8
370
     0
100
AcDbLine
 10
1012.7427065171
 20
29.5952833895
 30
0.0
 11
1008.0289378052
 21
27.9278348804
 31
0.0
  0
LINE
  5
691
330
1F
100
AcDbEntity
  8
0
  6
PHANTOM
 62
     8
370
     0
100
AcDbLine
 10
1297.667947886
 20
-386.7325364868
 30
0.0
 11
1302.311637845
 21
-384.8788527047
 31
0.0
  0
LINE
  5
692
330
1F
100
AcDbEntity
  8
0
  6
PHANTOM
 62
     8
370
     0
100
AcDbLine
 10
1115.9709625678
 20
68.439200155
 30
0.0
 11
1297.667947886
 21
-386.7325364868
 31
0.0
  0
LINE
  5
693
330
1F
100
AcDbEntity
  8
0
  6
PHANTOM
 62
     8
370
     0
100
AcDbLine
 10
1120.6146525268
 20
70.2928839371
 30
0.0
 11
1115.9709625678
 21
68.439200155
 31
0.0
  0
LINE
  5
694
330
1F
100
AcDbEntity
  8
0
  6
PHANTOM
 62
     8
370
     0
100
AcDbLine
 10
1171.4712520736
 20
-434.1129795699
 30
0.0
 11
1176.1850207855
 21
-432.4455310608
 31
0.0
  0
LINE
  5
695
330
1F
100
AcDbEntity
  8
0
  6
PHANTOM
 62
     8
370
     0
100
AcDbLine
 10
1176.1850207855
 20
-432.4455310608
 30
0.0
 11
1177.9459355793
 21
-437.1251869337
 31
0.0
  0
LINE
  5
696
330
1F
100
AcDbEntity
  8
0
  6
PHANTOM
 62
     8
370
     0
100
AcDbLine
 10
1176.1850207855
 20
-432.4455310608
 30
0.0
 11
1012.7427065171
 21
29.5952833895
 31
0.0
  0
LINE
  5
697
330
1F
100
AcDbEntity
  8
0
  6
PHANTOM
 62
     8
370
     0
100
AcDbLine
 10
1299.4288626798
 20
-391.4121923598
 30
0.0
 11
1297.667947886
 21
-386.7325364868
 31
0.0
  0
LINE
  5
698
330
1F
100
AcDbEntity
  8
0
  6
PHANTOM
 62
     8
370
     0
100
AcDbLine
 10
1297.667947886
 20
-386.7325364868
 30
0.0
 11
1176.1850207855
 21
-432.4455310608
 31
0.0
  0
LINE
  5
699
330
1F
100
AcDbEntity
  8
0
  6
PHANTOM
 62
     8
370
     0
100
AcDbLine
 10
-991.5800594036
 20
65.8532187668
 30
0.0
 11
-991.9288902282
 21
64.8576952219
 31
0.0
  0
LINE
  5
69A
330
1F
100
AcDbEntity
  8
0
  6
PHANTOM
 62
     8
370
     0
100
AcDbLine
 10
-995.7754905273
 20
53.8799349568
 30
0.0
 11
-1009.1464038679
 21
15.7208672691
 31
0.0
  0
LINE
  5
69B
330
1F
100
AcDbEntity
  8
0
  6
PHANTOM
 62
     8
370
     0
100
AcDbLine
 10
-978.8737795571
 20
77.9233768531
 30
0.0
 11
-982.6487426638
 21
79.2461215537
 31
0.0
  0
LINE
  5
69C
330
1F
100
AcDbEntity
  8
0
  6
PHANTOM
 62
     8
370
     0
100
AcDbLine
 10
-1244.2078401021
 20
168.1549792495
 30
0.0
 11
-1244.9231514457
 21
166.588999667
 31
0.0
  0
LINE
  5
69D
330
1F
100
AcDbEntity
  8
0
  6
PHANTOM
 62
     8
370
     0
100
AcDbLine
 10
-1249.7346724964
 20
156.0554833268
 30
0.0
 11
-1266.4236156595
 21
119.5195825883
 31
0.0
  0
LINE
  5
69E
330
1F
100
AcDbEntity
  8
0
  6
PHANTOM
 62
     8
370
     0
100
AcDbLine
 10
-1230.4523882947
 20
179.0143443019
 30
0.0
 11
-1234.090782437
 21
180.6762973896
 31
0.0
  0
LINE
  5
69F
330
1F
100
AcDbEntity
  8
0
  6
PHANTOM
 62
     8
370
     0
100
AcDbLine
 10
-1473.5083490314
 20
-311.2207163781
 30
0.0
 11
-1468.9665253834
 21
-313.3116104334
 31
0.0
  0
LINE
  5
6A0
330
1F
100
AcDbEntity
  8
0
  6
PHANTOM
 62
     8
370
     0
100
AcDbLine
 10
-1301.5156752051
 20
62.3804191221
 30
0.0
 11
-1473.5083490314
 21
-311.2207163781
 31
0.0
  0
LINE
  5
6A1
330
1F
100
AcDbEntity
  8
0
  6
PHANTOM
 62
     8
370
     0
100
AcDbLine
 10
-1475.6892041017
 20
-315.7200353446
 30
0.0
 11
-1473.5083490314
 21
-311.2207163781
 31
0.0
  0
LINE
  5
6A2
330
1F
100
AcDbEntity
  8
0
  6
PHANTOM
 62
     8
370
     0
100
AcDbLine
 10
-1594.7647988624
 20
-252.3362040248
 30
0.0
 11
-1590.3097662415
 21
-254.6061565235
 31
0.0
  0
LINE
  5
6A3
330
1F
100
AcDbEntity
  8
0
  6
PHANTOM
 62
     8
370
     0
100
AcDbLine
 10
-1590.3097662415
 20
-254.6061565235
 30
0.0
 11
-1592.4906213118
 21
-259.10547549
 31
0.0
  0
LINE
  5
6A4
330
1F
100
AcDbEntity
  8
0
  6
PHANTOM
 62
     8
370
     0
100
AcDbLine
 10
-1473.5083490314
 20
-311.2207163781
 30
0.0
 11
-1590.3097662415
 21
-254.6061565235
 31
0.0
  0
LINE
  5
6A5
330
1F
100
AcDbEntity
  8
0
  6
PHANTOM
 62
     8
370
     0
100
AcDbLine
 10
-1372.1349633985
 20
184.2769910387
 30
0.0
 11
-1372.2654007461
 21
184.3434521869
 31
0.0
  0
LINE
  5
6A6
330
1F
100
AcDbEntity
  8
0
  6
PHANTOM
 62
     8
370
     0
100
AcDbLine
 10
-1590.3097662415
 20
-254.6061565235
 30
0.0
 11
-1403.5881106311
 21
111.8557263827
 31
0.0
  0
LINE
  5
6A7
330
1F
100
AcDbEntity
  8
0
  6
PHANTOM
 62
     8
370
     0
100
AcDbLine
 10
-1247.6106761498
 20
124.3811556963
 30
0.0
 11
-1247.7440146281
 21
124.4415861197
 31
0.0
  0
LINE
  5
6A8
330
1F
100
AcDbEntity
  8
0
  6
PHANTOM
 62
     8
370
     0
100
AcDbLine
 10
-1445.4995631752
 20
-324.0144845607
 30
0.0
 11
-1276.303675108
 21
49.3127403317
 31
0.0
  0
LINE
  5
6A9
330
1F
100
AcDbEntity
  8
0
  6
PHANTOM
 62
     8
370
     0
100
AcDbLine
 10
-1450.0536826925
 20
-321.9505089256
 30
0.0
 11
-1445.4995631752
 21
-324.0144845607
 31
0.0
  0
LINE
  5
6AA
330
1F
100
AcDbEntity
  8
0
  6
PHANTOM
 62
     8
370
     0
100
AcDbLine
 10
-1445.4995631752
 20
-324.0144845607
 30
0.0
 11
-1447.4725104936
 21
-328.6087721963
 31
0.0
  0
LINE
  5
6AB
330
1F
100
AcDbEntity
  8
0
  6
PHANTOM
 62
     8
370
     0
100
AcDbLine
 10
-1328.2057256976
 20
-379.8260885477
 30
0.0
 11
-1326.2327783792
 21
-375.2318009121
 31
0.0
  0
LINE
  5
6AC
330
1F
100
AcDbEntity
  8
0
  6
PHANTOM
 62
     8
370
     0
100
AcDbLine
 10
-1326.2327783792
 20
-375.2318009121
 30
0.0
 11
-1321.6001418955
 21
-377.1129386558
 31
0.0
  0
LINE
  5
6AD
330
1F
100
AcDbEntity
  8
0
  6
PHANTOM
 62
     8
370
     0
100
AcDbLine
 10
-1326.2327783792
 20
-375.2318009121
 30
0.0
 11
-1445.4995631752
 21
-324.0144845607
 31
0.0
  0
LINE
  5
6AE
330
1F
100
AcDbEntity
  8
0
  6
PHANTOM
 62
     8
370
     0
100
AcDbLine
 10
-1137.212135546
 20
76.9753428774
 30
0.0
 11
-1137.3477728953
 21
77.0304200538
 31
0.0
  0
LINE
  5
6AF
330
1F
100
AcDbEntity
  8
0
  6
PHANTOM
 62
     8
370
     0
100
AcDbLine
 10
-1172.0251580428
 20
4.5319088008
 30
0.0
 11
-1326.2327783792
 21
-375.2318009121
 31
0.0
  0
LINE
  5
6B0
330
1F
100
AcDbEntity
  8
0
  6
PHANTOM
 62
     8
370
     0
100
AcDbLine
 10
-1120.4786915467
 20
70.2386105756
 30
0.0
 11
-1120.6146525268
 21
70.2928839371
 31
0.0
  0
LINE
  5
6B1
330
1F
100
AcDbEntity
  8
0
  6
PHANTOM
 62
     8
370
     0
100
AcDbLine
 10
-1297.667947886
 20
-386.7325364869
 30
0.0
 11
-1145.5158278543
 21
-5.5740676918
 31
0.0
  0
LINE
  5
6B2
330
1F
100
AcDbEntity
  8
0
  6
PHANTOM
 62
     8
370
     0
100
AcDbLine
 10
-1302.311637845
 20
-384.8788527047
 30
0.0
 11
-1297.667947886
 21
-386.7325364869
 31
0.0
  0
LINE
  5
6B3
330
1F
100
AcDbEntity
  8
0
  6
PHANTOM
 62
     8
370
     0
100
AcDbLine
 10
-1297.667947886
 20
-386.7325364869
 30
0.0
 11
-1299.4288626798
 21
-391.4121923598
 31
0.0
  0
LINE
  5
6B4
330
1F
100
AcDbEntity
  8
0
  6
PHANTOM
 62
     8
370
     0
100
AcDbLine
 10
-1177.9459355793
 20
-437.1251869337
 30
0.0
 11
-1176.1850207855
 21
-432.4455310608
 31
0.0
  0
LINE
  5
6B5
330
1F
100
AcDbEntity
  8
0
  6
PHANTOM
 62
     8
370
     0
100
AcDbLine
 10
-1176.1850207855
 20
-432.4455310608
 30
0.0
 11
-1171.4712520736
 21
-434.1129795699
 31
0.0
  0
LINE
  5
6B6
330
1F
100
AcDbEntity
  8
0
  6
PHANTOM
 62
     8
370
     0
100
AcDbLine
 10
-1176.1850207855
 20
-432.4455310608
 30
0.0
 11
-1297.667947886
 21
-386.7325364869
 31
0.0
  0
LINE
  5
6B7
330
1F
100
AcDbEntity
  8
0
  6
PHANTOM
 62
     8
370
     0
100
AcDbLine
 10
-1039.319268306
 20
-45.5349318746
 30
0.0
 11
-1176.1850207855
 21
-432.4455310608
 31
0.0
  0
LINE
  5
6B8
330
1F
100
AcDbEntity
  8
0
  6
PHANTOM
 62
     8
370
     0
100
AcDbLine
 10
-1023.5987719121
 20
-482.7663327316
 30
0.0
 11
-1018.813686132
 21
-484.2164893014
 31
0.0
  0
LINE
  5
6B9
330
1F
100
AcDbEntity
  8
0
  6
PHANTOM
 62
     8
370
     0
100
AcDbLine
 10
-904.1365825244
 20
-88.5766048178
 30
0.0
 11
-1023.5987719121
 21
-482.7663327316
 31
0.0
  0
LINE
  5
6BA
330
1F
100
AcDbEntity
  8
0
  6
PHANTOM
 62
     8
370
     0
100
AcDbLine
 10
-876.6701989226
 20
-15.1852181102
 30
0.0
 11
-876.8102997817
 21
-15.1427594814
 31
0.0
  0
LINE
  5
6BB
330
1F
100
AcDbEntity
  8
0
  6
PHANTOM
 62
     8
370
     0
100
AcDbLine
 10
-1147.044953186
 20
-442.656237011
 30
0.0
 11
-1148.5900381579
 21
-447.4115195924
 31
0.0
  0
LINE
  5
6BC
330
1F
100
AcDbEntity
  8
0
  6
PHANTOM
 62
     8
370
     0
100
AcDbLine
 10
-1023.5987719121
 20
-482.7663327316
 30
0.0
 11
-1147.044953186
 21
-442.656237011
 31
0.0
  0
LINE
  5
6BD
330
1F
100
AcDbEntity
  8
0
  6
PHANTOM
 62
     8
370
     0
100
AcDbLine
 10
-1025.143856884
 20
-487.5216153131
 30
0.0
 11
-1023.5987719121
 21
-482.7663327316
 31
0.0
  0
LINE
  5
6BE
330
1F
100
AcDbEntity
  8
0
  6
PHANTOM
 62
     8
370
     0
100
AcDbLine
 10
-990.9370817371
 20
21.9392798436
 30
0.0
 11
-991.0753822689
 21
21.9872793101
 31
0.0
  0
LINE
  5
6BF
330
1F
100
AcDbEntity
  8
0
  6
PHANTOM
 62
     8
370
     0
100
AcDbLine
 10
-1147.044953186
 20
-442.656237011
 30
0.0
 11
-1011.992985913
 21
-53.5319349921
 31
0.0
  0
LINE
  5
6C0
330
1F
100
AcDbEntity
  8
0
  6
PHANTOM
 62
     8
370
     0
100
AcDbLine
 10
-1151.7685495469
 20
-441.016835468
 30
0.0
 11
-1147.044953186
 21
-442.656237011
 31
0.0
  0
LINE
  5
6C1
330
1F
100
AcDbEntity
  8
0
  6
PHANTOM
 62
     8
370
     0
100
AcDbLine
 10
-998.815880272
 20
-490.2121105286
 30
0.0
 11
-994.0222596339
 21
-491.6338000791
 31
0.0
  0
LINE
  5
6C2
330
1F
100
AcDbEntity
  8
0
  6
PHANTOM
 62
     8
370
     0
100
AcDbLine
 10
-994.0222596339
 20
-491.6338000791
 30
0.0
 11
-995.348282348
 21
-496.4547609545
 31
0.0
  0
LINE
  5
6C3
330
1F
100
AcDbEntity
  8
0
  6
PHANTOM
 62
     8
370
     0
100
AcDbLine
 10
-868.8710830345
 20
-526.05708356
 30
0.0
 11
-994.0222596339
 21
-491.6338000791
 31
0.0
  0
LINE
  5
6C4
330
1F
100
AcDbEntity
  8
0
  6
PHANTOM
 62
     8
370
     0
100
AcDbLine
 10
-870.1971057486
 20
-530.8780444354
 30
0.0
 11
-868.8710830345
 21
-526.05708356
 31
0.0
  0
LINE
  5
6C5
330
1F
100
AcDbEntity
  8
0
  6
PHANTOM
 62
     8
370
     0
100
AcDbLine
 10
-994.0222596339
 20
-491.6338000791
 30
0.0
 11
-877.4371430726
 21
-98.5347436367
 31
0.0
  0
LINE
  5
6C6
330
1F
100
AcDbEntity
  8
0
  6
PHANTOM
 62
     8
370
     0
100
AcDbLine
 10
-868.8710830345
 20
-526.05708356
 30
0.0
 11
-864.0246909515
 21
-527.2869143522
 31
0.0
  0
LINE
  5
6C7
330
1F
100
AcDbEntity
  8
0
  6
PHANTOM
 62
     8
370
     0
100
AcDbLine
 10
-768.0192717445
 20
-128.6305246349
 30
0.0
 11
-868.8710830345
 21
-526.05708356
 31
0.0
  0
LINE
  5
6C8
330
1F
100
AcDbEntity
  8
0
  6
PHANTOM
 62
     8
370
     0
100
AcDbLine
 10
-743.4774058422
 20
-52.2464356938
 30
0.0
 11
-743.6193016671
 21
-52.2104279066
 31
0.0
  0
LINE
  5
6C9
330
1F
100
AcDbEntity
  8
0
  6
PHANTOM
 62
     8
370
     0
100
AcDbLine
 10
-725.979802729
 20
-56.6311358526
 30
0.0
 11
-726.1219092016
 21
-56.5959685908
 31
0.0
  0
LINE
  5
6CA
330
1F
100
AcDbEntity
  8
0
  6
PHANTOM
 62
     8
370
     0
100
AcDbLine
 10
-839.0016869627
 20
-533.5427791304
 30
0.0
 11
-740.4137781529
 21
-135.1614648151
 31
0.0
  0
LINE
  5
6CB
330
1F
100
AcDbEntity
  8
0
  6
PHANTOM
 62
     8
370
     0
100
AcDbLine
 10
-843.85527363
 20
-532.3416561295
 30
0.0
 11
-839.0016869627
 21
-533.5427791304
 31
0.0
  0
LINE
  5
6CC
330
1F
100
AcDbEntity
  8
0
  6
PHANTOM
 62
     8
370
     0
100
AcDbLine
 10
-839.0016869627
 20
-533.5427791304
 30
0.0
 11
-840.1059935701
 21
-538.4193052419
 31
0.0
  0
LINE
  5
6CD
330
1F
100
AcDbEntity
  8
0
  6
PHANTOM
 62
     8
370
     0
100
AcDbLine
 10
-712.408047985
 20
-562.2103569873
 30
0.0
 11
-839.0016869627
 21
-533.5427791304
 31
0.0
  0
LINE
  5
6CE
330
1F
100
AcDbEntity
  8
0
  6
PHANTOM
 62
     8
370
     0
100
AcDbLine
 10
-713.5123545924
 20
-567.0868830988
 30
0.0
 11
-712.408047985
 21
-562.2103569873
 31
0.0
  0
LINE
  5
6CF
330
1F
100
AcDbEntity
  8
0
  6
PHANTOM
 62
     8
370
     0
100
AcDbLine
 10
-712.408047985
 20
-562.2103569873
 30
0.0
 11
-707.5105134617
 21
-563.2174099119
 31
0.0
  0
LINE
  5
6D0
330
1F
100
AcDbEntity
  8
0
  6
PHANTOM
 62
     8
370
     0
100
AcDbLine
 10
-629.7493678743
 20
-160.2218124224
 30
0.0
 11
-712.408047985
 21
-562.2103569873
 31
0.0
  0
LINE
  5
6D1
330
1F
100
AcDbEntity
  8
0
  6
PHANTOM
 62
     8
370
     0
100
AcDbLine
 10
-608.7997828444
 20
-83.1639795812
 30
0.0
 11
-608.9431760511
 21
-83.1344944296
 31
0.0
  0
LINE
  5
6D2
330
1F
100
AcDbEntity
  8
0
  6
PHANTOM
 62
     8
370
     0
100
AcDbLine
 10
-472.8503159926
 20
-107.8941956445
 30
0.0
 11
-472.9949068803
 21
-107.8712945293
 31
0.0
  0
LINE
  5
6D3
330
1F
100
AcDbEntity
  8
0
  6
PHANTOM
 62
     8
370
     0
100
AcDbLine
 10
-554.4573741418
 20
-591.175058468
 30
0.0
 11
-549.5189333272
 21
-591.9572364018
 31
0.0
  0
LINE
  5
6D4
330
1F
100
AcDbEntity
  8
0
  6
PHANTOM
 62
     8
370
     0
100
AcDbLine
 10
-490.1253214981
 20
-185.001449193
 30
0.0
 11
-554.4573741418
 21
-591.175058468
 31
0.0
  0
LINE
  5
6D5
330
1F
100
AcDbEntity
  8
0
  6
PHANTOM
 62
     8
370
     0
100
AcDbLine
 10
-682.2288830263
 20
-568.3229039261
 30
0.0
 11
-601.7865698133
 21
-165.0306425153
 31
0.0
  0
LINE
  5
6D6
330
1F
100
AcDbEntity
  8
0
  6
PHANTOM
 62
     8
370
     0
100
AcDbLine
 10
-687.132291122
 20
-567.3448502227
 30
0.0
 11
-682.2288830263
 21
-568.3229039261
 31
0.0
  0
LINE
  5
6D7
330
1F
100
AcDbEntity
  8
0
  6
PHANTOM
 62
     8
370
     0
100
AcDbLine
 10
-682.2288830263
 20
-568.3229039261
 30
0.0
 11
-683.1091731359
 21
-573.2448028811
 31
0.0
  0
LINE
  5
6D8
330
1F
100
AcDbEntity
  8
0
  6
PHANTOM
 62
     8
370
     0
100
AcDbLine
 10
-554.4573741418
 20
-591.175058468
 30
0.0
 11
-682.2288830263
 21
-568.3229039261
 31
0.0
  0
LINE
  5
6D9
330
1F
100
AcDbEntity
  8
0
  6
PHANTOM
 62
     8
370
     0
100
AcDbLine
 10
-555.3376642514
 20
-596.096957423
 30
0.0
 11
-554.4573741418
 21
-591.175058468
 31
0.0
  0
LINE
  5
6DA
330
1F
100
AcDbEntity
  8
0
  6
PHANTOM
 62
     8
370
     0
100
AcDbLine
 10
-1244.8781583949
 20
183.1622706424
 30
0.0
 11
-1303.1917633423
 21
62.8555559392
 31
0.0
  0
LINE
  5
6DB
330
1F
100
AcDbEntity
  8
0
  6
PHANTOM
 62
     8
370
     0
100
AcDbLine
 10
-1365.379139441
 20
186.7515281778
 30
0.0
 11
-1266.3941221774
 21
138.7727166323
 31
0.0
  0
LINE
  5
6DC
330
1F
100
AcDbEntity
  8
0
  6
PHANTOM
 62
     8
370
     0
100
AcDbLine
 10
-1402.1767806059
 20
110.8343674848
 30
0.0
 11
-1343.8631756585
 21
231.141082188
 31
0.0
  0
LINE
  5
6DD
330
1F
100
AcDbEntity
  8
0
  6
PHANTOM
 62
     8
370
     0
100
AcDbLine
 10
-1263.8706223618
 20
143.9789454812
 30
0.0
 11
-1362.8556396254
 21
191.9577570269
 31
0.0
  0
LINE
  5
6DE
330
1F
100
AcDbEntity
  8
0
  6
PHANTOM
 62
     8
370
     0
100
AcDbLine
 10
-1246.683859062
 20
179.4369321868
 30
0.0
 11
-1345.6688763256
 21
227.4157437325
 31
0.0
  0
LINE
  5
6DF
330
1F
100
AcDbEntity
  8
0
  6
PHANTOM
 62
     8
370
     0
100
AcDbLine
 10
-1303.1592536845
 20
62.9226265676
 30
0.0
 11
-1402.1442709481
 21
110.9014381132
 31
0.0
  0
LINE
  5
6E0
330
1F
100
AcDbEntity
  8
0
  6
PHANTOM
 62
     8
370
     0
100
AcDbLine
 10
-1120.9967102848
 20
127.7775859029
 30
0.0
 11
-1173.751096433
 21
4.9315160969
 31
0.0
  0
LINE
  5
6E1
330
1F
100
AcDbEntity
  8
0
  6
PHANTOM
 62
     8
370
     0
100
AcDbLine
 10
-1274.8254244163
 20
48.3363571026
 30
0.0
 11
-1222.0710382681
 21
171.1824269085
 31
0.0
  0
LINE
  5
6E2
330
1F
100
AcDbEntity
  8
0
  6
PHANTOM
 62
     8
370
     0
100
AcDbLine
 10
-1241.5358177609
 20
125.8559273524
 30
0.0
 11
-1140.4614897776
 21
82.4510863468
 31
0.0
  0
LINE
  5
6E3
330
1F
100
AcDbEntity
  8
0
  6
PHANTOM
 62
     8
370
     0
100
AcDbLine
 10
-1138.1785631118
 20
87.7672048542
 30
0.0
 11
-1239.252891095
 21
131.17204586
 31
0.0
  0
LINE
  5
6E4
330
1F
100
AcDbEntity
  8
0
  6
PHANTOM
 62
     8
370
     0
100
AcDbLine
 10
-1122.6302678457
 20
123.9736154503
 30
0.0
 11
-1223.7045958289
 21
167.3784564561
 31
0.0
  0
LINE
  5
6E5
330
1F
100
AcDbEntity
  8
0
  6
PHANTOM
 62
     8
370
     0
100
AcDbLine
 10
-1173.7216860228
 20
5.000002408
 30
0.0
 11
-1274.7960140061
 21
48.4048434137
 31
0.0
  0
LINE
  5
6E6
330
1F
100
AcDbEntity
  8
0
  6
PHANTOM
 62
     8
370
     0
100
AcDbLine
 10
-993.9656250893
 20
79.9140443379
 30
0.0
 11
-1041.0505006652
 21
-45.214675853
 31
0.0
  0
LINE
  5
6E7
330
1F
100
AcDbEntity
  8
0
  6
PHANTOM
 62
     8
370
     0
100
AcDbLine
 10
-1114.2909551544
 20
72.4854410085
 30
0.0
 11
-1011.3385259502
 21
33.7453155447
 31
0.0
  0
LINE
  5
6E8
330
1F
100
AcDbEntity
  8
0
  6
PHANTOM
 62
     8
370
     0
100
AcDbLine
 10
-1144.0029298694
 20
-6.4745503892
 30
0.0
 11
-1096.9180542935
 21
118.6541698017
 31
0.0
  0
LINE
  5
6E9
330
1F
100
AcDbEntity
  8
0
  6
PHANTOM
 62
     8
370
     0
100
AcDbLine
 10
-1009.30094527
 20
39.1602149083
 30
0.0
 11
-1112.2533744742
 21
77.9003403722
 31
0.0
  0
LINE
  5
6EA
330
1F
100
AcDbEntity
  8
0
  6
PHANTOM
 62
     8
370
     0
100
AcDbLine
 10
-995.4236243214
 20
76.0393908376
 30
0.0
 11
-1098.3760535256
 21
114.7795163016
 31
0.0
  0
LINE
  5
6EB
330
1F
100
AcDbEntity
  8
0
  6
PHANTOM
 62
     8
370
     0
100
AcDbLine
 10
-1041.02425099
 20
-45.1449169713
 30
0.0
 11
-1143.9766801942
 21
-6.4047915075
 31
0.0
  0
LINE
  5
6EC
330
1F
100
AcDbEntity
  8
0
  6
PHANTOM
 62
     8
370
     0
100
AcDbLine
 10
-864.2991051808
 20
39.5430780596
 30
0.0
 11
-905.849111361
 21
-88.3346919306
 31
0.0
  0
LINE
  5
6ED
330
1F
100
AcDbEntity
  8
0
  6
PHANTOM
 62
     8
370
     0
100
AcDbLine
 10
-984.1550198684
 20
26.6319801174
 30
0.0
 11
-879.538803076
 21
-7.3598892639
 31
0.0
  0
LINE
  5
6EE
330
1F
100
AcDbEntity
  8
0
  6
PHANTOM
 62
     8
370
     0
100
AcDbLine
 10
-1010.4653281534
 20
-54.3428225494
 30
0.0
 11
-968.9153219733
 21
73.5349474408
 31
0.0
  0
LINE
  5
6EF
330
1F
100
AcDbEntity
  8
0
  6
PHANTOM
 62
     8
370
     0
100
AcDbLine
 10
-877.7489462855
 20
-1.8512764859
 30
0.0
 11
-982.3651630779
 21
32.1405928954
 31
0.0
  0
LINE
  5
6F0
330
1F
100
AcDbEntity
  8
0
  6
PHANTOM
 62
     8
370
     0
100
AcDbLine
 10
-865.5759570203
 20
35.6133321737
 30
0.0
 11
-970.1921738127
 21
69.6052015551
 31
0.0
  0
LINE
  5
6F1
330
1F
100
AcDbEntity
  8
0
  6
PHANTOM
 62
     8
370
     0
100
AcDbLine
 10
-905.8256500472
 20
-88.2624854316
 30
0.0
 11
-1010.4418668397
 21
-54.2706160504
 31
0.0
  0
LINE
  5
6F2
330
1F
100
AcDbEntity
  8
0
  6
PHANTOM
 62
     8
370
     0
100
AcDbLine
 10
-734.1215467071
 20
1.1735030888
 30
0.0
 11
-769.7805900396
 21
-128.4704697748
 31
0.0
  0
LINE
  5
6F3
330
1F
100
AcDbEntity
  8
0
  6
PHANTOM
 62
     8
370
     0
100
AcDbLine
 10
-853.2616984028
 20
-17.2047718467
 30
0.0
 11
-747.2005591448
 21
-46.3772715562
 31
0.0
  0
LINE
  5
6F4
330
1F
100
AcDbEntity
  8
0
  6
PHANTOM
 62
     8
370
     0
100
AcDbLine
 10
-875.8417292976
 20
-99.2979700653
 30
0.0
 11
-840.1826859651
 21
30.3460027983
 31
0.0
  0
LINE
  5
6F5
330
1F
100
AcDbEntity
  8
0
  6
PHANTOM
 62
     8
370
     0
100
AcDbLine
 10
-745.6644683781
 20
-40.7925757521
 30
0.0
 11
-851.725607636
 21
-11.6200760425
 31
0.0
  0
LINE
  5
6F6
330
1F
100
AcDbEntity
  8
0
  6
PHANTOM
 62
     8
370
     0
100
AcDbLine
 10
-735.2173664015
 20
-2.8105190679
 30
0.0
 11
-841.2785056594
 21
26.3619806417
 31
0.0
  0
LINE
  5
6F7
330
1F
100
AcDbEntity
  8
0
  6
PHANTOM
 62
     8
370
     0
100
AcDbLine
 10
-769.7604550726
 20
-128.3972659849
 30
0.0
 11
-875.8215943306
 21
-99.2247662755
 31
0.0
  0
LINE
  5
6F8
330
1F
100
AcDbEntity
  8
0
  6
PHANTOM
 62
     8
370
     0
100
AcDbLine
 10
-601.8115424138
 20
-29.0031533229
 30
0.0
 11
-631.508256314
 21
-160.1413714547
 31
0.0
  0
LINE
  5
6F9
330
1F
100
AcDbEntity
  8
0
  6
PHANTOM
 62
     8
370
     0
100
AcDbLine
 10
-719.9872680359
 20
-52.8072414042
 30
0.0
 11
-612.7036935812
 21
-77.1019867664
 31
0.0
  0
LINE
  5
6FA
330
1F
100
AcDbEntity
  8
0
  6
PHANTOM
 62
     8
370
     0
100
AcDbLine
 10
-738.7918307688
 20
-135.8466260924
 30
0.0
 11
-709.0951168686
 21
-4.7084079607
 31
0.0
  0
LINE
  5
6FB
330
1F
100
AcDbEntity
  8
0
  6
PHANTOM
 62
     8
370
     0
100
AcDbLine
 10
-611.4244431089
 20
-71.4529231009
 30
0.0
 11
-718.7080175636
 21
-47.1581777386
 31
0.0
  0
LINE
  5
6FC
330
1F
100
AcDbEntity
  8
0
  6
PHANTOM
 62
     8
370
     0
100
AcDbLine
 10
-602.7241368334
 20
-33.0330943614
 30
0.0
 11
-710.0077112881
 21
-8.738348999
 31
0.0
  0
LINE
  5
6FD
330
1F
100
AcDbEntity
  8
0
  6
PHANTOM
 62
     8
370
     0
100
AcDbLine
 10
-631.4914879911
 20
-160.0673239356
 30
0.0
 11
-738.7750624458
 21
-135.7725785733
 31
0.0
  0
LINE
  5
6FE
330
1F
100
AcDbEntity
  8
0
  6
PHANTOM
 62
     8
370
     0
100
AcDbLine
 10
-468.1960362219
 20
-52.6400066289
 30
0.0
 11
-491.8685591961
 21
-184.9983789643
 31
0.0
  0
LINE
  5
6FF
330
1F
100
AcDbEntity
  8
0
  6
PHANTOM
 62
     8
370
     0
100
AcDbLine
 10
-600.1503362055
 20
-165.6319965533
 30
0.0
 11
-576.4778132313
 21
-33.2736242179
 31
0.0
  0
LINE
  5
700
330
1F
100
AcDbEntity
  8
0
  6
PHANTOM
 62
     8
370
     0
100
AcDbLine
 10
-585.1604135895
 20
-81.8199854276
 30
0.0
 11
-476.8786365801
 21
-101.1863678386
 31
0.0
  0
LINE
  5
701
330
1F
100
AcDbEntity
  8
0
  6
PHANTOM
 62
     8
370
     0
100
AcDbLine
 10
-475.8588912205
 20
-95.4847433798
 30
0.0
 11
-584.1406682299
 21
-76.1183609687
 31
0.0
  0
LINE
  5
702
330
1F
100
AcDbEntity
  8
0
  6
PHANTOM
 62
     8
370
     0
100
AcDbLine
 10
-468.9235043328
 20
-56.7074435978
 30
0.0
 11
-577.2052813422
 21
-37.3410611866
 31
0.0
  0
LINE
  5
703
330
1F
100
AcDbEntity
  8
0
  6
PHANTOM
 62
     8
370
     0
100
AcDbLine
 10
-491.8551924475
 20
-184.9236424821
 30
0.0
 11
-600.1369694569
 21
-165.5572600711
 31
0.0
  0
LINE
  5
704
330
1F
100
AcDbEntity
  8
0
  6
PHANTOM
 62
     8
370
     0
100
AcDbLine
 10
64.899498168
 20
-639.6093806431
 30
0.0
 11
64.899498168
 21
-634.6093806431
 31
0.0
  0
LINE
  5
705
330
1F
100
AcDbEntity
  8
0
  6
PHANTOM
 62
     8
370
     0
100
AcDbLine
 10
64.899498168
 20
-634.6093806431
 30
0.0
 11
69.8985082048
 21
-634.5098886729
 31
0.0
  0
LINE
  5
706
330
1F
100
AcDbEntity
  8
0
  6
PHANTOM
 62
     8
370
     0
100
AcDbLine
 10
55.1473542361
 20
-144.6093806431
 30
0.0
 11
55.1473542361
 21
-139.6093806431
 31
0.0
  0
LINE
  5
707
330
1F
100
AcDbEntity
  8
0
  6
PHANTOM
 62
     8
370
     0
100
AcDbLine
 10
-55.147354236
 20
-144.6093806431
 30
0.0
 11
55.1473542361
 21
-144.6093806431
 31
0.0
  0
LINE
  5
708
330
1F
100
AcDbEntity
  8
0
  6
PHANTOM
 62
     8
370
     0
100
AcDbLine
 10
-55.1473542361
 20
-139.6093806431
 30
0.0
 11
-55.147354236
 21
-144.6093806431
 31
0.0
  0
LINE
  5
709
330
1F
100
AcDbEntity
  8
0
  6
PHANTOM
 62
     8
370
     0
100
AcDbLine
 10
55.1473542361
 20
-144.6093806431
 30
0.0
 11
64.899498168
 21
-634.6093806431
 31
0.0
  0
LINE
  5
70A
330
1F
100
AcDbEntity
  8
0
  6
PHANTOM
 62
     8
370
     0
100
AcDbLine
 10
60.1463642728
 20
-144.5098886729
 30
0.0
 11
55.1473542361
 21
-144.6093806431
 31
0.0
  0
LINE
  5
70B
330
1F
100
AcDbEntity
  8
0
  6
PHANTOM
 62
     8
370
     0
100
AcDbLine
 10
-69.8985082047
 20
-634.5098886729
 30
0.0
 11
-64.899498168
 21
-634.6093806431
 31
0.0
  0
LINE
  5
70C
330
1F
100
AcDbEntity
  8
0
  6
PHANTOM
 62
     8
370
     0
100
AcDbLine
 10
-64.899498168
 20
-634.6093806431
 30
0.0
 11
-64.899498168
 21
-639.6093806431
 31
0.0
  0
LINE
  5
70D
330
1F
100
AcDbEntity
  8
0
  6
PHANTOM
 62
     8
370
     0
100
AcDbLine
 10
64.899498168
 20
-634.6093806431
 30
0.0
 11
-64.899498168
 21
-634.6093806431
 31
0.0
  0
LINE
  5
70E
330
1F
100
AcDbEntity
  8
0
  6
PHANTOM
 62
     8
370
     0
100
AcDbLine
 10
-55.147354236
 20
-144.6093806431
 30
0.0
 11
-60.1463642728
 21
-144.5098886729
 31
0.0
  0
LINE
  5
70F
330
1F
100
AcDbEntity
  8
0
  6
PHANTOM
 62
     8
370
     0
100
AcDbLine
 10
-64.899498168
 20
-634.6093806431
 30
0.0
 11
-55.147354236
 21
-144.6093806431
 31
0.0
  0
LINE
  5
710
330
1F
100
AcDbEntity
  8
0
  6
PHANTOM
 62
     8
370
     0
100
AcDbLine
 10
1148.5900381579
 20
-447.4115195924
 30
0.0
 11
1147.044953186
 21
-442.656237011
 31
0.0
  0
LINE
  5
711
330
1F
100
AcDbEntity
  8
0
  6
PHANTOM
 62
     8
370
     0
100
AcDbLine
 10
1147.044953186
 20
-442.656237011
 30
0.0
 11
1151.7685495469
 21
-441.016835468
 31
0.0
  0
LINE
  5
712
330
1F
100
AcDbEntity
  8
0
  6
PHANTOM
 62
     8
370
     0
100
AcDbLine
 10
1018.813686132
 20
-484.2164893014
 30
0.0
 11
1023.5987719121
 21
-482.7663327316
 31
0.0
  0
LINE
  5
713
330
1F
100
AcDbEntity
  8
0
  6
PHANTOM
 62
     8
370
     0
100
AcDbLine
 10
1023.5987719121
 20
-482.7663327316
 30
0.0
 11
1025.143856884
 21
-487.521615313
 31
0.0
  0
LINE
  5
714
330
1F
100
AcDbEntity
  8
0
  6
PHANTOM
 62
     8
370
     0
100
AcDbLine
 10
986.351785908
 20
20.3478777671
 30
0.0
 11
984.8067009361
 21
25.1031603486
 31
0.0
  0
LINE
  5
715
330
1F
100
AcDbEntity
  8
0
  6
PHANTOM
 62
     8
370
     0
100
AcDbLine
 10
991.0753822689
 20
21.9872793101
 30
0.0
 11
986.351785908
 21
20.3478777671
 31
0.0
  0
LINE
  5
716
330
1F
100
AcDbEntity
  8
0
  6
PHANTOM
 62
     8
370
     0
100
AcDbLine
 10
1147.044953186
 20
-442.656237011
 30
0.0
 11
1023.5987719121
 21
-482.7663327316
 31
0.0
  0
LINE
  5
717
330
1F
100
AcDbEntity
  8
0
  6
PHANTOM
 62
     8
370
     0
100
AcDbLine
 10
881.4552847027
 20
-13.7350615404
 30
0.0
 11
876.6701989226
 21
-15.1852181102
 31
0.0
  0
LINE
  5
718
330
1F
100
AcDbEntity
  8
0
  6
PHANTOM
 62
     8
370
     0
100
AcDbLine
 10
1023.5987719121
 20
-482.7663327316
 30
0.0
 11
881.4552847027
 21
-13.7350615404
 31
0.0
  0
LINE
  5
719
330
1F
100
AcDbEntity
  8
0
  6
PHANTOM
 62
     8
370
     0
100
AcDbLine
 10
986.351785908
 20
20.3478777671
 30
0.0
 11
1147.044953186
 21
-442.656237011
 31
0.0
  0
LINE
  5
71A
330
1F
100
AcDbEntity
  8
0
  6
PHANTOM
 62
     8
370
     0
100
AcDbLine
 10
881.4552847027
 20
-13.7350615404
 30
0.0
 11
986.351785908
 21
20.3478777671
 31
0.0
  0
LINE
  5
71B
330
1F
100
AcDbEntity
  8
0
  6
PHANTOM
 62
     8
370
     0
100
AcDbLine
 10
879.9101997308
 20
-8.9797789589
 30
0.0
 11
881.4552847027
 21
-13.7350615404
 31
0.0
  0
LINE
  5
71C
330
1F
100
AcDbEntity
  8
0
  6
PHANTOM
 62
     8
370
     0
100
AcDbLine
 10
-849.8315905344
 20
36.0912128293
 30
0.0
 11
-853.6630896684
 21
37.2399575294
 31
0.0
  0
LINE
  5
71D
330
1F
100
AcDbEntity
  8
0
  6
PHANTOM
 62
     8
370
     0
100
AcDbLine
 10
-865.7337624264
 20
-30.8768069833
 30
0.0
 11
-854.1217210234
 21
7.8537539302
 31
0.0
  0
LINE
  5
71E
330
1F
100
AcDbEntity
  8
0
  6
PHANTOM
 62
     8
370
     0
100
AcDbLine
 10
-850.7811203914
 20
18.995923664
 30
0.0
 11
-850.4781542533
 21
20.0064306075
 31
0.0
  0
LINE
  5
71F
330
1F
100
AcDbEntity
  8
0
  6
PHANTOM
 62
     8
370
     0
100
AcDbLine
 10
-596.580821908
 20
-98.1259168224
 30
0.0
 11
-588.6071958956
 21
-58.7582325348
 31
0.0
  0
LINE
  5
720
330
1F
100
AcDbEntity
  8
0
  6
PHANTOM
 62
     8
370
     0
100
AcDbLine
 10
-586.3083524329
 20
-47.4082966932
 30
0.0
 11
-585.9665203218
 21
-45.7205904215
 31
0.0
  0
LINE
  5
721
330
1F
100
AcDbEntity
  8
0
  6
PHANTOM
 62
     8
370
     0
100
AcDbLine
 10
-586.7915457639
 20
-29.643973962
 30
0.0
 11
-590.7119399721
 21
-28.849927835
 31
0.0
  0
LINE
  5
722
330
1F
100
AcDbEntity
  8
0
  6
PHANTOM
 62
     8
370
     0
100
AcDbLine
 10
-193.283552735
 20
-138.9263434936
 30
0.0
 11
-198.2727841211
 21
-138.5983645674
 31
0.0
  0
LINE
  5
723
330
1F
100
AcDbEntity
  8
0
  6
PHANTOM
 62
     8
370
     0
100
AcDbLine
 10
-193.0549164383
 20
-133.9315736847
 30
0.0
 11
-193.283552735
 21
-138.9263434936
 31
0.0
  0
LINE
  5
724
330
1F
100
AcDbEntity
  8
0
  6
PHANTOM
 62
     8
370
     0
100
AcDbLine
 10
-83.1042167436
 20
-143.9698182325
 30
0.0
 11
-82.8755804469
 21
-138.9750484236
 31
0.0
  0
LINE
  5
725
330
1F
100
AcDbEntity
  8
0
  6
PHANTOM
 62
     8
370
     0
100
AcDbLine
 10
-193.283552735
 20
-138.9263434936
 30
0.0
 11
-83.1042167436
 21
-143.9698182325
 31
0.0
  0
LINE
  5
726
330
1F
100
AcDbEntity
  8
0
  6
PHANTOM
 62
     8
370
     0
100
AcDbLine
 10
-230.4210840176
 20
-627.639867024
 30
0.0
 11
-225.4318526316
 21
-627.9678459503
 31
0.0
  0
LINE
  5
727
330
1F
100
AcDbEntity
  8
0
  6
PHANTOM
 62
     8
370
     0
100
AcDbLine
 10
-225.4318526316
 20
-627.9678459503
 30
0.0
 11
-225.6604889283
 21
-632.9626157592
 31
0.0
  0
LINE
  5
728
330
1F
100
AcDbEntity
  8
0
  6
PHANTOM
 62
     8
370
     0
100
AcDbLine
 10
-225.4318526316
 20
-627.9678459503
 30
0.0
 11
-193.283552735
 21
-138.9263434936
 31
0.0
  0
LINE
  5
729
330
1F
100
AcDbEntity
  8
0
  6
PHANTOM
 62
     8
370
     0
100
AcDbLine
 10
-95.7686310069
 20
-633.9031983187
 30
0.0
 11
-90.7703006306
 21
-634.0324014493
 31
0.0
  0
LINE
  5
72A
330
1F
100
AcDbEntity
  8
0
  6
PHANTOM
 62
     8
370
     0
100
AcDbLine
 10
-83.1042167436
 20
-143.9698182325
 30
0.0
 11
-95.7686310069
 21
-633.9031983187
 31
0.0
  0
LINE
  5
72B
330
1F
100
AcDbEntity
  8
0
  6
PHANTOM
 62
     8
370
     0
100
AcDbLine
 10
-78.1058863673
 20
-144.0990213632
 30
0.0
 11
-83.1042167436
 21
-143.9698182325
 31
0.0
  0
LINE
  5
72C
330
1F
100
AcDbEntity
  8
0
  6
PHANTOM
 62
     8
370
     0
100
AcDbLine
 10
-95.9972673037
 20
-638.8979681276
 30
0.0
 11
-95.7686310069
 21
-633.9031983187
 31
0.0
  0
LINE
  5
72D
330
1F
100
AcDbEntity
  8
0
  6
PHANTOM
 62
     8
370
     0
100
AcDbLine
 10
-95.7686310069
 20
-633.9031983187
 30
0.0
 11
-225.4318526316
 21
-627.9678459503
 31
0.0
  0
LINE
  5
72E
330
1F
100
AcDbEntity
  8
0
  6
PHANTOM
 62
     8
370
     0
100
AcDbLine
 10
864.0246909515
 20
-527.2869143522
 30
0.0
 11
868.8710830345
 21
-526.05708356
 31
0.0
  0
LINE
  5
72F
330
1F
100
AcDbEntity
  8
0
  6
PHANTOM
 62
     8
370
     0
100
AcDbLine
 10
868.8710830345
 20
-526.05708356
 30
0.0
 11
870.1971057486
 21
-530.8780444354
 31
0.0
  0
LINE
  5
730
330
1F
100
AcDbEntity
  8
0
  6
PHANTOM
 62
     8
370
     0
100
AcDbLine
 10
995.348282348
 20
-496.4547609545
 30
0.0
 11
994.0222596339
 21
-491.6338000791
 31
0.0
  0
LINE
  5
731
330
1F
100
AcDbEntity
  8
0
  6
PHANTOM
 62
     8
370
     0
100
AcDbLine
 10
994.0222596339
 20
-491.6338000791
 30
0.0
 11
998.815880272
 21
-490.2121105286
 31
0.0
  0
LINE
  5
732
330
1F
100
AcDbEntity
  8
0
  6
PHANTOM
 62
     8
370
     0
100
AcDbLine
 10
994.0222596339
 20
-491.6338000791
 30
0.0
 11
868.8710830345
 21
-526.05708356
 31
0.0
  0
LINE
  5
733
330
1F
100
AcDbEntity
  8
0
  6
PHANTOM
 62
     8
370
     0
100
AcDbLine
 10
748.3237979252
 20
-51.0166049016
 30
0.0
 11
743.4774058421
 21
-52.2464356938
 31
0.0
  0
LINE
  5
734
330
1F
100
AcDbEntity
  8
0
  6
PHANTOM
 62
     8
370
     0
100
AcDbLine
 10
746.9977752111
 20
-46.1956440262
 30
0.0
 11
748.3237979252
 21
-51.0166049016
 31
0.0
  0
LINE
  5
735
330
1F
100
AcDbEntity
  8
0
  6
PHANTOM
 62
     8
370
     0
100
AcDbLine
 10
868.8710830345
 20
-526.05708356
 30
0.0
 11
748.3237979252
 21
-51.0166049016
 31
0.0
  0
LINE
  5
736
330
1F
100
AcDbEntity
  8
0
  6
PHANTOM
 62
     8
370
     0
100
AcDbLine
 10
854.6690927859
 20
-21.7659471665
 30
0.0
 11
853.3430700718
 21
-16.9449862911
 31
0.0
  0
LINE
  5
737
330
1F
100
AcDbEntity
  8
0
  6
PHANTOM
 62
     8
370
     0
100
AcDbLine
 10
859.462713424
 20
-20.344257616
 30
0.0
 11
854.6690927859
 21
-21.7659471665
 31
0.0
  0
LINE
  5
738
330
1F
100
AcDbEntity
  8
0
  6
PHANTOM
 62
     8
370
     0
100
AcDbLine
 10
748.3237979252
 20
-51.0166049016
 30
0.0
 11
854.6690927859
 21
-21.7659471665
 31
0.0
  0
LINE
  5
739
330
1F
100
AcDbEntity
  8
0
  6
PHANTOM
 62
     8
370
     0
100
AcDbLine
 10
854.6690927859
 20
-21.7659471665
 30
0.0
 11
994.0222596339
 21
-491.6338000791
 31
0.0
  0
ARC
  5
73A
330
1F
100
AcDbEntity
  8
0
  6
Continuous
 62
     7
370
    15
100
AcDbCircle
 10
-1346.0440307288
 20
226.6417632215
 30
0.0
 40
4.999999999999797
100
AcDbArc
 50
64.1401692469
 51
154.1401692469
  0
ARC
  5
73B
330
1F
100
AcDbEntity
  8
0
  6
Continuous
 62
     7
370
    15
100
AcDbCircle
 10
-1247.0590134652
 20
178.6629516759
 30
0.0
 40
5.000000000001132
100
AcDbArc
 50
334.1401692469
 51
64.1401692469
  0
ARC
  5
73C
330
1F
100
AcDbEntity
  8
0
  6
Continuous
 62
     7
370
    15
100
AcDbCircle
 10
-1301.010908272
 20
67.3548749058
 30
0.0
 40
4.999999999999768
100
AcDbArc
 50
244.1401692469
 51
334.1401692469
  0
ARC
  5
73D
330
1F
100
AcDbEntity
  8
0
  6
Continuous
 62
     7
370
    15
100
AcDbCircle
 10
-1399.9959255356
 20
115.3336864514
 30
0.0
 40
5.000000000000315
100
AcDbArc
 50
154.1401692469
 51
244.1401692469
  0
ARC
  5
73E
330
1F
100
AcDbEntity
  8
0
  6
Continuous
 62
     7
370
    15
100
AcDbCircle
 10
-1122.9696576033
 20
123.1832982673
 30
0.0
 40
4.999999999999522
100
AcDbArc
 50
336.7596275743
 51
66.7596275743
  0
ARC
  5
73F
330
1F
100
AcDbEntity
  8
0
  6
Continuous
 62
     7
370
    15
100
AcDbCircle
 10
-1224.0439855866
 20
166.5881392729
 30
0.0
 40
5.000000000000014
100
AcDbArc
 50
66.7596275743
 51
156.7596275743
  0
ARC
  5
740
330
1F
100
AcDbEntity
  8
0
  6
Continuous
 62
     7
370
    15
100
AcDbCircle
 10
-1171.7781491145
 20
9.5258037325
 30
0.0
 40
5.0000000000001
100
AcDbArc
 50
246.7596275743
 51
336.7596275743
  0
ARC
  5
741
330
1F
100
AcDbEntity
  8
0
  6
Continuous
 62
     7
370
    15
100
AcDbCircle
 10
-1272.8524770978
 20
52.9306447382
 30
0.0
 40
5.000000000000246
100
AcDbArc
 50
156.7596275743
 51
246.7596275743
  0
ARC
  5
742
330
1F
100
AcDbEntity
  8
0
  6
Continuous
 62
     7
370
    15
100
AcDbCircle
 10
-995.7265398831
 20
75.234388465
 30
0.0
 40
4.999999999999954
100
AcDbArc
 50
339.3791071156
 51
69.3791071156
  0
ARC
  5
743
330
1F
100
AcDbEntity
  8
0
  6
Continuous
 62
     7
370
    15
100
AcDbCircle
 10
-1098.6789690873
 20
113.9745139288
 30
0.0
 40
5.000000000000274
100
AcDbArc
 50
69.3791071156
 51
159.3791071156
  0
ARC
  5
744
330
1F
100
AcDbEntity
  8
0
  6
Continuous
 62
     7
370
    15
100
AcDbCircle
 10
-1142.2420150756
 20
-1.7948945163
 30
0.0
 40
5.000000000000746
100
AcDbArc
 50
159.3791071156
 51
249.3791071156
  0
ARC
  5
745
330
1F
100
AcDbEntity
  8
0
  6
Continuous
 62
     7
370
    15
100
AcDbCircle
 10
-1039.2895858714
 20
-40.5350199801
 30
0.0
 40
4.999999999999899
100
AcDbArc
 50
249.3791071156
 51
339.3791071156
  0
ARC
  5
746
330
1F
100
AcDbEntity
  8
0
  6
Continuous
 62
     7
370
    15
100
AcDbCircle
 10
-970.4604069451
 20
68.7796648593
 30
0.0
 40
5.000000000000101
100
AcDbArc
 50
72.0
 51
162.0
  0
ARC
  5
747
330
1F
100
AcDbEntity
  8
0
  6
Continuous
 62
     7
370
    15
100
AcDbCircle
 10
-865.8441901527
 20
34.7877954781
 30
0.0
 40
5.000000000000668
100
AcDbArc
 50
342.0
 51
72.0
  0
ARC
  5
748
330
1F
100
AcDbEntity
  8
0
  6
Continuous
 62
     7
370
    15
100
AcDbCircle
 10
-1008.9202431816
 20
-49.5875399679
 30
0.0
 40
5.000000000000121
100
AcDbArc
 50
162.0
 51
252.0
  0
ARC
  5
749
330
1F
100
AcDbEntity
  8
0
  6
Continuous
 62
     7
370
    15
100
AcDbCircle
 10
-904.3040263891
 20
-83.5794093492
 30
0.0
 40
5.000000000000063
100
AcDbArc
 50
252.0
 51
342.0
  0
ARC
  5
74A
330
1F
100
AcDbEntity
  8
0
  6
Continuous
 62
     7
370
    15
100
AcDbCircle
 10
-735.4475694211
 20
-3.6474577866
 30
0.0
 40
5.000000000000114
100
AcDbArc
 50
344.6208928844
 51
74.6208928844
  0
ARC
  5
74B
330
1F
100
AcDbEntity
  8
0
  6
Continuous
 62
     7
370
    15
100
AcDbCircle
 10
-841.5087086791
 20
25.5250419229
 30
0.0
 40
4.999999999999925
100
AcDbArc
 50
74.6208928844
 51
164.6208928844
  0
ARC
  5
74C
330
1F
100
AcDbEntity
  8
0
  6
Continuous
 62
     7
370
    15
100
AcDbCircle
 10
-874.5157065835
 20
-94.4770091899
 30
0.0
 40
4.99999999999976
100
AcDbArc
 50
164.6208928844
 51
254.6208928844
  0
ARC
  5
74D
330
1F
100
AcDbEntity
  8
0
  6
Continuous
 62
     7
370
    15
100
AcDbCircle
 10
-768.4545673256
 20
-123.6495088994
 30
0.0
 40
5.00000000000004
100
AcDbArc
 50
254.6208928844
 51
344.6208928844
  0
ARC
  5
74E
330
1F
100
AcDbEntity
  8
0
  6
Continuous
 62
     7
370
    15
100
AcDbCircle
 10
-710.1994234759
 20
-9.5849340722
 30
0.0
 40
5.000000000000226
100
AcDbArc
 50
77.2403724257
 51
167.2403724257
  0
ARC
  5
74F
330
1F
100
AcDbEntity
  8
0
  6
Continuous
 62
     7
370
    15
100
AcDbCircle
 10
-602.9158490212
 20
-33.8796794345
 30
0.0
 40
5.000000000000027
100
AcDbArc
 50
347.2403724257
 51
77.2403724257
  0
ARC
  5
750
330
1F
100
AcDbEntity
  8
0
  6
Continuous
 62
     7
370
    15
100
AcDbCircle
 10
-737.6875241614
 20
-130.9700999809
 30
0.0
 40
5.000000000000015
100
AcDbArc
 50
167.2403724257
 51
257.2403724257
  0
ARC
  5
751
330
1F
100
AcDbEntity
  8
0
  6
Continuous
 62
     7
370
    15
100
AcDbCircle
 10
-630.4039497067
 20
-155.2648453431
 30
0.0
 40
5.000000000000197
100
AcDbArc
 50
257.2403724257
 51
347.2403724257
  0
ARC
  5
752
330
1F
100
AcDbEntity
  8
0
  6
Continuous
 62
     7
370
    15
100
AcDbCircle
 10
-577.3581033408
 20
-38.1955231729
 30
0.0
 40
5.000000000000248
100
AcDbArc
 50
79.8597656822
 51
169.8597656822
  0
ARC
  5
753
330
1F
100
AcDbEntity
  8
0
  6
Continuous
 62
     7
370
    15
100
AcDbCircle
 10
-469.0763263315
 20
-57.5619055839
 30
0.0
 40
5.000000000000441
100
AcDbArc
 50
349.8597656822
 51
79.8597656822
  0
ARC
  5
754
330
1F
100
AcDbEntity
  8
0
  6
Continuous
 62
     7
370
    15
100
AcDbCircle
 10
-490.9882690865
 20
-180.0764800094
 30
0.0
 40
5.000000000000199
100
AcDbArc
 50
259.8597656822
 51
349.8597656822
  0
ARC
  5
755
330
1F
100
AcDbEntity
  8
0
  6
Continuous
 62
     7
370
    15
100
AcDbCircle
 10
-599.2700460959
 20
-160.7100975983
 30
0.0
 40
5.000000000000288
100
AcDbArc
 50
169.8597656822
 51
259.8597656822
  0
ARC
  5
756
330
1F
100
AcDbEntity
  8
0
  6
Continuous
 62
     7
370
    15
100
AcDbCircle
 10
-385.409017566
 20
-614.0019154068
 30
0.0
 40
5.00000000000035
100
AcDbArc
 50
173.6194583274
 51
264.7596275743
  0
ARC
  5
757
330
1F
100
AcDbEntity
  8
0
  6
Continuous
 62
     7
370
    15
100
AcDbCircle
 10
-221.1101245243
 20
-137.0143678573
 30
0.0
 40
5.000000000000022
100
AcDbArc
 50
355.8997968212
 51
84.7596275743
  0
ARC
  5
758
330
1F
100
AcDbEntity
  8
0
  6
Continuous
 62
     7
370
    15
100
AcDbCircle
 10
-330.9438329676
 20
-126.9406790331
 30
0.0
 40
5.000000000000083
100
AcDbArc
 50
84.7596275743
 51
173.6194583274
  0
ARC
  5
759
330
1F
100
AcDbEntity
  8
0
  6
Continuous
 62
     7
370
    15
100
AcDbCircle
 10
-256.1525435494
 20
-625.8570145035
 30
0.0
 40
5.000000000000107
100
AcDbArc
 50
264.7596275743
 51
355.8997968212
  0
ARC
  5
75A
330
1F
100
AcDbEntity
  8
0
  6
Continuous
 62
     7
370
    15
100
AcDbCircle
 10
721.2683225344
 20
-57.7970915917
 30
0.0
 40
5.000000000000002
100
AcDbArc
 50
13.8997968212
 51
102.7596275743
  0
ARC
  5
75B
330
1F
100
AcDbEntity
  8
0
  6
Continuous
 62
     7
370
    15
100
AcDbCircle
 10
613.6973173677
 20
-82.1569266566
 30
0.0
 40
5.000000000000118
100
AcDbArc
 50
102.7596275743
 51
191.6194583274
  0
ARC
  5
75C
330
1F
100
AcDbEntity
  8
0
  6
Continuous
 62
     7
370
    15
100
AcDbCircle
 10
712.408047985
 20
-562.2103569873
 30
0.0
 40
5.000000000000068
100
AcDbArc
 50
191.6194583274
 51
282.7596275743
  0
ARC
  5
75D
330
1F
100
AcDbEntity
  8
0
  6
Continuous
 62
     7
370
    15
100
AcDbCircle
 10
839.0016869627
 20
-533.5427791304
 30
0.0
 40
5.000000000000238
100
AcDbArc
 50
282.7596275743
 51
13.8997968212
  0
ARC
  5
75E
330
1F
100
AcDbEntity
  8
0
  6
Continuous
 62
     7
370
    15
100
AcDbCircle
 10
-544.580057733
 20
-592.7394864483
 30
0.0
 40
5.000000000000191
100
AcDbArc
 50
171.0
 51
262.1401692469
  0
ARC
  5
75F
330
1F
100
AcDbEntity
  8
0
  6
Continuous
 62
     7
370
    15
100
AcDbCircle
 10
-416.0004476587
 20
-610.4895096302
 30
0.0
 40
4.999999999999867
100
AcDbArc
 50
262.1401692469
 51
353.2803384938
  0
ARC
  5
760
330
1F
100
AcDbEntity
  8
0
  6
Continuous
 62
     7
370
    15
100
AcDbCircle
 10
-358.6534364713
 20
-123.7591688673
 30
0.0
 40
4.99999999999989
100
AcDbArc
 50
353.2803384938
 51
82.1401692469
  0
ARC
  5
761
330
1F
100
AcDbEntity
  8
0
  6
Continuous
 62
     7
370
    15
100
AcDbCircle
 10
-467.9119901499
 20
-108.6763586185
 30
0.0
 40
5.000000000000031
100
AcDbArc
 50
82.1401692469
 51
171.0
  0
ARC
  5
762
330
1F
100
AcDbEntity
  8
0
  6
Continuous
 62
     7
370
    15
100
AcDbCircle
 10
477.7888735558
 20
-107.1120139681
 30
0.0
 40
4.999999999999971
100
AcDbArc
 50
100.1401692469
 51
189.0
  0
ARC
  5
763
330
1F
100
AcDbEntity
  8
0
  6
Continuous
 62
     7
370
    15
100
AcDbCircle
 10
554.4569411389
 20
-591.1751417979
 30
0.0
 40
5.000000000000099
100
AcDbArc
 50
189.0
 51
280.1401692469
  0
ARC
  5
764
330
1F
100
AcDbEntity
  8
0
  6
Continuous
 62
     7
370
    15
100
AcDbCircle
 10
586.3607776826
 20
-87.6938690718
 30
0.0
 40
4.999999999999943
100
AcDbArc
 50
11.2803384938
 51
100.1401692469
  0
ARC
  5
765
330
1F
100
AcDbEntity
  8
0
  6
Continuous
 62
     7
370
    15
100
AcDbCircle
 10
682.2284759765
 20
-568.3231323664
 30
0.0
 40
4.999999999999818
100
AcDbArc
 50
280.1401692469
 51
11.2803384938
  0
ARC
  5
766
330
1F
100
AcDbEntity
  8
0
  6
Continuous
 62
     7
370
    15
100
AcDbCircle
 10
-1313.217670507
 20
-358.1266973903
 30
0.0
 40
4.999999999999366
100
AcDbArc
 50
338.1561613268
 51
67.1952016585
  0
ARC
  5
767
330
1F
100
AcDbEntity
  8
0
  6
Continuous
 62
     7
370
    15
100
AcDbCircle
 10
-839.4770028259
 20
-512.0543712264
 30
0.0
 40
4.999999999999709
100
AcDbArc
 50
76.8047983415
 51
165.8438386732
  0
ARC
  5
768
330
1F
100
AcDbEntity
  8
0
  6
Continuous
 62
     7
370
    15
100
AcDbCircle
 10
358.6535315327
 20
-123.7590122642
 30
0.0
 40
5.000000000000056
100
AcDbArc
 50
97.8597656822
 51
186.7195964353
  0
ARC
  5
769
330
1F
100
AcDbEntity
  8
0
  6
Continuous
 62
     7
370
    15
100
AcDbCircle
 10
415.9999899394
 20
-610.4894181559
 30
0.0
 40
4.999999999999881
100
AcDbArc
 50
186.7195964353
 51
277.8597656822
  0
ARC
  5
76A
330
1F
100
AcDbEntity
  8
0
  6
Continuous
 62
     7
370
    15
100
AcDbCircle
 10
544.5796201723
 20
-592.7395410022
 30
0.0
 40
4.999999999999962
100
AcDbArc
 50
277.8597656822
 51
8.9999349291
  0
ARC
  5
76B
330
1F
100
AcDbEntity
  8
0
  6
Continuous
 62
     7
370
    15
100
AcDbCircle
 10
467.9121023409
 20
-108.6763261006
 30
0.0
 40
4.99999999999991
100
AcDbArc
 50
8.9999349291
 51
97.8597656822
  0
ARC
  5
76C
330
1F
100
AcDbEntity
  8
0
  6
Continuous
 62
     7
370
    15
100
AcDbCircle
 10
1268.5601953937
 20
133.9663231634
 30
0.0
 40
5.000000000000083
100
AcDbArc
 50
115.8597656822
 51
204.7195964353
  0
ARC
  5
76D
330
1F
100
AcDbEntity
  8
0
  6
Continuous
 62
     7
370
    15
100
AcDbCircle
 10
1473.5078854474
 20
-311.220770824
 30
0.0
 40
4.999999999999762
100
AcDbArc
 50
204.7195964353
 51
295.8597656822
  0
ARC
  5
76E
330
1F
100
AcDbEntity
  8
0
  6
Continuous
 62
     7
370
    15
100
AcDbCircle
 10
1367.8104647765
 20
182.0735652834
 30
0.0
 40
4.999999999999821
100
AcDbArc
 50
26.9999349291
 51
115.8597656822
  0
ARC
  5
76F
330
1F
100
AcDbEntity
  8
0
  6
Continuous
 62
     7
370
    15
100
AcDbCircle
 10
1590.3093669547
 20
-254.606343621
 30
0.0
 40
4.999999999999645
100
AcDbArc
 50
295.8597656822
 51
26.9999349291
  0
ARC
  5
770
330
1F
100
AcDbEntity
  8
0
  6
Continuous
 62
     7
370
    15
100
AcDbCircle
 10
221.1101245243
 20
-137.0143678573
 30
0.0
 40
5.000000000000039
100
AcDbArc
 50
95.2403724257
 51
184.1002031788
  0
ARC
  5
771
330
1F
100
AcDbEntity
  8
0
  6
Continuous
 62
     7
370
    15
100
AcDbCircle
 10
330.9438329676
 20
-126.9406790331
 30
0.0
 40
5.000000000000088
100
AcDbArc
 50
6.3805416726
 51
95.2403724257
  0
ARC
  5
772
330
1F
100
AcDbEntity
  8
0
  6
Continuous
 62
     7
370
    15
100
AcDbCircle
 10
256.1525435494
 20
-625.8570145035
 30
0.0
 40
4.999999999999977
100
AcDbArc
 50
184.1002031788
 51
275.2403724257
  0
ARC
  5
773
330
1F
100
AcDbEntity
  8
0
  6
Continuous
 62
     7
370
    15
100
AcDbCircle
 10
385.409017566
 20
-614.0019154068
 30
0.0
 40
4.999999999999897
100
AcDbArc
 50
275.2403724257
 51
6.3805416726
  0
ARC
  5
774
330
1F
100
AcDbEntity
  8
0
  6
Continuous
 62
     7
370
    15
100
AcDbCircle
 10
1243.1898951108
 20
122.3776104846
 30
0.0
 40
5.000000000000703
100
AcDbArc
 50
24.3805416726
 51
113.2403724257
  0
ARC
  5
775
330
1F
100
AcDbEntity
  8
0
  6
Continuous
 62
     7
370
    15
100
AcDbCircle
 10
1326.2327783792
 20
-375.2318009121
 30
0.0
 40
4.999999999999719
100
AcDbArc
 50
202.1002031788
 51
293.2403724257
  0
ARC
  5
776
330
1F
100
AcDbEntity
  8
0
  6
Continuous
 62
     7
370
    15
100
AcDbCircle
 10
1141.8447720296
 20
78.856480621
 30
0.0
 40
5.000000000000338
100
AcDbArc
 50
113.2403724257
 51
202.1002031788
  0
ARC
  5
777
330
1F
100
AcDbEntity
  8
0
  6
Continuous
 62
     7
370
    15
100
AcDbCircle
 10
1445.4995631752
 20
-324.0144845607
 30
0.0
 40
4.999999999999963
100
AcDbArc
 50
293.2403724257
 51
24.3805416726
  0
ARC
  5
778
330
1F
100
AcDbEntity
  8
0
  6
Continuous
 62
     7
370
    15
100
AcDbCircle
 10
83.1042167436
 20
-143.9698182325
 30
0.0
 40
4.999999999999991
100
AcDbArc
 50
92.6208928844
 51
181.4807236375
  0
ARC
  5
779
330
1F
100
AcDbEntity
  8
0
  6
Continuous
 62
     7
370
    15
100
AcDbCircle
 10
193.283552735
 20
-138.9263434936
 30
0.0
 40
5.000000000000025
100
AcDbArc
 50
3.7610621313
 51
92.6208928844
  0
ARC
  5
77A
330
1F
100
AcDbEntity
  8
0
  6
Continuous
 62
     7
370
    15
100
AcDbCircle
 10
225.4318526316
 20
-627.9678459503
 30
0.0
 40
4.999999999999694
100
AcDbArc
 50
272.6208928844
 51
3.7610621313
  0
ARC
  5
77B
330
1F
100
AcDbEntity
  8
0
  6
Continuous
 62
     7
370
    15
100
AcDbCircle
 10
95.7686310069
 20
-633.9031983187
 30
0.0
 40
5.000000000000222
100
AcDbArc
 50
181.4807236375
 51
272.6208928844
  0
ARC
  5
77C
330
1F
100
AcDbEntity
  8
0
  6
Continuous
 62
     7
370
    15
100
AcDbCircle
 10
1012.7427065171
 20
29.5952833895
 30
0.0
 40
5.000000000000403
100
AcDbArc
 50
110.6208928844
 51
199.4807236375
  0
ARC
  5
77D
330
1F
100
AcDbEntity
  8
0
  6
Continuous
 62
     7
370
    15
100
AcDbCircle
 10
1176.1850207855
 20
-432.4455310608
 30
0.0
 40
5.000000000000133
100
AcDbArc
 50
199.4807236375
 51
290.6208928844
  0
ARC
  5
77E
330
1F
100
AcDbEntity
  8
0
  6
Continuous
 62
     7
370
    15
100
AcDbCircle
 10
1115.9709625678
 20
68.439200155
 30
0.0
 40
4.999999999999916
100
AcDbArc
 50
21.7610621313
 51
110.6208928844
  0
ARC
  5
77F
330
1F
100
AcDbEntity
  8
0
  6
Continuous
 62
     7
370
    15
100
AcDbCircle
 10
1297.667947886
 20
-386.7325364868
 30
0.0
 40
5.000000000000013
100
AcDbArc
 50
290.6208928844
 51
21.7610621313
  0
ARC
  5
780
330
1F
100
AcDbEntity
  8
0
  6
Continuous
 62
     7
370
    15
100
AcDbCircle
 10
-988.8975959313
 20
73.3262943512
 30
0.0
 40
7.939928776169029
100
AcDbArc
 50
250.2543794347
 51
340.2476657683
  0
ARC
  5
781
330
1F
100
AcDbEntity
  8
0
  6
Continuous
 62
     7
370
    15
100
AcDbCircle
 10
-988.936178431
 20
73.3073694938
 30
0.0
 40
3.969964388084819
100
AcDbArc
 50
250.2543794347
 51
340.2476657683
  0
ARC
  5
782
330
1F
100
AcDbEntity
  8
0
  6
Continuous
 62
     7
370
    15
100
AcDbCircle
 10
-1240.8541324729
 20
175.3518614986
 30
0.0
 40
7.939928776169458
100
AcDbArc
 50
245.0147391925
 51
335.0080255261
  0
ARC
  5
783
330
1F
100
AcDbEntity
  8
0
  6
Continuous
 62
     7
370
    15
100
AcDbCircle
 10
-1240.8942820015
 20
175.3365391338
 30
0.0
 40
3.9699643880849
100
AcDbArc
 50
245.0147391925
 51
335.0080255261
  0
ARC
  5
784
330
1F
100
AcDbEntity
  8
0
  6
Continuous
 62
     7
370
    15
100
AcDbCircle
 10
-1473.5083490314
 20
-311.2207163781
 30
0.0
 40
5.000000000000385
100
AcDbArc
 50
244.1401692469
 51
335.2803384938
  0
ARC
  5
785
330
1F
100
AcDbEntity
  8
0
  6
Continuous
 62
     7
370
    15
100
AcDbCircle
 10
-1590.3097662415
 20
-254.6061565235
 30
0.0
 40
4.999999999999877
100
AcDbArc
 50
153.0
 51
244.1401692469
  0
ARC
  5
786
330
1F
100
AcDbEntity
  8
0
  6
Continuous
 62
     7
370
    15
100
AcDbCircle
 10
-1445.4995631752
 20
-324.0144845607
 30
0.0
 40
4.999999999999821
100
AcDbArc
 50
155.6194583274
 51
246.7596275743
  0
ARC
  5
787
330
1F
100
AcDbEntity
  8
0
  6
Continuous
 62
     7
370
    15
100
AcDbCircle
 10
-1326.2327783792
 20
-375.2318009121
 30
0.0
 40
5.000000000000351
100
AcDbArc
 50
246.7596275743
 51
337.8997968212
  0
ARC
  5
788
330
1F
100
AcDbEntity
  8
0
  6
Continuous
 62
     7
370
    15
100
AcDbCircle
 10
-1297.667947886
 20
-386.7325364869
 30
0.0
 40
5.000000000000167
100
AcDbArc
 50
158.2389378687
 51
249.3791071156
  0
ARC
  5
789
330
1F
100
AcDbEntity
  8
0
  6
Continuous
 62
     7
370
    15
100
AcDbCircle
 10
-1176.1850207855
 20
-432.4455310608
 30
0.0
 40
4.999999999999795
100
AcDbArc
 50
249.3791071156
 51
340.5192763625
  0
ARC
  5
78A
330
1F
100
AcDbEntity
  8
0
  6
Continuous
 62
     7
370
    15
100
AcDbCircle
 10
-1023.5987719121
 20
-482.7663327316
 30
0.0
 40
4.999999999999956
100
AcDbArc
 50
252.0
 51
343.1401692469
  0
ARC
  5
78B
330
1F
100
AcDbEntity
  8
0
  6
Continuous
 62
     7
370
    15
100
AcDbCircle
 10
-1147.044953186
 20
-442.656237011
 30
0.0
 40
5.000000000000391
100
AcDbArc
 50
160.8598307531
 51
252.0
  0
ARC
  5
78C
330
1F
100
AcDbEntity
  8
0
  6
Continuous
 62
     7
370
    15
100
AcDbCircle
 10
-994.0222596339
 20
-491.6338000791
 30
0.0
 40
5.000000000000071
100
AcDbArc
 50
163.4807236375
 51
254.6208928844
  0
ARC
  5
78D
330
1F
100
AcDbEntity
  8
0
  6
Continuous
 62
     7
370
    15
100
AcDbCircle
 10
-868.8710830345
 20
-526.05708356
 30
0.0
 40
4.999999999999853
100
AcDbArc
 50
254.6208928844
 51
345.7610621313
  0
ARC
  5
78E
330
1F
100
AcDbEntity
  8
0
  6
Continuous
 62
     7
370
    15
100
AcDbCircle
 10
-712.408047985
 20
-562.2103569873
 30
0.0
 40
5.00000000000025
100
AcDbArc
 50
257.2403724257
 51
348.3805416726
  0
ARC
  5
78F
330
1F
100
AcDbEntity
  8
0
  6
Continuous
 62
     7
370
    15
100
AcDbCircle
 10
-839.0016869627
 20
-533.5427791304
 30
0.0
 40
5.000000000000182
100
AcDbArc
 50
166.1002031788
 51
257.2403724257
  0
ARC
  5
790
330
1F
100
AcDbEntity
  8
0
  6
Continuous
 62
     7
370
    15
100
AcDbCircle
 10
-682.2288830263
 20
-568.3229039261
 30
0.0
 40
5.000000000000012
100
AcDbArc
 50
168.7195964353
 51
259.8597656822
  0
ARC
  5
791
330
1F
100
AcDbEntity
  8
0
  6
Continuous
 62
     7
370
    15
100
AcDbCircle
 10
-554.4573741418
 20
-591.175058468
 30
0.0
 40
5.000000000000379
100
AcDbArc
 50
259.8597656822
 51
350.9999349291
  0
ARC
  5
792
330
1F
100
AcDbEntity
  8
0
  6
Continuous
 62
     7
370
    15
100
AcDbCircle
 10
213.8948980225
 20
-159.075343329
 30
0.0
 40
5.000000000000485
100
AcDbArc
 50
183.7468208224
 51
274.6835260281
  0
ARC
  5
793
330
1F
100
AcDbEntity
  8
0
  6
Continuous
 62
     7
370
    15
100
AcDbCircle
 10
-213.8948980225
 20
-159.075343329
 30
0.0
 40
5.000000000000124
100
AcDbArc
 50
265.316473972
 51
356.2531791776
  0
ARC
  5
794
330
1F
100
AcDbEntity
  8
0
  6
Continuous
 62
     7
370
    15
100
AcDbCircle
 10
64.899498168
 20
-634.6093806431
 30
0.0
 40
5.000000000000024
100
AcDbArc
 50
270.0
 51
1.1401692469
  0
ARC
  5
795
330
1F
100
AcDbEntity
  8
0
  6
Continuous
 62
     7
370
    15
100
AcDbCircle
 10
-64.899498168
 20
-634.6093806431
 30
0.0
 40
5.000000000000138
100
AcDbArc
 50
178.8598307531
 51
270.0
  0
ARC
  5
796
330
1F
100
AcDbEntity
  8
0
  6
Continuous
 62
     7
370
    15
100
AcDbCircle
 10
55.1473542361
 20
-144.6093806431
 30
0.0
 40
4.999999999999943
100
AcDbArc
 50
1.1401692469
 51
90.0
  0
ARC
  5
797
330
1F
100
AcDbEntity
  8
0
  6
Continuous
 62
     7
370
    15
100
AcDbCircle
 10
-55.1473542361
 20
-144.6093806431
 30
0.0
 40
4.999999999999985
100
AcDbArc
 50
90.0
 51
178.8598307531
  0
ARC
  5
798
330
1F
100
AcDbEntity
  8
0
  6
Continuous
 62
     7
370
    15
100
AcDbCircle
 10
734.9476270487
 20
-76.5486984626
 30
0.0
 40
5.00000000000021
100
AcDbArc
 50
283.316473972
 51
14.2531791776
  0
ARC
  5
799
330
1F
100
AcDbEntity
  8
0
  6
Continuous
 62
     7
370
    15
100
AcDbCircle
 10
1141.7999001819
 20
55.6456185355
 30
0.0
 40
5.000000000001305
100
AcDbArc
 50
201.7468208224
 51
292.683526028
  0
ARC
  5
79A
330
1F
100
AcDbEntity
  8
0
  6
Continuous
 62
     7
370
    15
100
AcDbCircle
 10
1147.044953186
 20
-442.656237011
 30
0.0
 40
5.000000000000158
100
AcDbArc
 50
288.0
 51
19.1401692469
  0
ARC
  5
79B
330
1F
100
AcDbEntity
  8
0
  6
Continuous
 62
     7
370
    15
100
AcDbCircle
 10
1023.5987719121
 20
-482.7663327316
 30
0.0
 40
4.999999999999993
100
AcDbArc
 50
196.8598307531
 51
288.0
  0
ARC
  5
79C
330
1F
100
AcDbEntity
  8
0
  6
Continuous
 62
     7
370
    15
100
AcDbCircle
 10
986.351785908
 20
20.3478777671
 30
0.0
 40
4.999999999999937
100
AcDbArc
 50
19.1401692469
 51
108.0
  0
ARC
  5
79D
330
1F
100
AcDbEntity
  8
0
  6
Continuous
 62
     7
370
    15
100
AcDbCircle
 10
881.4552847027
 20
-13.7350615404
 30
0.0
 40
5.000000000000109
100
AcDbArc
 50
108.0
 51
196.8598307531
  0
ARC
  5
79E
330
1F
100
AcDbEntity
  8
0
  6
Continuous
 62
     7
370
    15
100
AcDbCircle
 10
249.0602080761
 20
-605.5672048211
 30
0.0
 40
4.999999999999879
100
AcDbArc
 50
94.8047983415
 51
183.8438386732
  0
ARC
  5
79F
330
1F
100
AcDbEntity
  8
0
  6
Continuous
 62
     7
370
    15
100
AcDbCircle
 10
-249.0602080761
 20
-605.5672048211
 30
0.0
 40
4.99999999999946
100
AcDbArc
 50
356.1561613268
 51
85.1952016585
  0
ARC
  5
7A0
330
1F
100
AcDbEntity
  8
0
  6
Continuous
 62
     7
370
    15
100
AcDbCircle
 10
839.4770028259
 20
-512.0543712264
 30
0.0
 40
4.999999999999462
100
AcDbArc
 50
14.1561613268
 51
103.1952016585
  0
ARC
  5
7A1
330
1F
100
AcDbEntity
  8
0
  6
Continuous
 62
     7
370
    15
100
AcDbCircle
 10
1313.217670507
 20
-358.1266973903
 30
0.0
 40
5.000000000000155
100
AcDbArc
 50
112.8047983415
 51
201.8438386732
  0
ARC
  5
7A2
330
1F
100
AcDbEntity
  8
0
  6
Continuous
 62
     7
370
    15
100
AcDbCircle
 10
-1141.7999001819
 20
55.6456185355
 30
0.0
 40
5.000000000000244
100
AcDbArc
 50
247.3164739719
 51
312.9496204353
  0
ARC
  5
7A3
330
1F
100
AcDbEntity
  8
0
  6
Continuous
 62
     7
370
    15
100
AcDbCircle
 10
-734.9476270487
 20
-76.5486984626
 30
0.0
 40
5.000000000000167
100
AcDbArc
 50
191.0531336916
 51
256.683526028
  0
ARC
  5
7A4
330
1F
100
AcDbEntity
  8
0
  6
Continuous
 62
     7
370
    15
100
AcDbCircle
 10
-848.2557491715
 20
27.6289882244
 30
0.0
 40
7.939928776168957
100
AcDbArc
 50
163.7523342317
 51
253.7456205653
  0
ARC
  5
7A5
330
1F
100
AcDbEntity
  8
0
  6
Continuous
 62
     7
370
    15
100
AcDbCircle
 10
-848.2356590255
 20
27.5909994688
 30
0.0
 40
3.969964388084455
100
AcDbArc
 50
163.7523342317
 51
253.7456205653
  0
ARC
  5
7A6
330
1F
100
AcDbEntity
  8
0
  6
Continuous
 62
     7
370
    15
100
AcDbCircle
 10
-584.4495055394
 20
-37.9269304905
 30
0.0
 40
7.939928776168881
100
AcDbArc
 50
168.9919744739
 51
258.9852608075
  0
ARC
  5
7A7
330
1F
100
AcDbEntity
  8
0
  6
Continuous
 62
     7
370
    15
100
AcDbCircle
 10
-584.4260301485
 20
-37.9629258448
 30
0.0
 40
3.969964388084525
100
AcDbArc
 50
168.9919744739
 51
258.9852608075
  0
ARC
  5
7A8
330
1F
100
AcDbEntity
  8
0
  6
Continuous
 62
     7
370
    15
100
AcDbCircle
 10
-193.283552735
 20
-138.9263434936
 30
0.0
 40
5.000000000000009
100
AcDbArc
 50
87.3791071156
 51
176.2389378687
  0
ARC
  5
7A9
330
1F
100
AcDbEntity
  8
0
  6
Continuous
 62
     7
370
    15
100
AcDbCircle
 10
-225.4318526316
 20
-627.9678459503
 30
0.0
 40
4.999999999999786
100
AcDbArc
 50
176.2389378687
 51
267.3791071156
  0
ARC
  5
7AA
330
1F
100
AcDbEntity
  8
0
  6
Continuous
 62
     7
370
    15
100
AcDbCircle
 10
-83.1042167436
 20
-143.9698182325
 30
0.0
 40
4.99999999999998
100
AcDbArc
 50
358.5192763625
 51
87.3791071156
  0
ARC
  5
7AB
330
1F
100
AcDbEntity
  8
0
  6
Continuous
 62
     7
370
    15
100
AcDbCircle
 10
-95.7686310069
 20
-633.9031983187
 30
0.0
 40
4.999999999999915
100
AcDbArc
 50
267.3791071156
 51
358.5192763625
  0
ARC
  5
7AC
330
1F
100
AcDbEntity
  8
0
  6
Continuous
 62
     7
370
    15
100
AcDbCircle
 10
868.8710830345
 20
-526.05708356
 30
0.0
 40
4.999999999999981
100
AcDbArc
 50
194.2389378687
 51
285.3791071156
  0
ARC
  5
7AD
330
1F
100
AcDbEntity
  8
0
  6
Continuous
 62
     7
370
    15
100
AcDbCircle
 10
994.0222596339
 20
-491.6338000791
 30
0.0
 40
4.999999999999903
100
AcDbArc
 50
285.3791071156
 51
16.5192763625
  0
ARC
  5
7AE
330
1F
100
AcDbEntity
  8
0
  6
Continuous
 62
     7
370
    15
100
AcDbCircle
 10
748.3237979252
 20
-51.0166049016
 30
0.0
 40
4.999999999999958
100
AcDbArc
 50
105.3791071156
 51
194.2389378687
  0
ARC
  5
7AF
330
1F
100
AcDbEntity
  8
0
  6
Continuous
 62
     7
370
    15
100
AcDbCircle
 10
854.6690927859
 20
-21.7659471665
 30
0.0
 40
5.000000000000099
100
AcDbArc
 50
16.5192763625
 51
105.3791071156
  0
ARC
  5
7B0
330
1F
100
AcDbEntity
  8
0
  6
PHANTOM
 62
     8
370
     0
100
AcDbCircle
 10
-1264.1961135872
 20
143.222620345
 30
0.0
 40
4.963152709193658
100
AcDbArc
 50
243.7131519044
 51
333.7066899777
  0
ARC
  5
7B1
330
1F
100
AcDbEntity
  8
0
  6
PHANTOM
 62
     8
370
     0
100
AcDbCircle
 10
-1363.2477015736
 20
191.2336992402
 30
0.0
 40
4.9631527091957
100
AcDbArc
 50
154.5736485173
 51
244.5671865894
  0
ARC
  5
7B2
330
1F
100
AcDbEntity
  8
0
  6
PHANTOM
 62
     8
370
     0
100
AcDbCircle
 10
-1400.0128330807
 20
115.3836091755
 30
0.0
 40
4.963152709193588
100
AcDbArc
 50
154.5736485161
 51
244.5671865894
  0
ARC
  5
7B3
330
1F
100
AcDbEntity
  8
0
  6
PHANTOM
 62
     8
370
     0
100
AcDbCircle
 10
-1300.9612450943
 20
67.3725302803
 30
0.0
 40
4.963152709193281
100
AcDbArc
 50
243.7131519044
 51
333.7066899777
  0
ARC
  5
7B4
330
1F
100
AcDbEntity
  8
0
  6
PHANTOM
 62
     8
370
     0
100
AcDbCircle
 10
-1138.4691484747
 20
86.9967943166
 30
0.0
 40
4.96315270919397
100
AcDbArc
 50
246.3326102318
 51
336.3261483051
  0
ARC
  5
7B5
330
1F
100
AcDbEntity
  8
0
  6
PHANTOM
 62
     8
370
     0
100
AcDbCircle
 10
-1239.6114523118
 20
130.4308265243
 30
0.0
 40
4.963152709195843
100
AcDbArc
 50
157.1931068448
 51
247.1866449168
  0
ARC
  5
7B6
330
1F
100
AcDbEntity
  8
0
  6
PHANTOM
 62
     8
370
     0
100
AcDbCircle
 10
-1171.7293447199
 20
9.5457103779
 30
0.0
 40
4.963152709193574
100
AcDbArc
 50
246.3326102318
 51
336.3261483051
  0
ARC
  5
7B7
330
1F
100
AcDbEntity
  8
0
  6
PHANTOM
 62
     8
370
     0
100
AcDbCircle
 10
-1272.871648557
 20
52.9797425856
 30
0.0
 40
4.963152709193871
100
AcDbArc
 50
157.1931068435
 51
247.1866449168
  0
ARC
  5
7B8
330
1F
100
AcDbEntity
  8
0
  6
PHANTOM
 62
     8
370
     0
100
AcDbCircle
 10
-1112.5776853627
 20
77.1435083583
 30
0.0
 40
4.963152709195322
100
AcDbArc
 50
159.8125863861
 51
249.8061244581
  0
ARC
  5
7B9
330
1F
100
AcDbEntity
  8
0
  6
PHANTOM
 62
     8
370
     0
100
AcDbCircle
 10
-1009.556017219
 20
38.3773288691
 30
0.0
 40
4.963152709193678
100
AcDbArc
 50
248.9520897731
 51
338.9456278464
  0
ARC
  5
7BA
330
1F
100
AcDbEntity
  8
0
  6
PHANTOM
 62
     8
370
     0
100
AcDbCircle
 10
-1142.2634104025
 20
-1.7467241576
 30
0.0
 40
4.963152709194117
100
AcDbArc
 50
159.8125863848
 51
249.8061244581
  0
ARC
  5
7BB
330
1F
100
AcDbEntity
  8
0
  6
PHANTOM
 62
     8
370
     0
100
AcDbCircle
 10
-1039.2417422588
 20
-40.5129036468
 30
0.0
 40
4.963152709193482
100
AcDbArc
 50
248.9520897731
 51
338.9456278464
  0
ARC
  5
7BC
330
1F
100
AcDbEntity
  8
0
  6
PHANTOM
 62
     8
370
     0
100
AcDbCircle
 10
-982.6574042632
 20
31.3630793751
 30
0.0
 40
4.962474452071106
100
AcDbArc
 50
162.4416760864
 51
252.4349693331
  0
ARC
  5
7BD
330
1F
100
AcDbEntity
  8
0
  6
PHANTOM
 62
     8
370
     0
100
AcDbCircle
 10
-877.9695291808
 20
-2.6520731959
 30
0.0
 40
4.962474452069183
100
AcDbArc
 50
251.5650306669
 51
341.5583239149
  0
ARC
  5
7BE
330
1F
100
AcDbEntity
  8
0
  6
PHANTOM
 62
     8
370
     0
100
AcDbCircle
 10
-904.2563761521
 20
-83.5546693637
 30
0.0
 40
4.96247445206911
100
AcDbArc
 50
251.5650306669
 51
341.5583239149
  0
ARC
  5
7BF
330
1F
100
AcDbEntity
  8
0
  6
PHANTOM
 62
     8
370
     0
100
AcDbCircle
 10
-1008.9442512345
 20
-49.5395167926
 30
0.0
 40
4.962474452069132
100
AcDbArc
 50
162.4416760851
 51
252.4349693331
  0
ARC
  5
7C0
330
1F
100
AcDbEntity
  8
0
  6
PHANTOM
 62
     8
370
     0
100
AcDbCircle
 10
-851.9819895635
 20
-12.4101396424
 30
0.0
 40
4.962474452071134
100
AcDbArc
 50
165.0625689708
 51
255.0558622175
  0
ARC
  5
7C1
330
1F
100
AcDbEntity
  8
0
  6
PHANTOM
 62
     8
370
     0
100
AcDbCircle
 10
-745.8482022964
 20
-41.6026214494
 30
0.0
 40
4.962474452069188
100
AcDbArc
 50
254.1859235513
 51
344.1792167993
  0
ARC
  5
7C2
330
1F
100
AcDbEntity
  8
0
  6
PHANTOM
 62
     8
370
     0
100
AcDbCircle
 10
-874.5418854913
 20
-94.4301340712
 30
0.0
 40
4.962474452068932
100
AcDbArc
 50
165.0625689695
 51
255.0558622175
  0
ARC
  5
7C3
330
1F
100
AcDbEntity
  8
0
  6
PHANTOM
 62
     8
370
     0
100
AcDbCircle
 10
-768.4080982243
 20
-123.6226158782
 30
0.0
 40
4.962474452069043
100
AcDbArc
 50
254.1859235513
 51
344.1792167993
  0
ARC
  5
7C4
330
1F
100
AcDbEntity
  8
0
  6
PHANTOM
 62
     8
370
     0
100
AcDbCircle
 10
-718.9280236202
 20
-47.9591331179
 30
0.0
 40
4.96247445207077
100
AcDbArc
 50
167.6820485121
 51
257.6753417588
  0
ARC
  5
7C5
330
1F
100
AcDbEntity
  8
0
  6
PHANTOM
 62
     8
370
     0
100
AcDbCircle
 10
-611.570963833
 20
-72.270519494
 30
0.0
 40
4.962474452069148
100
AcDbArc
 50
256.8054030926
 51
346.7986963405
  0
ARC
  5
7C6
330
1F
100
AcDbEntity
  8
0
  6
PHANTOM
 62
     8
370
     0
100
AcDbCircle
 10
-630.3587582429
 20
-155.2358566631
 30
0.0
 40
4.962474452069149
100
AcDbArc
 50
256.8054030926
 51
346.7986963405
  0
ARC
  5
7C7
330
1F
100
AcDbEntity
  8
0
  6
PHANTOM
 62
     8
370
     0
100
AcDbCircle
 10
-737.7158180302
 20
-130.924470287
 30
0.0
 40
4.962474452069298
100
AcDbArc
 50
167.6820485108
 51
257.6753417588
  0
ARC
  5
7C8
330
1F
100
AcDbEntity
  8
0
  6
PHANTOM
 62
     8
370
     0
100
AcDbCircle
 10
-475.9678937882
 20
-96.3081816742
 30
0.0
 40
4.962474452069235
100
AcDbArc
 50
259.4247963491
 51
349.418089597
  0
ARC
  5
7C9
330
1F
100
AcDbEntity
  8
0
  6
PHANTOM
 62
     8
370
     0
100
AcDbCircle
 10
-584.3238398625
 20
-76.9285339981
 30
0.0
 40
4.962474452071369
100
AcDbArc
 50
170.3014417686
 51
260.2947350152
  0
ARC
  5
7CA
330
1F
100
AcDbEntity
  8
0
  6
PHANTOM
 62
     8
370
     0
100
AcDbCircle
 10
-599.3003957299
 20
-160.6658086416
 30
0.0
 40
4.962474452069219
100
AcDbArc
 50
170.3014417673
 51
260.2947350152
  0
ARC
  5
7CB
330
1F
100
AcDbEntity
  8
0
  6
PHANTOM
 62
     8
370
     0
100
AcDbCircle
 10
-490.9444496556
 20
-180.0454563177
 30
0.0
 40
4.962474452069115
100
AcDbArc
 50
259.4247963491
 51
349.418089597
  0
ENDSEC
  0
SECTION
  2
OBJECTS
  0
DICTIONARY
  5
C
330
0
100
AcDbDictionary
281
     1
  3
ACAD_GROUP
350
D
  3
ACAD_LAYOUT
350
1A
  3
ACAD_MLINESTYLE
350
17
  3
ACAD_PLOTSETTINGS
350
19
  3
ACAD_PLOTSTYLENAME
350
E
  3
ACAD_SCALELIST
350
47
  0
DICTIONARY
  5
D
102
{ACAD_REACTORS
330
C
102
}
330
C
100
AcDbDictionary
281
     1
  0
DICTIONARY
  5
1A
102
{ACAD_REACTORS
330
C
102
}
330
C
100
AcDbDictionary
281
     1
  3
Layout1
350
1E
  3
Layout2
350
26
  3
Model
350
22
  0
DICTIONARY
  5
17
102
{ACAD_REACTORS
330
C
102
}
330
C
100
AcDbDictionary
281
     1
  3
Standard
350
18
  0
DICTIONARY
  5
19
102
{ACAD_REACTORS
330
C
102
}
330
C
100
AcDbDictionary
281
     1
  0
ACDBDICTIONARYWDFLT
  5
E
102
{ACAD_REACTORS
330
C
102
}
330
C
100
AcDbDictionary
281
     1
  3
Normal
350
F
100
AcDbDictionaryWithDefault
340
F
  0
DICTIONARY
  5
47
102
{ACAD_REACTORS
330
C
102
}
330
C
100
AcDbDictionary
281
     1
  3
A0
350
48
  3
A1
350
49
  3
A2
350
4A
  3
A3
350
4B
  3
A4
350
4C
  3
A5
350
4D
  3
A6
350
4E
  3
A7
350
4F
  3
A8
350
50
  3
A9
350
51
  3
B0
350
52
  3
B1
350
53
  3
B2
350
54
  3
B3
350
55
  3
B4
350
56
  3
B5
350
57
  3
B6
350
58
  3
B7
350
59
  3
B8
350
5A
  3
B9
350
5B
  3
C0
350
5C
  3
C1
350
5D
  3
C2
350
5E
  3
C3
350
5F
  3
C4
350
60
  3
C5
350
61
  3
C6
350
62
  3
C7
350
63
  3
C8
350
64
  3
C9
350
65
  3
D0
350
66
  3
D1
350
67
  3
D2
350
68
  0
LAYOUT
  5
1E
102
{ACAD_REACTORS
330
1A
102
}
330
1A
100
AcDbPlotSettings
  1

  2
none_device
  4

  6

 40
0.0
 41
0.0
 42
0.0
 43
0.0
 44
0.0
 45
0.0
 46
0.0
 47
0.0
 48
0.0
 49
0.0
140
0.0
141
0.0
142
1.0
143
1.0
 70
   688
 72
     1
 73
     0
 74
     5
  7

 75
    16
147
1.0
148
0.0
149
0.0
100
AcDbLayout
  1
Layout1
 70
     1
 71
     1
 10
0.0
 20
0.0
 11
420.0
 21
297.0
 12
0.0
 22
0.0
 32
0.0
 14
1.0000000000E+20
 24
1.0000000000E+20
 34
1.0000000000E+20
 15
-1.0000000000E+20
 25
-1.0000000000E+20
 35
-1.0000000000E+20
146
0.0
 13
0.0
 23
0.0
 33
0.0
 16
1.0
 26
0.0
 36
0.0
 17
0.0
 27
1.0
 37
0.0
 76
     0
330
1B
  0
LAYOUT
  5
26
102
{ACAD_REACTORS
330
1A
102
}
330
1A
100
AcDbPlotSettings
  1

  2
none_device
  4

  6

 40
0.0
 41
0.0
 42
0.0
 43
0.0
 44
0.0
 45
0.0
 46
0.0
 47
0.0
 48
0.0
 49
0.0
140
0.0
141
0.0
142
1.0
143
1.0
 70
   688
 72
     1
 73
     0
 74
     5
  7

 75
    16
147
1.0
148
0.0
149
0.0
100
AcDbLayout
  1
Layout2
 70
     1
 71
     2
 10
0.0
 20
0.0
 11
0.0
 21
0.0
 12
0.0
 22
0.0
 32
0.0
 14
0.0
 24
0.0
 34
0.0
 15
0.0
 25
0.0
 35
0.0
146
0.0
 13
0.0
 23
0.0
 33
0.0
 16
1.0
 26
0.0
 36
0.0
 17
0.0
 27
1.0
 37
0.0
 76
     0
330
23
  0
LAYOUT
  5
22
102
{ACAD_REACTORS
330
1A
102
}
330
1A
100
AcDbPlotSettings
  1

  2
none_device
  4
ANSI_A_(11.00_x_8.50_Inches)
  6

 40
6.35
 41
19.05
 42
6.35000508
 43
19.05000254
 44
279.4
 45
215.9
 46
133.3500147678
 47
106.5840728977
 48
0.0
 49
0.0
140
0.0
141
0.0
142
0.0034131307
143
1.0
 70
  1696
 72
     0
 73
     0
 74
     0
  7

 75
     0
147
0.0179189148
148
-1300.4909072572
149
0.0
100
AcDbLayout
  1
Model
 70
     1
 71
     0
 10
0.0
 20
0.0
 11
420.0
 21
297.0
 12
0.0
 22
0.0
 32
0.0
 14
-1595.3097662415
 24
-639.6093806431
 34
0.0
 15
1595.3093669547
 25
231.6417632215
 35
0.0
146
0.0
 13
0.0
 23
0.0
 33
0.0
 16
1.0
 26
0.0
 36
0.0
 17
0.0
 27
1.0
 37
0.0
 76
     0
330
1F
331
29
  0
MLINESTYLE
  5
18
102
{ACAD_REACTORS
330
17
102
}
330
17
100
AcDbMlineStyle
  2
Standard
 70
     0
  3

 62
   256
 51
90.0
 52
90.0
 71
     2
 49
0.5
 62
   256
  6
BYLAYER
 49
-0.5
 62
   256
  6
BYLAYER
  0
ACDBPLACEHOLDER
  5
F
102
{ACAD_REACTORS
330
E
102
}
330
E
  0
SCALE
  5
48
102
{ACAD_REACTORS
330
47
102
}
330
47
100
AcDbScale
 70
     0
300
1:1
140
1.0
141
1.0
290
     1
  0
SCALE
  5
49
102
{ACAD_REACTORS
330
47
102
}
330
47
100
AcDbScale
 70
     0
300
1:2
140
1.0
141
2.0
290
     0
  0
SCALE
  5
4A
102
{ACAD_REACTORS
330
47
102
}
330
47
100
AcDbScale
 70
     0
300
1:4
140
1.0
141
4.0
290
     0
  0
SCALE
  5
4B
102
{ACAD_REACTORS
330
47
102
}
330
47
100
AcDbScale
 70
     0
300
1:5
140
1.0
141
5.0
290
     0
  0
SCALE
  5
4C
102
{ACAD_REACTORS
330
47
102
}
330
47
100
AcDbScale
 70
     0
300
1:8
140
1.0
141
8.0
290
     0
  0
SCALE
  5
4D
102
{ACAD_REACTORS
330
47
102
}
330
47
100
AcDbScale
 70
     0
300
1:10
140
1.0
141
10.0
290
     0
  0
SCALE
  5
4E
102
{ACAD_REACTORS
330
47
102
}
330
47
100
AcDbScale
 70
     0
300
1:16
140
1.0
141
16.0
290
     0
  0
SCALE
  5
4F
102
{ACAD_REACTORS
330
47
102
}
330
47
100
AcDbScale
 70
     0
300
1:20
140
1.0
141
20.0
290
     0
  0
SCALE
  5
50
102
{ACAD_REACTORS
330
47
102
}
330
47
100
AcDbScale
 70
     0
300
1:30
140
1.0
141
30.0
290
     0
  0
SCALE
  5
51
102
{ACAD_REACTORS
330
47
102
}
330
47
100
AcDbScale
 70
     0
300
1:40
140
1.0
141
40.0
290
     0
  0
SCALE
  5
52
102
{ACAD_REACTORS
330
47
102
}
330
47
100
AcDbScale
 70
     0
300
1:50
140
1.0
141
50.0
290
     0
  0
SCALE
  5
53
102
{ACAD_REACTORS
330
47
102
}
330
47
100
AcDbScale
 70
     0
300
1:100
140
1.0
141
100.0
290
     0
  0
SCALE
  5
54
102
{ACAD_REACTORS
330
47
102
}
330
47
100
AcDbScale
 70
     0
300
2:1
140
2.0
141
1.0
290
     0
  0
SCALE
  5
55
102
{ACAD_REACTORS
330
47
102
}
330
47
100
AcDbScale
 70
     0
300
4:1
140
4.0
141
1.0
290
     0
  0
SCALE
  5
56
102
{ACAD_REACTORS
330
47
102
}
330
47
100
AcDbScale
 70
     0
300
8:1
140
8.0
141
1.0
290
     0
  0
SCALE
  5
57
102
{ACAD_REACTORS
330
47
102
}
330
47
100
AcDbScale
 70
     0
300
10:1
140
10.0
141
1.0
290
     0
  0
SCALE
  5
58
102
{ACAD_REACTORS
330
47
102
}
330
47
100
AcDbScale
 70
     0
300
100:1
140
100.0
141
1.0
290
     0
  0
SCALE
  5
59
102
{ACAD_REACTORS
330
47
102
}
330
47
100
AcDbScale
 70
     0
300
1/128" = 1'-0"
140
0.0078125
141
12.0
290
     0
  0
SCALE
  5
5A
102
{ACAD_REACTORS
330
47
102
}
330
47
100
AcDbScale
 70
     0
300
1/64" = 1'-0"
140
0.015625
141
12.0
290
     0
  0
SCALE
  5
5B
102
{ACAD_REACTORS
330
47
102
}
330
47
100
AcDbScale
 70
     0
300
1/32" = 1'-0"
140
0.03125
141
12.0
290
     0
  0
SCALE
  5
5C
102
{ACAD_REACTORS
330
47
102
}
330
47
100
AcDbScale
 70
     0
300
1/16" = 1'-0"
140
0.0625
141
12.0
290
     0
  0
SCALE
  5
5D
102
{ACAD_REACTORS
330
47
102
}
330
47
100
AcDbScale
 70
     0
300
3/32" = 1'-0"
140
0.09375
141
12.0
290
     0
  0
SCALE
  5
5E
102
{ACAD_REACTORS
330
47
102
}
330
47
100
AcDbScale
 70
     0
300
1/8" = 1'-0"
140
0.125
141
12.0
290
     0
  0
SCALE
  5
5F
102
{ACAD_REACTORS
330
47
102
}
330
47
100
AcDbScale
 70
     0
300
3/16" = 1'-0"
140
0.1875
141
12.0
290
     0
  0
SCALE
  5
60
102
{ACAD_REACTORS
330
47
102
}
330
47
100
AcDbScale
 70
     0
300
1/4" = 1'-0"
140
0.25
141
12.0
290
     0
  0
SCALE
  5
61
102
{ACAD_REACTORS
330
47
102
}
330
47
100
AcDbScale
 70
     0
300
3/8" = 1'-0"
140
0.375
141
12.0
290
     0
  0
SCALE
  5
62
102
{ACAD_REACTORS
330
47
102
}
330
47
100
AcDbScale
 70
     0
300
1/2" = 1'-0"
140
0.5
141
12.0
290
     0
  0
SCALE
  5
63
102
{ACAD_REACTORS
330
47
102
}
330
47
100
AcDbScale
 70
     0
300
3/4" = 1'-0"
140
0.75
141
12.0
290
     0
  0
SCALE
  5
64
102
{ACAD_REACTORS
330
47
102
}
330
47
100
AcDbScale
 70
     0
300
1" = 1'-0"
140
1.0
141
12.0
290
     0
  0
SCALE
  5
65
102
{ACAD_REACTORS
330
47
102
}
330
47
100
AcDbScale
 70
     0
300
1-1/2" = 1'-0"
140
1.5
141
12.0
290
     0
  0
SCALE
  5
66
102
{ACAD_REACTORS
330
47
102
}
330
47
100
AcDbScale
 70
     0
300
3" = 1'-0"
140
3.0
141
12.0
290
     0
  0
SCALE
  5
67
102
{ACAD_REACTORS
330
47
102
}
330
47
100
AcDbScale
 70
     0
300
6" = 1'-0"
140
6.0
141
12.0
290
     0
  0
SCALE
  5
68
102
{ACAD_REACTORS
330
47
102
}
330
47
100
AcDbScale
 70
     0
300
1'-0" = 1'-0"
140
12.0
141
12.0
290
     0
  0
ENDSEC
  0
EOF
