  0
SECTION
  2
HEADER
  9
$ACADVER
  1
AC1015
  9
$ACADMAINTVER
 70
     6
  9
$DWGCODEPAGE
  3
ANSI_1251
  9
$INSBASE
 10
0.0
 20
0.0
 30
0.0
  9
$EXTMIN
 10
0.0
 20
0.0
 30
0.0
  9
$EXTMAX
 10
420.0
 20
297.0
 30
0.0
  9
$LIMMIN
 10
0.0
 20
0.0
  9
$LIMMAX
 10
420.0
 20
297.0
  9
$ORTHOMODE
 70
     0
  9
$REGENMODE
 70
     1
  9
$FILLMODE
 70
     1
  9
$QTEXTMODE
 70
     0
  9
$MIRRTEXT
 70
     1
  9
$LTSCALE
 40
1.0
  9
$ATTMODE
 70
     1
  9
$TEXTSIZE
 40
3.0
  9
$TRACEWID
 40
1.0
  9
$TEXTSTYLE
  7
Standard
  9
$CLAYER
  8
0
  9
$CELTYPE
  6
ByLayer
  9
$CECOLOR
 62
   256
  9
$CELTSCALE
 40
1.0
  9
$DISPSILH
 70
     0
  9
$DIMSCALE
 40
1.0
  9
$DIMASZ
 40
3.0
  9
$DIMEXO
 40
0.0
  9
$DIMDLI
 40
3.75
  9
$DIMRND
 40
0.0
  9
$DIMDLE
 40
0.0
  9
$DIMEXE
 40
1.0
  9
$DIMTP
 40
0.0
  9
$DIMTM
 40
0.0
  9
$DIMTXT
 40
3.0
  9
$DIMCEN
 40
2.5
  9
$DIMTSZ
 40
0.0
  9
$DIMTOL
 70
     0
  9
$DIMLIM
 70
     0
  9
$DIMTIH
 70
     1
  9
$DIMTOH
 70
     1
  9
$DIMSE1
 70
     0
  9
$DIMSE2
 70
     0
  9
$DIMTAD
 70
     1
  9
$DIMZIN
 70
     0
  9
$DIMBLK
  1

  9
$DIMASO
 70
     1
  9
$DIMSHO
 70
     1
  9
$DIMPOST
  1

  9
$DIMAPOST
  1

  9
$DIMALT
 70
     0
  9
$DIMALTD
 70
     3
  9
$DIMALTF
 40
0.0393700787
  9
$DIMLFAC
 40
1.0
  9
$DIMTOFL
 70
     1
  9
$DIMTVP
 40
0.0
  9
$DIMTIX
 70
     0
  9
$DIMSOXD
 70
     0
  9
$DIMSAH
 70
     0
  9
$DIMBLK1
  1

  9
$DIMBLK2
  1

  9
$DIMSTYLE
  2
ISO-25
  9
$DIMCLRD
 70
     0
  9
$DIMCLRE
 70
     0
  9
$DIMCLRT
 70
     0
  9
$DIMTFAC
 40
1.0
  9
$DIMGAP
 40
1.524
  9
$DIMJUST
 70
     0
  9
$DIMSD1
 70
     0
  9
$DIMSD2
 70
     0
  9
$DIMTOLJ
 70
     0
  9
$DIMTZIN
 70
     0
  9
$DIMALTZ
 70
     0
  9
$DIMALTTZ
 70
     0
  9
$DIMUPT
 70
     0
  9
$DIMDEC
 70
     1
  9
$DIMTDEC
 70
     2
  9
$DIMALTU
 70
     2
  9
$DIMALTTD
 70
     3
  9
$DIMTXSTY
  7
Standard
  9
$DIMAUNIT
 70
     0
  9
$DIMADEC
 70
     2
  9
$DIMALTRND
 40
0.0
  9
$DIMAZIN
 70
     0
  9
$DIMDSEP
 70
    44
  9
$DIMATFIT
 70
     3
  9
$DIMFRAC
 70
     0
  9
$DIMLDRBLK
  1

  9
$DIMLUNIT
 70
     2
  9
$DIMLWD
 70
    -2
  9
$DIMLWE
 70
    -2
  9
$DIMTMOVE
 70
     0
  9
$LUNITS
 70
     2
  9
$LUPREC
 70
     2
  9
$SKETCHINC
 40
1.0
  9
$FILLETRAD
 40
10.0
  9
$AUNITS
 70
     1
  9
$AUPREC
 70
     2
  9
$MENU
  1
.
  9
$ELEVATION
 40
0.0
  9
$PELEVATION
 40
0.0
  9
$THICKNESS
 40
0.0
  9
$LIMCHECK
 70
     0
  9
$CHAMFERA
 40
0.0
  9
$CHAMFERB
 40
0.0
  9
$CHAMFERC
 40
0.0
  9
$CHAMFERD
 40
0.0
  9
$SKPOLY
 70
     0
  9
$TDCREATE
 40
2459758.352643055
  9
$TDUCREATE
 40
2459758.227643055
  9
$TDUPDATE
 40
2459758.352643252
  9
$TDUUPDATE
 40
2459758.227643252
  9
$TDINDWG
 40
0.0000000116
  9
$TDUSRTIMER
 40
0.0000000116
  9
$USRTIMER
 70
     1
  9
$ANGBASE
 50
0.0
  9
$ANGDIR
 70
     0
  9
$PDMODE
 70
     0
  9
$PDSIZE
 40
-1.0
  9
$PLINEWID
 40
0.0
  9
$SPLFRAME
 70
     0
  9
$SPLINETYPE
 70
     6
  9
$SPLINESEGS
 70
     8
  9
$HANDSEED
  5
277
  9
$SURFTAB1
 70
     6
  9
$SURFTAB2
 70
     6
  9
$SURFTYPE
 70
     6
  9
$SURFU
 70
     6
  9
$SURFV
 70
     6
  9
$UCSBASE
  2

  9
$UCSNAME
  2

  9
$UCSORG
 10
0.0
 20
0.0
 30
0.0
  9
$UCSXDIR
 10
1.0
 20
0.0
 30
0.0
  9
$UCSYDIR
 10
0.0
 20
1.0
 30
0.0
  9
$UCSORTHOREF
  2

  9
$UCSORTHOVIEW
 70
     0
  9
$UCSORGTOP
 10
0.0
 20
0.0
 30
0.0
  9
$UCSORGBOTTOM
 10
0.0
 20
0.0
 30
0.0
  9
$UCSORGLEFT
 10
0.0
 20
0.0
 30
0.0
  9
$UCSORGRIGHT
 10
0.0
 20
0.0
 30
0.0
  9
$UCSORGFRONT
 10
0.0
 20
0.0
 30
0.0
  9
$UCSORGBACK
 10
0.0
 20
0.0
 30
0.0
  9
$PUCSBASE
  2

  9
$PUCSNAME
  2

  9
$PUCSORG
 10
0.0
 20
0.0
 30
0.0
  9
$PUCSXDIR
 10
1.0
 20
0.0
 30
0.0
  9
$PUCSYDIR
 10
0.0
 20
1.0
 30
0.0
  9
$PUCSORTHOREF
  2

  9
$PUCSORTHOVIEW
 70
     0
  9
$PUCSORGTOP
 10
0.0
 20
0.0
 30
0.0
  9
$PUCSORGBOTTOM
 10
0.0
 20
0.0
 30
0.0
  9
$PUCSORGLEFT
 10
0.0
 20
0.0
 30
0.0
  9
$PUCSORGRIGHT
 10
0.0
 20
0.0
 30
0.0
  9
$PUCSORGFRONT
 10
0.0
 20
0.0
 30
0.0
  9
$PUCSORGBACK
 10
0.0
 20
0.0
 30
0.0
  9
$USERI1
 70
     0
  9
$USERI2
 70
     0
  9
$USERI3
 70
     0
  9
$USERI4
 70
     0
  9
$USERI5
 70
     0
  9
$USERR1
 40
0.0
  9
$USERR2
 40
0.0
  9
$USERR3
 40
0.0
  9
$USERR4
 40
0.0
  9
$USERR5
 40
0.0
  9
$WORLDVIEW
 70
     1
  9
$SHADEDGE
 70
     3
  9
$SHADEDIF
 70
    70
  9
$TILEMODE
 70
     1
  9
$MAXACTVP
 70
    64
  9
$PINSBASE
 10
0.0
 20
0.0
 30
0.0
  9
$PLIMCHECK
 70
     0
  9
$PEXTMIN
 10
1.0000000000E+20
 20
1.0000000000E+20
 30
1.0000000000E+20
  9
$PEXTMAX
 10
-1.0000000000E+20
 20
-1.0000000000E+20
 30
-1.0000000000E+20
  9
$PLIMMIN
 10
0.0
 20
0.0
  9
$PLIMMAX
 10
420.0
 20
297.0
  9
$UNITMODE
 70
     0
  9
$VISRETAIN
 70
     1
  9
$PLINEGEN
 70
     0
  9
$PSLTSCALE
 70
     1
  9
$TREEDEPTH
 70
  3020
  9
$CMLSTYLE
  2
Standard
  9
$CMLJUST
 70
     0
  9
$CMLSCALE
 40
20.0
  9
$PROXYGRAPHICS
 70
     1
  9
$MEASUREMENT
 70
     1
  9
$CELWEIGHT
370
    -1
  9
$ENDCAPS
280
     0
  9
$JOINSTYLE
280
     0
  9
$LWDISPLAY
290
     1
  9
$INSUNITS
 70
     4
  9
$HYPERLINKBASE
  1

  9
$STYLESHEET
  1

  9
$XEDIT
290
     1
  9
$CEPSNTYPE
380
     0
  9
$PSTYLEMODE
290
     1
  9
$FINGERPRINTGUID
  2
{2A089511-5776-414F-A7D3-EF99A87459F1}
  9
$VERSIONGUID
  2
{FAEB1C32-E019-11D5-929B-00C0DF256EC4}
  9
$EXTNAMES
290
     1
  9
$PSVPSCALE
 40
0.0
  9
$OLESTARTUP
290
     0
  0
ENDSEC
  0
SECTION
  2
CLASSES
  0
CLASS
  1
ACDBDICTIONARYWDFLT
  2
AcDbDictionaryWithDefault
  3
ObjectDBX Classes
 90
        0
280
     0
281
     0
  0
CLASS
  1
VISUALSTYLE
  2
AcDbVisualStyle
  3
ObjectDBX Classes
 90
     4095
280
     0
281
     0
  0
CLASS
  1
MATERIAL
  2
AcDbMaterial
  3
ObjectDBX Classes
 90
     1153
280
     0
281
     0
  0
CLASS
  1
SCALE
  2
AcDbScale
  3
ObjectDBX Classes
 90
     1153
280
     0
281
     0
  0
CLASS
  1
SUN
  2
AcDbSun
  3
SCENEOE
 90
     1153
280
     0
281
     0
  0
CLASS
  1
ACDBPLACEHOLDER
  2
AcDbPlaceHolder
  3
ObjectDBX Classes
 90
        0
280
     0
281
     0
  0
CLASS
  1
LAYOUT
  2
AcDbLayout
  3
ObjectDBX Classes
 90
        0
280
     0
281
     0
  0
ENDSEC
  0
SECTION
  2
TABLES
  0
TABLE
  2
VPORT
  5
8
330
0
100
AcDbSymbolTable
 70
     1
  0
VPORT
  5
29
330
8
100
AcDbSymbolTableRecord
100
AcDbViewportTableRecord
  2
*Active
 70
     0
 10
0.0
 20
0.0
 11
1.0
 21
1.0
 12
210.0
 22
148.5
 13
0.0
 23
0.0
 14
10.0
 24
10.0
 15
10.0
 25
10.0
 16
0.0
 26
0.0
 36
1.0
 17
0.0
 27
0.0
 37
0.0
 40
297.0
 41
1.4141414141
 42
50.0
 43
0.0
 44
0.0
 50
0.0
 51
0.0
 71
     0
 72
  2000
 73
     1
 74
     3
 75
     0
 76
     0
 77
     0
 78
     0
281
     0
 65
     1
110
0.0
120
0.0
130
0.0
111
1.0
121
0.0
131
0.0
112
0.0
122
1.0
132
0.0
 79
     0
146
0.0
  0
ENDTAB
  0
TABLE
  2
LTYPE
  5
5
330
0
100
AcDbSymbolTable
 70
     6
  0
LTYPE
  5
14
330
5
100
AcDbSymbolTableRecord
100
AcDbLinetypeTableRecord
  2
ByBlock
 70
     0
  3

 72
    65
 73
     0
 40
0.0
  0
LTYPE
  5
15
330
5
100
AcDbSymbolTableRecord
100
AcDbLinetypeTableRecord
  2
ByLayer
 70
     0
  3

 72
    65
 73
     0
 40
0.0
  0
LTYPE
  5
16
330
5
100
AcDbSymbolTableRecord
100
AcDbLinetypeTableRecord
  2
Continuous
 70
     0
  3
Solid line
 72
    65
 73
     0
 40
0.0
  0
LTYPE
  5
6A
330
5
100
AcDbSymbolTableRecord
100
AcDbLinetypeTableRecord
  2
HIDDEN
 70
     0
  3
Hidden __ __ __ __ __ __ __ __ __ __ __ __ __ __
 72
    65
 73
     2
 40
1.905
 49
1.27
 74
     0
 49
-0.635
 74
     0
  0
LTYPE
  5
6B
330
5
100
AcDbSymbolTableRecord
100
AcDbLinetypeTableRecord
  2
PHANTOM
 70
     0
  3
Phantom ______  __  __  ______  __  __  ______
 72
    65
 73
     6
 40
12.7
 49
6.35
 74
     0
 49
-1.27
 74
     0
 49
1.27
 74
     0
 49
-1.27
 74
     0
 49
1.27
 74
     0
 49
-1.27
 74
     0
  0
LTYPE
  5
6C
330
5
100
AcDbSymbolTableRecord
100
AcDbLinetypeTableRecord
  2
CENTER
 70
     0
  3
Center ____ _ ____ _ ____ _ ____ _ ____ _ ____
 72
    65
 73
     4
 40
10.16
 49
6.35
 74
     0
 49
-1.27
 74
     0
 49
1.27
 74
     0
 49
-1.27
 74
     0
  0
LTYPE
  5
6D
330
5
100
AcDbSymbolTableRecord
100
AcDbLinetypeTableRecord
  2
CENTERX2
 70
     0
  3
Center (2x) ________  __  ________  __  _____
 72
    65
 73
     4
 40
20.32
 49
12.7
 74
     0
 49
-2.54
 74
     0
 49
2.54
 74
     0
 49
-2.54
 74
     0
  0
LTYPE
  5
6E
330
5
100
AcDbSymbolTableRecord
100
AcDbLinetypeTableRecord
  2
DOT2
 70
     0
  3
Dot (.5x) ........................................
 72
    65
 73
     2
 40
0.635
 49
0.0
 74
     0
 49
-0.635
 74
     0
  0
ENDTAB
  0
TABLE
  2
LAYER
  5
2
330
0
100
AcDbSymbolTable
 70
     5
  0
LAYER
  5
10
330
2
100
AcDbSymbolTableRecord
100
AcDbLayerTableRecord
  2
0
 70
     0
 62
     7
  6
Continuous
370
    -3
390
F
  0
LAYER
  5
6F
330
2
100
AcDbSymbolTableRecord
100
AcDbLayerTableRecord
  2
К
 70
     0
 62
     1
  6
Continuous
370
    -3
390
F
  0
LAYER
  5
70
330
2
100
AcDbSymbolTableRecord
100
AcDbLayerTableRecord
  2
С
 70
     0
 62
     5
  6
Continuous
370
    -3
390
F
  0
LAYER
  5
71
330
2
100
AcDbSymbolTableRecord
100
AcDbLayerTableRecord
  2
Р
 70
     0
 62
    42
  6
Continuous
370
    -3
390
F
  0
LAYER
  5
72
330
2
100
AcDbSymbolTableRecord
100
AcDbLayerTableRecord
  2
FORMAT
 70
     0
 62
     7
  6
Continuous
370
    -3
390
F
  0
ENDTAB
  0
TABLE
  2
STYLE
  5
3
330
0
100
AcDbSymbolTable
 70
     1
  0
STYLE
  5
11
330
3
100
AcDbSymbolTableRecord
100
AcDbTextStyleTableRecord
  2
Standard
 70
     0
 40
0.0
 41
1.0
 50
0.0
 71
     0
 42
3.0
  3
txt
  4

  0
ENDTAB
  0
TABLE
  2
VIEW
  5
6
330
0
100
AcDbSymbolTable
 70
     0
  0
ENDTAB
  0
TABLE
  2
UCS
  5
7
330
0
100
AcDbSymbolTable
 70
     0
  0
ENDTAB
  0
TABLE
  2
APPID
  5
9
330
0
100
AcDbSymbolTable
 70
     1
  0
APPID
  5
12
330
9
100
AcDbSymbolTableRecord
100
AcDbRegAppTableRecord
  2
ACAD
 70
     0
  0
ENDTAB
  0
TABLE
  2
DIMSTYLE
  5
A
330
0
100
AcDbSymbolTable
 70
     1
100
AcDbDimStyleTable
  0
DIMSTYLE
105
27
330
A
100
AcDbSymbolTableRecord
100
AcDbDimStyleTableRecord
  2
ISO-25
 70
     0
 41
2.5
 42
0.625
 43
3.75
 44
1.25
 73
     0
 74
     0
 77
     1
 78
     8
140
2.5
141
2.5
143
0.0393700787
147
0.625
171
     3
172
     1
178
     0
271
     2
272
     2
274
     3
278
    44
283
     0
284
     8
340
11
  0
ENDTAB
  0
TABLE
  2
BLOCK_RECORD
  5
1
330
0
100
AcDbSymbolTable
 70
     1
  0
BLOCK_RECORD
  5
1F
330
1
100
AcDbSymbolTableRecord
100
AcDbBlockTableRecord
  2
*Model_Space
340
22
  0
BLOCK_RECORD
  5
1B
330
1
100
AcDbSymbolTableRecord
100
AcDbBlockTableRecord
  2
*Paper_Space
340
1E
  0
BLOCK_RECORD
  5
23
330
1
100
AcDbSymbolTableRecord
100
AcDbBlockTableRecord
  2
*Paper_Space0
340
26
  0
ENDTAB
  0
ENDSEC
  0
SECTION
  2
BLOCKS
  0
BLOCK
  5
20
330
1F
100
AcDbEntity
  8
0
100
AcDbBlockBegin
  2
*Model_Space
 70
     0
 10
0.0
 20
0.0
 30
0.0
  3
*Model_Space
  1
*Model_Space
  0
ENDBLK
  5
21
330
1F
100
AcDbEntity
  8
0
100
AcDbBlockEnd
  0
BLOCK
  5
1C
330
1B
100
AcDbEntity
 67
     1
  8
0
100
AcDbBlockBegin
  2
*Paper_Space
 70
     0
 10
0.0
 20
0.0
 30
0.0
  3
*Paper_Space
  1
*Paper_Space
  0
ENDBLK
  5
1D
330
1B
100
AcDbEntity
 67
     1
  8
0
100
AcDbBlockEnd
  0
BLOCK
  5
24
330
23
100
AcDbEntity
  8
0
100
AcDbBlockBegin
  2
*Paper_Space0
 70
     0
 10
0.0
 20
0.0
 30
0.0
  3
*Paper_Space0
  1
*Paper_Space0
  0
ENDBLK
  5
25
330
23
100
AcDbEntity
  8
0
100
AcDbBlockEnd
  0
ENDSEC
  0
SECTION
  2
ENTITIES
  0
LINE
  5
73
330
1F
100
AcDbEntity
  8
0
  6
Continuous
 62
     7
370
    15
100
AcDbLine
 10
697.906566125
 20
177.952465641
 30
0.0
 11
697.906566125
 21
177.6418844635
 31
0.0
  0
LINE
  5
74
330
1F
100
AcDbEntity
  8
0
  6
Continuous
 62
     7
370
    15
100
AcDbLine
 10
699.2915098487
 20
111.0348003383
 30
0.0
 11
699.2915098487
 21
111.3453815157
 31
0.0
  0
LINE
  5
75
330
1F
100
AcDbEntity
  8
0
  6
Continuous
 62
     7
370
    15
100
AcDbLine
 10
691.9769172488
 20
113.3053200717
 30
0.0
 11
691.9769172488
 21
112.9947351689
 31
0.0
  0
LINE
  5
76
330
1F
100
AcDbEntity
  8
0
  6
Continuous
 62
     7
370
    15
100
AcDbLine
 10
690.3232459842
 20
137.6791783075
 30
0.0
 11
690.3232459842
 21
138.6791784714
 31
0.0
  0
LINE
  5
77
330
1F
100
AcDbEntity
  8
0
  6
Continuous
 62
     7
370
    15
100
AcDbLine
 10
681.823236209
 20
138.6791784714
 30
0.0
 11
681.823236209
 21
137.6791783075
 31
0.0
  0
LINE
  5
78
330
1F
100
AcDbEntity
  8
0
  6
Continuous
 62
     7
370
    15
100
AcDbLine
 10
681.823236209
 20
151.6791787396
 30
0.0
 11
681.823236209
 21
150.6791785757
 31
0.0
  0
LINE
  5
79
330
1F
100
AcDbEntity
  8
0
  6
Continuous
 62
     7
370
    15
100
AcDbLine
 10
690.3232459842
 20
150.6791785757
 30
0.0
 11
690.3232459842
 21
151.6791787396
 31
0.0
  0
LINE
  5
7A
330
1F
100
AcDbEntity
  8
0
  6
Continuous
 62
     7
370
    15
100
AcDbLine
 10
811.5732495604
 20
143.929178517
 30
0.0
 11
811.5732495604
 21
145.42917853
 31
0.0
  0
LINE
  5
7B
330
1F
100
AcDbEntity
  8
0
  6
Continuous
 62
     7
370
    15
100
AcDbLine
 10
803.573233348
 20
145.42917853
 30
0.0
 11
803.573233348
 21
143.929178517
 31
0.0
  0
LINE
  5
7C
330
1F
100
AcDbEntity
  8
0
  6
Continuous
 62
     7
370
    15
100
AcDbLine
 10
729.0732388316
 20
137.6791783075
 30
0.0
 11
729.0732388316
 21
138.6791784714
 31
0.0
  0
LINE
  5
7D
330
1F
100
AcDbEntity
  8
0
  6
Continuous
 62
     7
370
    15
100
AcDbLine
 10
729.0732388316
 20
150.6791785757
 30
0.0
 11
729.0732388316
 21
151.6791787396
 31
0.0
  0
LINE
  5
7E
330
1F
100
AcDbEntity
  8
0
  6
Continuous
 62
     7
370
    15
100
AcDbLine
 10
721.0732524215
 20
151.6791787396
 30
0.0
 11
721.0732524215
 21
150.6791785757
 31
0.0
  0
LINE
  5
7F
330
1F
100
AcDbEntity
  8
0
  6
Continuous
 62
     7
370
    15
100
AcDbLine
 10
721.0732524215
 20
138.6791784714
 30
0.0
 11
721.0732524215
 21
137.6791783075
 31
0.0
  0
LINE
  5
80
330
1F
100
AcDbEntity
  8
0
  6
Continuous
 62
     7
370
    15
100
AcDbLine
 10
691.8872718631
 20
113.3293444688
 30
0.0
 11
691.8872718631
 21
113.0187595661
 31
0.0
  0
LINE
  5
81
330
1F
100
AcDbEntity
  8
0
  6
Continuous
 62
     7
370
    15
100
AcDbLine
 10
691.8872718631
 20
176.339597481
 30
0.0
 11
691.8872718631
 21
176.0290125782
 31
0.0
  0
LINE
  5
82
330
1F
100
AcDbEntity
  8
0
  6
Continuous
 62
     7
370
    15
100
AcDbLine
 10
-222.7600689115
 20
111.405891406
 30
0.0
 11
-222.7600689115
 21
111.7164725835
 31
0.0
  0
LINE
  5
83
330
1F
100
AcDbEntity
  8
0
  6
Continuous
 62
     7
370
    15
100
AcDbLine
 10
-224.1450126352
 20
178.3235567088
 30
0.0
 11
-224.1450126352
 21
178.0129755313
 31
0.0
  0
LINE
  5
84
330
1F
100
AcDbEntity
  8
0
  6
Continuous
 62
     7
370
    15
100
AcDbLine
 10
-216.8304200353
 20
176.0530369754
 30
0.0
 11
-216.8304200353
 21
176.3636218781
 31
0.0
  0
LINE
  5
85
330
1F
100
AcDbEntity
  8
0
  6
Continuous
 62
     7
370
    15
100
AcDbLine
 10
-215.1767487706
 20
151.6791787396
 30
0.0
 11
-215.1767487706
 21
150.6791785757
 31
0.0
  0
LINE
  5
86
330
1F
100
AcDbEntity
  8
0
  6
Continuous
 62
     7
370
    15
100
AcDbLine
 10
-206.6767389955
 20
150.6791785757
 30
0.0
 11
-206.6767389955
 21
151.6791787396
 31
0.0
  0
LINE
  5
87
330
1F
100
AcDbEntity
  8
0
  6
Continuous
 62
     7
370
    15
100
AcDbLine
 10
-206.6767389955
 20
137.6791783075
 30
0.0
 11
-206.6767389955
 21
138.6791784714
 31
0.0
  0
LINE
  5
88
330
1F
100
AcDbEntity
  8
0
  6
Continuous
 62
     7
370
    15
100
AcDbLine
 10
-215.1767487706
 20
138.6791784714
 30
0.0
 11
-215.1767487706
 21
137.6791783075
 31
0.0
  0
LINE
  5
89
330
1F
100
AcDbEntity
  8
0
  6
Continuous
 62
     7
370
    15
100
AcDbLine
 10
-328.4267361344
 20
143.929178517
 30
0.0
 11
-328.4267361344
 21
145.42917853
 31
0.0
  0
LINE
  5
8A
330
1F
100
AcDbEntity
  8
0
  6
Continuous
 62
     7
370
    15
100
AcDbLine
 10
-336.4267523469
 20
145.42917853
 30
0.0
 11
-336.4267523469
 21
143.929178517
 31
0.0
  0
LINE
  5
8B
330
1F
100
AcDbEntity
  8
0
  6
Continuous
 62
     7
370
    15
100
AcDbLine
 10
-245.9267552079
 20
137.6791783075
 30
0.0
 11
-245.9267552079
 21
138.6791784714
 31
0.0
  0
LINE
  5
8C
330
1F
100
AcDbEntity
  8
0
  6
Continuous
 62
     7
370
    15
100
AcDbLine
 10
-245.9267552079
 20
150.6791785757
 30
0.0
 11
-245.9267552079
 21
151.6791787396
 31
0.0
  0
LINE
  5
8D
330
1F
100
AcDbEntity
  8
0
  6
Continuous
 62
     7
370
    15
100
AcDbLine
 10
-253.9267416181
 20
151.6791787396
 30
0.0
 11
-253.9267416181
 21
150.6791785757
 31
0.0
  0
LINE
  5
8E
330
1F
100
AcDbEntity
  8
0
  6
Continuous
 62
     7
370
    15
100
AcDbLine
 10
-253.9267416181
 20
138.6791784714
 30
0.0
 11
-253.9267416181
 21
137.6791783075
 31
0.0
  0
LINE
  5
8F
330
1F
100
AcDbEntity
  8
0
  6
Continuous
 62
     7
370
    15
100
AcDbLine
 10
-216.7407746495
 20
176.0290125782
 30
0.0
 11
-216.7407746495
 21
176.339597481
 31
0.0
  0
LINE
  5
90
330
1F
100
AcDbEntity
  8
0
  6
Continuous
 62
     7
370
    15
100
AcDbLine
 10
-216.7407746495
 20
113.0187595661
 30
0.0
 11
-216.7407746495
 21
113.3293444688
 31
0.0
  0
ARC
  5
91
330
1F
100
AcDbEntity
  8
0
  6
Continuous
 62
     7
370
    15
100
AcDbCircle
 10
-53.2728571694
 20
162.6970839127
 30
0.0
 40
20.00000000024906
100
AcDbArc
 50
46.1871293811
 51
83.2633914859
  0
ARC
  5
92
330
1F
100
AcDbEntity
  8
0
  6
Continuous
 62
     7
370
    15
100
AcDbCircle
 10
-51.5806456171
 20
162.6970839127
 30
0.0
 40
20.00000000024911
100
AcDbArc
 50
96.7366085141
 51
133.8128706189
  0
LINE
  5
93
330
1F
100
AcDbEntity
  8
0
  6
Continuous
 62
     7
370
    15
100
AcDbLine
 10
-65.4267544927
 20
177.1291802103
 30
0.0
 11
-65.4267544927
 21
176.6659664388
 31
0.0
  0
LINE
  5
94
330
1F
100
AcDbEntity
  8
0
  6
Continuous
 62
     7
370
    15
100
AcDbLine
 10
-39.4267614068
 20
176.6659664388
 30
0.0
 11
-39.4267614068
 21
177.1291802103
 31
0.0
  0
LINE
  5
95
330
1F
100
AcDbEntity
  8
0
  6
Continuous
 62
     7
370
    15
100
AcDbLine
 10
-39.4267614068
 20
111.929179209
 30
0.0
 11
-39.4267614068
 21
112.1291788692
 31
0.0
  0
LINE
  5
96
330
1F
100
AcDbEntity
  8
0
  6
Continuous
 62
     7
370
    15
100
AcDbLine
 10
-65.4267544927
 20
112.1291788692
 30
0.0
 11
-65.4267544927
 21
111.929179209
 31
0.0
  0
ARC
  5
97
330
1F
100
AcDbEntity
  8
0
  6
Continuous
 62
     7
370
    15
100
AcDbCircle
 10
-51.5806456171
 20
126.3612731343
 30
0.0
 40
20.00000000024904
100
AcDbArc
 50
226.1871293811
 51
263.2633914859
  0
ARC
  5
98
330
1F
100
AcDbEntity
  8
0
  6
Continuous
 62
     7
370
    15
100
AcDbCircle
 10
-53.2728571694
 20
126.3612731343
 30
0.0
 40
20.00000000024908
100
AcDbArc
 50
276.7366085141
 51
313.8128706189
  0
ARC
  5
99
330
1F
100
AcDbEntity
  8
0
  6
Continuous
 62
     7
370
    15
100
AcDbCircle
 10
528.4193543829
 20
126.3612731343
 30
0.0
 40
20.00000000024908
100
AcDbArc
 50
226.1871293811
 51
263.2633914859
  0
ARC
  5
9A
330
1F
100
AcDbEntity
  8
0
  6
Continuous
 62
     7
370
    15
100
AcDbCircle
 10
526.7271428306
 20
126.3612731343
 30
0.0
 40
20.00000000024908
100
AcDbArc
 50
276.7366085141
 51
313.8128706189
  0
LINE
  5
9B
330
1F
100
AcDbEntity
  8
0
  6
Continuous
 62
     7
370
    15
100
AcDbLine
 10
540.5732517062
 20
111.929179209
 30
0.0
 11
540.5732517062
 21
112.492390948
 31
0.0
  0
LINE
  5
9C
330
1F
100
AcDbEntity
  8
0
  6
Continuous
 62
     7
370
    15
100
AcDbLine
 10
514.5732586203
 20
112.492390948
 30
0.0
 11
514.5732586203
 21
111.929179209
 31
0.0
  0
LINE
  5
9D
330
1F
100
AcDbEntity
  8
0
  6
Continuous
 62
     7
370
    15
100
AcDbLine
 10
334.5732514678
 20
111.929179209
 30
0.0
 11
334.5732514678
 21
112.492390948
 31
0.0
  0
LINE
  5
9E
330
1F
100
AcDbEntity
  8
0
  6
Continuous
 62
     7
370
    15
100
AcDbLine
 10
308.5732509313
 20
112.492390948
 30
0.0
 11
308.5732509313
 21
111.929179209
 31
0.0
  0
ARC
  5
9F
330
1F
100
AcDbEntity
  8
0
  6
Continuous
 62
     7
370
    15
100
AcDbCircle
 10
322.4193543829
 20
126.3612731343
 30
0.0
 40
20.000000000249
100
AcDbArc
 50
226.1871293811
 51
263.2633914859
  0
ARC
  5
A0
330
1F
100
AcDbEntity
  8
0
  6
Continuous
 62
     7
370
    15
100
AcDbCircle
 10
320.7271428306
 20
126.3612731343
 30
0.0
 40
20.00000000024904
100
AcDbArc
 50
276.7366085141
 51
313.8128706189
  0
LINE
  5
A1
330
1F
100
AcDbEntity
  8
0
  6
Continuous
 62
     7
370
    15
100
AcDbLine
 10
166.5732462822
 20
111.929179209
 30
0.0
 11
166.5732462822
 21
112.492390948
 31
0.0
  0
LINE
  5
A2
330
1F
100
AcDbEntity
  8
0
  6
Continuous
 62
     7
370
    15
100
AcDbLine
 10
140.5732457457
 20
112.492390948
 30
0.0
 11
140.5732457457
 21
111.929179209
 31
0.0
  0
ARC
  5
A3
330
1F
100
AcDbEntity
  8
0
  6
Continuous
 62
     7
370
    15
100
AcDbCircle
 10
154.4193543829
 20
126.3612731343
 30
0.0
 40
20.00000000024902
100
AcDbArc
 50
226.1871293811
 51
263.2633914859
  0
ARC
  5
A4
330
1F
100
AcDbEntity
  8
0
  6
Continuous
 62
     7
370
    15
100
AcDbCircle
 10
152.7271428306
 20
126.3612731343
 30
0.0
 40
20.00000000024904
100
AcDbArc
 50
276.7366085141
 51
313.8128706189
  0
ARC
  5
A5
330
1F
100
AcDbEntity
  8
0
  6
Continuous
 62
     7
370
    15
100
AcDbCircle
 10
320.7271428306
 20
162.4970839127
 30
0.0
 40
20.00000000024904
100
AcDbArc
 50
46.1871293811
 51
83.2633914859
  0
ARC
  5
A6
330
1F
100
AcDbEntity
  8
0
  6
Continuous
 62
     7
370
    15
100
AcDbCircle
 10
322.4193543829
 20
162.4970839127
 30
0.0
 40
20.00000000024904
100
AcDbArc
 50
96.7366085141
 51
133.8128706189
  0
LINE
  5
A7
330
1F
100
AcDbEntity
  8
0
  6
Continuous
 62
     7
370
    15
100
AcDbLine
 10
308.5732509313
 20
176.9291768248
 30
0.0
 11
308.5732509313
 21
176.4659630532
 31
0.0
  0
LINE
  5
A8
330
1F
100
AcDbEntity
  8
0
  6
Continuous
 62
     7
370
    15
100
AcDbLine
 10
334.5732514678
 20
176.4659630532
 30
0.0
 11
334.5732514678
 21
176.9291768248
 31
0.0
  0
ARC
  5
A9
330
1F
100
AcDbEntity
  8
0
  6
Continuous
 62
     7
370
    15
100
AcDbCircle
 10
152.7271428306
 20
162.4970839127
 30
0.0
 40
20.00000000024902
100
AcDbArc
 50
46.1871293811
 51
83.2633914859
  0
ARC
  5
AA
330
1F
100
AcDbEntity
  8
0
  6
Continuous
 62
     7
370
    15
100
AcDbCircle
 10
154.4193543829
 20
162.4970839127
 30
0.0
 40
20.00000000024904
100
AcDbArc
 50
96.7366085141
 51
133.8128706189
  0
LINE
  5
AB
330
1F
100
AcDbEntity
  8
0
  6
Continuous
 62
     7
370
    15
100
AcDbLine
 10
140.5732457457
 20
176.9291768248
 30
0.0
 11
140.5732457457
 21
176.4659630532
 31
0.0
  0
LINE
  5
AC
330
1F
100
AcDbEntity
  8
0
  6
Continuous
 62
     7
370
    15
100
AcDbLine
 10
166.5732462822
 20
176.4659630532
 30
0.0
 11
166.5732462822
 21
176.9291768248
 31
0.0
  0
ARC
  5
AD
330
1F
100
AcDbEntity
  8
0
  6
Continuous
 62
     7
370
    15
100
AcDbCircle
 10
-51.5806456171
 20
126.5612731343
 30
0.0
 40
20.00000000024906
100
AcDbArc
 50
226.1871293811
 51
263.2633914859
  0
ARC
  5
AE
330
1F
100
AcDbEntity
  8
0
  6
Continuous
 62
     7
370
    15
100
AcDbCircle
 10
-53.2728571694
 20
126.5612731343
 30
0.0
 40
20.00000000024909
100
AcDbArc
 50
276.7366085141
 51
313.8128706189
  0
LINE
  5
AF
330
1F
100
AcDbEntity
  8
0
  6
Continuous
 62
     7
370
    15
100
AcDbLine
 10
-39.4267614068
 20
112.1291788692
 30
0.0
 11
-39.4267614068
 21
112.6923906083
 31
0.0
  0
LINE
  5
B0
330
1F
100
AcDbEntity
  8
0
  6
Continuous
 62
     7
370
    15
100
AcDbLine
 10
-65.4267544927
 20
112.6923906083
 30
0.0
 11
-65.4267544927
 21
112.1291788692
 31
0.0
  0
ARC
  5
B1
330
1F
100
AcDbEntity
  8
0
  6
Continuous
 62
     7
370
    15
100
AcDbCircle
 10
526.7271428306
 20
162.4970839127
 30
0.0
 40
20.000000000249
100
AcDbArc
 50
46.1871293811
 51
83.2633914859
  0
ARC
  5
B2
330
1F
100
AcDbEntity
  8
0
  6
Continuous
 62
     7
370
    15
100
AcDbCircle
 10
528.4193543829
 20
162.4970839127
 30
0.0
 40
20.00000000024908
100
AcDbArc
 50
96.7366085141
 51
133.8128706189
  0
LINE
  5
B3
330
1F
100
AcDbEntity
  8
0
  6
Continuous
 62
     7
370
    15
100
AcDbLine
 10
514.5732586203
 20
176.9291768248
 30
0.0
 11
514.5732586203
 21
176.4659630532
 31
0.0
  0
LINE
  5
B4
330
1F
100
AcDbEntity
  8
0
  6
Continuous
 62
     7
370
    15
100
AcDbLine
 10
540.5732517062
 20
176.4659630532
 30
0.0
 11
540.5732517062
 21
176.9291768248
 31
0.0
  0
LINE
  5
B5
330
1F
100
AcDbEntity
  8
0
  6
Continuous
 62
     7
370
    15
100
AcDbLine
 10
-69.4267625989
 20
122.3791791524
 30
0.0
 11
-69.4267625989
 21
122.1791776295
 31
0.0
  0
LINE
  5
B6
330
1F
100
AcDbEntity
  8
0
  6
Continuous
 62
     7
370
    15
100
AcDbLine
 10
-35.4267533006
 20
122.1791776295
 30
0.0
 11
-35.4267533006
 21
122.3791791524
 31
0.0
  0
ARC
  5
B7
330
1F
100
AcDbEntity
  8
0
  6
Continuous
 62
     7
370
    15
100
AcDbCircle
 10
-54.4358023973
 20
122.7001854335
 30
0.0
 40
15.00000000000001
100
AcDbArc
 50
181.9905001748
 51
222.884255133
  0
ARC
  5
B8
330
1F
100
AcDbEntity
  8
0
  6
Continuous
 62
     7
370
    15
100
AcDbCircle
 10
-50.4177003892
 20
122.7001854335
 30
0.0
 40
15.00000000000001
100
AcDbArc
 50
317.1157448671
 51
358.0094998252
  0
LINE
  5
B9
330
1F
100
AcDbEntity
  8
0
  6
Continuous
 62
     7
370
    15
100
AcDbLine
 10
510.5732505141
 20
126.4791777755
 30
0.0
 11
510.5732505141
 21
122.1791776295
 31
0.0
  0
LINE
  5
BA
330
1F
100
AcDbEntity
  8
0
  6
Continuous
 62
     7
370
    15
100
AcDbLine
 10
544.5732598124
 20
122.1791776295
 30
0.0
 11
544.5732598124
 21
126.4791777755
 31
0.0
  0
ARC
  5
BB
330
1F
100
AcDbEntity
  8
0
  6
Continuous
 62
     7
370
    15
100
AcDbCircle
 10
525.5641976027
 20
122.7001854335
 30
0.0
 40
15.00000000000004
100
AcDbArc
 50
181.9905001748
 51
222.8842551329
  0
ARC
  5
BC
330
1F
100
AcDbEntity
  8
0
  6
Continuous
 62
     7
370
    15
100
AcDbCircle
 10
529.5822996108
 20
122.7001854335
 30
0.0
 40
14.99999999999999
100
AcDbArc
 50
317.1157448671
 51
358.0094998252
  0
LINE
  5
BD
330
1F
100
AcDbEntity
  8
0
  6
Continuous
 62
     7
370
    15
100
AcDbLine
 10
338.5732521234
 20
162.6791777487
 30
0.0
 11
338.5732521234
 21
166.7791782344
 31
0.0
  0
LINE
  5
BE
330
1F
100
AcDbEntity
  8
0
  6
Continuous
 62
     7
370
    15
100
AcDbLine
 10
304.5732502757
 20
166.7791782344
 30
0.0
 11
304.5732502757
 21
162.6791777487
 31
0.0
  0
ARC
  5
BF
330
1F
100
AcDbEntity
  8
0
  6
Continuous
 62
     7
370
    15
100
AcDbCircle
 10
323.5822996108
 20
166.2581716135
 30
0.0
 40
14.99999999999998
100
AcDbArc
 50
1.9905001748
 51
42.8842551329
  0
ARC
  5
C0
330
1F
100
AcDbEntity
  8
0
  6
Continuous
 62
     7
370
    15
100
AcDbCircle
 10
319.5641976027
 20
166.2581716135
 30
0.0
 40
15.00000000000001
100
AcDbArc
 50
137.1157448671
 51
178.0094998252
  0
LINE
  5
C1
330
1F
100
AcDbEntity
  8
0
  6
Continuous
 62
     7
370
    15
100
AcDbLine
 10
136.5732450901
 20
126.4791777755
 30
0.0
 11
136.5732450901
 21
122.1791776295
 31
0.0
  0
LINE
  5
C2
330
1F
100
AcDbEntity
  8
0
  6
Continuous
 62
     7
370
    15
100
AcDbLine
 10
170.5732469378
 20
122.1791776295
 30
0.0
 11
170.5732469378
 21
126.4791777755
 31
0.0
  0
ARC
  5
C3
330
1F
100
AcDbEntity
  8
0
  6
Continuous
 62
     7
370
    15
100
AcDbCircle
 10
151.5641976027
 20
122.7001854335
 30
0.0
 40
15.00000000000001
100
AcDbArc
 50
181.9905001748
 51
222.8842551329
  0
ARC
  5
C4
330
1F
100
AcDbEntity
  8
0
  6
Continuous
 62
     7
370
    15
100
AcDbCircle
 10
155.5822996108
 20
122.7001854335
 30
0.0
 40
15.00000000000001
100
AcDbArc
 50
317.1157448671
 51
358.0094998252
  0
LINE
  5
C5
330
1F
100
AcDbEntity
  8
0
  6
Continuous
 62
     7
370
    15
100
AcDbLine
 10
544.5732598124
 20
162.6791777487
 30
0.0
 11
544.5732598124
 21
166.7791782344
 31
0.0
  0
LINE
  5
C6
330
1F
100
AcDbEntity
  8
0
  6
Continuous
 62
     7
370
    15
100
AcDbLine
 10
510.5732505141
 20
166.7791782344
 30
0.0
 11
510.5732505141
 21
162.6791777487
 31
0.0
  0
ARC
  5
C7
330
1F
100
AcDbEntity
  8
0
  6
Continuous
 62
     7
370
    15
100
AcDbCircle
 10
529.5822996108
 20
166.2581716135
 30
0.0
 40
14.99999999999999
100
AcDbArc
 50
1.9905001748
 51
42.8842551329
  0
ARC
  5
C8
330
1F
100
AcDbEntity
  8
0
  6
Continuous
 62
     7
370
    15
100
AcDbCircle
 10
525.5641976027
 20
166.2581716135
 30
0.0
 40
15.00000000000004
100
AcDbArc
 50
137.1157448671
 51
178.0094998252
  0
LINE
  5
C9
330
1F
100
AcDbEntity
  8
0
  6
Continuous
 62
     7
370
    15
100
AcDbLine
 10
170.5732469378
 20
162.6791777487
 30
0.0
 11
170.5732469378
 21
166.7791782344
 31
0.0
  0
LINE
  5
CA
330
1F
100
AcDbEntity
  8
0
  6
Continuous
 62
     7
370
    15
100
AcDbLine
 10
136.5732450901
 20
166.7791782344
 30
0.0
 11
136.5732450901
 21
162.6791777487
 31
0.0
  0
ARC
  5
CB
330
1F
100
AcDbEntity
  8
0
  6
Continuous
 62
     7
370
    15
100
AcDbCircle
 10
155.5822996108
 20
166.2581716135
 30
0.0
 40
15.00000000000001
100
AcDbArc
 50
1.9905001748
 51
42.8842551329
  0
ARC
  5
CC
330
1F
100
AcDbEntity
  8
0
  6
Continuous
 62
     7
370
    15
100
AcDbCircle
 10
151.5641976027
 20
166.2581716135
 30
0.0
 40
15.00000000000001
100
AcDbArc
 50
137.1157448671
 51
178.0094998252
  0
LINE
  5
CD
330
1F
100
AcDbEntity
  8
0
  6
Continuous
 62
     7
370
    15
100
AcDbLine
 10
-35.4267533006
 20
162.6791777487
 30
0.0
 11
-35.4267533006
 21
166.9791778947
 31
0.0
  0
LINE
  5
CE
330
1F
100
AcDbEntity
  8
0
  6
Continuous
 62
     7
370
    15
100
AcDbLine
 10
-69.4267625989
 20
166.9791778947
 30
0.0
 11
-69.4267625989
 21
162.6791777487
 31
0.0
  0
ARC
  5
CF
330
1F
100
AcDbEntity
  8
0
  6
Continuous
 62
     7
370
    15
100
AcDbCircle
 10
-50.4177003892
 20
166.4581716135
 30
0.0
 40
15.00000000000001
100
AcDbArc
 50
1.9905001748
 51
42.884255133
  0
ARC
  5
D0
330
1F
100
AcDbEntity
  8
0
  6
Continuous
 62
     7
370
    15
100
AcDbCircle
 10
-54.4358023973
 20
166.4581716135
 30
0.0
 40
15.00000000000001
100
AcDbArc
 50
137.1157448671
 51
178.0094998252
  0
LINE
  5
D1
330
1F
100
AcDbEntity
  8
0
  6
Continuous
 62
     7
370
    15
100
AcDbLine
 10
-69.4267625989
 20
126.6791792984
 30
0.0
 11
-69.4267625989
 21
122.3791791524
 31
0.0
  0
LINE
  5
D2
330
1F
100
AcDbEntity
  8
0
  6
Continuous
 62
     7
370
    15
100
AcDbLine
 10
-35.4267533006
 20
122.3791791524
 30
0.0
 11
-35.4267533006
 21
126.6791792984
 31
0.0
  0
ARC
  5
D3
330
1F
100
AcDbEntity
  8
0
  6
Continuous
 62
     7
370
    15
100
AcDbCircle
 10
-54.4358023973
 20
122.9001854335
 30
0.0
 40
15.00000000000001
100
AcDbArc
 50
181.9905001748
 51
222.8842551329
  0
ARC
  5
D4
330
1F
100
AcDbEntity
  8
0
  6
Continuous
 62
     7
370
    15
100
AcDbCircle
 10
-50.4177003892
 20
122.9001854335
 30
0.0
 40
15.00000000000001
100
AcDbArc
 50
317.1157448671
 51
358.0094998252
  0
LINE
  5
D5
330
1F
100
AcDbEntity
  8
0
  6
Continuous
 62
     7
370
    15
100
AcDbLine
 10
304.5732502757
 20
126.4791777755
 30
0.0
 11
304.5732502757
 21
122.1791776295
 31
0.0
  0
LINE
  5
D6
330
1F
100
AcDbEntity
  8
0
  6
Continuous
 62
     7
370
    15
100
AcDbLine
 10
338.5732521234
 20
122.1791776295
 30
0.0
 11
338.5732521234
 21
126.4791777755
 31
0.0
  0
ARC
  5
D7
330
1F
100
AcDbEntity
  8
0
  6
Continuous
 62
     7
370
    15
100
AcDbCircle
 10
319.5641976027
 20
122.7001854335
 30
0.0
 40
15.0
100
AcDbArc
 50
181.9905001748
 51
222.8842551329
  0
ARC
  5
D8
330
1F
100
AcDbEntity
  8
0
  6
Continuous
 62
     7
370
    15
100
AcDbCircle
 10
323.5822996108
 20
122.7001854335
 30
0.0
 40
14.99999999999998
100
AcDbArc
 50
317.1157448671
 51
358.0094998252
  0
LINE
  5
D9
330
1F
100
AcDbEntity
  8
0
  6
Continuous
 62
     7
370
    15
100
AcDbLine
 10
149.5732490836
 20
126.6791792984
 30
0.0
 11
149.5732490836
 21
126.4791777755
 31
0.0
  0
LINE
  5
DA
330
1F
100
AcDbEntity
  8
0
  6
Continuous
 62
     7
370
    15
100
AcDbLine
 10
157.5732503949
 20
126.4791777755
 30
0.0
 11
157.5732503949
 21
126.6791792984
 31
0.0
  0
LINE
  5
DB
330
1F
100
AcDbEntity
  8
0
  6
Continuous
 62
     7
370
    15
100
AcDbLine
 10
523.5732619582
 20
126.6791792984
 30
0.0
 11
523.5732619582
 21
126.4791777755
 31
0.0
  0
LINE
  5
DC
330
1F
100
AcDbEntity
  8
0
  6
Continuous
 62
     7
370
    15
100
AcDbLine
 10
531.5732483683
 20
126.4791777755
 30
0.0
 11
531.5732483683
 21
126.6791792984
 31
0.0
  0
LINE
  5
DD
330
1F
100
AcDbEntity
  8
0
  6
Continuous
 62
     7
370
    15
100
AcDbLine
 10
317.5732468186
 20
126.6791792984
 30
0.0
 11
317.5732468186
 21
126.4791777755
 31
0.0
  0
LINE
  5
DE
330
1F
100
AcDbEntity
  8
0
  6
Continuous
 62
     7
370
    15
100
AcDbLine
 10
325.5732481299
 20
126.4791777755
 30
0.0
 11
325.5732481299
 21
126.6791792984
 31
0.0
  0
LINE
  5
DF
330
1F
100
AcDbEntity
  8
0
  6
PHANTOM
 62
     7
370
     0
100
AcDbLine
 10
768.0732433616
 20
1673.1791394229
 30
0.0
 11
-292.926746148
 21
1673.1791394229
 31
0.0
  0
ARC
  5
E0
330
1F
100
AcDbEntity
  8
0
  6
PHANTOM
 62
     7
370
     0
100
AcDbCircle
 10
768.0732486068
 20
144.6791785235
 30
0.0
 40
1528.5
100
AcDbArc
 50
270.0
 51
90.0
  0
LINE
  5
E1
330
1F
100
AcDbEntity
  8
0
  6
PHANTOM
 62
     7
370
     0
100
AcDbLine
 10
-292.926746148
 20
-1383.8207823758
 30
0.0
 11
768.0732433616
 21
-1383.8207823758
 31
0.0
  0
ARC
  5
E2
330
1F
100
AcDbEntity
  8
0
  6
PHANTOM
 62
     7
370
     0
100
AcDbCircle
 10
-292.9267513932
 20
144.6791785235
 30
0.0
 40
1528.5
100
AcDbArc
 50
90.0
 51
270.0
  0
LINE
  5
E3
330
1F
100
AcDbEntity
  8
0
  6
Continuous
 62
     7
370
    15
100
AcDbLine
 10
797.1635882674
 20
145.4278161797
 30
0.0
 11
797.1634690581
 21
143.9243676538
 31
0.0
  0
LINE
  5
E4
330
1F
100
AcDbEntity
  8
0
  6
Continuous
 62
     7
370
    15
100
AcDbLine
 10
835.0732748328
 20
145.42917853
 30
0.0
 11
835.0732748328
 21
155.4291788886
 31
0.0
  0
LINE
  5
E5
330
1F
100
AcDbEntity
  8
0
  6
Continuous
 62
     7
370
    15
100
AcDbLine
 10
835.0732748328
 20
145.42917853
 30
0.0
 11
827.0732586203
 21
145.42917853
 31
0.0
  0
SPLINE
  5
E6
330
1F
100
AcDbEntity
  8
0
  6
Continuous
 62
     7
370
    15
100
AcDbSpline
210
0.0
220
0.0
230
1.0
 70
     8
 71
     3
 72
    13
 73
     9
 74
     0
 42
0.000000001
 43
0.00000001
 40
0.0
 40
0.0
 40
0.0
 40
0.0
 40
0.1381831137031332
 40
0.2678036072857489
 40
0.5003693109661695
 40
0.630988697146597
 40
0.7579841443569794
 40
1.0
 40
1.0
 40
1.0
 40
1.0
 10
827.0732586203427
 20
155.1863439778577
 30
0.0
 10
827.6510601162669
 20
155.2052146528347
 30
0.0
 10
828.7708592057276
 20
155.2417866672821
 30
0.0
 10
830.7649397060806
 20
155.3031141230862
 30
0.0
 10
832.5065442238202
 20
155.355370592836
 30
0.0
 10
833.7956873845719
 20
155.3927622062973
 30
0.0
 10
834.7978269398129
 20
155.4217992114973
 30
0.0
 10
834.9641753327579
 20
155.4262559434566
 30
0.0
 10
835.0732748328061
 20
155.4291788886081
 30
0.0
  0
LINE
  5
E7
330
1F
100
AcDbEntity
  8
0
  6
Continuous
 62
     7
370
    15
100
AcDbLine
 10
796.5658728896
 20
145.42917853
 30
0.0
 11
827.0732586203
 21
145.42917853
 31
0.0
  0
LINE
  5
E8
330
1F
100
AcDbEntity
  8
0
  6
Continuous
 62
     7
370
    15
100
AcDbLine
 10
739.0732590972
 20
158.1791788737
 30
0.0
 11
742.9706280051
 21
158.1791788737
 31
0.0
  0
LINE
  5
E9
330
1F
100
AcDbEntity
  8
0
  6
Continuous
 62
     7
370
    15
100
AcDbLine
 10
739.0732590972
 20
151.6791787396
 30
0.0
 11
739.0732590972
 21
158.1791788737
 31
0.0
  0
LINE
  5
EA
330
1F
100
AcDbEntity
  8
0
  6
Continuous
 62
     7
370
    15
100
AcDbLine
 10
682.0732478915
 20
151.6791787396
 30
0.0
 11
739.0732590972
 21
151.6791787396
 31
0.0
  0
LINE
  5
EB
330
1F
100
AcDbEntity
  8
0
  6
Continuous
 62
     7
370
    15
100
AcDbLine
 10
816.2981693564
 20
182.1880685563
 30
0.0
 11
781.0141866027
 21
192.9754699047
 31
0.0
  0
SPLINE
  5
EC
330
1F
100
AcDbEntity
  8
0
  6
Continuous
 62
     7
370
    15
100
AcDbSpline
210
0.0
220
0.0
230
1.0
 70
     8
 71
     3
 72
    14
 73
    10
 74
     0
 42
0.000000001
 43
0.00000001
 40
0.0
 40
0.0
 40
0.0
 40
0.0
 40
0.0946825536375838
 40
0.1784750279121718
 40
0.2513686715217197
 40
0.3803076769566437
 40
0.501633382714952
 40
0.750778051739892
 40
0.9999999999999999
 40
0.9999999999999999
 40
0.9999999999999999
 40
0.9999999999999999
 10
813.5192220030636
 20
174.6721500928293
 30
0.0
 10
813.6579224792226
 20
175.042852648466
 30
0.0
 10
813.9193705538978
 20
175.7416207575055
 30
0.0
 10
814.2786450111735
 20
176.7059449228742
 30
0.0
 10
814.6715516048811
 20
177.7634278362866
 30
0.0
 10
815.0872440235971
 20
178.8882890609198
 30
0.0
 10
815.6434656637194
 20
180.3984628374197
 30
0.0
 10
816.1751551757972
 20
181.8508834215432
 30
0.0
 10
816.2571603908365
 20
182.0756618929528
 30
0.0
 10
816.2981693564267
 20
182.1880685562979
 30
0.0
  0
SPLINE
  5
ED
330
1F
100
AcDbEntity
  8
0
  6
Continuous
 62
     7
370
    15
100
AcDbSpline
210
0.0
220
0.0
230
1.0
 70
     8
 71
     3
 72
    13
 73
     9
 74
     0
 42
0.000000001
 43
0.00000001
 40
0.0
 40
0.0
 40
0.0
 40
0.0
 40
0.1449106255006503
 40
0.2767695541201668
 40
0.5004194464962491
 40
0.6317262598060748
 40
0.7589419498548512
 40
1.0
 40
1.0
 40
1.0
 40
1.0
 10
778.8145963965268
 20
185.2824250633608
 30
0.0
 10
778.9808769014642
 20
185.8655389042513
 30
0.0
 10
779.2984614888707
 20
186.9792471446718
 30
0.0
 10
779.8446979527176
 20
188.8900291391178
 30
0.0
 10
780.3142382863234
 20
190.5328444798486
 30
0.0
 10
780.6634374067836
 20
191.7515428906705
 30
0.0
 10
780.9385744661063
 20
192.7125177803052
 30
0.0
 10
780.9842736480282
 20
192.87144328503
 30
0.0
 10
781.014186602673
 20
192.9754699046503
 30
0.0
  0
LINE
  5
EE
330
1F
100
AcDbEntity
  8
0
  6
Continuous
 62
     7
370
    15
100
AcDbLine
 10
827.0732586203
 20
143.929178517
 30
0.0
 11
835.0732748328
 21
143.929178517
 31
0.0
  0
LINE
  5
EF
330
1F
100
AcDbEntity
  8
0
  6
Continuous
 62
     7
370
    15
100
AcDbLine
 10
835.0732748328
 20
133.9291781585
 30
0.0
 11
835.0732748328
 21
143.929178517
 31
0.0
  0
SPLINE
  5
F0
330
1F
100
AcDbEntity
  8
0
  6
Continuous
 62
     7
370
    15
100
AcDbSpline
210
0.0
220
0.0
230
1.0
 70
     8
 71
     3
 72
    13
 73
     9
 74
     0
 42
0.000000001
 43
0.00000001
 40
0.0
 40
0.0
 40
0.0
 40
0.0
 40
0.1399785243361155
 40
0.2701799253494606
 40
0.5003037704805018
 40
0.6323754459818951
 40
0.7598593822505496
 40
1.0
 40
1.0
 40
1.0
 40
1.0
 10
827.0732586203427
 20
134.1720130692016
 30
0.0
 10
827.658634180144
 20
134.1529985370992
 30
0.0
 10
828.7884983918049
 20
134.1162975868045
 30
0.0
 10
830.7804200298311
 20
134.0550129094646
 30
0.0
 10
832.5173426226285
 20
134.0026638532752
 30
0.0
 10
833.8038236838596
 20
133.9653054858944
 30
0.0
 10
834.8013489614392
 20
133.9360772936437
 30
0.0
 10
834.9658312842688
 20
133.9319041497782
 30
0.0
 10
835.0732748328061
 20
133.9291781584512
 30
0.0
  0
LINE
  5
F1
330
1F
100
AcDbEntity
  8
0
  6
Continuous
 62
     7
370
    15
100
AcDbLine
 10
796.5658728896
 20
143.929178517
 30
0.0
 11
827.0732586203
 21
143.929178517
 31
0.0
  0
LINE
  5
F2
330
1F
100
AcDbEntity
  8
0
  6
Continuous
 62
     7
370
    15
100
AcDbLine
 10
682.0732478915
 20
137.6791783075
 30
0.0
 11
739.0732590972
 21
137.6791783075
 31
0.0
  0
LINE
  5
F3
330
1F
100
AcDbEntity
  8
0
  6
Continuous
 62
     7
370
    15
100
AcDbLine
 10
739.0732590972
 20
137.6791783075
 30
0.0
 11
739.0732590972
 21
131.1791781734
 31
0.0
  0
LINE
  5
F4
330
1F
100
AcDbEntity
  8
0
  6
Continuous
 62
     7
370
    15
100
AcDbLine
 10
739.0732590972
 20
131.1791781734
 30
0.0
 11
742.9706280051
 21
131.1791781734
 31
0.0
  0
SPLINE
  5
F5
330
1F
100
AcDbEntity
  8
0
  6
Continuous
 62
     7
370
    15
100
AcDbSpline
210
0.0
220
0.0
230
1.0
 70
     8
 71
     3
 72
    15
 73
    11
 74
     0
 42
0.000000001
 43
0.00000001
 40
0.0
 40
0.0
 40
0.0
 40
0.0
 40
0.1359624638902835
 40
0.2505439941145175
 40
0.3788297820055589
 40
0.5002464096019263
 40
0.6268406157766498
 40
0.7500331517539053
 40
0.8726866224628506
 40
0.9999999999999999
 40
0.9999999999999999
 40
0.9999999999999999
 40
0.9999999999999999
 10
813.5192220030636
 20
114.6862069542299
 30
0.0
 10
813.7189961487456
 20
114.152100085348
 30
0.0
 10
814.0871287270163
 20
113.16787793767
 30
0.0
 10
814.6171425047781
 20
111.7420153103298
 30
0.0
 10
815.0860876364968
 20
110.4733569143534
 30
0.0
 10
815.5085603814248
 20
109.3262760774538
 30
0.0
 10
815.8504845211282
 20
108.3940425765413
 30
0.0
 10
816.1030117764163
 20
107.7047151534558
 30
0.0
 10
816.2666960734667
 20
107.2563330288972
 30
0.0
 10
816.2875486832986
 20
107.1993242578651
 30
0.0
 10
816.2981693564267
 20
107.1702884907614
 30
0.0
  0
LINE
  5
F6
330
1F
100
AcDbEntity
  8
0
  6
Continuous
 62
     7
370
    15
100
AcDbLine
 10
781.0141866027
 20
96.3828871424
 30
0.0
 11
816.2981693564
 21
107.1702884908
 31
0.0
  0
SPLINE
  5
F7
330
1F
100
AcDbEntity
  8
0
  6
Continuous
 62
     7
370
    15
100
AcDbSpline
210
0.0
220
0.0
230
1.0
 70
     8
 71
     3
 72
    13
 73
     9
 74
     0
 42
0.000000001
 43
0.00000001
 40
0.0
 40
0.0
 40
0.0
 40
0.0
 40
0.2390560163190824
 40
0.3667939791243243
 40
0.4996646492918224
 40
0.7217640893465126
 40
0.8539768956269678
 40
1.0
 40
1.0
 40
1.0
 40
1.0
 10
781.014186602673
 20
96.38288714240896
 30
0.0
 10
780.9846852566925
 20
96.48517857525552
 30
0.0
 10
780.9394200663479
 20
96.64212874225753
 30
0.0
 10
780.6657403055722
 20
97.59849310130525
 30
0.0
 10
780.3166993815627
 20
98.81705813364317
 30
0.0
 10
779.847314076976
 20
100.4593364251813
 30
0.0
 10
779.3016007402064
 20
102.3686480528552
 30
0.0
 10
778.9822154301561
 20
103.4883124145248
 30
0.0
 10
778.8145963965268
 20
104.0759319836985
 30
0.0
  0
LINE
  5
F8
330
1F
100
AcDbEntity
  8
0
  6
Continuous
 62
     7
370
    15
100
AcDbLine
 10
755.1323001204
 20
192.9754699047
 30
0.0
 11
680.0027017413
 21
172.8445543374
 31
0.0
  0
LINE
  5
F9
330
1F
100
AcDbEntity
  8
0
  6
Continuous
 62
     7
370
    15
100
AcDbLine
 10
680.0027017413
 20
116.5138027097
 30
0.0
 11
755.1323001204
 21
96.3828871424
 31
0.0
  0
ARC
  5
FA
330
1F
100
AcDbEntity
  8
0
  6
Continuous
 62
     7
370
    15
100
AcDbCircle
 10
804.1226831838
 20
153.6791785235
 30
0.0
 40
31.00000000000001
100
AcDbArc
 50
3.2361595445
 51
66.8737517395
  0
ARC
  5
FB
330
1F
100
AcDbEntity
  8
0
  6
Continuous
 62
     7
370
    15
100
AcDbCircle
 10
768.0732486068
 20
144.6791785235
 30
0.0
 40
50.00000000000002
100
AcDbArc
 50
75.0
 51
105.0
  0
ARC
  5
FC
330
1F
100
AcDbEntity
  8
0
  6
Continuous
 62
     7
370
    15
100
AcDbCircle
 10
804.1226831838
 20
135.6791785235
 30
0.0
 40
31.00000000000001
100
AcDbArc
 50
293.1262482605
 51
356.7638404555
  0
ARC
  5
FD
330
1F
100
AcDbEntity
  8
0
  6
Continuous
 62
     7
370
    15
100
AcDbCircle
 10
768.0732486068
 20
144.6791785235
 30
0.0
 40
50.00000000000001
100
AcDbArc
 50
255.0
 51
285.0
  0
LINE
  5
FE
330
1F
100
AcDbEntity
  8
0
  6
Continuous
 62
     7
370
    15
100
AcDbLine
 10
674.0732614814
 20
151.6791787396
 30
0.0
 11
674.0732614814
 21
165.1171474184
 31
0.0
  0
LINE
  5
FF
330
1F
100
AcDbEntity
  8
0
  6
Continuous
 62
     7
370
    15
100
AcDbLine
 10
674.0732614814
 20
151.6791787396
 30
0.0
 11
682.0732478915
 21
151.6791787396
 31
0.0
  0
LINE
  5
100
330
1F
100
AcDbEntity
  8
0
  6
Continuous
 62
     7
370
    15
100
AcDbLine
 10
674.0732614814
 20
137.6791783075
 30
0.0
 11
674.0732614814
 21
124.2412096287
 31
0.0
  0
LINE
  5
101
330
1F
100
AcDbEntity
  8
0
  6
Continuous
 62
     7
370
    15
100
AcDbLine
 10
682.0732478915
 20
137.6791783075
 30
0.0
 11
674.0732614814
 21
137.6791783075
 31
0.0
  0
ARC
  5
102
330
1F
100
AcDbEntity
  8
0
  6
Continuous
 62
     7
370
    15
100
AcDbCircle
 10
682.0732486068
 20
124.2412094954
 30
0.0
 40
8.0
100
AcDbArc
 50
180.0
 51
255.0
  0
ARC
  5
103
330
1F
100
AcDbEntity
  8
0
  6
Continuous
 62
     7
370
    15
100
AcDbCircle
 10
682.0732486068
 20
165.1171475517
 30
0.0
 40
8.000000000000114
100
AcDbArc
 50
105.0
 51
180.0
  0
LINE
  5
104
330
1F
100
AcDbEntity
  8
0
  6
Continuous
 62
     7
370
    15
100
AcDbLine
 10
699.1212491809
 20
177.967351901
 30
0.0
 11
699.1212491809
 21
178.2779368038
 31
0.0
  0
LWPOLYLINE
  5
105
330
1F
100
AcDbEntity
  8
0
  6
Continuous
 62
     7
370
    15
100
AcDbPolyline
 90
        9
 70
   128
 43
0.0
 10
699.1212491809
 20
178.2779368038
 10
698.8726680098
 20
178.2113323386
 10
698.6362759887
 20
178.1479875023
 10
698.421103221
 20
178.0903349097
 10
698.2354645549
 20
178.0405948336
 10
698.0864827453
 20
178.0006708975
 10
697.9798798381
 20
177.9721053715
 10
697.9197387515
 20
177.9559897656
 10
697.9083840667
 20
177.9529499287
  0
LWPOLYLINE
  5
106
330
1F
100
AcDbEntity
  8
0
  6
Continuous
 62
     7
370
    15
100
AcDbPolyline
 90
       19
 70
   128
 43
0.0
 10
691.9769172488
 20
112.9947351689
 10
692.0141403495
 20
112.9847662921
 10
692.1645824729
 20
112.9444549258
 10
692.4258594333
 20
112.8744455452
 10
692.789596778
 20
112.7769845004
 10
693.2441716014
 20
112.6551749582
 10
693.775129777
 20
112.512909847
 10
694.3654243766
 20
112.3547340209
 10
694.9962799369
 20
112.1857026989
 10
695.6474904834
 20
112.0112101014
 10
696.2982837973
 20
111.8368292625
 10
696.9278578578
 20
111.6681332166
 10
697.5161258994
 20
111.5105087335
 10
698.0442826568
 20
111.3689924056
 10
698.4954600154
 20
111.2480992849
 10
698.8552336512
 20
111.1516962225
 10
699.1121594725
 20
111.0828565831
 10
699.257982236
 20
111.0437857385
 10
699.2915098487
 20
111.0348003383
  0
LINE
  5
107
330
1F
100
AcDbEntity
  8
0
  6
Continuous
 62
     7
370
    15
100
AcDbLine
 10
694.997680646
 20
176.862449425
 30
0.0
 11
694.997680646
 21
177.1730306024
 31
0.0
  0
LINE
  5
108
330
1F
100
AcDbEntity
  8
0
  6
Continuous
 62
     7
370
    15
100
AcDbLine
 10
696.1672429858
 20
177.1758282955
 30
0.0
 11
696.1672429858
 21
177.4864094729
 31
0.0
  0
LINE
  5
109
330
1F
100
AcDbEntity
  8
0
  6
Continuous
 62
     7
370
    15
100
AcDbLine
 10
696.1672429858
 20
177.4864094729
 30
0.0
 11
694.997680646
 21
177.1730306024
 31
0.0
  0
LINE
  5
10A
330
1F
100
AcDbEntity
  8
0
  6
Continuous
 62
     7
370
    15
100
AcDbLine
 10
697.9083840667
 20
177.9529499287
 30
0.0
 11
696.1672429858
 21
177.4864094729
 31
0.0
  0
LINE
  5
10B
330
1F
100
AcDbEntity
  8
0
  6
Continuous
 62
     7
370
    15
100
AcDbLine
 10
692.0732383548
 20
176.0788495119
 30
0.0
 11
692.0732383548
 21
176.3894306893
 31
0.0
  0
LINE
  5
10C
330
1F
100
AcDbEntity
  8
0
  6
Continuous
 62
     7
370
    15
100
AcDbLine
 10
694.997680646
 20
177.1730306024
 30
0.0
 11
692.0732383548
 21
176.3894306893
 31
0.0
  0
LINE
  5
10D
330
1F
100
AcDbEntity
  8
0
  6
Continuous
 62
     7
370
    15
100
AcDbLine
 10
702.4005477248
 20
179.1566247518
 30
0.0
 11
699.1212491809
 21
178.2779368038
 31
0.0
  0
LINE
  5
10E
330
1F
100
AcDbEntity
  8
0
  6
Continuous
 62
     7
370
    15
100
AcDbLine
 10
702.4005477248
 20
178.8460435743
 30
0.0
 11
702.4005477248
 21
179.1566247518
 31
0.0
  0
SPLINE
  5
10F
330
1F
100
AcDbEntity
  8
0
  6
Continuous
 62
     7
370
    15
100
AcDbSpline
210
0.0
220
0.0
230
1.0
 70
     8
 71
     3
 72
    10
 73
     6
 74
     0
 42
0.000000001
 43
0.00000001
 40
0.0
 40
0.0
 40
0.0
 40
0.0
 40
0.1336164680906464
 40
0.5668915512693161
 40
1.0
 40
1.0
 40
1.0
 40
1.0
 10
817.7001898108334
 20
181.5395960981737
 30
0.0
 10
817.7925150425651
 20
181.4971976801297
 30
0.0
 10
818.1842212041302
 20
181.3173148758628
 30
0.0
 10
818.4571524226835
 20
181.1635590659396
 30
0.0
 10
818.5345351305588
 20
181.1245842495961
 30
0.0
 10
818.5732190428586
 20
181.1051005895029
 30
0.0
  0
LWPOLYLINE
  5
110
330
1F
100
AcDbEntity
  8
0
  6
Continuous
 62
     7
370
    15
100
AcDbPolyline
 90
        3
 70
   128
 43
0.0
 10
691.8872718631
 20
113.0187595661
 10
691.902798873
 20
113.0145946915
 10
691.9769172488
 20
112.9947351689
  0
LWPOLYLINE
  5
111
330
1F
100
AcDbEntity
  8
0
  6
Continuous
 62
     7
370
    15
100
AcDbPolyline
 90
        4
 70
   128
 43
0.0
 10
692.0732383548
 20
176.3894306893
 10
691.9515256701
 20
176.3568194981
 10
691.8914441882
 20
176.3407150681
 10
691.8872718631
 20
176.339597481
  0
LINE
  5
112
330
1F
100
AcDbEntity
  8
0
  6
Continuous
 62
     7
370
    15
100
AcDbLine
 10
702.4005477248
 20
110.2017322953
 30
0.0
 11
702.4005477248
 21
110.5123134727
 31
0.0
  0
LINE
  5
113
330
1F
100
AcDbEntity
  8
0
  6
Continuous
 62
     7
370
    15
100
AcDbLine
 10
699.2915098487
 20
111.0348003383
 30
0.0
 11
702.4005477248
 21
110.2017322953
 31
0.0
  0
LINE
  5
114
330
1F
100
AcDbEntity
  8
0
  6
Continuous
 62
     7
370
    15
100
AcDbLine
 10
-351.9267614068
 20
143.929178517
 30
0.0
 11
-321.4193756761
 21
143.929178517
 31
0.0
  0
LINE
  5
115
330
1F
100
AcDbEntity
  8
0
  6
Continuous
 62
     7
370
    15
100
AcDbLine
 10
-263.9267618837
 20
131.1791781734
 30
0.0
 11
-267.8241307916
 21
131.1791781734
 31
0.0
  0
LINE
  5
116
330
1F
100
AcDbEntity
  8
0
  6
Continuous
 62
     7
370
    15
100
AcDbLine
 10
-263.9267618837
 20
137.6791783075
 30
0.0
 11
-263.9267618837
 21
131.1791781734
 31
0.0
  0
LINE
  5
117
330
1F
100
AcDbEntity
  8
0
  6
Continuous
 62
     7
370
    15
100
AcDbLine
 10
-206.926750678
 20
137.6791783075
 30
0.0
 11
-263.9267618837
 21
137.6791783075
 31
0.0
  0
LINE
  5
118
330
1F
100
AcDbEntity
  8
0
  6
Continuous
 62
     7
370
    15
100
AcDbLine
 10
-359.9267776193
 20
143.929178517
 30
0.0
 11
-359.9267776193
 21
133.9291781585
 31
0.0
  0
LINE
  5
119
330
1F
100
AcDbEntity
  8
0
  6
Continuous
 62
     7
370
    15
100
AcDbLine
 10
-359.9267776193
 20
143.929178517
 30
0.0
 11
-351.9267614068
 21
143.929178517
 31
0.0
  0
SPLINE
  5
11A
330
1F
100
AcDbEntity
  8
0
  6
Continuous
 62
     7
370
    15
100
AcDbSpline
210
0.0
220
0.0
230
1.0
 70
     8
 71
     3
 72
    13
 73
     9
 74
     0
 42
0.000000001
 43
0.00000001
 40
0.0
 40
0.0
 40
0.0
 40
0.0
 40
0.2420158556430207
 40
0.369011302853403
 40
0.4996306890338304
 40
0.7321963927142512
 40
0.8618168862968668
 40
1.0
 40
1.0
 40
1.0
 40
1.0
 10
-359.9267776192814
 20
133.9291781584512
 30
0.0
 10
-359.8176781192331
 20
133.9321011036027
 30
0.0
 10
-359.651329726288
 20
133.936557835562
 30
0.0
 10
-358.649190171047
 20
133.965594840762
 30
0.0
 10
-357.3600470102951
 20
134.0029864542232
 30
0.0
 10
-355.6184424925558
 20
134.0552429239731
 30
0.0
 10
-353.6243619922026
 20
134.1165703797772
 30
0.0
 10
-352.504562902742
 20
134.1531423942246
 30
0.0
 10
-351.9267614068179
 20
134.1720130692016
 30
0.0
  0
LINE
  5
11B
330
1F
100
AcDbEntity
  8
0
  6
Continuous
 62
     7
370
    15
100
AcDbLine
 10
-341.1516721429
 20
107.1702884908
 30
0.0
 11
-305.8676893891
 21
96.3828871424
 31
0.0
  0
SPLINE
  5
11C
330
1F
100
AcDbEntity
  8
0
  6
Continuous
 62
     7
370
    15
100
AcDbSpline
210
0.0
220
0.0
230
1.0
 70
     8
 71
     3
 72
    14
 73
    10
 74
     0
 42
0.000000001
 43
0.00000001
 40
0.0
 40
0.0
 40
0.0
 40
0.0
 40
0.0946825536375838
 40
0.1784750279121718
 40
0.2513686715217197
 40
0.3803076769566437
 40
0.501633382714952
 40
0.750778051739892
 40
0.9999999999999999
 40
0.9999999999999999
 40
0.9999999999999999
 40
0.9999999999999999
 10
-338.3727247895388
 20
114.6862069542299
 30
0.0
 10
-338.5114252656978
 20
114.3155043985933
 30
0.0
 10
-338.772873340373
 20
113.6167362895538
 30
0.0
 10
-339.1321477976485
 20
112.652412124185
 30
0.0
 10
-339.5250543913562
 20
111.5949292107727
 30
0.0
 10
-339.9407468100723
 20
110.4700679861395
 30
0.0
 10
-340.4969684501946
 20
108.9598942096396
 30
0.0
 10
-341.0286579622723
 20
107.5074736255161
 30
0.0
 10
-341.1106631773117
 20
107.2826951541065
 30
0.0
 10
-341.1516721429019
 20
107.1702884907614
 30
0.0
  0
SPLINE
  5
11D
330
1F
100
AcDbEntity
  8
0
  6
Continuous
 62
     7
370
    15
100
AcDbSpline
210
0.0
220
0.0
230
1.0
 70
     8
 71
     3
 72
    13
 73
     9
 74
     0
 42
0.000000001
 43
0.00000001
 40
0.0
 40
0.0
 40
0.0
 40
0.0
 40
0.1449106255006503
 40
0.2767695541201668
 40
0.5004194464962491
 40
0.6317262598060748
 40
0.7589419498548512
 40
1.0
 40
1.0
 40
1.0
 40
1.0
 10
-303.668099183002
 20
104.0759319836985
 30
0.0
 10
-303.8343796879394
 20
103.492818142808
 30
0.0
 10
-304.1519642753457
 20
102.3791099023875
 30
0.0
 10
-304.6982007391927
 20
100.4683279079414
 30
0.0
 10
-305.1677410727985
 20
98.82551256721067
 30
0.0
 10
-305.5169401932587
 20
97.60681415638881
 30
0.0
 10
-305.7920772525814
 20
96.64583926675411
 30
0.0
 10
-305.8377764345034
 20
96.48691376202926
 30
0.0
 10
-305.8676893891482
 20
96.38288714240896
 30
0.0
  0
LINE
  5
11E
330
1F
100
AcDbEntity
  8
0
  6
Continuous
 62
     7
370
    15
100
AcDbLine
 10
-359.9267776193
 20
145.42917853
 30
0.0
 11
-351.9267614068
 21
145.42917853
 31
0.0
  0
LINE
  5
11F
330
1F
100
AcDbEntity
  8
0
  6
Continuous
 62
     7
370
    15
100
AcDbLine
 10
-359.9267776193
 20
155.4291788886
 30
0.0
 11
-359.9267776193
 21
145.42917853
 31
0.0
  0
SPLINE
  5
120
330
1F
100
AcDbEntity
  8
0
  6
Continuous
 62
     7
370
    15
100
AcDbSpline
210
0.0
220
0.0
230
1.0
 70
     8
 71
     3
 72
    13
 73
     9
 74
     0
 42
0.000000001
 43
0.00000001
 40
0.0
 40
0.0
 40
0.0
 40
0.0
 40
0.2401406177494503
 40
0.3676245540181047
 40
0.4996962295194982
 40
0.7298200746505393
 40
0.8600214756638844
 40
0.9999999999999999
 40
0.9999999999999999
 40
0.9999999999999999
 40
0.9999999999999999
 10
-359.9267776192813
 20
155.4291788886081
 30
0.0
 10
-359.8193340707438
 20
155.4264528972811
 30
0.0
 10
-359.6548517479142
 20
155.4222797534156
 30
0.0
 10
-358.657326470335
 20
155.3930515611648
 30
0.0
 10
-357.3708454091036
 20
155.355693193784
 30
0.0
 10
-355.6339228163063
 20
155.3033441375946
 30
0.0
 10
-353.6420011782799
 20
155.2420594602548
 30
0.0
 10
-352.512136966619
 20
155.2053585099601
 30
0.0
 10
-351.9267614068179
 20
155.1863439778577
 30
0.0
  0
LINE
  5
121
330
1F
100
AcDbEntity
  8
0
  6
Continuous
 62
     7
370
    15
100
AcDbLine
 10
-321.4193756761
 20
145.42917853
 30
0.0
 11
-351.9267614068
 21
145.42917853
 31
0.0
  0
LINE
  5
122
330
1F
100
AcDbEntity
  8
0
  6
Continuous
 62
     7
370
    15
100
AcDbLine
 10
-263.9267618837
 20
151.6791787396
 30
0.0
 11
-206.926750678
 21
151.6791787396
 31
0.0
  0
LINE
  5
123
330
1F
100
AcDbEntity
  8
0
  6
Continuous
 62
     7
370
    15
100
AcDbLine
 10
-263.9267618837
 20
151.6791787396
 30
0.0
 11
-263.9267618837
 21
158.1791788737
 31
0.0
  0
LINE
  5
124
330
1F
100
AcDbEntity
  8
0
  6
Continuous
 62
     7
370
    15
100
AcDbLine
 10
-263.9267618837
 20
158.1791788737
 30
0.0
 11
-267.8241307916
 21
158.1791788737
 31
0.0
  0
SPLINE
  5
125
330
1F
100
AcDbEntity
  8
0
  6
Continuous
 62
     7
370
    15
100
AcDbSpline
210
0.0
220
0.0
230
1.0
 70
     8
 71
     3
 72
    16
 73
    12
 74
     0
 42
0.000000001
 43
0.00000001
 40
0.0
 40
0.0
 40
0.0
 40
0.0
 40
0.127284985453429
 40
0.2499111032818182
 40
0.3730761661618795
 40
0.4996421406348781
 40
0.5798744912508392
 40
0.6631628385466161
 40
0.7495118795587301
 40
0.8640678570212522
 40
1.0
 40
1.0
 40
1.0
 40
1.0
 10
-341.1516721429019
 20
182.1880685562979
 30
0.0
 10
-341.1410521793671
 20
182.1590352773684
 30
0.0
 10
-341.1202009627499
 20
182.1020313916131
 30
0.0
 10
-340.9565064948775
 20
181.6536136032849
 30
0.0
 10
-340.7040181040529
 20
180.9644224576097
 30
0.0
 10
-340.3998823641417
 20
180.1351144004375
 30
0.0
 10
-340.0841633526045
 20
179.2776469154212
 30
0.0
 10
-339.783092802136
 20
178.4614883627106
 30
0.0
 10
-339.4121159322959
 20
177.4588785344822
 30
0.0
 10
-338.940591942204
 20
176.1903744721004
 30
0.0
 10
-338.5724850151176
 20
175.2062201531579
 30
0.0
 10
-338.3727247895388
 20
174.6721500928293
 30
0.0
  0
LINE
  5
126
330
1F
100
AcDbEntity
  8
0
  6
Continuous
 62
     7
370
    15
100
AcDbLine
 10
-305.8676893891
 20
192.9754699047
 30
0.0
 11
-341.1516721429
 21
182.1880685563
 31
0.0
  0
SPLINE
  5
127
330
1F
100
AcDbEntity
  8
0
  6
Continuous
 62
     7
370
    15
100
AcDbSpline
210
0.0
220
0.0
230
1.0
 70
     8
 71
     3
 72
    13
 73
     9
 74
     0
 42
0.000000001
 43
0.00000001
 40
0.0
 40
0.0
 40
0.0
 40
0.0
 40
0.2390560163190824
 40
0.3667939791243243
 40
0.4996646492918224
 40
0.7217640893465126
 40
0.8539768956269678
 40
1.0
 40
1.0
 40
1.0
 40
1.0
 10
-305.8676893891482
 20
192.9754699046503
 30
0.0
 10
-305.8381880431676
 20
192.8731784718038
 30
0.0
 10
-305.792922852823
 20
192.7162283048017
 30
0.0
 10
-305.5192430920472
 20
191.759863945754
 30
0.0
 10
-305.1702021680378
 20
190.5412989134161
 30
0.0
 10
-304.7008168634511
 20
188.899020621878
 30
0.0
 10
-304.1551035266815
 20
186.9897089942041
 30
0.0
 10
-303.8357182166312
 20
185.8700446325345
 30
0.0
 10
-303.668099183002
 20
185.2824250633608
 30
0.0
  0
LINE
  5
128
330
1F
100
AcDbEntity
  8
0
  6
Continuous
 62
     7
370
    15
100
AcDbLine
 10
-279.9858029069
 20
96.3828871424
 30
0.0
 11
-204.8562045278
 21
116.5138027097
 31
0.0
  0
LINE
  5
129
330
1F
100
AcDbEntity
  8
0
  6
Continuous
 62
     7
370
    15
100
AcDbLine
 10
-204.8562045278
 20
172.8445543374
 30
0.0
 11
-279.9858029069
 21
192.9754699047
 31
0.0
  0
ARC
  5
12A
330
1F
100
AcDbEntity
  8
0
  6
Continuous
 62
     7
370
    15
100
AcDbCircle
 10
-328.9761859703
 20
135.6791785235
 30
0.0
 40
31.00000000000001
100
AcDbArc
 50
183.2361595445
 51
246.8737517395
  0
ARC
  5
12B
330
1F
100
AcDbEntity
  8
0
  6
Continuous
 62
     7
370
    15
100
AcDbCircle
 10
-292.9267513932
 20
144.6791785235
 30
0.0
 40
50.00000000000001
100
AcDbArc
 50
255.0
 51
285.0
  0
ARC
  5
12C
330
1F
100
AcDbEntity
  8
0
  6
Continuous
 62
     7
370
    15
100
AcDbCircle
 10
-328.9761859703
 20
153.6791785235
 30
0.0
 40
31.00000000000002
100
AcDbArc
 50
113.1262482605
 51
176.7638404555
  0
ARC
  5
12D
330
1F
100
AcDbEntity
  8
0
  6
Continuous
 62
     7
370
    15
100
AcDbCircle
 10
-292.9267513932
 20
144.6791785235
 30
0.0
 40
50.00000000000003
100
AcDbArc
 50
75.0
 51
105.0
  0
LINE
  5
12E
330
1F
100
AcDbEntity
  8
0
  6
Continuous
 62
     7
370
    15
100
AcDbLine
 10
-198.9267642678
 20
165.1171474184
 30
0.0
 11
-198.9267642678
 21
151.6791787396
 31
0.0
  0
LINE
  5
12F
330
1F
100
AcDbEntity
  8
0
  6
Continuous
 62
     7
370
    15
100
AcDbLine
 10
-206.926750678
 20
151.6791787396
 30
0.0
 11
-198.9267642678
 21
151.6791787396
 31
0.0
  0
LINE
  5
130
330
1F
100
AcDbEntity
  8
0
  6
Continuous
 62
     7
370
    15
100
AcDbLine
 10
-198.9267642678
 20
124.2412096287
 30
0.0
 11
-198.9267642678
 21
137.6791783075
 31
0.0
  0
LINE
  5
131
330
1F
100
AcDbEntity
  8
0
  6
Continuous
 62
     7
370
    15
100
AcDbLine
 10
-198.9267642678
 20
137.6791783075
 30
0.0
 11
-206.926750678
 21
137.6791783075
 31
0.0
  0
ARC
  5
132
330
1F
100
AcDbEntity
  8
0
  6
Continuous
 62
     7
370
    15
100
AcDbCircle
 10
-206.9267513932
 20
124.2412094954
 30
0.0
 40
7.999999999999993
100
AcDbArc
 50
285.0
 51
0.0
  0
ARC
  5
133
330
1F
100
AcDbEntity
  8
0
  6
Continuous
 62
     7
370
    15
100
AcDbCircle
 10
-206.9267513932
 20
165.1171475517
 30
0.0
 40
8.0
100
AcDbArc
 50
0.0
 51
75.0
  0
LWPOLYLINE
  5
134
330
1F
100
AcDbEntity
  8
0
  6
Continuous
 62
     7
370
    15
100
AcDbPolyline
 90
        9
 70
   128
 43
0.0
 10
-223.9747519673
 20
111.0804202433
 10
-223.7261707963
 20
111.1470247085
 10
-223.4897787751
 20
111.2103695447
 10
-223.2746060075
 20
111.2680221374
 10
-223.0889673413
 20
111.3177622135
 10
-222.9399855317
 20
111.3576861496
 10
-222.8333826245
 20
111.3862516756
 10
-222.773241538
 20
111.4023672814
 10
-222.7618868531
 20
111.4054071183
  0
LINE
  5
135
330
1F
100
AcDbEntity
  8
0
  6
Continuous
 62
     7
370
    15
100
AcDbLine
 10
-223.9747519673
 20
111.391005146
 30
0.0
 11
-223.9747519673
 21
111.0804202433
 31
0.0
  0
LWPOLYLINE
  5
136
330
1F
100
AcDbEntity
  8
0
  6
Continuous
 62
     7
370
    15
100
AcDbPolyline
 90
       19
 70
   128
 43
0.0
 10
-216.8304200353
 20
176.3636218781
 10
-216.8676431359
 20
176.373590755
 10
-217.0180852594
 20
176.4139021213
 10
-217.2793622197
 20
176.4839115019
 10
-217.6430995645
 20
176.5813725467
 10
-218.0976743879
 20
176.7031820888
 10
-218.6286325635
 20
176.8454472
 10
-219.218927163
 20
177.0036230261
 10
-219.8497827233
 20
177.1726543481
 10
-220.5009932698
 20
177.3471469457
 10
-221.1517865838
 20
177.5215277846
 10
-221.7813606443
 20
177.6902238305
 10
-222.3696286859
 20
177.8478483136
 10
-222.8977854432
 20
177.9893646414
 10
-223.3489628019
 20
178.1102577622
 10
-223.7087364377
 20
178.2066608245
 10
-223.965662259
 20
178.275500464
 10
-224.1114850225
 20
178.3145713086
 10
-224.1450126352
 20
178.3235567088
  0
LINE
  5
137
330
1F
100
AcDbEntity
  8
0
  6
Continuous
 62
     7
370
    15
100
AcDbLine
 10
-219.8511834325
 20
112.4959076221
 30
0.0
 11
-219.8511834325
 21
112.1853264446
 31
0.0
  0
LINE
  5
138
330
1F
100
AcDbEntity
  8
0
  6
Continuous
 62
     7
370
    15
100
AcDbLine
 10
-221.0207457723
 20
112.1825287516
 30
0.0
 11
-221.0207457723
 21
111.8719475741
 31
0.0
  0
LINE
  5
139
330
1F
100
AcDbEntity
  8
0
  6
Continuous
 62
     7
370
    15
100
AcDbLine
 10
-221.0207457723
 20
111.8719475741
 30
0.0
 11
-219.8511834325
 21
112.1853264446
 31
0.0
  0
LINE
  5
13A
330
1F
100
AcDbEntity
  8
0
  6
Continuous
 62
     7
370
    15
100
AcDbLine
 10
-222.7618868531
 20
111.4054071183
 30
0.0
 11
-221.0207457723
 21
111.8719475741
 31
0.0
  0
LINE
  5
13B
330
1F
100
AcDbEntity
  8
0
  6
Continuous
 62
     7
370
    15
100
AcDbLine
 10
-216.9267411412
 20
113.2795075352
 30
0.0
 11
-216.9267411412
 21
112.9689263577
 31
0.0
  0
LINE
  5
13C
330
1F
100
AcDbEntity
  8
0
  6
Continuous
 62
     7
370
    15
100
AcDbLine
 10
-219.8511834325
 20
112.1853264446
 30
0.0
 11
-216.9267411412
 21
112.9689263577
 31
0.0
  0
LINE
  5
13D
330
1F
100
AcDbEntity
  8
0
  6
Continuous
 62
     7
370
    15
100
AcDbLine
 10
-227.2540505113
 20
110.2017322953
 30
0.0
 11
-223.9747519673
 21
111.0804202433
 31
0.0
  0
LINE
  5
13E
330
1F
100
AcDbEntity
  8
0
  6
Continuous
 62
     7
370
    15
100
AcDbLine
 10
-227.2540505113
 20
110.5123134727
 30
0.0
 11
-227.2540505113
 21
110.2017322953
 31
0.0
  0
SPLINE
  5
13F
330
1F
100
AcDbEntity
  8
0
  6
Continuous
 62
     7
370
    15
100
AcDbSpline
210
0.0
220
0.0
230
1.0
 70
     8
 71
     3
 72
    10
 73
     6
 74
     0
 42
0.000000001
 43
0.00000001
 40
0.0
 40
0.0
 40
0.0
 40
0.0
 40
0.1336164680906464
 40
0.5668915512693161
 40
1.0
 40
1.0
 40
1.0
 40
1.0
 10
-342.5536925973086
 20
107.8187609488856
 30
0.0
 10
-342.6460178290403
 20
107.8611593669296
 30
0.0
 10
-343.0377239906053
 20
108.0410421711964
 30
0.0
 10
-343.3106552091587
 20
108.1947979811197
 30
0.0
 10
-343.3880379170339
 20
108.2337727974632
 30
0.0
 10
-343.4267218293338
 20
108.2532564575564
 30
0.0
  0
LWPOLYLINE
  5
140
330
1F
100
AcDbEntity
  8
0
  6
Continuous
 62
     7
370
    15
100
AcDbPolyline
 90
        3
 70
   128
 43
0.0
 10
-216.7407746495
 20
176.339597481
 10
-216.7563016595
 20
176.3437623556
 10
-216.8304200353
 20
176.3636218781
  0
LWPOLYLINE
  5
141
330
1F
100
AcDbEntity
  8
0
  6
Continuous
 62
     7
370
    15
100
AcDbPolyline
 90
        4
 70
   128
 43
0.0
 10
-216.9267411412
 20
112.9689263577
 10
-216.8050284566
 20
113.001537549
 10
-216.7449469747
 20
113.017641979
 10
-216.7407746495
 20
113.0187595661
  0
LINE
  5
142
330
1F
100
AcDbEntity
  8
0
  6
Continuous
 62
     7
370
    15
100
AcDbLine
 10
-227.2540505113
 20
179.1566247518
 30
0.0
 11
-227.2540505113
 21
178.8460435743
 31
0.0
  0
LINE
  5
143
330
1F
100
AcDbEntity
  8
0
  6
Continuous
 62
     7
370
    15
100
AcDbLine
 10
-224.1450126352
 20
178.3235567088
 30
0.0
 11
-227.2540505113
 21
179.1566247518
 31
0.0
  0
CIRCLE
  5
144
330
1F
100
AcDbEntity
  8
0
  6
Continuous
 62
     7
370
    15
100
AcDbCircle
 10
49.0035925927
 20
172.9968276396
 30
0.0
 40
5.249999999999962
  0
LWPOLYLINE
  5
145
330
1F
100
AcDbEntity
  8
0
  6
Continuous
 62
     7
370
    15
100
AcDbPolyline
 90
        9
 70
   128
 43
0.0
 10
48.4610323726
 20
170.7520643647
 10
48.2535635053
 20
170.9495550419
 10
48.0446939288
 20
171.1483644719
 10
47.8349153815
 20
171.3480567957
 10
47.6246599971
 20
171.5481887038
 10
47.4144195138
 20
171.7483224745
 10
47.2046260653
 20
171.9480129356
 10
46.99577139
 20
172.1468242283
 10
46.7882876216
 20
172.3443149055
  0
LWPOLYLINE
  5
146
330
1F
100
AcDbEntity
  8
0
  6
Continuous
 62
     7
370
    15
100
AcDbPolyline
 90
        9
 70
   128
 43
0.0
 10
50.6763433038
 20
171.4045769001
 10
50.4015658913
 20
171.3236449684
 10
50.1249556361
 20
171.2421710069
 10
49.8471234856
 20
171.1603356923
 10
49.5686803876
 20
171.0783197011
 10
49.2902372895
 20
170.9963055725
 10
49.0124051391
 20
170.9144702579
 10
48.735809785
 20
170.8329962964
 10
48.4610323726
 20
170.7520643647
  0
LWPOLYLINE
  5
147
330
1F
100
AcDbEntity
  8
0
  6
Continuous
 62
     7
370
    15
100
AcDbPolyline
 90
        9
 70
   128
 43
0.0
 10
51.2188945828
 20
173.6493418391
 10
51.1516009389
 20
173.3709173674
 10
51.0838602601
 20
173.090633976
 10
51.0158066569
 20
172.8091063375
 10
50.9476189433
 20
172.5269584383
 10
50.8794163285
 20
172.244810539
 10
50.8113776265
 20
171.9632847632
 10
50.7436369477
 20
171.6830013717
 10
50.6763433038
 20
171.4045769001
  0
LWPOLYLINE
  5
148
330
1F
100
AcDbEntity
  8
0
  6
Continuous
 62
     7
370
    15
100
AcDbPolyline
 90
        9
 70
   128
 43
0.0
 10
49.5461498319
 20
175.2415923799
 10
49.7536186992
 20
175.04409984
 10
49.9624882756
 20
174.84529041
 10
50.1722668229
 20
174.6455980862
 10
50.3825222073
 20
174.4454661782
 10
50.5927775918
 20
174.2453342701
 10
50.8025561391
 20
174.0456419463
 10
51.0114257155
 20
173.8468325163
 10
51.2188945828
 20
173.6493418391
  0
LWPOLYLINE
  5
149
330
1F
100
AcDbEntity
  8
0
  6
Continuous
 62
     7
370
    15
100
AcDbPolyline
 90
        9
 70
   128
 43
0.0
 10
47.3308538018
 20
174.5890779818
 10
47.6056163131
 20
174.6700117762
 10
47.8822265683
 20
174.751483875
 10
48.1600587188
 20
174.8333191897
 10
48.4385018168
 20
174.9153351809
 10
48.7169449149
 20
174.9973511721
 10
48.9947770654
 20
175.0791846241
 10
49.2713873206
 20
175.1606585855
 10
49.5461498319
 20
175.2415923799
  0
LWPOLYLINE
  5
14A
330
1F
100
AcDbEntity
  8
0
  6
Continuous
 62
     7
370
    15
100
AcDbPolyline
 90
        9
 70
   128
 43
0.0
 10
46.7882876216
 20
172.3443149055
 10
46.8555812655
 20
172.6227375145
 10
46.9233368455
 20
172.9030227686
 10
46.9913755475
 20
173.1845485444
 10
47.0595632611
 20
173.4666964437
 10
47.1277658759
 20
173.7488443429
 10
47.1958045779
 20
174.0303701187
 10
47.2635601579
 20
174.3106535102
 10
47.3308538018
 20
174.5890779818
  0
CIRCLE
  5
14B
330
1F
100
AcDbEntity
  8
0
  6
Continuous
 62
     7
370
    15
100
AcDbCircle
 10
262.3219859483
 20
119.930441182
 30
0.0
 40
5.24999999999996
  0
LWPOLYLINE
  5
14C
330
1F
100
AcDbEntity
  8
0
  6
Continuous
 62
     7
370
    15
100
AcDbPolyline
 90
        9
 70
   128
 43
0.0
 10
262.5064750133
 20
122.2324604566
 10
262.7423063783
 20
122.0698813374
 10
262.9797135411
 20
121.9062162961
 10
263.2181712358
 20
121.7418248231
 10
263.4571579216
 20
121.5770701344
 10
263.6961427449
 20
121.4123154457
 10
263.9346004395
 20
121.2479239727
 10
264.1720076023
 20
121.0842589314
 10
264.4078389673
 20
120.9216779495
  0
LWPOLYLINE
  5
14D
330
1F
100
AcDbEntity
  8
0
  6
Continuous
 62
     7
370
    15
100
AcDbPolyline
 90
        9
 70
   128
 43
0.0
 10
260.4206235079
 20
121.2412240381
 10
260.6793356059
 20
121.3641697938
 10
260.9397781013
 20
121.4879369761
 10
261.2013754366
 20
121.612251776
 10
261.4635483293
 20
121.7368422474
 10
261.7257230846
 20
121.8614327187
 10
261.98732042
 20
121.9857493813
 10
262.2477610527
 20
122.1095165635
 10
262.5064750133
 20
122.2324604566
  0
LWPOLYLINE
  5
14E
330
1F
100
AcDbEntity
  8
0
  6
Continuous
 62
     7
370
    15
100
AcDbPolyline
 90
        9
 70
   128
 43
0.0
 10
262.1374961851
 20
117.6284207429
 10
261.9016648202
 20
117.7909998621
 10
261.66425952
 20
117.954666766
 10
261.4257999627
 20
118.119058239
 10
261.1868151395
 20
118.2838129277
 10
260.9478284536
 20
118.4485676165
 10
260.709370759
 20
118.6129572267
 10
260.4719635962
 20
118.7766241307
 10
260.2361340938
 20
118.9392032499
  0
LWPOLYLINE
  5
14F
330
1F
100
AcDbEntity
  8
0
  6
Continuous
 62
     7
370
    15
100
AcDbPolyline
 90
        9
 70
   128
 43
0.0
 10
264.2233495532
 20
118.619659024
 10
263.9646355925
 20
118.4967132683
 10
263.7041930972
 20
118.372946086
 10
263.4425976245
 20
118.2486294235
 10
263.1804228692
 20
118.1240389521
 10
262.9182481138
 20
117.9994503434
 10
262.6566526411
 20
117.8751336808
 10
262.3962101458
 20
117.7513664986
 10
262.1374961851
 20
117.6284207429
  0
LWPOLYLINE
  5
150
330
1F
100
AcDbEntity
  8
0
  6
Continuous
 62
     7
370
    15
100
AcDbPolyline
 90
        9
 70
   128
 43
0.0
 10
264.4078389673
 20
120.9216779495
 10
264.3849563716
 20
120.6361530746
 10
264.3619210391
 20
120.3487208511
 10
264.338783261
 20
120.0600127156
 10
264.3155933289
 20
119.7706694181
 10
264.2924052595
 20
119.481324258
 10
264.2692674814
 20
119.1926161225
 10
264.2462321488
 20
118.9051838989
 10
264.2233495532
 20
118.619659024
  0
LWPOLYLINE
  5
151
330
1F
100
AcDbEntity
  8
0
  6
Continuous
 62
     7
370
    15
100
AcDbPolyline
 90
        9
 70
   128
 43
0.0
 10
260.2361340938
 20
118.9392032499
 10
260.2590166895
 20
119.2247281248
 10
260.2820520221
 20
119.512162211
 10
260.3051898001
 20
119.8008684839
 10
260.3283778696
 20
120.090213644
 10
260.351565939
 20
120.3795588041
 10
260.3747037171
 20
120.668265077
 10
260.3977409123
 20
120.9556991632
 10
260.4206235079
 20
121.2412240381
  0
ARC
  5
152
330
1F
100
AcDbEntity
  8
0
  6
Continuous
 62
     7
370
    15
100
AcDbCircle
 10
435.5614985861
 20
162.7264736998
 30
0.0
 40
5.250000000000028
100
AcDbArc
 50
359.4838379724
 51
161.4580138582
  0
LWPOLYLINE
  5
153
330
1F
100
AcDbEntity
  8
0
  6
Continuous
 62
     7
370
    15
100
AcDbPolyline
 90
        3
 70
   128
 43
0.0
 10
430.311707121
 20
162.6791777487
 10
430.3215269862
 20
163.0508182968
 10
430.5840258418
 20
164.3959703321
  0
LWPOLYLINE
  5
154
330
1F
100
AcDbEntity
  8
0
  6
Continuous
 62
     7
370
    15
100
AcDbPolyline
 90
        9
 70
   128
 43
0.0
 10
433.3719734965
 20
163.4608628626
 10
433.5866396247
 20
163.6505062158
 10
433.8027511655
 20
163.8414180304
 10
434.0198163806
 20
164.0331754858
 10
434.2373584329
 20
164.2253557618
 10
434.4549004851
 20
164.4175360377
 10
434.6719657002
 20
164.6092934931
 10
434.8880623399
 20
164.8002053077
 10
435.1027433692
 20
164.9898505236
  0
LWPOLYLINE
  5
155
330
1F
100
AcDbEntity
  8
0
  6
Continuous
 62
     7
370
    15
100
AcDbPolyline
 90
        4
 70
   128
 43
0.0
 10
433.5304175435
 20
162.6791777487
 10
433.4861610947
 20
162.897522601
 10
433.4288810311
 20
163.1801305736
 10
433.3719734965
 20
163.4608628626
  0
LWPOLYLINE
  5
156
330
1F
100
AcDbEntity
  8
0
  6
Continuous
 62
     7
370
    15
100
AcDbPolyline
 90
        7
 70
   128
 43
0.0
 10
437.2922603904
 20
164.2554616953
 10
437.3491530238
 20
163.9747294063
 10
437.4064479886
 20
163.6921214337
 10
437.463981372
 20
163.4082599009
 10
437.5216339646
 20
163.1237725193
 10
437.5793014584
 20
162.8392851378
 10
437.6117561875
 20
162.6791777487
  0
LWPOLYLINE
  5
157
330
1F
100
AcDbEntity
  8
0
  6
Continuous
 62
     7
370
    15
100
AcDbPolyline
 90
        9
 70
   128
 43
0.0
 10
435.1027433692
 20
164.9898505236
 10
435.3743021308
 20
164.8987615878
 10
435.6476937352
 20
164.8070654298
 10
435.9222923337
 20
164.7149613525
 10
436.1975018798
 20
164.6226561094
 10
436.4726965247
 20
164.5303490038
 10
436.7472951232
 20
164.4382467891
 10
437.0206867276
 20
164.3465487684
 10
437.2922603904
 20
164.2554616953
  0
ARC
  5
158
330
1F
100
AcDbEntity
  8
0
  6
Continuous
 62
     7
370
    15
100
AcDbCircle
 10
192.5732486068
 20
189.6791785235
 30
0.0
 40
5.000000000000142
100
AcDbArc
 50
90.0
 51
180.0
  0
LINE
  5
159
330
1F
100
AcDbEntity
  8
0
  6
Continuous
 62
     7
370
    15
100
AcDbLine
 10
192.5732468186
 20
194.6791792686
 30
0.0
 11
282.5732503949
 21
194.6791792686
 31
0.0
  0
ARC
  5
15A
330
1F
100
AcDbEntity
  8
0
  6
Continuous
 62
     7
370
    15
100
AcDbCircle
 10
282.5732486068
 20
189.6791785235
 30
0.0
 40
5.000000000000057
100
AcDbArc
 50
0.0
 51
90.0
  0
ARC
  5
15B
330
1F
100
AcDbEntity
  8
0
  6
Continuous
 62
     7
370
    15
100
AcDbCircle
 10
372.7583105465
 20
199.2060511654
 30
0.0
 40
5.000000000000023
100
AcDbArc
 50
76.040042799
 51
166.040042799
  0
LINE
  5
15C
330
1F
100
AcDbEntity
  8
0
  6
Continuous
 62
     7
370
    15
100
AcDbLine
 10
346.1940561353
 20
113.0704591448
 30
0.0
 11
349.5769848047
 21
126.6791792984
 31
0.0
  0
LINE
  5
15D
330
1F
100
AcDbEntity
  8
0
  6
Continuous
 62
     7
370
    15
100
AcDbLine
 10
358.5260783254
 20
162.6791777487
 30
0.0
 11
367.9059867678
 21
200.4122706528
 31
0.0
  0
ARC
  5
15E
330
1F
100
AcDbEntity
  8
0
  6
Continuous
 62
     7
370
    15
100
AcDbCircle
 10
351.0463759649
 20
111.8642404633
 30
0.0
 40
5.000000000000078
100
AcDbArc
 50
166.040042799
 51
256.040042799
  0
ARC
  5
15F
330
1F
100
AcDbEntity
  8
0
  6
Continuous
 62
     7
370
    15
100
AcDbCircle
 10
10.4113254958
 20
121.2299385825
 30
0.0
 40
5.000000000000002
100
AcDbArc
 50
170.5912491413
 51
246.6212433493
  0
ARC
  5
160
330
1F
100
AcDbEntity
  8
0
  6
Continuous
 62
     7
370
    15
100
AcDbCircle
 10
93.0224885478
 20
85.5172554126
 30
0.0
 40
5.000000000000082
100
AcDbArc
 50
260.5912491409
 51
336.6212433493
  0
LINE
  5
161
330
1F
100
AcDbEntity
  8
0
  6
Continuous
 62
     7
370
    15
100
AcDbLine
 10
14.1156886636
 20
114.1813425745
 30
0.0
 11
8.4272895871
 21
116.6404290522
 31
0.0
  0
ARC
  5
162
330
1F
100
AcDbEntity
  8
0
  6
Continuous
 62
     7
370
    15
100
AcDbCircle
 10
130.3420853736
 20
163.5775508874
 30
0.0
 40
5.00000000000009
100
AcDbArc
 50
349.6492006553
 51
62.2750611706
  0
LINE
  5
163
330
1F
100
AcDbEntity
  8
0
  6
Continuous
 62
     7
370
    15
100
AcDbLine
 10
97.1544955788
 20
89.6838577862
 30
0.0
 11
92.8975765525
 21
81.5842049594
 31
0.0
  0
ARC
  5
164
330
1F
100
AcDbEntity
  8
0
  6
Continuous
 62
     7
370
    15
100
AcDbCircle
 10
88.4716209706
 20
83.9103417567
 30
0.0
 40
5.000000000000013
100
AcDbArc
 50
242.2750611706
 51
332.2750611706
  0
ARC
  5
165
330
1F
100
AcDbEntity
  8
0
  6
Continuous
 62
     7
370
    15
100
AcDbCircle
 10
237.5730942496
 20
208.3187888301
 30
0.0
 40
5.000000000000076
100
AcDbArc
 50
45.0001389703
 51
135.0001389703
  0
LINE
  5
166
330
1F
100
AcDbEntity
  8
0
  6
Continuous
 62
     7
370
    15
100
AcDbLine
 10
241.1086196477
 20
211.8543284411
 30
0.0
 11
258.2838565974
 21
194.6791792686
 31
0.0
  0
LINE
  5
167
330
1F
100
AcDbEntity
  8
0
  6
Continuous
 62
     7
370
    15
100
AcDbLine
 10
287.5732493518
 20
165.3899280752
 30
0.0
 11
290.2840127169
 21
162.6791777487
 31
0.0
  0
LINE
  5
168
330
1F
100
AcDbEntity
  8
0
  6
Continuous
 62
     7
370
    15
100
AcDbLine
 10
350.2909590422
 20
162.6791777487
 30
0.0
 11
360.8251933871
 21
171.9279690112
 31
0.0
  0
LINE
  5
169
330
1F
100
AcDbEntity
  8
0
  6
Continuous
 62
     7
370
    15
100
AcDbLine
 10
392.2453050433
 20
199.5140323813
 30
0.0
 11
406.400812131
 21
211.9422080393
 31
0.0
  0
ARC
  5
16A
330
1F
100
AcDbEntity
  8
0
  6
Continuous
 62
     7
370
    15
100
AcDbCircle
 10
409.6996663366
 20
208.1848686365
 30
0.0
 40
5.000000000000014
100
AcDbArc
 50
41.2823106478
 51
131.2823106478
  0
ARC
  5
16B
330
1F
100
AcDbEntity
  8
0
  6
Continuous
 62
     7
370
    15
100
AcDbCircle
 10
46.1240086657
 20
203.8411016345
 30
0.0
 40
5.000000000000075
100
AcDbArc
 50
80.591249141
 51
156.6212433493
  0
LINE
  5
16C
330
1F
100
AcDbEntity
  8
0
  6
Continuous
 62
     7
370
    15
100
AcDbLine
 10
125.0308130799
 20
175.1770144726
 30
0.0
 11
130.7192121564
 21
172.7179279948
 31
0.0
  0
ARC
  5
16D
330
1F
100
AcDbEntity
  8
0
  6
Continuous
 62
     7
370
    15
100
AcDbCircle
 10
128.7351717177
 20
168.1284184646
 30
0.0
 40
5.000000000000028
100
AcDbArc
 50
350.5912491408
 51
66.6212433493
  0
ARC
  5
16E
330
1F
100
AcDbEntity
  8
0
  6
Continuous
 62
     7
370
    15
100
AcDbCircle
 10
237.5734029639
 20
81.0395682169
 30
0.0
 40
5.000000000000097
100
AcDbArc
 50
225.0001389703
 51
315.0001389703
  0
LINE
  5
16F
330
1F
100
AcDbEntity
  8
0
  6
Continuous
 62
     7
370
    15
100
AcDbLine
 10
234.0378775658
 20
77.5040286059
 30
0.0
 11
216.8626406161
 21
94.6791777785
 31
0.0
  0
LINE
  5
170
330
1F
100
AcDbEntity
  8
0
  6
Continuous
 62
     7
370
    15
100
AcDbLine
 10
187.5732478617
 20
123.9684289719
 30
0.0
 11
184.8624844967
 21
126.6791792984
 31
0.0
  0
ARC
  5
171
330
1F
100
AcDbEntity
  8
0
  6
Continuous
 62
     7
370
    15
100
AcDbCircle
 10
32.1719659531
 20
196.1684400822
 30
0.0
 40
5.000000000000103
100
AcDbArc
 50
80.9942782041
 51
170.9942782041
  0
LINE
  5
172
330
1F
100
AcDbEntity
  8
0
  6
Continuous
 62
     7
370
    15
100
AcDbLine
 10
32.9546307145
 20
201.1068026001
 30
0.0
 11
121.8451757847
 21
187.0188238497
 31
0.0
  0
ARC
  5
173
330
1F
100
AcDbEntity
  8
0
  6
Continuous
 62
     7
370
    15
100
AcDbCircle
 10
121.0625101655
 20
182.0804611772
 30
0.0
 40
5.00000000000005
100
AcDbArc
 50
350.9942782041
 51
80.9942782041
  0
LINE
  5
174
330
1F
100
AcDbEntity
  8
0
  6
Continuous
 62
     7
370
    15
100
AcDbLine
 10
464.9524514495
 20
176.2878979022
 30
0.0
 11
461.5695153294
 21
162.6791777487
 31
0.0
  0
LINE
  5
175
330
1F
100
AcDbEntity
  8
0
  6
Continuous
 62
     7
370
    15
100
AcDbLine
 10
452.6204143582
 20
126.6791792984
 30
0.0
 11
443.2405059157
 21
88.9460863943
 31
0.0
  0
ARC
  5
176
330
1F
100
AcDbEntity
  8
0
  6
Continuous
 62
     7
370
    15
100
AcDbCircle
 10
438.388186667
 20
90.1523058817
 30
0.0
 40
5.000000000000037
100
AcDbArc
 50
256.040042799
 51
346.040042799
  0
ARC
  5
177
330
1F
100
AcDbEntity
  8
0
  6
Continuous
 62
     7
370
    15
100
AcDbCircle
 10
460.1001212486
 20
177.4941165838
 30
0.0
 40
5.000000000000078
100
AcDbArc
 50
346.040042799
 51
76.040042799
  0
ARC
  5
178
330
1F
100
AcDbEntity
  8
0
  6
Continuous
 62
     7
370
    15
100
AcDbCircle
 10
282.5732486068
 20
99.6791785235
 30
0.0
 40
5.000000000000057
100
AcDbArc
 50
270.0
 51
0.0
  0
LINE
  5
179
330
1F
100
AcDbEntity
  8
0
  6
Continuous
 62
     7
370
    15
100
AcDbLine
 10
282.5732503949
 20
94.6791777785
 30
0.0
 11
192.5732468186
 21
94.6791777785
 31
0.0
  0
ARC
  5
17A
330
1F
100
AcDbEntity
  8
0
  6
Continuous
 62
     7
370
    15
100
AcDbCircle
 10
192.5732486068
 20
99.6791785235
 30
0.0
 40
5.000000000000028
100
AcDbArc
 50
180.0
 51
270.0
  0
ARC
  5
17B
330
1F
100
AcDbEntity
  8
0
  6
Continuous
 62
     7
370
    15
100
AcDbCircle
 10
106.9745312604
 20
93.1899169648
 30
0.0
 40
5.00000000000011
100
AcDbArc
 50
260.9942782041
 51
350.9942782041
  0
LINE
  5
17C
330
1F
100
AcDbEntity
  8
0
  6
Continuous
 62
     7
370
    15
100
AcDbLine
 10
106.191871029
 20
88.2515544469
 30
0.0
 11
17.3013185082
 21
102.3395331974
 31
0.0
  0
ARC
  5
17D
330
1F
100
AcDbEntity
  8
0
  6
Continuous
 62
     7
370
    15
100
AcDbCircle
 10
18.0839870481
 20
107.2778958698
 30
0.0
 40
5.000000000000011
100
AcDbArc
 50
170.9942782041
 51
260.9942782041
  0
LINE
  5
17E
330
1F
100
AcDbEntity
  8
0
  6
Continuous
 62
     7
370
    15
100
AcDbLine
 10
460.855541092
 20
126.6791792984
 30
0.0
 11
450.3212992965
 21
117.4303880359
 31
0.0
  0
LINE
  5
17F
330
1F
100
AcDbEntity
  8
0
  6
Continuous
 62
     7
370
    15
100
AcDbLine
 10
418.9011876403
 20
89.8443246658
 30
0.0
 11
404.7456805526
 21
77.4161490078
 31
0.0
  0
ARC
  5
180
330
1F
100
AcDbEntity
  8
0
  6
Continuous
 62
     7
370
    15
100
AcDbCircle
 10
401.4468308769
 20
81.1734884106
 30
0.0
 40
5.000000000000031
100
AcDbArc
 50
221.2823106478
 51
311.2823106478
  0
ARC
  5
181
330
1F
100
AcDbEntity
  8
0
  6
Continuous
 62
     7
370
    15
100
AcDbCircle
 10
8.8044118399
 20
125.7808061597
 30
0.0
 40
5.000000000000075
100
AcDbArc
 50
169.6492006553
 51
242.2750611706
  0
LINE
  5
182
330
1F
100
AcDbEntity
  8
0
  6
Continuous
 62
     7
370
    15
100
AcDbLine
 10
41.9920061646
 20
199.6744992609
 30
0.0
 11
46.248925191
 21
207.7741520877
 31
0.0
  0
ARC
  5
183
330
1F
100
AcDbEntity
  8
0
  6
Continuous
 62
     7
370
    15
100
AcDbCircle
 10
50.6748762429
 20
205.4480152904
 30
0.0
 40
5.000000000000052
100
AcDbArc
 50
62.2750611706
 51
152.2750611706
  0
LINE
  5
184
330
1F
100
AcDbEntity
  8
0
  6
Continuous
 62
     7
370
    15
100
AcDbLine
 10
86.1454878865
 20
79.484385478
 30
0.0
 11
53.6069546758
 21
96.5855690117
 31
0.0
  0
LINE
  5
185
330
1F
100
AcDbEntity
  8
0
  6
Continuous
 62
     7
370
    15
100
AcDbLine
 10
14.5779226838
 20
117.0979394044
 30
0.0
 11
6.4782773076
 21
121.3548509802
 31
0.0
  0
LINE
  5
186
330
1F
100
AcDbEntity
  8
0
  6
Continuous
 62
     7
370
    15
100
AcDbLine
 10
53.001013857
 20
209.8739715691
 30
0.0
 11
85.5395470677
 21
192.7727880354
 31
0.0
  0
LINE
  5
187
330
1F
100
AcDbEntity
  8
0
  6
Continuous
 62
     7
370
    15
100
AcDbLine
 10
124.5685716091
 20
172.2604176427
 30
0.0
 11
132.6682244359
 21
168.0035060669
 31
0.0
  0
CIRCLE
  5
188
330
1F
100
AcDbEntity
  8
0
  6
Continuous
 62
     7
370
    15
100
AcDbCircle
 10
90.1429046208
 20
116.3615294074
 30
0.0
 40
7.499999999999985
  0
ARC
  5
189
330
1F
100
AcDbEntity
  8
0
  6
Continuous
 62
     7
370
    15
100
AcDbCircle
 10
41.2555994906
 20
124.1095225095
 30
0.0
 40
7.50000000000002
100
AcDbArc
 50
159.9633718456
 51
20.0366281544
  0
CIRCLE
  5
18A
330
1F
100
AcDbEntity
  8
0
  6
Continuous
 62
     7
370
    15
100
AcDbCircle
 10
49.0035925927
 20
172.9968276396
 30
0.0
 40
7.499999999999985
  0
ARC
  5
18B
330
1F
100
AcDbEntity
  8
0
  6
Continuous
 62
     7
370
    15
100
AcDbCircle
 10
97.8908977229
 20
165.2488345376
 30
0.0
 40
7.500000000000008
100
AcDbArc
 50
80.9942782041
 51
200.0366281544
  0
ARC
  5
18C
330
1F
100
AcDbEntity
  8
0
  6
Continuous
 62
     7
370
    15
100
AcDbCircle
 10
97.8908977229
 20
165.2488345376
 30
0.0
 40
7.500000000000017
100
AcDbArc
 50
339.9633718456
 51
80.9942782041
  0
LINE
  5
18D
330
1F
100
AcDbEntity
  8
0
  6
Continuous
 62
     7
370
    15
100
AcDbLine
 10
126.0008712231
 20
181.2977949555
 30
0.0
 11
123.0500687776
 21
162.6791777487
 31
0.0
  0
LINE
  5
18E
330
1F
100
AcDbEntity
  8
0
  6
Continuous
 62
     7
370
    15
100
AcDbLine
 10
117.3445408164
 20
126.6791792984
 30
0.0
 11
111.9128887473
 21
92.4072498853
 31
0.0
  0
LINE
  5
18F
330
1F
100
AcDbEntity
  8
0
  6
Continuous
 62
     7
370
    15
100
AcDbLine
 10
13.1456230698
 20
108.0605620916
 30
0.0
 11
16.0964255153
 21
126.6791792984
 31
0.0
  0
LINE
  5
190
330
1F
100
AcDbEntity
  8
0
  6
Continuous
 62
     7
370
    15
100
AcDbLine
 10
21.8019609271
 20
162.6791777487
 30
0.0
 11
27.233598095
 21
196.9511071617
 31
0.0
  0
ARC
  5
191
330
1F
100
AcDbEntity
  8
0
  6
Continuous
 62
     7
370
    15
100
AcDbCircle
 10
97.8908977229
 20
165.2488345376
 30
0.0
 40
3.10000000000074
100
AcDbArc
 50
80.9942782041
 51
235.9880878407
  0
ARC
  5
192
330
1F
100
AcDbEntity
  8
0
  6
Continuous
 62
     7
370
    15
100
AcDbCircle
 10
97.8908977229
 20
165.2488345376
 30
0.0
 40
3.100000000000741
100
AcDbArc
 50
304.0119121593
 51
80.9942782041
  0
CIRCLE
  5
193
330
1F
100
AcDbEntity
  8
0
  6
Continuous
 62
     7
370
    15
100
AcDbCircle
 10
90.1429046208
 20
116.3615294074
 30
0.0
 40
3.100000000000007
  0
ARC
  5
194
330
1F
100
AcDbEntity
  8
0
  6
Continuous
 62
     7
370
    15
100
AcDbCircle
 10
41.2555994906
 20
124.1095225095
 30
0.0
 40
3.100000000001457
100
AcDbArc
 50
124.0119121592
 51
55.9880878408
  0
LINE
  5
195
330
1F
100
AcDbEntity
  8
0
  6
Continuous
 62
     7
370
    15
100
AcDbLine
 10
413.4570036946
 20
211.4837142105
 30
0.0
 11
432.8220461427
 21
189.4272314782
 31
0.0
  0
LINE
  5
196
330
1F
100
AcDbEntity
  8
0
  6
Continuous
 62
     7
370
    15
100
AcDbLine
 10
397.689488989
 20
77.8746428366
 30
0.0
 11
378.3244614421
 21
99.9311255689
 31
0.0
  0
LINE
  5
197
330
1F
100
AcDbEntity
  8
0
  6
Continuous
 62
     7
370
    15
100
AcDbLine
 10
437.1819619952
 20
85.2999845917
 30
0.0
 11
349.8401542126
 21
107.0119189496
 31
0.0
  0
LWPOLYLINE
  5
198
330
1F
100
AcDbEntity
  8
0
  6
Continuous
 62
     7
370
    15
100
AcDbPolyline
 90
        3
 70
   128
 43
0.0
 10
382.8634892522
 20
124.8225560809
 10
383.0822681008
 20
126.4295159305
 10
383.0848460017
 20
126.6791792984
  0
ARC
  5
199
330
1F
100
AcDbEntity
  8
0
  6
Continuous
 62
     7
370
    15
100
AcDbCircle
 10
375.5849986275
 20
126.6318833473
 30
0.0
 40
7.500000000000016
100
AcDbArc
 50
179.6386890731
 51
346.040042799
  0
ARC
  5
19A
330
1F
100
AcDbEntity
  8
0
  6
Continuous
 62
     7
370
    15
100
AcDbCircle
 10
435.5614985861
 20
162.7264736998
 30
0.0
 40
7.500000000000027
100
AcDbArc
 50
359.6386890731
 51
180.3613109269
  0
CIRCLE
  5
19B
330
1F
100
AcDbEntity
  8
0
  6
Continuous
 62
     7
370
    15
100
AcDbCircle
 10
423.620543783
 20
114.6909285442
 30
0.0
 40
7.499999999999953
  0
CIRCLE
  5
19C
330
1F
100
AcDbEntity
  8
0
  6
Continuous
 62
     7
370
    15
100
AcDbCircle
 10
387.5259534305
 20
174.6674285028
 30
0.0
 40
7.500000000000014
  0
LINE
  5
19D
330
1F
100
AcDbEntity
  8
0
  6
Continuous
 62
     7
370
    15
100
AcDbLine
 10
373.9645306884
 20
204.0583724553
 30
0.0
 11
461.3063459216
 21
182.3464380975
 31
0.0
  0
CIRCLE
  5
19E
330
1F
100
AcDbEntity
  8
0
  6
Continuous
 62
     7
370
    15
100
AcDbCircle
 10
387.5259534305
 20
174.6674285028
 30
0.0
 40
3.100000000001434
  0
LINE
  5
19F
330
1F
100
AcDbEntity
  8
0
  6
Continuous
 62
     7
370
    15
100
AcDbLine
 10
378.5934423028
 20
125.8840272601
 30
0.0
 11
378.6846374093
 21
126.6791792984
 31
0.0
  0
ARC
  5
1A0
330
1F
100
AcDbEntity
  8
0
  6
Continuous
 62
     7
370
    15
100
AcDbCircle
 10
375.5849986275
 20
126.6318833473
 30
0.0
 40
3.10000000000004
100
AcDbArc
 50
179.1258325401
 51
346.040042799
  0
CIRCLE
  5
1A1
330
1F
100
AcDbEntity
  8
0
  6
Continuous
 62
     7
370
    15
100
AcDbCircle
 10
423.620543783
 20
114.6909285442
 30
0.0
 40
3.100000000000738
  0
LINE
  5
1A2
330
1F
100
AcDbEntity
  8
0
  6
Continuous
 62
     7
370
    15
100
AcDbLine
 10
100.0710849582
 20
89.2216163154
 30
0.0
 11
97.6119910298
 21
83.5332172389
 31
0.0
  0
LINE
  5
1A3
330
1F
100
AcDbEntity
  8
0
  6
Continuous
 62
     7
370
    15
100
AcDbLine
 10
39.0754167853
 20
200.1367407317
 30
0.0
 11
41.5344958125
 21
205.8251398082
 31
0.0
  0
ARC
  5
1A4
330
1F
100
AcDbEntity
  8
0
  6
Continuous
 62
     7
370
    15
100
AcDbCircle
 10
212.8245112652
 20
169.4279158651
 30
0.0
 40
7.499999999999998
100
AcDbArc
 50
295.8640533891
 51
244.1359466109
  0
ARC
  5
1A5
330
1F
100
AcDbEntity
  8
0
  6
Continuous
 62
     7
370
    15
100
AcDbCircle
 10
262.3219859483
 20
169.4279158651
 30
0.0
 40
7.500000000000026
100
AcDbArc
 50
295.8640533891
 51
244.1359466109
  0
ARC
  5
1A6
330
1F
100
AcDbEntity
  8
0
  6
Continuous
 62
     7
370
    15
100
AcDbCircle
 10
262.3219859483
 20
119.930441182
 30
0.0
 40
7.500000000000024
100
AcDbArc
 50
270.0
 51
64.1359466109
  0
ARC
  5
1A7
330
1F
100
AcDbEntity
  8
0
  6
Continuous
 62
     7
370
    15
100
AcDbCircle
 10
262.3219859483
 20
119.930441182
 30
0.0
 40
7.5
100
AcDbArc
 50
115.8640533891
 51
270.0
  0
ARC
  5
1A8
330
1F
100
AcDbEntity
  8
0
  6
Continuous
 62
     7
370
    15
100
AcDbCircle
 10
212.8245112652
 20
119.930441182
 30
0.0
 40
7.5
100
AcDbArc
 50
270.0
 51
64.1359466109
  0
ARC
  5
1A9
330
1F
100
AcDbEntity
  8
0
  6
Continuous
 62
     7
370
    15
100
AcDbCircle
 10
212.8245112652
 20
119.930441182
 30
0.0
 40
7.5
100
AcDbArc
 50
115.8640533891
 51
270.0
  0
LINE
  5
1AA
330
1F
100
AcDbEntity
  8
0
  6
Continuous
 62
     7
370
    15
100
AcDbLine
 10
287.5732493518
 20
189.6791803117
 30
0.0
 11
287.5732493518
 21
162.6791777487
 31
0.0
  0
LINE
  5
1AB
330
1F
100
AcDbEntity
  8
0
  6
Continuous
 62
     7
370
    15
100
AcDbLine
 10
287.5732493518
 20
126.6791792984
 30
0.0
 11
287.5732493518
 21
99.6791767354
 31
0.0
  0
LINE
  5
1AC
330
1F
100
AcDbEntity
  8
0
  6
Continuous
 62
     7
370
    15
100
AcDbLine
 10
187.5732478617
 20
99.6791767354
 30
0.0
 11
187.5732478617
 21
126.6791792984
 31
0.0
  0
LINE
  5
1AD
330
1F
100
AcDbEntity
  8
0
  6
Continuous
 62
     7
370
    15
100
AcDbLine
 10
187.5732478617
 20
162.6791777487
 30
0.0
 11
187.5732478617
 21
189.6791803117
 31
0.0
  0
CIRCLE
  5
1AE
330
1F
100
AcDbEntity
  8
0
  6
Continuous
 62
     7
370
    15
100
AcDbCircle
 10
262.3219859483
 20
169.4279158651
 30
0.0
 40
3.100000000001472
  0
CIRCLE
  5
1AF
330
1F
100
AcDbEntity
  8
0
  6
Continuous
 62
     7
370
    15
100
AcDbCircle
 10
212.8245112652
 20
169.4279158651
 30
0.0
 40
3.099999999999994
  0
CIRCLE
  5
1B0
330
1F
100
AcDbEntity
  8
0
  6
Continuous
 62
     7
370
    15
100
AcDbCircle
 10
212.8245112652
 20
119.930441182
 30
0.0
 40
3.100000000000733
  0
LINE
  5
1B1
330
1F
100
AcDbEntity
  8
0
  6
Continuous
 62
     7
370
    15
100
AcDbLine
 10
290.2838413535
 20
126.6791792984
 30
0.0
 11
287.5732493518
 21
123.9685705329
 31
0.0
  0
LINE
  5
1B2
330
1F
100
AcDbEntity
  8
0
  6
Continuous
 62
     7
370
    15
100
AcDbLine
 10
258.2839981584
 20
94.6791777785
 30
0.0
 11
241.1089453778
 21
77.5040435071
 31
0.0
  0
LINE
  5
1B3
330
1F
100
AcDbEntity
  8
0
  6
Continuous
 62
     7
370
    15
100
AcDbLine
 10
184.86265586
 20
162.6791777487
 30
0.0
 11
187.5732478617
 21
165.3897865142
 31
0.0
  0
LINE
  5
1B4
330
1F
100
AcDbEntity
  8
0
  6
Continuous
 62
     7
370
    15
100
AcDbLine
 10
216.8624990551
 20
194.6791792686
 30
0.0
 11
234.0375518358
 21
211.85431354
 31
0.0
  0
LINE
  5
1B5
330
1F
100
AcDbEntity
  8
0
  6
Continuous
 62
     7
370
    15
100
AcDbLine
 10
-50.9267623605
 20
182.5590031619
 30
0.0
 11
-53.926753539
 21
182.5590031619
 31
0.0
  0
LINE
  5
1B6
330
1F
100
AcDbEntity
  8
0
  6
Continuous
 62
     7
370
    15
100
AcDbLine
 10
-39.4267614068
 20
177.1291802103
 30
0.0
 11
-65.4267544927
 21
177.1291802103
 31
0.0
  0
LINE
  5
1B7
330
1F
100
AcDbEntity
  8
0
  6
Continuous
 62
     7
370
    15
100
AcDbLine
 10
-65.4267544927
 20
111.929179209
 30
0.0
 11
-65.2152176084
 21
111.929179209
 31
0.0
  0
LINE
  5
1B8
330
1F
100
AcDbEntity
  8
0
  6
Continuous
 62
     7
370
    15
100
AcDbLine
 10
-39.6382684888
 20
111.929179209
 30
0.0
 11
-39.4267614068
 21
111.929179209
 31
0.0
  0
LINE
  5
1B9
330
1F
100
AcDbEntity
  8
0
  6
Continuous
 62
     7
370
    15
100
AcDbLine
 10
-53.7780697526
 20
106.4993562574
 30
0.0
 11
-50.9267623605
 21
106.4993562574
 31
0.0
  0
LINE
  5
1BA
330
1F
100
AcDbEntity
  8
0
  6
Continuous
 62
     7
370
    15
100
AcDbLine
 10
-53.926753539
 20
106.4993562574
 30
0.0
 11
-53.7780697526
 21
106.4993562574
 31
0.0
  0
LINE
  5
1BB
330
1F
100
AcDbEntity
  8
0
  6
Continuous
 62
     7
370
    15
100
AcDbLine
 10
526.2219433604
 20
106.4993562574
 30
0.0
 11
529.0732507525
 21
106.4993562574
 31
0.0
  0
LINE
  5
1BC
330
1F
100
AcDbEntity
  8
0
  6
Continuous
 62
     7
370
    15
100
AcDbLine
 10
526.073259574
 20
106.4993562574
 30
0.0
 11
526.2219433604
 21
106.4993562574
 31
0.0
  0
LINE
  5
1BD
330
1F
100
AcDbEntity
  8
0
  6
Continuous
 62
     7
370
    15
100
AcDbLine
 10
514.5732586203
 20
111.929179209
 30
0.0
 11
540.5732517062
 21
111.929179209
 31
0.0
  0
LINE
  5
1BE
330
1F
100
AcDbEntity
  8
0
  6
Continuous
 62
     7
370
    15
100
AcDbLine
 10
308.5732509313
 20
111.929179209
 30
0.0
 11
334.5732514678
 21
111.929179209
 31
0.0
  0
LINE
  5
1BF
330
1F
100
AcDbEntity
  8
0
  6
Continuous
 62
     7
370
    15
100
AcDbLine
 10
320.221943122
 20
106.4993562574
 30
0.0
 11
323.0732505141
 21
106.4993562574
 31
0.0
  0
LINE
  5
1C0
330
1F
100
AcDbEntity
  8
0
  6
Continuous
 62
     7
370
    15
100
AcDbLine
 10
320.073251885
 20
106.4993562574
 30
0.0
 11
320.221943122
 21
106.4993562574
 31
0.0
  0
LINE
  5
1C1
330
1F
100
AcDbEntity
  8
0
  6
Continuous
 62
     7
370
    15
100
AcDbLine
 10
140.5732457457
 20
111.929179209
 30
0.0
 11
166.5732462822
 21
111.929179209
 31
0.0
  0
LINE
  5
1C2
330
1F
100
AcDbEntity
  8
0
  6
Continuous
 62
     7
370
    15
100
AcDbLine
 10
152.221945387
 20
106.4993562574
 30
0.0
 11
155.0732453285
 21
106.4993562574
 31
0.0
  0
LINE
  5
1C3
330
1F
100
AcDbEntity
  8
0
  6
Continuous
 62
     7
370
    15
100
AcDbLine
 10
152.0732466994
 20
106.4993562574
 30
0.0
 11
152.221945387
 21
106.4993562574
 31
0.0
  0
LINE
  5
1C4
330
1F
100
AcDbEntity
  8
0
  6
Continuous
 62
     7
370
    15
100
AcDbLine
 10
323.0732505141
 20
182.3590035016
 30
0.0
 11
320.073251885
 21
182.3590035016
 31
0.0
  0
LINE
  5
1C5
330
1F
100
AcDbEntity
  8
0
  6
Continuous
 62
     7
370
    15
100
AcDbLine
 10
334.5732514678
 20
176.9291768248
 30
0.0
 11
308.5732509313
 21
176.9291768248
 31
0.0
  0
LINE
  5
1C6
330
1F
100
AcDbEntity
  8
0
  6
Continuous
 62
     7
370
    15
100
AcDbLine
 10
155.0732453285
 20
182.3590035016
 30
0.0
 11
152.0732466994
 21
182.3590035016
 31
0.0
  0
LINE
  5
1C7
330
1F
100
AcDbEntity
  8
0
  6
Continuous
 62
     7
370
    15
100
AcDbLine
 10
166.5732462822
 20
176.9291768248
 30
0.0
 11
140.5732457457
 21
176.9291768248
 31
0.0
  0
LINE
  5
1C8
330
1F
100
AcDbEntity
  8
0
  6
Continuous
 62
     7
370
    15
100
AcDbLine
 10
-53.7780697526
 20
106.6993559177
 30
0.0
 11
-50.9267623605
 21
106.6993559177
 31
0.0
  0
LINE
  5
1C9
330
1F
100
AcDbEntity
  8
0
  6
Continuous
 62
     7
370
    15
100
AcDbLine
 10
-53.926753539
 20
106.6993559177
 30
0.0
 11
-53.7780697526
 21
106.6993559177
 31
0.0
  0
LINE
  5
1CA
330
1F
100
AcDbEntity
  8
0
  6
Continuous
 62
     7
370
    15
100
AcDbLine
 10
-65.4267544927
 20
112.1291788692
 30
0.0
 11
-39.4267614068
 21
112.1291788692
 31
0.0
  0
LINE
  5
1CB
330
1F
100
AcDbEntity
  8
0
  6
Continuous
 62
     7
370
    15
100
AcDbLine
 10
529.0732507525
 20
182.3590035016
 30
0.0
 11
526.073259574
 21
182.3590035016
 31
0.0
  0
LINE
  5
1CC
330
1F
100
AcDbEntity
  8
0
  6
Continuous
 62
     7
370
    15
100
AcDbLine
 10
540.5732517062
 20
176.9291768248
 30
0.0
 11
514.5732586203
 21
176.9291768248
 31
0.0
  0
LINE
  5
1CD
330
1F
100
AcDbEntity
  8
0
  6
Continuous
 62
     7
370
    15
100
AcDbLine
 10
-35.4267533006
 20
122.1791776295
 30
0.0
 11
-35.4350383462
 21
122.1791776295
 31
0.0
  0
LINE
  5
1CE
330
1F
100
AcDbEntity
  8
0
  6
Continuous
 62
     7
370
    15
100
AcDbLine
 10
-69.4184775533
 20
122.1791776295
 30
0.0
 11
-69.4267625989
 21
122.1791776295
 31
0.0
  0
LINE
  5
1CF
330
1F
100
AcDbEntity
  8
0
  6
Continuous
 62
     7
370
    15
100
AcDbLine
 10
517.9889325915
 20
126.4791777755
 30
0.0
 11
510.5732505141
 21
126.4791777755
 31
0.0
  0
LINE
  5
1D0
330
1F
100
AcDbEntity
  8
0
  6
Continuous
 62
     7
370
    15
100
AcDbLine
 10
544.5732598124
 20
126.4791777755
 30
0.0
 11
517.9889325915
 21
126.4791777755
 31
0.0
  0
LINE
  5
1D1
330
1F
100
AcDbEntity
  8
0
  6
Continuous
 62
     7
370
    15
100
AcDbLine
 10
544.5732598124
 20
122.1791776295
 30
0.0
 11
510.5732505141
 21
122.1791776295
 31
0.0
  0
LINE
  5
1D2
330
1F
100
AcDbEntity
  8
0
  6
Continuous
 62
     7
370
    15
100
AcDbLine
 10
304.5732502757
 20
166.7791782344
 30
0.0
 11
338.5732521234
 21
166.7791782344
 31
0.0
  0
LINE
  5
1D3
330
1F
100
AcDbEntity
  8
0
  6
Continuous
 62
     7
370
    15
100
AcDbLine
 10
170.5732469378
 20
122.1791776295
 30
0.0
 11
136.5732450901
 21
122.1791776295
 31
0.0
  0
LINE
  5
1D4
330
1F
100
AcDbEntity
  8
0
  6
Continuous
 62
     7
370
    15
100
AcDbLine
 10
143.9889420687
 20
126.4791777755
 30
0.0
 11
136.5732450901
 21
126.4791777755
 31
0.0
  0
LINE
  5
1D5
330
1F
100
AcDbEntity
  8
0
  6
Continuous
 62
     7
370
    15
100
AcDbLine
 10
170.5732469378
 20
126.4791777755
 30
0.0
 11
143.9889420687
 21
126.4791777755
 31
0.0
  0
LINE
  5
1D6
330
1F
100
AcDbEntity
  8
0
  6
Continuous
 62
     7
370
    15
100
AcDbLine
 10
510.5732505141
 20
166.7791782344
 30
0.0
 11
544.5732598124
 21
166.7791782344
 31
0.0
  0
LINE
  5
1D7
330
1F
100
AcDbEntity
  8
0
  6
Continuous
 62
     7
370
    15
100
AcDbLine
 10
136.5732450901
 20
166.7791782344
 30
0.0
 11
170.5732469378
 21
166.7791782344
 31
0.0
  0
LINE
  5
1D8
330
1F
100
AcDbEntity
  8
0
  6
Continuous
 62
     7
370
    15
100
AcDbLine
 10
-69.4267625989
 20
166.9791778947
 30
0.0
 11
-35.4267533006
 21
166.9791778947
 31
0.0
  0
LINE
  5
1D9
330
1F
100
AcDbEntity
  8
0
  6
Continuous
 62
     7
370
    15
100
AcDbLine
 10
-35.4267533006
 20
122.3791791524
 30
0.0
 11
-69.4267625989
 21
122.3791791524
 31
0.0
  0
LINE
  5
1DA
330
1F
100
AcDbEntity
  8
0
  6
Continuous
 62
     7
370
    15
100
AcDbLine
 10
338.5732521234
 20
122.1791776295
 30
0.0
 11
304.5732502757
 21
122.1791776295
 31
0.0
  0
LINE
  5
1DB
330
1F
100
AcDbEntity
  8
0
  6
Continuous
 62
     7
370
    15
100
AcDbLine
 10
311.9889398037
 20
126.4791777755
 30
0.0
 11
304.5732502757
 21
126.4791777755
 31
0.0
  0
LINE
  5
1DC
330
1F
100
AcDbEntity
  8
0
  6
Continuous
 62
     7
370
    15
100
AcDbLine
 10
338.5732521234
 20
126.4791777755
 30
0.0
 11
311.9889398037
 21
126.4791777755
 31
0.0
  0
ARC
  5
1DD
330
1F
100
AcDbEntity
  8
0
  6
Continuous
 62
     7
370
    15
100
AcDbCircle
 10
547.5732486068
 20
157.6791785235
 30
0.0
 40
5.000000000000028
100
AcDbArc
 50
0.0
 51
90.0
  0
ARC
  5
1DE
330
1F
100
AcDbEntity
  8
0
  6
Continuous
 62
     7
370
    15
100
AcDbCircle
 10
-72.4267513932
 20
157.6791785235
 30
0.0
 40
5.000000000000028
100
AcDbArc
 50
90.0
 51
180.0
  0
LINE
  5
1DF
330
1F
100
AcDbEntity
  8
0
  6
Continuous
 62
     7
370
    15
100
AcDbLine
 10
552.5732462226
 20
150.6791785757
 30
0.0
 11
552.5732462226
 21
157.6791787918
 31
0.0
  0
LINE
  5
1E0
330
1F
100
AcDbEntity
  8
0
  6
Continuous
 62
     7
370
    15
100
AcDbLine
 10
-77.4267490091
 20
150.6791785757
 30
0.0
 11
-77.4267490091
 21
157.6791787918
 31
0.0
  0
LINE
  5
1E1
330
1F
100
AcDbEntity
  8
0
  6
Continuous
 62
     7
370
    15
100
AcDbLine
 10
-72.4267537774
 20
162.6791777487
 30
0.0
 11
547.5732509909
 21
162.6791777487
 31
0.0
  0
LINE
  5
1E2
330
1F
100
AcDbEntity
  8
0
  6
Continuous
 62
     7
370
    15
100
AcDbLine
 10
-77.4267490091
 20
138.6791784714
 30
0.0
 11
-77.4267490091
 21
131.6791782553
 31
0.0
  0
ARC
  5
1E3
330
1F
100
AcDbEntity
  8
0
  6
Continuous
 62
     7
370
    15
100
AcDbCircle
 10
-72.4267513932
 20
131.6791785235
 30
0.0
 40
5.000000000000014
100
AcDbArc
 50
180.0
 51
270.0
  0
LINE
  5
1E4
330
1F
100
AcDbEntity
  8
0
  6
Continuous
 62
     7
370
    15
100
AcDbLine
 10
547.5732509909
 20
126.6791792984
 30
0.0
 11
-72.4267537774
 21
126.6791792984
 31
0.0
  0
ARC
  5
1E5
330
1F
100
AcDbEntity
  8
0
  6
Continuous
 62
     7
370
    15
100
AcDbCircle
 10
547.5732486068
 20
131.6791785235
 30
0.0
 40
5.000000000000014
100
AcDbArc
 50
270.0
 51
0.0
  0
LINE
  5
1E6
330
1F
100
AcDbEntity
  8
0
  6
Continuous
 62
     7
370
    15
100
AcDbLine
 10
552.5732462226
 20
138.6791784714
 30
0.0
 11
552.5732462226
 21
131.6791782553
 31
0.0
  0
LINE
  5
1E7
330
1F
100
AcDbEntity
  8
0
  6
Continuous
 62
     7
370
    15
100
AcDbLine
 10
-262.4267513932
 20
138.6791784714
 30
0.0
 11
-262.4267513932
 21
150.6791785757
 31
0.0
  0
LINE
  5
1E8
330
1F
100
AcDbEntity
  8
0
  6
Continuous
 62
     7
370
    15
100
AcDbLine
 10
-257.4267561616
 20
150.6791785757
 30
0.0
 11
-262.4267513932
 21
150.6791785757
 31
0.0
  0
LINE
  5
1E9
330
1F
100
AcDbEntity
  8
0
  6
Continuous
 62
     7
370
    15
100
AcDbLine
 10
-257.4267561616
 20
138.6791784714
 30
0.0
 11
-262.4267513932
 21
138.6791784714
 31
0.0
  0
LINE
  5
1EA
330
1F
100
AcDbEntity
  8
0
  6
Continuous
 62
     7
370
    15
100
AcDbLine
 10
732.5732533751
 20
150.6791785757
 30
0.0
 11
-257.4267561616
 21
150.6791785757
 31
0.0
  0
LINE
  5
1EB
330
1F
100
AcDbEntity
  8
0
  6
Continuous
 62
     7
370
    15
100
AcDbLine
 10
732.5732533751
 20
138.6791784714
 30
0.0
 11
-257.4267561616
 21
138.6791784714
 31
0.0
  0
LINE
  5
1EC
330
1F
100
AcDbEntity
  8
0
  6
Continuous
 62
     7
370
    15
100
AcDbLine
 10
737.5732486068
 20
138.6791784714
 30
0.0
 11
737.5732486068
 21
150.6791785757
 31
0.0
  0
LINE
  5
1ED
330
1F
100
AcDbEntity
  8
0
  6
Continuous
 62
     7
370
    15
100
AcDbLine
 10
737.5732486068
 20
150.6791785757
 30
0.0
 11
732.5732533751
 21
150.6791785757
 31
0.0
  0
LINE
  5
1EE
330
1F
100
AcDbEntity
  8
0
  6
Continuous
 62
     7
370
    15
100
AcDbLine
 10
737.5732486068
 20
138.6791784714
 30
0.0
 11
732.5732533751
 21
138.6791784714
 31
0.0
  0
CIRCLE
  5
1EF
330
1F
100
AcDbEntity
  8
0
  6
Continuous
 62
     7
370
    15
100
AcDbCircle
 10
-292.9267513932
 20
144.6791785235
 30
0.0
 40
28.50249999999996
  0
CIRCLE
  5
1F0
330
1F
100
AcDbEntity
  8
0
  6
Continuous
 62
     7
370
    15
100
AcDbCircle
 10
768.0732486068
 20
144.6791785235
 30
0.0
 40
28.50250000000008
  0
LINE
  5
1F1
330
1F
100
AcDbEntity
  8
0
  6
Continuous
 62
     8
370
     0
100
AcDbLine
 10
827.0732586203
 20
145.42917853
 30
0.0
 11
827.0732586203
 21
155.1863439779
 31
0.0
  0
LINE
  5
1F2
330
1F
100
AcDbEntity
  8
0
  6
Continuous
 62
     8
370
     0
100
AcDbLine
 10
682.0732478915
 20
165.1171474184
 30
0.0
 11
682.0732478915
 21
151.6791787396
 31
0.0
  0
LINE
  5
1F3
330
1F
100
AcDbEntity
  8
0
  6
Continuous
 62
     8
370
     0
100
AcDbLine
 10
757.2028462706
 20
185.2480629856
 30
0.0
 11
682.0732478915
 21
165.1171474184
 31
0.0
  0
SPLINE
  5
1F4
330
1F
100
AcDbEntity
  8
0
  6
Continuous
 62
     8
370
     0
100
AcDbSpline
210
0.0
220
0.0
230
1.0
 70
     8
 71
     3
 72
    11
 73
     7
 74
     0
 42
0.000000001
 43
0.00000001
 40
0.0
 40
0.0
 40
0.0
 40
0.0
 40
0.2489404671501551
 40
0.4999993976520484
 40
0.7510613213905265
 40
1.0
 40
1.0
 40
1.0
 40
1.0
 10
778.8145963965269
 20
185.2824250633608
 30
0.0
 10
777.0436208231678
 20
185.6812439809848
 30
0.0
 10
773.4865988167702
 20
186.4822757331424
 30
0.0
 10
768.0063004765368
 20
186.7823412093753
 30
0.0
 10
762.5269954812156
 20
186.4648579035617
 30
0.0
 10
758.9725313477893
 20
185.6525114191937
 30
0.0
 10
757.2028462706418
 20
185.2480629856478
 30
0.0
  0
LINE
  5
1F5
330
1F
100
AcDbEntity
  8
0
  6
Continuous
 62
     8
370
     0
100
AcDbLine
 10
813.5192220031
 20
174.6721500928
 30
0.0
 11
778.8145963965
 21
185.2824250634
 31
0.0
  0
SPLINE
  5
1F6
330
1F
100
AcDbEntity
  8
0
  6
Continuous
 62
     8
370
     0
100
AcDbSpline
210
0.0
220
0.0
230
1.0
 70
     8
 71
     3
 72
    15
 73
    11
 74
     0
 42
0.000000001
 43
0.00000001
 40
0.0
 40
0.0
 40
0.0
 40
0.0
 40
0.1209691273736091
 40
0.2453282424931995
 40
0.3720557023219973
 40
0.4999998590927817
 40
0.6279452723268972
 40
0.7546712358652375
 40
0.8790311888882121
 40
1.0
 40
1.0
 40
1.0
 40
1.0
 10
827.0732586203428
 20
155.1863439778577
 30
0.0
 10
826.9692275940431
 20
156.187286956053
 30
0.0
 10
826.7582502198894
 20
158.2172229158137
 30
0.0
 10
825.9256242640427
 20
161.2082346829815
 30
0.0
 10
824.7011266723308
 20
164.1175917386372
 30
0.0
 10
823.064276096809
 20
166.854658744229
 30
0.0
 10
821.0675407350263
 20
169.3413830006002
 30
0.0
 10
818.7658059633933
 20
171.5014274401786
 30
0.0
 10
816.2512464925018
 20
173.3225143367869
 30
0.0
 10
814.4214659073352
 20
174.22643643302
 30
0.0
 10
813.5192220030638
 20
174.6721500928294
 30
0.0
  0
LINE
  5
1F7
330
1F
100
AcDbEntity
  8
0
  6
Continuous
 62
     8
370
     0
100
AcDbLine
 10
827.0732586203
 20
143.929178517
 30
0.0
 11
827.0732586203
 21
134.1720130692
 31
0.0
  0
SPLINE
  5
1F8
330
1F
100
AcDbEntity
  8
0
  6
Continuous
 62
     8
370
     0
100
AcDbSpline
210
0.0
220
0.0
230
1.0
 70
     8
 71
     3
 72
    15
 73
    11
 74
     0
 42
0.000000001
 43
0.00000001
 40
0.0
 40
0.0
 40
0.0
 40
0.0
 40
0.1209691273736091
 40
0.2453282424931995
 40
0.3720557023219973
 40
0.4999998590927817
 40
0.6279452723268972
 40
0.7546712358652375
 40
0.8790311888882121
 40
1.0
 40
1.0
 40
1.0
 40
1.0
 10
827.0732586203428
 20
134.1720130692016
 30
0.0
 10
826.9692275940431
 20
133.1710700910063
 30
0.0
 10
826.7582502198894
 20
131.1411341312456
 30
0.0
 10
825.9256242640427
 20
128.1501223640777
 30
0.0
 10
824.7011266723308
 20
125.2407653084221
 30
0.0
 10
823.064276096809
 20
122.5036983028303
 30
0.0
 10
821.0675407350263
 20
120.0169740464591
 30
0.0
 10
818.7658059633933
 20
117.8569296068807
 30
0.0
 10
816.2512464925018
 20
116.0358427102724
 30
0.0
 10
814.4214659073352
 20
115.1319206140392
 30
0.0
 10
813.5192220030638
 20
114.6862069542299
 30
0.0
  0
LINE
  5
1F9
330
1F
100
AcDbEntity
  8
0
  6
Continuous
 62
     8
370
     0
100
AcDbLine
 10
813.5192220031
 20
114.6862069542
 30
0.0
 11
778.8145963965
 21
104.0759319837
 31
0.0
  0
SPLINE
  5
1FA
330
1F
100
AcDbEntity
  8
0
  6
Continuous
 62
     8
370
     0
100
AcDbSpline
210
0.0
220
0.0
230
1.0
 70
     8
 71
     3
 72
    11
 73
     7
 74
     0
 42
0.000000001
 43
0.00000001
 40
0.0
 40
0.0
 40
0.0
 40
0.0
 40
0.2489404671501551
 40
0.4999993976520484
 40
0.7510613213905265
 40
1.0
 40
1.0
 40
1.0
 40
1.0
 10
778.8145963965269
 20
104.0759319836985
 30
0.0
 10
777.0436208231678
 20
103.6771130660745
 30
0.0
 10
773.4865988167702
 20
102.8760813139169
 30
0.0
 10
768.0063004765368
 20
102.576015837684
 30
0.0
 10
762.5269954812156
 20
102.8934991434976
 30
0.0
 10
758.9725313477893
 20
103.7058456278656
 30
0.0
 10
757.2028462706418
 20
104.1102940614115
 30
0.0
  0
LINE
  5
1FB
330
1F
100
AcDbEntity
  8
0
  6
Continuous
 62
     8
370
     0
100
AcDbLine
 10
757.2028462706
 20
104.1102940614
 30
0.0
 11
682.0732478915
 21
124.2412096287
 31
0.0
  0
LINE
  5
1FC
330
1F
100
AcDbEntity
  8
0
  6
Continuous
 62
     8
370
     0
100
AcDbLine
 10
682.0732478915
 20
124.2412096287
 30
0.0
 11
682.0732478915
 21
137.6791783075
 31
0.0
  0
LWPOLYLINE
  5
1FD
330
1F
100
AcDbEntity
  8
0
  6
Continuous
 62
     8
370
     0
100
AcDbPolyline
 90
        9
 70
   128
 43
0.0
 10
680.0027017413
 20
172.8445543374
 10
680.0424878417
 20
172.6960735793
 10
680.1602964221
 20
172.2563403125
 10
680.3516571341
 20
171.542250591
 10
680.6091491996
 20
170.5812486286
 10
680.9229080497
 20
169.4102650906
 10
681.2808935462
 20
168.0742977584
 10
681.6693072139
 20
166.6246904458
 10
682.0732478915
 20
165.1171474184
  0
LWPOLYLINE
  5
1FE
330
1F
100
AcDbEntity
  8
0
  6
Continuous
 62
     8
370
     0
100
AcDbPolyline
 90
        9
 70
   128
 43
0.0
 10
757.2028462706
 20
185.2480629856
 10
756.798905593
 20
186.755606013
 10
756.410462123
 20
188.2052133257
 10
756.0525362311
 20
189.5411806579
 10
755.7387177764
 20
190.7121660585
 10
755.4812257109
 20
191.673168021
 10
755.2898948012
 20
192.3872577424
 10
755.1720564185
 20
192.8269910092
 10
755.1323001204
 20
192.9754699047
  0
LWPOLYLINE
  5
1FF
330
1F
100
AcDbEntity
  8
0
  6
Continuous
 62
     8
370
     0
100
AcDbPolyline
 90
        9
 70
   128
 43
0.0
 10
682.0732478915
 20
124.2412096287
 10
681.6693072139
 20
122.7336666013
 10
681.2808935462
 20
121.2840592886
 10
680.9229080497
 20
119.9480919565
 10
680.6091491996
 20
118.7771084185
 10
680.3516571341
 20
117.816106456
 10
680.1602964221
 20
117.1020167346
 10
680.0424878417
 20
116.6622834678
 10
680.0027017413
 20
116.5138027097
  0
LWPOLYLINE
  5
200
330
1F
100
AcDbEntity
  8
0
  6
Continuous
 62
     8
370
     0
100
AcDbPolyline
 90
        9
 70
   128
 43
0.0
 10
755.1323001204
 20
96.3828871424
 10
755.1720564185
 20
96.5313660378
 10
755.2898948012
 20
96.9710993047
 10
755.4812257109
 20
97.6851890261
 10
755.7387177764
 20
98.6461909885
 10
756.0525362311
 20
99.8171763892
 10
756.410462123
 20
101.1531437213
 10
756.798905593
 20
102.602751034
 10
757.2028462706
 20
104.1102940614
  0
LINE
  5
201
330
1F
100
AcDbEntity
  8
0
  6
Continuous
 62
     8
370
     0
100
AcDbLine
 10
682.0732478915
 20
165.1171474184
 30
0.0
 11
674.0732614814
 21
165.1171474184
 31
0.0
  0
LINE
  5
202
330
1F
100
AcDbEntity
  8
0
  6
Continuous
 62
     8
370
     0
100
AcDbLine
 10
674.0732614814
 20
124.2412096287
 30
0.0
 11
682.0732478915
 21
124.2412096287
 31
0.0
  0
LINE
  5
203
330
1F
100
AcDbEntity
  8
0
  6
Continuous
 62
     8
370
     0
100
AcDbLine
 10
-206.926750678
 20
124.2412096287
 30
0.0
 11
-206.926750678
 21
137.6791783075
 31
0.0
  0
LINE
  5
204
330
1F
100
AcDbEntity
  8
0
  6
Continuous
 62
     8
370
     0
100
AcDbLine
 10
-282.0563490571
 20
104.1102940614
 30
0.0
 11
-206.926750678
 21
124.2412096287
 31
0.0
  0
SPLINE
  5
205
330
1F
100
AcDbEntity
  8
0
  6
Continuous
 62
     8
370
     0
100
AcDbSpline
210
0.0
220
0.0
230
1.0
 70
     8
 71
     3
 72
    11
 73
     7
 74
     0
 42
0.000000001
 43
0.00000001
 40
0.0
 40
0.0
 40
0.0
 40
0.0
 40
0.2489404671501551
 40
0.4999993976520484
 40
0.7510613213905265
 40
1.0
 40
1.0
 40
1.0
 40
1.0
 10
-303.6680991830021
 20
104.0759319836985
 30
0.0
 10
-301.897123609643
 20
103.6771130660745
 30
0.0
 10
-298.3401016032453
 20
102.8760813139169
 30
0.0
 10
-292.859803263012
 20
102.576015837684
 30
0.0
 10
-287.3804982676908
 20
102.8934991434976
 30
0.0
 10
-283.8260341342644
 20
103.7058456278656
 30
0.0
 10
-282.056349057117
 20
104.1102940614115
 30
0.0
  0
LINE
  5
206
330
1F
100
AcDbEntity
  8
0
  6
Continuous
 62
     8
370
     0
100
AcDbLine
 10
-338.3727247895
 20
114.6862069542
 30
0.0
 11
-303.668099183
 21
104.0759319837
 31
0.0
  0
SPLINE
  5
207
330
1F
100
AcDbEntity
  8
0
  6
Continuous
 62
     8
370
     0
100
AcDbSpline
210
0.0
220
0.0
230
1.0
 70
     8
 71
     3
 72
    15
 73
    11
 74
     0
 42
0.000000001
 43
0.00000001
 40
0.0
 40
0.0
 40
0.0
 40
0.0
 40
0.1209691273736091
 40
0.2453282424931995
 40
0.3720557023219973
 40
0.4999998590927817
 40
0.6279452723268972
 40
0.7546712358652375
 40
0.8790311888882121
 40
1.0
 40
1.0
 40
1.0
 40
1.0
 10
-351.926761406818
 20
134.1720130692016
 30
0.0
 10
-351.8227303805182
 20
133.1710700910063
 30
0.0
 10
-351.6117530063646
 20
131.1411341312456
 30
0.0
 10
-350.7791270505178
 20
128.1501223640777
 30
0.0
 10
-349.554629458806
 20
125.2407653084221
 30
0.0
 10
-347.9177788832841
 20
122.5036983028303
 30
0.0
 10
-345.9210435215014
 20
120.0169740464591
 30
0.0
 10
-343.6193087498685
 20
117.8569296068807
 30
0.0
 10
-341.104749278977
 20
116.0358427102724
 30
0.0
 10
-339.2749686938104
 20
115.1319206140392
 30
0.0
 10
-338.3727247895389
 20
114.6862069542299
 30
0.0
  0
LINE
  5
208
330
1F
100
AcDbEntity
  8
0
  6
Continuous
 62
     8
370
     0
100
AcDbLine
 10
-351.9267614068
 20
143.929178517
 30
0.0
 11
-351.9267614068
 21
134.1720130692
 31
0.0
  0
LINE
  5
209
330
1F
100
AcDbEntity
  8
0
  6
Continuous
 62
     8
370
     0
100
AcDbLine
 10
-351.9267614068
 20
145.42917853
 30
0.0
 11
-351.9267614068
 21
155.1863439779
 31
0.0
  0
SPLINE
  5
20A
330
1F
100
AcDbEntity
  8
0
  6
Continuous
 62
     8
370
     0
100
AcDbSpline
210
0.0
220
0.0
230
1.0
 70
     8
 71
     3
 72
    15
 73
    11
 74
     0
 42
0.000000001
 43
0.00000001
 40
0.0
 40
0.0
 40
0.0
 40
0.0
 40
0.1209691273736091
 40
0.2453282424931995
 40
0.3720557023219973
 40
0.4999998590927817
 40
0.6279452723268972
 40
0.7546712358652375
 40
0.8790311888882121
 40
1.0
 40
1.0
 40
1.0
 40
1.0
 10
-351.926761406818
 20
155.1863439778577
 30
0.0
 10
-351.8227303805182
 20
156.187286956053
 30
0.0
 10
-351.6117530063646
 20
158.2172229158137
 30
0.0
 10
-350.7791270505178
 20
161.2082346829815
 30
0.0
 10
-349.554629458806
 20
164.1175917386372
 30
0.0
 10
-347.9177788832841
 20
166.854658744229
 30
0.0
 10
-345.9210435215014
 20
169.3413830006002
 30
0.0
 10
-343.6193087498685
 20
171.5014274401786
 30
0.0
 10
-341.104749278977
 20
173.3225143367869
 30
0.0
 10
-339.2749686938104
 20
174.22643643302
 30
0.0
 10
-338.3727247895389
 20
174.6721500928294
 30
0.0
  0
LINE
  5
20B
330
1F
100
AcDbEntity
  8
0
  6
Continuous
 62
     8
370
     0
100
AcDbLine
 10
-338.3727247895
 20
174.6721500928
 30
0.0
 11
-303.668099183
 21
185.2824250634
 31
0.0
  0
SPLINE
  5
20C
330
1F
100
AcDbEntity
  8
0
  6
Continuous
 62
     8
370
     0
100
AcDbSpline
210
0.0
220
0.0
230
1.0
 70
     8
 71
     3
 72
    11
 73
     7
 74
     0
 42
0.000000001
 43
0.00000001
 40
0.0
 40
0.0
 40
0.0
 40
0.0
 40
0.2489404671501551
 40
0.4999993976520484
 40
0.7510613213905265
 40
1.0
 40
1.0
 40
1.0
 40
1.0
 10
-303.6680991830021
 20
185.2824250633608
 30
0.0
 10
-301.897123609643
 20
185.6812439809848
 30
0.0
 10
-298.3401016032453
 20
186.4822757331424
 30
0.0
 10
-292.859803263012
 20
186.7823412093753
 30
0.0
 10
-287.3804982676908
 20
186.4648579035617
 30
0.0
 10
-283.8260341342644
 20
185.6525114191937
 30
0.0
 10
-282.056349057117
 20
185.2480629856478
 30
0.0
  0
LINE
  5
20D
330
1F
100
AcDbEntity
  8
0
  6
Continuous
 62
     8
370
     0
100
AcDbLine
 10
-282.0563490571
 20
185.2480629856
 30
0.0
 11
-206.926750678
 21
165.1171474184
 31
0.0
  0
LINE
  5
20E
330
1F
100
AcDbEntity
  8
0
  6
Continuous
 62
     8
370
     0
100
AcDbLine
 10
-206.926750678
 20
165.1171474184
 30
0.0
 11
-206.926750678
 21
151.6791787396
 31
0.0
  0
LWPOLYLINE
  5
20F
330
1F
100
AcDbEntity
  8
0
  6
Continuous
 62
     8
370
     0
100
AcDbPolyline
 90
        9
 70
   128
 43
0.0
 10
-204.8562045278
 20
116.5138027097
 10
-204.8959906282
 20
116.6622834678
 10
-205.0137992086
 20
117.1020167346
 10
-205.2051599206
 20
117.816106456
 10
-205.462651986
 20
118.7771084185
 10
-205.7764108361
 20
119.9480919565
 10
-206.1343963327
 20
121.2840592886
 10
-206.5228100003
 20
122.7336666013
 10
-206.926750678
 20
124.2412096287
  0
LWPOLYLINE
  5
210
330
1F
100
AcDbEntity
  8
0
  6
Continuous
 62
     8
370
     0
100
AcDbPolyline
 90
        9
 70
   128
 43
0.0
 10
-282.0563490571
 20
104.1102940614
 10
-281.6524083795
 20
102.602751034
 10
-281.2639649095
 20
101.1531437213
 10
-280.9060390176
 20
99.8171763892
 10
-280.5922205629
 20
98.6461909885
 10
-280.3347284974
 20
97.6851890261
 10
-280.1433975877
 20
96.9710993047
 10
-280.025559205
 20
96.5313660378
 10
-279.9858029069
 20
96.3828871424
  0
LWPOLYLINE
  5
211
330
1F
100
AcDbEntity
  8
0
  6
Continuous
 62
     8
370
     0
100
AcDbPolyline
 90
        9
 70
   128
 43
0.0
 10
-204.8562045278
 20
172.8445543374
 10
-204.8959906282
 20
172.6960735793
 10
-205.0137992086
 20
172.2563403125
 10
-205.2051599206
 20
171.542250591
 10
-205.462651986
 20
170.5812486286
 10
-205.7764108361
 20
169.4102650906
 10
-206.1343963327
 20
168.0742977584
 10
-206.5228100003
 20
166.6246904458
 10
-206.926750678
 20
165.1171474184
  0
LWPOLYLINE
  5
212
330
1F
100
AcDbEntity
  8
0
  6
Continuous
 62
     8
370
     0
100
AcDbPolyline
 90
        9
 70
   128
 43
0.0
 10
-279.9858029069
 20
192.9754699047
 10
-280.025559205
 20
192.8269910092
 10
-280.1433975877
 20
192.3872577424
 10
-280.3347284974
 20
191.673168021
 10
-280.5922205629
 20
190.7121660585
 10
-280.9060390176
 20
189.5411806579
 10
-281.2639649095
 20
188.2052133257
 10
-281.6524083795
 20
186.755606013
 10
-282.0563490571
 20
185.2480629856
  0
LINE
  5
213
330
1F
100
AcDbEntity
  8
0
  6
Continuous
 62
     8
370
     0
100
AcDbLine
 10
-198.9267642678
 20
165.1171474184
 30
0.0
 11
-206.926750678
 21
165.1171474184
 31
0.0
  0
LINE
  5
214
330
1F
100
AcDbEntity
  8
0
  6
Continuous
 62
     8
370
     0
100
AcDbLine
 10
-206.926750678
 20
124.2412096287
 30
0.0
 11
-198.9267642678
 21
124.2412096287
 31
0.0
  0
LWPOLYLINE
  5
215
330
1F
100
AcDbEntity
  8
0
  6
Continuous
 62
     8
370
     0
100
AcDbPolyline
 90
        9
 70
   128
 43
0.0
 10
50.67488299
 20
205.4480137701
 10
49.8114203034
 20
205.9018211837
 10
48.9811425029
 20
206.3381905134
 10
48.2159529744
 20
206.740346777
 10
47.5452517091
 20
207.0928411956
 10
46.9948326169
 20
207.3821248884
 10
46.5858255444
 20
207.5970890398
 10
46.3339661179
 20
207.7294560547
 10
46.248925191
 20
207.7741520877
  0
LWPOLYLINE
  5
216
330
1F
100
AcDbEntity
  8
0
  6
Continuous
 62
     8
370
     0
100
AcDbPolyline
 90
        9
 70
   128
 43
0.0
 10
53.001013857
 20
209.8739715691
 10
52.9563103734
 20
209.7889306421
 10
52.8239433585
 20
209.537063765
 10
52.6089941083
 20
209.1280641432
 10
52.3197029649
 20
208.5776376004
 10
51.9672159968
 20
207.9069437857
 10
51.5650485574
 20
207.1417542572
 10
51.128682953
 20
206.3114764566
 10
50.67488299
 20
205.4480137701
  0
LINE
  5
217
330
1F
100
AcDbEntity
  8
0
  6
Continuous
 62
     8
370
     0
100
AcDbLine
 10
8.8044081746
 20
125.7808069165
 30
0.0
 11
15.4043112813
 21
122.3121183391
 31
0.0
  0
LINE
  5
218
330
1F
100
AcDbEntity
  8
0
  6
Continuous
 62
     8
370
     0
100
AcDbLine
 10
68.9945791779
 20
94.1468337948
 30
0.0
 11
88.4716187535
 21
83.910343277
 31
0.0
  0
LWPOLYLINE
  5
219
330
1F
100
AcDbEntity
  8
0
  6
Continuous
 62
     8
370
     0
100
AcDbPolyline
 90
        9
 70
   128
 43
0.0
 10
88.4716187535
 20
83.910343277
 10
88.0178187905
 20
83.0468805904
 10
87.5814531861
 20
82.2166027899
 10
87.1792857467
 20
81.4514132614
 10
86.8267987786
 20
80.7807194466
 10
86.5375076352
 20
80.2302929039
 10
86.3225434838
 20
79.821293282
 10
86.1901764689
 20
79.5694264049
 10
86.1454878865
 20
79.484385478
  0
LWPOLYLINE
  5
21A
330
1F
100
AcDbEntity
  8
0
  6
Continuous
 62
     8
370
     0
100
AcDbPolyline
 90
        9
 70
   128
 43
0.0
 10
8.8044081746
 20
125.7808069165
 10
8.3506082116
 20
124.9173442299
 10
7.9142426072
 20
124.0870664294
 10
7.5120751677
 20
123.3218769009
 10
7.1595881997
 20
122.6511830861
 10
6.8702970563
 20
122.100758406
 10
6.6553478061
 20
121.6917550589
 10
6.52296589
 20
121.4398937697
 10
6.4782773076
 20
121.3548509802
  0
LINE
  5
21B
330
1F
100
AcDbEntity
  8
0
  6
Continuous
 62
     8
370
     0
100
AcDbLine
 10
130.3420861183
 20
163.5775501306
 30
0.0
 11
123.7421904622
 21
167.046238708
 31
0.0
  0
LINE
  5
21C
330
1F
100
AcDbEntity
  8
0
  6
Continuous
 62
     8
370
     0
100
AcDbLine
 10
70.1519076644
 20
195.2115232522
 30
0.0
 11
50.67488299
 21
205.4480137701
 31
0.0
  0
LINE
  5
21D
330
1F
100
AcDbEntity
  8
0
  6
Continuous
 62
     8
370
     0
100
AcDbLine
 10
88.4716187535
 20
83.910343277
 30
0.0
 11
91.9403110562
 21
90.5102389331
 31
0.0
  0
LINE
  5
21E
330
1F
100
AcDbEntity
  8
0
  6
Continuous
 62
     8
370
     0
100
AcDbLine
 10
129.8699279247
 20
162.6791777487
 30
0.0
 11
130.3420861183
 21
163.5775501306
 31
0.0
  0
LINE
  5
21F
330
1F
100
AcDbEntity
  8
0
  6
Continuous
 62
     8
370
     0
100
AcDbLine
 10
50.67488299
 20
205.4480137701
 30
0.0
 11
47.2061906873
 21
198.848118114
 31
0.0
  0
LINE
  5
220
330
1F
100
AcDbEntity
  8
0
  6
Continuous
 62
     8
370
     0
100
AcDbLine
 10
9.2765663682
 20
126.6791792984
 30
0.0
 11
8.8044081746
 21
125.7808069165
 31
0.0
  0
LWPOLYLINE
  5
221
330
1F
100
AcDbEntity
  8
0
  6
Continuous
 62
     8
370
     0
100
AcDbPolyline
 90
        4
 70
   128
 43
0.0
 10
132.0514281212
 20
162.6791777487
 10
132.0358266054
 20
162.6873771126
 10
131.2055488048
 20
163.1237445797
 10
130.3420861183
 20
163.5775501306
  0
LWPOLYLINE
  5
222
330
1F
100
AcDbEntity
  8
0
  6
Continuous
 62
     8
370
     0
100
AcDbPolyline
 90
        9
 70
   128
 43
0.0
 10
132.6682244359
 20
168.0035060669
 10
132.6235284029
 20
167.9184632773
 10
132.4911539374
 20
167.6666019882
 10
132.2761972366
 20
167.257598641
 10
131.9869135438
 20
166.7071739609
 10
131.6344191252
 20
166.0364801462
 10
131.2322591363
 20
165.2712906177
 10
130.7958935319
 20
164.4410128171
 10
130.3420861183
 20
163.5775501306
  0
LWPOLYLINE
  5
223
330
1F
100
AcDbEntity
  8
0
  6
Continuous
 62
     8
370
     0
100
AcDbPolyline
 90
        4
 70
   128
 43
0.0
 10
8.8044081746
 20
125.7808069165
 10
7.9409454881
 20
126.2346124674
 10
7.1106676875
 20
126.6709799344
 10
7.0950661717
 20
126.6791792984
  0
LWPOLYLINE
  5
224
330
1F
100
AcDbEntity
  8
0
  6
Continuous
 62
     8
370
     0
100
AcDbPolyline
 90
        9
 70
   128
 43
0.0
 10
92.8975765525
 20
81.5842049594
 10
92.8125356255
 20
81.6289009924
 10
92.560676199
 20
81.7612680073
 10
92.1516691266
 20
81.9762321587
 10
91.6012500344
 20
82.2655158515
 10
90.9305487691
 20
82.6180102701
 10
90.1653592406
 20
83.0201665337
 10
89.3350814401
 20
83.4565358634
 10
88.4716187535
 20
83.910343277
  0
LWPOLYLINE
  5
225
330
1F
100
AcDbEntity
  8
0
  6
Continuous
 62
     8
370
     0
100
AcDbPolyline
 90
        9
 70
   128
 43
0.0
 10
121.8451757847
 20
187.0188238497
 10
121.830140513
 20
186.9239369805
 10
121.7856009422
 20
186.6429159815
 10
121.7132707058
 20
186.1865604694
 10
121.6159363209
 20
185.5724128361
 10
121.4973379789
 20
184.8240690703
 10
121.3620205341
 20
183.9702921386
 10
121.2151993929
 20
183.0438869471
 10
121.0625071941
 20
182.0804598207
  0
LINE
  5
226
330
1F
100
AcDbEntity
  8
0
  6
Continuous
 62
     8
370
     0
100
AcDbLine
 10
121.0625071941
 20
182.0804598207
 30
0.0
 11
32.171962124
 21
196.1684385712
 31
0.0
  0
LWPOLYLINE
  5
227
330
1F
100
AcDbEntity
  8
0
  6
Continuous
 62
     8
370
     0
100
AcDbPolyline
 90
        9
 70
   128
 43
0.0
 10
32.9546307145
 20
201.1068026001
 10
32.9395954429
 20
201.0119157309
 10
32.895055872
 20
200.730894732
 10
32.8227256356
 20
200.2745392198
 10
32.7253912507
 20
199.6603915865
 10
32.6067929087
 20
198.9120478208
 10
32.4714754639
 20
198.058270889
 10
32.3246543227
 20
197.1318656976
 10
32.171962124
 20
196.1684385712
  0
LWPOLYLINE
  5
228
330
1F
100
AcDbEntity
  8
0
  6
Continuous
 62
     8
370
     0
100
AcDbPolyline
 90
        9
 70
   128
 43
0.0
 10
121.0625071941
 20
182.0804598207
 10
122.0259343205
 20
181.9277713473
 10
122.952339512
 20
181.7809464807
 10
123.8061164437
 20
181.6456364865
 10
124.5544602095
 20
181.5270344193
 10
125.1686115681
 20
181.4297000344
 10
125.6249596296
 20
181.3573735232
 10
125.9059880792
 20
181.3128339524
 10
126.0008712231
 20
181.2977949555
  0
LINE
  5
229
330
1F
100
AcDbEntity
  8
0
  6
Continuous
 62
     8
370
     0
100
AcDbLine
 10
32.171962124
 20
196.1684385712
 30
0.0
 11
26.8643622218
 21
162.6791777487
 31
0.0
  0
LINE
  5
22A
330
1F
100
AcDbEntity
  8
0
  6
Continuous
 62
     8
370
     0
100
AcDbLine
 10
21.1588417111
 20
126.6791792984
 30
0.0
 11
18.0839870988
 21
107.2778972263
 31
0.0
  0
LINE
  5
22B
330
1F
100
AcDbEntity
  8
0
  6
Continuous
 62
     8
370
     0
100
AcDbLine
 10
106.9745247184
 20
93.1899184759
 30
0.0
 11
112.2821395217
 21
126.6791792984
 31
0.0
  0
LINE
  5
22C
330
1F
100
AcDbEntity
  8
0
  6
Continuous
 62
     8
370
     0
100
AcDbLine
 10
117.9876600324
 20
162.6791777487
 30
0.0
 11
121.0625071941
 21
182.0804598207
 31
0.0
  0
LINE
  5
22D
330
1F
100
AcDbEntity
  8
0
  6
Continuous
 62
     8
370
     0
100
AcDbLine
 10
18.0839870988
 20
107.2778972263
 30
0.0
 11
106.9745247184
 21
93.1899184759
 31
0.0
  0
LWPOLYLINE
  5
22E
330
1F
100
AcDbEntity
  8
0
  6
Continuous
 62
     8
370
     0
100
AcDbPolyline
 90
        9
 70
   128
 43
0.0
 10
106.9745247184
 20
93.1899184759
 10
106.8218474208
 20
92.2264913494
 10
106.6750113784
 20
91.300086158
 10
106.5397088347
 20
90.4463092263
 10
106.4211104928
 20
89.6979654605
 10
106.3237761079
 20
89.0838178272
 10
106.2514458714
 20
88.6274623151
 10
106.2069063006
 20
88.3464413161
 10
106.191871029
 20
88.2515544469
  0
LWPOLYLINE
  5
22F
330
1F
100
AcDbEntity
  8
0
  6
Continuous
 62
     8
370
     0
100
AcDbPolyline
 90
        9
 70
   128
 43
0.0
 10
18.0839870988
 20
107.2778972263
 10
17.9312949
 20
106.3144700999
 10
17.7844737588
 20
105.3880649085
 10
17.649156314
 20
104.5342879767
 10
17.530557972
 20
103.785944211
 10
17.4332235871
 20
103.1717965777
 10
17.3608933507
 20
102.7154410655
 10
17.3163537799
 20
102.4344200666
 10
17.3013185082
 20
102.3395331974
  0
LWPOLYLINE
  5
230
330
1F
100
AcDbEntity
  8
0
  6
Continuous
 62
     8
370
     0
100
AcDbPolyline
 90
        9
 70
   128
 43
0.0
 10
13.1456230698
 20
108.0605620916
 10
13.2405136643
 20
108.0455230946
 10
13.5215346633
 20
108.0009835238
 10
13.9778827248
 20
107.9286570127
 10
14.5920340834
 20
107.8313226278
 10
15.3403852998
 20
107.7127205605
 10
16.1941622315
 20
107.5774105663
 10
17.1205674229
 20
107.4305856998
 10
18.0839870988
 20
107.2778972263
  0
LWPOLYLINE
  5
231
330
1F
100
AcDbEntity
  8
0
  6
Continuous
 62
     8
370
     0
100
AcDbPolyline
 90
        9
 70
   128
 43
0.0
 10
27.233598095
 20
196.9511071617
 10
27.3284886895
 20
196.9360681648
 10
27.6095096885
 20
196.891528594
 10
28.0658726512
 20
196.8192020829
 10
28.6800091086
 20
196.7218676979
 10
29.4283603249
 20
196.6032656307
 10
30.2821372567
 20
196.4679519112
 10
31.2085424481
 20
196.32113077
 10
32.171962124
 20
196.1684385712
  0
LWPOLYLINE
  5
232
330
1F
100
AcDbEntity
  8
0
  6
Continuous
 62
     8
370
     0
100
AcDbPolyline
 90
        9
 70
   128
 43
0.0
 10
106.9745247184
 20
93.1899184759
 10
107.9379592954
 20
93.0372262771
 10
108.8643644868
 20
92.8904051359
 10
109.7181414185
 20
92.7550914163
 10
110.4664777337
 20
92.6364893491
 10
111.0806290923
 20
92.5391549642
 10
111.5369771539
 20
92.4668284531
 10
111.8179981528
 20
92.4222888822
 10
111.9128887473
 20
92.4072498853
  0
LINE
  5
233
330
1F
100
AcDbEntity
  8
0
  6
Continuous
 62
     8
370
     0
100
AcDbLine
 10
409.6996609984
 20
208.1848653431
 30
0.0
 11
398.1514696894
 21
198.0458433206
 31
0.0
  0
LINE
  5
234
330
1F
100
AcDbEntity
  8
0
  6
Continuous
 62
     8
370
     0
100
AcDbLine
 10
358.7094222127
 20
163.4167293484
 30
0.0
 11
357.8693617998
 21
162.6791777487
 31
0.0
  0
LWPOLYLINE
  5
235
330
1F
100
AcDbEntity
  8
0
  6
Continuous
 62
     8
370
     0
100
AcDbPolyline
 90
        9
 70
   128
 43
0.0
 10
409.6996609984
 20
208.1848653431
 10
409.0560947476
 20
208.9178907151
 10
408.4372495232
 20
209.6227379913
 10
407.8669224797
 20
210.2723317618
 10
407.3670332251
 20
210.841705131
 10
406.9567744552
 20
211.3089831943
 10
406.6519264994
 20
211.6561951513
 10
406.4642016707
 20
211.8700119133
 10
406.400812131
 20
211.9422080393
  0
LWPOLYLINE
  5
236
330
1F
100
AcDbEntity
  8
0
  6
Continuous
 62
     8
370
     0
100
AcDbPolyline
 90
        9
 70
   128
 43
0.0
 10
413.4570036946
 20
211.4837142105
 10
413.3848075686
 20
211.4203321214
 10
413.1709908067
 20
211.2326072926
 10
412.8237788497
 20
210.9277593369
 10
412.356508237
 20
210.5175080175
 10
411.7871348677
 20
210.0176113124
 10
411.1375336467
 20
209.4472842688
 10
410.432693821
 20
208.8284390445
 10
409.6996609984
 20
208.1848653431
  0
LWPOLYLINE
  5
237
330
1F
100
AcDbEntity
  8
0
  6
Continuous
 62
     8
370
     0
100
AcDbPolyline
 90
        9
 70
   128
 43
0.0
 10
404.7456805526
 20
77.4161490078
 10
404.6822910128
 20
77.4883451338
 10
404.4945661841
 20
77.7021618957
 10
404.1897182284
 20
78.0493738527
 10
403.7794743596
 20
78.516651916
 10
403.2795702039
 20
79.0860252852
 10
402.7092431603
 20
79.7356190557
 10
402.0903979359
 20
80.4404663319
 10
401.4468316851
 20
81.173491704
  0
LINE
  5
238
330
1F
100
AcDbEntity
  8
0
  6
Continuous
 62
     8
370
     0
100
AcDbLine
 10
401.4468316851
 20
81.173491704
 30
0.0
 11
412.9950229941
 21
91.3125137265
 31
0.0
  0
LINE
  5
239
330
1F
100
AcDbEntity
  8
0
  6
Continuous
 62
     8
370
     0
100
AcDbLine
 10
452.4370704709
 20
125.9416276986
 30
0.0
 11
453.2771383344
 21
126.6791792984
 31
0.0
  0
LINE
  5
23A
330
1F
100
AcDbEntity
  8
0
  6
Continuous
 62
     8
370
     0
100
AcDbLine
 10
424.310800892
 20
191.5430063779
 30
0.0
 11
409.6996609984
 21
208.1848653431
 31
0.0
  0
LINE
  5
23B
330
1F
100
AcDbEntity
  8
0
  6
Continuous
 62
     8
370
     0
100
AcDbLine
 10
386.8356917916
 20
97.8153506691
 30
0.0
 11
401.4468316851
 21
81.173491704
 31
0.0
  0
LWPOLYLINE
  5
23C
330
1F
100
AcDbEntity
  8
0
  6
Continuous
 62
     8
370
     0
100
AcDbPolyline
 90
        9
 70
   128
 43
0.0
 10
401.4468316851
 20
81.173491704
 10
400.7138137637
 20
80.5299180026
 10
400.0089590369
 20
79.9110727782
 10
399.3593578158
 20
79.3407457347
 10
398.7899844466
 20
78.8408490295
 10
398.3227138339
 20
78.4305977101
 10
397.9755018769
 20
78.1257497544
 10
397.7616851149
 20
77.9380249257
 10
397.689488989
 20
77.8746428366
  0
LINE
  5
23D
330
1F
100
AcDbEntity
  8
0
  6
Continuous
 62
     8
370
     0
100
AcDbLine
 10
351.0463734089
 20
111.8642399485
 30
0.0
 11
438.3881811915
 21
90.1523055906
 31
0.0
  0
LWPOLYLINE
  5
23E
330
1F
100
AcDbEntity
  8
0
  6
Continuous
 62
     8
370
     0
100
AcDbPolyline
 90
        9
 70
   128
 43
0.0
 10
438.3881811915
 20
90.1523055906
 10
438.152862054
 20
89.2056646223
 10
437.9265879212
 20
88.2954011137
 10
437.7180461703
 20
87.4564992661
 10
437.5352685271
 20
86.7211940164
 10
437.3852585374
 20
86.1177454169
 10
437.2737829505
 20
85.6693433995
 10
437.205148202
 20
85.393217432
 10
437.1819619952
 20
85.2999845917
  0
LWPOLYLINE
  5
23F
330
1F
100
AcDbEntity
  8
0
  6
Continuous
 62
     8
370
     0
100
AcDbPolyline
 90
        9
 70
   128
 43
0.0
 10
351.0463734089
 20
111.8642399485
 10
350.8110542713
 20
110.9175989802
 10
350.584772688
 20
110.0073354716
 10
350.3762383877
 20
109.168433624
 10
350.1934532939
 20
108.4331283743
 10
350.0434433041
 20
107.8296797748
 10
349.9319751678
 20
107.3812777574
 10
349.8633329688
 20
107.1051555152
 10
349.8401542126
 20
107.0119189496
  0
LINE
  5
240
330
1F
100
AcDbEntity
  8
0
  6
Continuous
 62
     8
370
     0
100
AcDbLine
 10
460.1001267253
 20
177.4941170986
 30
0.0
 11
372.758311492
 21
199.2060514564
 31
0.0
  0
LINE
  5
241
330
1F
100
AcDbEntity
  8
0
  6
Continuous
 62
     8
370
     0
100
AcDbLine
 10
438.3881811915
 20
90.1523055906
 30
0.0
 11
447.4682484685
 21
126.6791792984
 31
0.0
  0
LINE
  5
242
330
1F
100
AcDbEntity
  8
0
  6
Continuous
 62
     8
370
     0
100
AcDbLine
 10
456.4173345385
 20
162.6791777487
 30
0.0
 11
460.1001267253
 21
177.4941170986
 31
0.0
  0
LINE
  5
243
330
1F
100
AcDbEntity
  8
0
  6
Continuous
 62
     8
370
     0
100
AcDbLine
 10
372.758311492
 20
199.2060514564
 30
0.0
 11
363.6782442151
 21
162.6791777487
 31
0.0
  0
LINE
  5
244
330
1F
100
AcDbEntity
  8
0
  6
Continuous
 62
     8
370
     0
100
AcDbLine
 10
354.729158145
 20
126.6791792984
 30
0.0
 11
351.0463734089
 21
111.8642399485
 31
0.0
  0
LWPOLYLINE
  5
245
330
1F
100
AcDbEntity
  8
0
  6
Continuous
 62
     8
370
     0
100
AcDbPolyline
 90
        9
 70
   128
 43
0.0
 10
443.2405059157
 20
88.9460863943
 10
443.1472693501
 20
88.9692651505
 10
442.8711508332
 20
89.0379036243
 10
442.4227450906
 20
89.1493717606
 10
441.8192927657
 20
89.2993817503
 10
441.0839949666
 20
89.4821668441
 10
440.2450893937
 20
89.6907048697
 10
439.3348221598
 20
89.9169827278
 10
438.3881811915
 20
90.1523055906
  0
LWPOLYLINE
  5
246
330
1F
100
AcDbEntity
  8
0
  6
Continuous
 62
     8
370
     0
100
AcDbPolyline
 90
        9
 70
   128
 43
0.0
 10
464.9524514495
 20
176.2878979022
 10
464.8592148839
 20
176.3110766585
 10
464.5830814658
 20
176.3797151322
 10
464.1346757232
 20
176.4911832685
 10
463.5312382995
 20
176.641189533
 10
462.7959255992
 20
176.8239783521
 10
461.9570200263
 20
177.0325163777
 10
461.0467676936
 20
177.2587942357
 10
460.1001267253
 20
177.4941170986
  0
LWPOLYLINE
  5
247
330
1F
100
AcDbEntity
  8
0
  6
Continuous
 62
     8
370
     0
100
AcDbPolyline
 90
        9
 70
   128
 43
0.0
 10
461.3063459216
 20
182.3464380975
 10
461.2831597148
 20
182.2532015319
 10
461.2145249663
 20
181.9770792897
 10
461.1030493794
 20
181.5286772723
 10
460.9530393897
 20
180.9252286727
 10
460.7702617465
 20
180.189923423
 10
460.5617199956
 20
179.3510215754
 10
460.3354458629
 20
178.4407580669
 10
460.1001267253
 20
177.4941170986
  0
LWPOLYLINE
  5
248
330
1F
100
AcDbEntity
  8
0
  6
Continuous
 62
     8
370
     0
100
AcDbPolyline
 90
        9
 70
   128
 43
0.0
 10
373.9645306884
 20
204.0583724553
 10
373.9413593827
 20
203.965139615
 10
373.8727097331
 20
203.6890136475
 10
373.7612490474
 20
203.2406116302
 10
373.6112390576
 20
202.6371630306
 10
373.4284465133
 20
201.9018577809
 10
373.2199047623
 20
201.0629559333
 10
372.9936306296
 20
200.1526924248
 10
372.758311492
 20
199.2060514564
  0
LWPOLYLINE
  5
249
330
1F
100
AcDbEntity
  8
0
  6
Continuous
 62
     8
370
     0
100
AcDbPolyline
 90
        9
 70
   128
 43
0.0
 10
351.0463734089
 20
111.8642399485
 10
350.0997324406
 20
112.0995628114
 10
349.1894726573
 20
112.3258406694
 10
348.3505670844
 20
112.534378695
 10
347.6152692853
 20
112.7171675141
 10
347.0118169604
 20
112.8671737785
 10
346.5634112178
 20
112.9786419148
 10
346.2872927008
 20
113.0472803886
 10
346.1940561353
 20
113.0704591448
  0
LWPOLYLINE
  5
24A
330
1F
100
AcDbEntity
  8
0
  6
Continuous
 62
     8
370
     0
100
AcDbPolyline
 90
        9
 70
   128
 43
0.0
 10
372.758311492
 20
199.2060514564
 10
371.8116705237
 20
199.4413743193
 10
370.9014032899
 20
199.6676521773
 10
370.062497717
 20
199.8761902029
 10
369.3271999179
 20
200.0589752967
 10
368.723747593
 20
200.2089852865
 10
368.2753418504
 20
200.3204534228
 10
367.9992233334
 20
200.3890918965
 10
367.9059867678
 20
200.4122706528
  0
LWPOLYLINE
  5
24B
330
1F
100
AcDbEntity
  8
0
  6
Continuous
 62
     8
370
     0
100
AcDbPolyline
 90
        8
 70
   128
 43
0.0
 10
44.5414011298
 20
204.5252593632
 10
44.3676833926
 20
204.6003612156
 10
43.5742114602
 20
204.9433747704
 10
42.8787295638
 20
205.2440280492
 10
42.3079703866
 20
205.4907689268
 10
41.8838535367
 20
205.6741128142
 10
41.6226808844
 20
205.7870151873
 10
41.5344958125
 20
205.8251398082
  0
LWPOLYLINE
  5
24C
330
1F
100
AcDbEntity
  8
0
  6
Continuous
 62
     8
370
     0
100
AcDbPolyline
 90
        8
 70
   128
 43
0.0
 10
97.6119910298
 20
83.5332172389
 10
97.5238059579
 20
83.5713418598
 10
97.2626482068
 20
83.6842442329
 10
96.8385313569
 20
83.8675881202
 10
96.2677572785
 20
84.1143289978
 10
95.5722902833
 20
84.4149822767
 10
94.7788183509
 20
84.7579958315
 10
94.6050857125
 20
84.8330976839
  0
LWPOLYLINE
  5
24D
330
1F
100
AcDbEntity
  8
0
  6
Continuous
 62
     8
370
     0
100
AcDbPolyline
 90
        8
 70
   128
 43
0.0
 10
129.4193242608
 20
169.7110189522
 10
129.4944335638
 20
169.8847478653
 10
129.8374433933
 20
170.6782123471
 10
130.1380966721
 20
171.3736905182
 10
130.3848375498
 20
171.9444552834
 10
130.5681814371
 20
172.3685721333
 10
130.6810875355
 20
172.6297410602
 10
130.7192121564
 20
172.7179279948
  0
LWPOLYLINE
  5
24E
330
1F
100
AcDbEntity
  8
0
  6
Continuous
 62
     8
370
     0
100
AcDbPolyline
 90
        8
 70
   128
 43
0.0
 10
8.4272895871
 20
116.6404290522
 10
8.4654067574
 20
116.7286159868
 10
8.5783128558
 20
116.9897849138
 10
8.7616567431
 20
117.4139017637
 10
9.0084050713
 20
117.9846665288
 10
9.3090508996
 20
118.6801446999
 10
9.6520607291
 20
119.4736091818
 10
9.7271625815
 20
119.6473380948
  0
LINE
  5
24F
330
1F
100
AcDbEntity
  8
0
  6
Continuous
 62
     8
370
     0
100
AcDbLine
 10
282.5732503949
 20
189.6791803117
 30
0.0
 11
282.5732503949
 21
194.6791792686
 31
0.0
  0
LINE
  5
250
330
1F
100
AcDbEntity
  8
0
  6
Continuous
 62
     8
370
     0
100
AcDbLine
 10
287.5732493518
 20
189.6791803117
 30
0.0
 11
282.5732503949
 21
189.6791803117
 31
0.0
  0
LINE
  5
251
330
1F
100
AcDbEntity
  8
0
  6
Continuous
 62
     8
370
     0
100
AcDbLine
 10
282.5732503949
 20
99.6791767354
 30
0.0
 11
282.5732503949
 21
126.6791792984
 31
0.0
  0
LINE
  5
252
330
1F
100
AcDbEntity
  8
0
  6
Continuous
 62
     8
370
     0
100
AcDbLine
 10
282.5732503949
 20
162.6791777487
 30
0.0
 11
282.5732503949
 21
189.6791803117
 31
0.0
  0
LINE
  5
253
330
1F
100
AcDbEntity
  8
0
  6
Continuous
 62
     8
370
     0
100
AcDbLine
 10
192.5732468186
 20
99.6791767354
 30
0.0
 11
282.5732503949
 21
99.6791767354
 31
0.0
  0
LINE
  5
254
330
1F
100
AcDbEntity
  8
0
  6
Continuous
 62
     8
370
     0
100
AcDbLine
 10
192.5732468186
 20
189.6791803117
 30
0.0
 11
192.5732468186
 21
162.6791777487
 31
0.0
  0
LINE
  5
255
330
1F
100
AcDbEntity
  8
0
  6
Continuous
 62
     8
370
     0
100
AcDbLine
 10
192.5732468186
 20
126.6791792984
 30
0.0
 11
192.5732468186
 21
99.6791767354
 31
0.0
  0
LINE
  5
256
330
1F
100
AcDbEntity
  8
0
  6
Continuous
 62
     8
370
     0
100
AcDbLine
 10
282.5732503949
 20
189.6791803117
 30
0.0
 11
192.5732468186
 21
189.6791803117
 31
0.0
  0
LINE
  5
257
330
1F
100
AcDbEntity
  8
0
  6
Continuous
 62
     8
370
     0
100
AcDbLine
 10
192.5732468186
 20
94.6791777785
 30
0.0
 11
192.5732468186
 21
99.6791767354
 31
0.0
  0
LINE
  5
258
330
1F
100
AcDbEntity
  8
0
  6
Continuous
 62
     8
370
     0
100
AcDbLine
 10
192.5732468186
 20
99.6791767354
 30
0.0
 11
187.5732478617
 21
99.6791767354
 31
0.0
  0
LINE
  5
259
330
1F
100
AcDbEntity
  8
0
  6
Continuous
 62
     8
370
     0
100
AcDbLine
 10
282.5732503949
 20
94.6791777785
 30
0.0
 11
282.5732503949
 21
99.6791767354
 31
0.0
  0
LINE
  5
25A
330
1F
100
AcDbEntity
  8
0
  6
Continuous
 62
     8
370
     0
100
AcDbLine
 10
287.5732493518
 20
99.6791767354
 30
0.0
 11
282.5732503949
 21
99.6791767354
 31
0.0
  0
LINE
  5
25B
330
1F
100
AcDbEntity
  8
0
  6
Continuous
 62
     8
370
     0
100
AcDbLine
 10
192.5732468186
 20
189.6791803117
 30
0.0
 11
192.5732468186
 21
194.6791792686
 31
0.0
  0
LINE
  5
25C
330
1F
100
AcDbEntity
  8
0
  6
Continuous
 62
     8
370
     0
100
AcDbLine
 10
192.5732468186
 20
189.6791803117
 30
0.0
 11
187.5732478617
 21
189.6791803117
 31
0.0
  0
LWPOLYLINE
  5
25D
330
1F
100
AcDbEntity
  8
0
  6
Continuous
 62
     8
370
     0
100
AcDbPolyline
 90
        9
 70
   128
 43
0.0
 10
241.1089453778
 20
77.5040435071
 10
241.0410109839
 20
77.571977901
 10
240.8398182994
 20
77.7731659288
 10
240.5130991644
 20
78.0998887892
 10
240.0734089712
 20
78.5395773525
 10
239.5376451711
 20
79.0753337021
 10
238.9263965121
 20
79.6865793342
 10
238.2631531033
 20
80.3498225684
 10
237.5734029639
 20
81.0395675177
  0
LINE
  5
25E
330
1F
100
AcDbEntity
  8
0
  6
Continuous
 62
     8
370
     0
100
AcDbLine
 10
237.5734029639
 20
81.0395675177
 30
0.0
 11
251.2129473431
 21
94.6791777785
 31
0.0
  0
LWPOLYLINE
  5
25F
330
1F
100
AcDbEntity
  8
0
  6
Continuous
 62
     8
370
     0
100
AcDbPolyline
 90
        9
 70
   128
 43
0.0
 10
234.0378775658
 20
77.5040286059
 10
234.1058117269
 20
77.5719629998
 10
234.30700348
 20
77.7731510277
 10
234.6337209853
 20
78.099873888
 10
235.073409083
 20
78.5395624514
 10
235.609170322
 20
79.0753262515
 10
236.2204159541
 20
79.6865718837
 10
236.8836561615
 20
80.3498151178
 10
237.5734029639
 20
81.0395675177
  0
LINE
  5
260
330
1F
100
AcDbEntity
  8
0
  6
Continuous
 62
     8
370
     0
100
AcDbLine
 10
223.9337268217
 20
94.6791777785
 30
0.0
 11
237.5734029639
 21
81.0395675177
 31
0.0
  0
LINE
  5
261
330
1F
100
AcDbEntity
  8
0
  6
Continuous
 62
     8
370
     0
100
AcDbLine
 10
237.5730942496
 20
208.3187895293
 30
0.0
 11
223.9335498704
 21
194.6791792686
 31
0.0
  0
LWPOLYLINE
  5
262
330
1F
100
AcDbEntity
  8
0
  6
Continuous
 62
     8
370
     0
100
AcDbPolyline
 90
        9
 70
   128
 43
0.0
 10
237.5730942496
 20
208.3187895293
 10
236.8833441102
 20
209.0085344787
 10
236.2201007014
 20
209.6717777128
 10
235.6088520425
 20
210.283023345
 10
235.0730882423
 20
210.8187796945
 10
234.6333980492
 20
211.2584682579
 10
234.3066789141
 20
211.5851911182
 10
234.1054862296
 20
211.7863791461
 10
234.0375518358
 20
211.85431354
  0
LINE
  5
263
330
1F
100
AcDbEntity
  8
0
  6
Continuous
 62
     8
370
     0
100
AcDbLine
 10
251.2127703918
 20
194.6791792686
 30
0.0
 11
237.5730942496
 21
208.3187895293
 31
0.0
  0
LWPOLYLINE
  5
264
330
1F
100
AcDbEntity
  8
0
  6
Continuous
 62
     8
370
     0
100
AcDbPolyline
 90
        9
 70
   128
 43
0.0
 10
237.5730942496
 20
208.3187895293
 10
238.262841052
 20
209.0085419292
 10
238.9260812594
 20
209.6717851634
 10
239.5373268916
 20
210.2830307956
 10
240.0730881306
 20
210.8187945957
 10
240.5127762283
 20
211.2584831591
 10
240.8394937335
 20
211.5852060194
 10
241.0406854866
 20
211.7863940472
 10
241.1086196477
 20
211.8543284411
  0
LINE
  5
265
330
1F
100
AcDbEntity
  8
0
  6
Continuous
 62
     8
370
     0
100
AcDbLine
 10
552.5732462226
 20
157.6791787918
 30
0.0
 11
547.5732509909
 21
157.6791787918
 31
0.0
  0
LINE
  5
266
330
1F
100
AcDbEntity
  8
0
  6
Continuous
 62
     8
370
     0
100
AcDbLine
 10
547.5732509909
 20
157.6791787918
 30
0.0
 11
547.5732509909
 21
162.6791777487
 31
0.0
  0
LINE
  5
267
330
1F
100
AcDbEntity
  8
0
  6
Continuous
 62
     8
370
     0
100
AcDbLine
 10
-72.4267537774
 20
157.6791787918
 30
0.0
 11
-72.4267537774
 21
162.6791777487
 31
0.0
  0
LINE
  5
268
330
1F
100
AcDbEntity
  8
0
  6
Continuous
 62
     8
370
     0
100
AcDbLine
 10
-72.4267537774
 20
157.6791787918
 30
0.0
 11
-77.4267490091
 21
157.6791787918
 31
0.0
  0
LINE
  5
269
330
1F
100
AcDbEntity
  8
0
  6
Continuous
 62
     8
370
     0
100
AcDbLine
 10
547.5732509909
 20
150.6791785757
 30
0.0
 11
547.5732509909
 21
157.6791787918
 31
0.0
  0
LINE
  5
26A
330
1F
100
AcDbEntity
  8
0
  6
Continuous
 62
     8
370
     0
100
AcDbLine
 10
-72.4267537774
 20
150.6791785757
 30
0.0
 11
-72.4267537774
 21
157.6791787918
 31
0.0
  0
LINE
  5
26B
330
1F
100
AcDbEntity
  8
0
  6
Continuous
 62
     8
370
     0
100
AcDbLine
 10
547.5732509909
 20
157.6791787918
 30
0.0
 11
-72.4267537774
 21
157.6791787918
 31
0.0
  0
LINE
  5
26C
330
1F
100
AcDbEntity
  8
0
  6
Continuous
 62
     8
370
     0
100
AcDbLine
 10
547.5732509909
 20
138.6791784714
 30
0.0
 11
547.5732509909
 21
131.6791782553
 31
0.0
  0
LINE
  5
26D
330
1F
100
AcDbEntity
  8
0
  6
Continuous
 62
     8
370
     0
100
AcDbLine
 10
-72.4267537774
 20
131.6791782553
 30
0.0
 11
547.5732509909
 21
131.6791782553
 31
0.0
  0
LINE
  5
26E
330
1F
100
AcDbEntity
  8
0
  6
Continuous
 62
     8
370
     0
100
AcDbLine
 10
-72.4267537774
 20
138.6791784714
 30
0.0
 11
-72.4267537774
 21
131.6791782553
 31
0.0
  0
LINE
  5
26F
330
1F
100
AcDbEntity
  8
0
  6
Continuous
 62
     8
370
     0
100
AcDbLine
 10
-77.4267490091
 20
131.6791782553
 30
0.0
 11
-72.4267537774
 21
131.6791782553
 31
0.0
  0
LINE
  5
270
330
1F
100
AcDbEntity
  8
0
  6
Continuous
 62
     8
370
     0
100
AcDbLine
 10
-72.4267537774
 20
126.6791792984
 30
0.0
 11
-72.4267537774
 21
131.6791782553
 31
0.0
  0
LINE
  5
271
330
1F
100
AcDbEntity
  8
0
  6
Continuous
 62
     8
370
     0
100
AcDbLine
 10
547.5732509909
 20
126.6791792984
 30
0.0
 11
547.5732509909
 21
131.6791782553
 31
0.0
  0
LINE
  5
272
330
1F
100
AcDbEntity
  8
0
  6
Continuous
 62
     8
370
     0
100
AcDbLine
 10
547.5732509909
 20
131.6791782553
 30
0.0
 11
552.5732462226
 21
131.6791782553
 31
0.0
  0
LINE
  5
273
330
1F
100
AcDbEntity
  8
0
  6
Continuous
 62
     8
370
     0
100
AcDbLine
 10
-257.4267561616
 20
138.6791784714
 30
0.0
 11
-257.4267561616
 21
150.6791785757
 31
0.0
  0
LINE
  5
274
330
1F
100
AcDbEntity
  8
0
  6
Continuous
 62
     8
370
     0
100
AcDbLine
 10
732.5732533751
 20
138.6791784714
 30
0.0
 11
732.5732533751
 21
150.6791785757
 31
0.0
  0
CIRCLE
  5
275
330
1F
100
AcDbEntity
  8
0
  6
Continuous
 62
     8
370
     0
100
AcDbCircle
 10
-292.9267513932
 20
144.6791785235
 30
0.0
 40
27.62550000000003
  0
CIRCLE
  5
276
330
1F
100
AcDbEntity
  8
0
  6
Continuous
 62
     8
370
     0
100
AcDbCircle
 10
768.0732486068
 20
144.6791785235
 30
0.0
 40
27.62550000000015
  0
ENDSEC
  0
SECTION
  2
OBJECTS
  0
DICTIONARY
  5
C
330
0
100
AcDbDictionary
281
     1
  3
ACAD_GROUP
350
D
  3
ACAD_LAYOUT
350
1A
  3
ACAD_MLINESTYLE
350
17
  3
ACAD_PLOTSETTINGS
350
19
  3
ACAD_PLOTSTYLENAME
350
E
  3
ACAD_SCALELIST
350
47
  0
DICTIONARY
  5
D
102
{ACAD_REACTORS
330
C
102
}
330
C
100
AcDbDictionary
281
     1
  0
DICTIONARY
  5
1A
102
{ACAD_REACTORS
330
C
102
}
330
C
100
AcDbDictionary
281
     1
  3
Layout1
350
1E
  3
Layout2
350
26
  3
Model
350
22
  0
DICTIONARY
  5
17
102
{ACAD_REACTORS
330
C
102
}
330
C
100
AcDbDictionary
281
     1
  3
Standard
350
18
  0
DICTIONARY
  5
19
102
{ACAD_REACTORS
330
C
102
}
330
C
100
AcDbDictionary
281
     1
  0
ACDBDICTIONARYWDFLT
  5
E
102
{ACAD_REACTORS
330
C
102
}
330
C
100
AcDbDictionary
281
     1
  3
Normal
350
F
100
AcDbDictionaryWithDefault
340
F
  0
DICTIONARY
  5
47
102
{ACAD_REACTORS
330
C
102
}
330
C
100
AcDbDictionary
281
     1
  3
A0
350
48
  3
A1
350
49
  3
A2
350
4A
  3
A3
350
4B
  3
A4
350
4C
  3
A5
350
4D
  3
A6
350
4E
  3
A7
350
4F
  3
A8
350
50
  3
A9
350
51
  3
B0
350
52
  3
B1
350
53
  3
B2
350
54
  3
B3
350
55
  3
B4
350
56
  3
B5
350
57
  3
B6
350
58
  3
B7
350
59
  3
B8
350
5A
  3
B9
350
5B
  3
C0
350
5C
  3
C1
350
5D
  3
C2
350
5E
  3
C3
350
5F
  3
C4
350
60
  3
C5
350
61
  3
C6
350
62
  3
C7
350
63
  3
C8
350
64
  3
C9
350
65
  3
D0
350
66
  3
D1
350
67
  3
D2
350
68
  0
LAYOUT
  5
1E
102
{ACAD_REACTORS
330
1A
102
}
330
1A
100
AcDbPlotSettings
  1

  2
none_device
  4

  6

 40
0.0
 41
0.0
 42
0.0
 43
0.0
 44
0.0
 45
0.0
 46
0.0
 47
0.0
 48
0.0
 49
0.0
140
0.0
141
0.0
142
1.0
143
1.0
 70
   688
 72
     1
 73
     0
 74
     5
  7

 75
    16
147
1.0
148
0.0
149
0.0
100
AcDbLayout
  1
Layout1
 70
     1
 71
     1
 10
0.0
 20
0.0
 11
420.0
 21
297.0
 12
0.0
 22
0.0
 32
0.0
 14
1.0000000000E+20
 24
1.0000000000E+20
 34
1.0000000000E+20
 15
-1.0000000000E+20
 25
-1.0000000000E+20
 35
-1.0000000000E+20
146
0.0
 13
0.0
 23
0.0
 33
0.0
 16
1.0
 26
0.0
 36
0.0
 17
0.0
 27
1.0
 37
0.0
 76
     0
330
1B
  0
LAYOUT
  5
26
102
{ACAD_REACTORS
330
1A
102
}
330
1A
100
AcDbPlotSettings
  1

  2
none_device
  4

  6

 40
0.0
 41
0.0
 42
0.0
 43
0.0
 44
0.0
 45
0.0
 46
0.0
 47
0.0
 48
0.0
 49
0.0
140
0.0
141
0.0
142
1.0
143
1.0
 70
   688
 72
     1
 73
     0
 74
     5
  7

 75
    16
147
1.0
148
0.0
149
0.0
100
AcDbLayout
  1
Layout2
 70
     1
 71
     2
 10
0.0
 20
0.0
 11
0.0
 21
0.0
 12
0.0
 22
0.0
 32
0.0
 14
0.0
 24
0.0
 34
0.0
 15
0.0
 25
0.0
 35
0.0
146
0.0
 13
0.0
 23
0.0
 33
0.0
 16
1.0
 26
0.0
 36
0.0
 17
0.0
 27
1.0
 37
0.0
 76
     0
330
23
  0
LAYOUT
  5
22
102
{ACAD_REACTORS
330
1A
102
}
330
1A
100
AcDbPlotSettings
  1

  2
none_device
  4
Letter_(8.50_x_11.00_Inches)
  6

 40
6.35
 41
6.35
 42
6.35000508
 43
6.35000508
 44
215.9
 45
279.4
 46
0.0
 47
0.0
 48
0.0
 49
0.0
140
0.0
141
0.0
142
1.0
143
1.0
 70
  1712
 72
     1
 73
     0
 74
     0
  7

 75
     0
147
1.0
148
0.0
149
0.0
100
AcDbLayout
  1
Model
 70
     1
 71
     0
 10
0.0
 20
0.0
 11
420.0
 21
297.0
 12
0.0
 22
0.0
 32
0.0
 14
0.0
 24
0.0
 34
0.0
 15
420.0
 25
297.0
 35
0.0
146
0.0
 13
0.0
 23
0.0
 33
0.0
 16
1.0
 26
0.0
 36
0.0
 17
0.0
 27
1.0
 37
0.0
 76
     0
330
1F
331
29
  0
MLINESTYLE
  5
18
102
{ACAD_REACTORS
330
17
102
}
330
17
100
AcDbMlineStyle
  2
Standard
 70
     0
  3

 62
   256
 51
90.0
 52
90.0
 71
     2
 49
0.5
 62
   256
  6
BYLAYER
 49
-0.5
 62
   256
  6
BYLAYER
  0
ACDBPLACEHOLDER
  5
F
102
{ACAD_REACTORS
330
E
102
}
330
E
  0
SCALE
  5
48
102
{ACAD_REACTORS
330
47
102
}
330
47
100
AcDbScale
 70
     0
300
1:1
140
1.0
141
1.0
290
     1
  0
SCALE
  5
49
102
{ACAD_REACTORS
330
47
102
}
330
47
100
AcDbScale
 70
     0
300
1:2
140
1.0
141
2.0
290
     0
  0
SCALE
  5
4A
102
{ACAD_REACTORS
330
47
102
}
330
47
100
AcDbScale
 70
     0
300
1:4
140
1.0
141
4.0
290
     0
  0
SCALE
  5
4B
102
{ACAD_REACTORS
330
47
102
}
330
47
100
AcDbScale
 70
     0
300
1:5
140
1.0
141
5.0
290
     0
  0
SCALE
  5
4C
102
{ACAD_REACTORS
330
47
102
}
330
47
100
AcDbScale
 70
     0
300
1:8
140
1.0
141
8.0
290
     0
  0
SCALE
  5
4D
102
{ACAD_REACTORS
330
47
102
}
330
47
100
AcDbScale
 70
     0
300
1:10
140
1.0
141
10.0
290
     0
  0
SCALE
  5
4E
102
{ACAD_REACTORS
330
47
102
}
330
47
100
AcDbScale
 70
     0
300
1:16
140
1.0
141
16.0
290
     0
  0
SCALE
  5
4F
102
{ACAD_REACTORS
330
47
102
}
330
47
100
AcDbScale
 70
     0
300
1:20
140
1.0
141
20.0
290
     0
  0
SCALE
  5
50
102
{ACAD_REACTORS
330
47
102
}
330
47
100
AcDbScale
 70
     0
300
1:30
140
1.0
141
30.0
290
     0
  0
SCALE
  5
51
102
{ACAD_REACTORS
330
47
102
}
330
47
100
AcDbScale
 70
     0
300
1:40
140
1.0
141
40.0
290
     0
  0
SCALE
  5
52
102
{ACAD_REACTORS
330
47
102
}
330
47
100
AcDbScale
 70
     0
300
1:50
140
1.0
141
50.0
290
     0
  0
SCALE
  5
53
102
{ACAD_REACTORS
330
47
102
}
330
47
100
AcDbScale
 70
     0
300
1:100
140
1.0
141
100.0
290
     0
  0
SCALE
  5
54
102
{ACAD_REACTORS
330
47
102
}
330
47
100
AcDbScale
 70
     0
300
2:1
140
2.0
141
1.0
290
     0
  0
SCALE
  5
55
102
{ACAD_REACTORS
330
47
102
}
330
47
100
AcDbScale
 70
     0
300
4:1
140
4.0
141
1.0
290
     0
  0
SCALE
  5
56
102
{ACAD_REACTORS
330
47
102
}
330
47
100
AcDbScale
 70
     0
300
8:1
140
8.0
141
1.0
290
     0
  0
SCALE
  5
57
102
{ACAD_REACTORS
330
47
102
}
330
47
100
AcDbScale
 70
     0
300
10:1
140
10.0
141
1.0
290
     0
  0
SCALE
  5
58
102
{ACAD_REACTORS
330
47
102
}
330
47
100
AcDbScale
 70
     0
300
100:1
140
100.0
141
1.0
290
     0
  0
SCALE
  5
59
102
{ACAD_REACTORS
330
47
102
}
330
47
100
AcDbScale
 70
     0
300
1/128" = 1'-0"
140
0.0078125
141
12.0
290
     0
  0
SCALE
  5
5A
102
{ACAD_REACTORS
330
47
102
}
330
47
100
AcDbScale
 70
     0
300
1/64" = 1'-0"
140
0.015625
141
12.0
290
     0
  0
SCALE
  5
5B
102
{ACAD_REACTORS
330
47
102
}
330
47
100
AcDbScale
 70
     0
300
1/32" = 1'-0"
140
0.03125
141
12.0
290
     0
  0
SCALE
  5
5C
102
{ACAD_REACTORS
330
47
102
}
330
47
100
AcDbScale
 70
     0
300
1/16" = 1'-0"
140
0.0625
141
12.0
290
     0
  0
SCALE
  5
5D
102
{ACAD_REACTORS
330
47
102
}
330
47
100
AcDbScale
 70
     0
300
3/32" = 1'-0"
140
0.09375
141
12.0
290
     0
  0
SCALE
  5
5E
102
{ACAD_REACTORS
330
47
102
}
330
47
100
AcDbScale
 70
     0
300
1/8" = 1'-0"
140
0.125
141
12.0
290
     0
  0
SCALE
  5
5F
102
{ACAD_REACTORS
330
47
102
}
330
47
100
AcDbScale
 70
     0
300
3/16" = 1'-0"
140
0.1875
141
12.0
290
     0
  0
SCALE
  5
60
102
{ACAD_REACTORS
330
47
102
}
330
47
100
AcDbScale
 70
     0
300
1/4" = 1'-0"
140
0.25
141
12.0
290
     0
  0
SCALE
  5
61
102
{ACAD_REACTORS
330
47
102
}
330
47
100
AcDbScale
 70
     0
300
3/8" = 1'-0"
140
0.375
141
12.0
290
     0
  0
SCALE
  5
62
102
{ACAD_REACTORS
330
47
102
}
330
47
100
AcDbScale
 70
     0
300
1/2" = 1'-0"
140
0.5
141
12.0
290
     0
  0
SCALE
  5
63
102
{ACAD_REACTORS
330
47
102
}
330
47
100
AcDbScale
 70
     0
300
3/4" = 1'-0"
140
0.75
141
12.0
290
     0
  0
SCALE
  5
64
102
{ACAD_REACTORS
330
47
102
}
330
47
100
AcDbScale
 70
     0
300
1" = 1'-0"
140
1.0
141
12.0
290
     0
  0
SCALE
  5
65
102
{ACAD_REACTORS
330
47
102
}
330
47
100
AcDbScale
 70
     0
300
1-1/2" = 1'-0"
140
1.5
141
12.0
290
     0
  0
SCALE
  5
66
102
{ACAD_REACTORS
330
47
102
}
330
47
100
AcDbScale
 70
     0
300
3" = 1'-0"
140
3.0
141
12.0
290
     0
  0
SCALE
  5
67
102
{ACAD_REACTORS
330
47
102
}
330
47
100
AcDbScale
 70
     0
300
6" = 1'-0"
140
6.0
141
12.0
290
     0
  0
SCALE
  5
68
102
{ACAD_REACTORS
330
47
102
}
330
47
100
AcDbScale
 70
     0
300
1'-0" = 1'-0"
140
12.0
141
12.0
290
     0
  0
ENDSEC
  0
EOF
