  0
SECTION
  2
HEADER
  9
$ACADVER
  1
AC1015
  9
$ACADMAINTVER
 70
     6
  9
$DWGCODEPAGE
  3
ANSI_1251
  9
$INSBASE
 10
0.0
 20
0.0
 30
0.0
  9
$EXTMIN
 10
-2559.6458510802
 20
0.116320796
 30
0.0
  9
$EXTMAX
 10
1538.2146067669
 20
651.7495303145
 30
0.0
  9
$LIMMIN
 10
0.0
 20
0.0
  9
$LIMMAX
 10
420.0
 20
297.0
  9
$ORTHOMODE
 70
     0
  9
$REGENMODE
 70
     1
  9
$FILLMODE
 70
     1
  9
$QTEXTMODE
 70
     0
  9
$MIRRTEXT
 70
     1
  9
$LTSCALE
 40
1.0
  9
$ATTMODE
 70
     1
  9
$TEXTSIZE
 40
3.0
  9
$TRACEWID
 40
1.0
  9
$TEXTSTYLE
  7
Standard
  9
$CLAYER
  8
0
  9
$CELTYPE
  6
ByLayer
  9
$CECOLOR
 62
   256
  9
$CELTSCALE
 40
1.0
  9
$DISPSILH
 70
     0
  9
$DIMSCALE
 40
1.0
  9
$DIMASZ
 40
3.0
  9
$DIMEXO
 40
0.0
  9
$DIMDLI
 40
3.75
  9
$DIMRND
 40
0.0
  9
$DIMDLE
 40
0.0
  9
$DIMEXE
 40
2.0
  9
$DIMTP
 40
0.0
  9
$DIMTM
 40
0.0
  9
$DIMTXT
 40
3.0
  9
$DIMCEN
 40
2.5
  9
$DIMTSZ
 40
0.0
  9
$DIMTOL
 70
     0
  9
$DIMLIM
 70
     0
  9
$DIMTIH
 70
     1
  9
$DIMTOH
 70
     1
  9
$DIMSE1
 70
     0
  9
$DIMSE2
 70
     0
  9
$DIMTAD
 70
     1
  9
$DIMZIN
 70
     0
  9
$DIMBLK
  1

  9
$DIMASO
 70
     1
  9
$DIMSHO
 70
     1
  9
$DIMPOST
  1

  9
$DIMAPOST
  1

  9
$DIMALT
 70
     0
  9
$DIMALTD
 70
     3
  9
$DIMALTF
 40
0.0393700787
  9
$DIMLFAC
 40
1.0
  9
$DIMTOFL
 70
     1
  9
$DIMTVP
 40
0.0
  9
$DIMTIX
 70
     0
  9
$DIMSOXD
 70
     0
  9
$DIMSAH
 70
     0
  9
$DIMBLK1
  1

  9
$DIMBLK2
  1

  9
$DIMSTYLE
  2
ISO-25
  9
$DIMCLRD
 70
     0
  9
$DIMCLRE
 70
     0
  9
$DIMCLRT
 70
     0
  9
$DIMTFAC
 40
1.0
  9
$DIMGAP
 40
2.0
  9
$DIMJUST
 70
     0
  9
$DIMSD1
 70
     0
  9
$DIMSD2
 70
     0
  9
$DIMTOLJ
 70
     0
  9
$DIMTZIN
 70
     0
  9
$DIMALTZ
 70
     0
  9
$DIMALTTZ
 70
     0
  9
$DIMUPT
 70
     0
  9
$DIMDEC
 70
     2
  9
$DIMTDEC
 70
     2
  9
$DIMALTU
 70
     2
  9
$DIMALTTD
 70
     3
  9
$DIMTXSTY
  7
Standard
  9
$DIMAUNIT
 70
     0
  9
$DIMADEC
 70
     2
  9
$DIMALTRND
 40
0.0
  9
$DIMAZIN
 70
     0
  9
$DIMDSEP
 70
    44
  9
$DIMATFIT
 70
     3
  9
$DIMFRAC
 70
     0
  9
$DIMLDRBLK
  1

  9
$DIMLUNIT
 70
     2
  9
$DIMLWD
 70
    -2
  9
$DIMLWE
 70
    -2
  9
$DIMTMOVE
 70
     0
  9
$LUNITS
 70
     2
  9
$LUPREC
 70
     2
  9
$SKETCHINC
 40
1.0
  9
$FILLETRAD
 40
10.0
  9
$AUNITS
 70
     1
  9
$AUPREC
 70
     2
  9
$MENU
  1
.
  9
$ELEVATION
 40
0.0
  9
$PELEVATION
 40
0.0
  9
$THICKNESS
 40
0.0
  9
$LIMCHECK
 70
     0
  9
$CHAMFERA
 40
0.0
  9
$CHAMFERB
 40
0.0
  9
$CHAMFERC
 40
0.0
  9
$CHAMFERD
 40
0.0
  9
$SKPOLY
 70
     0
  9
$TDCREATE
 40
2459306.444937269
  9
$TDUCREATE
 40
2459306.319937269
  9
$TDUPDATE
 40
2459306.444959271
  9
$TDUUPDATE
 40
2459306.319959271
  9
$TDINDWG
 40
0.0000000116
  9
$TDUSRTIMER
 40
0.0000000116
  9
$USRTIMER
 70
     1
  9
$ANGBASE
 50
0.0
  9
$ANGDIR
 70
     0
  9
$PDMODE
 70
     0
  9
$PDSIZE
 40
-1.0
  9
$PLINEWID
 40
0.0
  9
$SPLFRAME
 70
     0
  9
$SPLINETYPE
 70
     6
  9
$SPLINESEGS
 70
     8
  9
$HANDSEED
  5
A1B
  9
$SURFTAB1
 70
     6
  9
$SURFTAB2
 70
     6
  9
$SURFTYPE
 70
     6
  9
$SURFU
 70
     6
  9
$SURFV
 70
     6
  9
$UCSBASE
  2

  9
$UCSNAME
  2

  9
$UCSORG
 10
0.0
 20
0.0
 30
0.0
  9
$UCSXDIR
 10
1.0
 20
0.0
 30
0.0
  9
$UCSYDIR
 10
0.0
 20
1.0
 30
0.0
  9
$UCSORTHOREF
  2

  9
$UCSORTHOVIEW
 70
     0
  9
$UCSORGTOP
 10
0.0
 20
0.0
 30
0.0
  9
$UCSORGBOTTOM
 10
0.0
 20
0.0
 30
0.0
  9
$UCSORGLEFT
 10
0.0
 20
0.0
 30
0.0
  9
$UCSORGRIGHT
 10
0.0
 20
0.0
 30
0.0
  9
$UCSORGFRONT
 10
0.0
 20
0.0
 30
0.0
  9
$UCSORGBACK
 10
0.0
 20
0.0
 30
0.0
  9
$PUCSBASE
  2

  9
$PUCSNAME
  2

  9
$PUCSORG
 10
0.0
 20
0.0
 30
0.0
  9
$PUCSXDIR
 10
1.0
 20
0.0
 30
0.0
  9
$PUCSYDIR
 10
0.0
 20
1.0
 30
0.0
  9
$PUCSORTHOREF
  2

  9
$PUCSORTHOVIEW
 70
     0
  9
$PUCSORGTOP
 10
0.0
 20
0.0
 30
0.0
  9
$PUCSORGBOTTOM
 10
0.0
 20
0.0
 30
0.0
  9
$PUCSORGLEFT
 10
0.0
 20
0.0
 30
0.0
  9
$PUCSORGRIGHT
 10
0.0
 20
0.0
 30
0.0
  9
$PUCSORGFRONT
 10
0.0
 20
0.0
 30
0.0
  9
$PUCSORGBACK
 10
0.0
 20
0.0
 30
0.0
  9
$USERI1
 70
     0
  9
$USERI2
 70
     0
  9
$USERI3
 70
     0
  9
$USERI4
 70
     0
  9
$USERI5
 70
     0
  9
$USERR1
 40
0.0
  9
$USERR2
 40
0.0
  9
$USERR3
 40
0.0
  9
$USERR4
 40
0.0
  9
$USERR5
 40
0.0
  9
$WORLDVIEW
 70
     1
  9
$SHADEDGE
 70
     3
  9
$SHADEDIF
 70
    70
  9
$TILEMODE
 70
     1
  9
$MAXACTVP
 70
    64
  9
$PINSBASE
 10
0.0
 20
0.0
 30
0.0
  9
$PLIMCHECK
 70
     0
  9
$PEXTMIN
 10
1.0000000000E+20
 20
1.0000000000E+20
 30
1.0000000000E+20
  9
$PEXTMAX
 10
-1.0000000000E+20
 20
-1.0000000000E+20
 30
-1.0000000000E+20
  9
$PLIMMIN
 10
0.0
 20
0.0
  9
$PLIMMAX
 10
420.0
 20
297.0
  9
$UNITMODE
 70
     0
  9
$VISRETAIN
 70
     1
  9
$PLINEGEN
 70
     0
  9
$PSLTSCALE
 70
     1
  9
$TREEDEPTH
 70
  3020
  9
$CMLSTYLE
  2
Standard
  9
$CMLJUST
 70
     0
  9
$CMLSCALE
 40
20.0
  9
$PROXYGRAPHICS
 70
     1
  9
$MEASUREMENT
 70
     1
  9
$CELWEIGHT
370
    -1
  9
$ENDCAPS
280
     0
  9
$JOINSTYLE
280
     0
  9
$LWDISPLAY
290
     1
  9
$INSUNITS
 70
     4
  9
$HYPERLINKBASE
  1

  9
$STYLESHEET
  1

  9
$XEDIT
290
     1
  9
$CEPSNTYPE
380
     0
  9
$PSTYLEMODE
290
     1
  9
$FINGERPRINTGUID
  2
{00037EEC-257A-4956-BAB2-9D54E9747834}
  9
$VERSIONGUID
  2
{FAEB1C32-E019-11D5-929B-00C0DF256EC4}
  9
$EXTNAMES
290
     1
  9
$PSVPSCALE
 40
0.0
  9
$OLESTARTUP
290
     0
  0
ENDSEC
  0
SECTION
  2
CLASSES
  0
CLASS
  1
ACDBDICTIONARYWDFLT
  2
AcDbDictionaryWithDefault
  3
ObjectDBX Classes
 90
        0
280
     0
281
     0
  0
CLASS
  1
VISUALSTYLE
  2
AcDbVisualStyle
  3
ObjectDBX Classes
 90
     4095
280
     0
281
     0
  0
CLASS
  1
MATERIAL
  2
AcDbMaterial
  3
ObjectDBX Classes
 90
     1153
280
     0
281
     0
  0
CLASS
  1
SCALE
  2
AcDbScale
  3
ObjectDBX Classes
 90
     1153
280
     0
281
     0
  0
CLASS
  1
SUN
  2
AcDbSun
  3
SCENEOE
 90
     1153
280
     0
281
     0
  0
CLASS
  1
ACDBPLACEHOLDER
  2
AcDbPlaceHolder
  3
ObjectDBX Classes
 90
        0
280
     0
281
     0
  0
CLASS
  1
LAYOUT
  2
AcDbLayout
  3
ObjectDBX Classes
 90
        0
280
     0
281
     0
  0
ENDSEC
  0
SECTION
  2
TABLES
  0
TABLE
  2
VPORT
  5
8
330
0
100
AcDbSymbolTable
 70
     1
  0
VPORT
  5
29
330
8
100
AcDbSymbolTableRecord
100
AcDbViewportTableRecord
  2
*Active
 70
     0
 10
0.0
 20
0.0
 11
1.0
 21
1.0
 12
-510.7156221567
 22
325.9329255553
 13
0.0
 23
0.0
 14
10.0
 24
10.0
 15
10.0
 25
10.0
 16
0.0
 26
0.0
 36
1.0
 17
0.0
 27
0.0
 37
0.0
 40
664.665873709
 41
6.2885997797
 42
50.0
 43
0.0
 44
0.0
 50
0.0
 51
0.0
 71
     0
 72
   100
 73
     1
 74
     3
 75
     0
 76
     0
 77
     0
 78
     0
281
     0
 65
     1
110
0.0
120
0.0
130
0.0
111
1.0
121
0.0
131
0.0
112
0.0
122
1.0
132
0.0
 79
     0
146
0.0
  0
ENDTAB
  0
TABLE
  2
LTYPE
  5
5
330
0
100
AcDbSymbolTable
 70
     6
  0
LTYPE
  5
14
330
5
100
AcDbSymbolTableRecord
100
AcDbLinetypeTableRecord
  2
ByBlock
 70
     0
  3

 72
    65
 73
     0
 40
0.0
  0
LTYPE
  5
15
330
5
100
AcDbSymbolTableRecord
100
AcDbLinetypeTableRecord
  2
ByLayer
 70
     0
  3

 72
    65
 73
     0
 40
0.0
  0
LTYPE
  5
16
330
5
100
AcDbSymbolTableRecord
100
AcDbLinetypeTableRecord
  2
Continuous
 70
     0
  3
Solid line
 72
    65
 73
     0
 40
0.0
  0
LTYPE
  5
6A
330
5
100
AcDbSymbolTableRecord
100
AcDbLinetypeTableRecord
  2
HIDDEN
 70
     0
  3
Hidden __ __ __ __ __ __ __ __ __ __ __ __ __ __
 72
    65
 73
     2
 40
1.905
 49
1.27
 74
     0
 49
-0.635
 74
     0
  0
LTYPE
  5
6B
330
5
100
AcDbSymbolTableRecord
100
AcDbLinetypeTableRecord
  2
PHANTOM
 70
     0
  3
Phantom ______  __  __  ______  __  __  ______
 72
    65
 73
     6
 40
12.7
 49
6.35
 74
     0
 49
-1.27
 74
     0
 49
1.27
 74
     0
 49
-1.27
 74
     0
 49
1.27
 74
     0
 49
-1.27
 74
     0
  0
LTYPE
  5
6C
330
5
100
AcDbSymbolTableRecord
100
AcDbLinetypeTableRecord
  2
CENTER
 70
     0
  3
Center ____ _ ____ _ ____ _ ____ _ ____ _ ____
 72
    65
 73
     4
 40
10.16
 49
6.35
 74
     0
 49
-1.27
 74
     0
 49
1.27
 74
     0
 49
-1.27
 74
     0
  0
LTYPE
  5
6D
330
5
100
AcDbSymbolTableRecord
100
AcDbLinetypeTableRecord
  2
CENTERX2
 70
     0
  3
Center (2x) ________  __  ________  __  _____
 72
    65
 73
     4
 40
20.32
 49
12.7
 74
     0
 49
-2.54
 74
     0
 49
2.54
 74
     0
 49
-2.54
 74
     0
  0
LTYPE
  5
6E
330
5
100
AcDbSymbolTableRecord
100
AcDbLinetypeTableRecord
  2
DOT2
 70
     0
  3
Dot (.5x) ........................................
 72
    65
 73
     2
 40
0.635
 49
0.0
 74
     0
 49
-0.635
 74
     0
  0
ENDTAB
  0
TABLE
  2
LAYER
  5
2
330
0
100
AcDbSymbolTable
 70
     1
  0
LAYER
  5
10
330
2
100
AcDbSymbolTableRecord
100
AcDbLayerTableRecord
  2
0
 70
     0
 62
     7
  6
Continuous
370
    -3
390
F
  0
ENDTAB
  0
TABLE
  2
STYLE
  5
3
330
0
100
AcDbSymbolTable
 70
     1
  0
STYLE
  5
11
330
3
100
AcDbSymbolTableRecord
100
AcDbTextStyleTableRecord
  2
Standard
 70
     0
 40
0.0
 41
1.0
 50
0.0
 71
     0
 42
3.0
  3
txt
  4

  0
ENDTAB
  0
TABLE
  2
VIEW
  5
6
330
0
100
AcDbSymbolTable
 70
     0
  0
ENDTAB
  0
TABLE
  2
UCS
  5
7
330
0
100
AcDbSymbolTable
 70
     0
  0
ENDTAB
  0
TABLE
  2
APPID
  5
9
330
0
100
AcDbSymbolTable
 70
     1
  0
APPID
  5
12
330
9
100
AcDbSymbolTableRecord
100
AcDbRegAppTableRecord
  2
ACAD
 70
     0
  0
ENDTAB
  0
TABLE
  2
DIMSTYLE
  5
A
330
0
100
AcDbSymbolTable
 70
     1
100
AcDbDimStyleTable
  0
DIMSTYLE
105
27
330
A
100
AcDbSymbolTableRecord
100
AcDbDimStyleTableRecord
  2
ISO-25
 70
     0
 41
2.5
 42
0.625
 43
3.75
 44
1.25
 73
     0
 74
     0
 77
     1
 78
     8
140
2.5
141
2.5
143
0.0393700787
147
0.625
171
     3
172
     1
178
     0
271
     2
272
     2
274
     3
278
    44
283
     0
284
     8
340
11
  0
ENDTAB
  0
TABLE
  2
BLOCK_RECORD
  5
1
330
0
100
AcDbSymbolTable
 70
     1
  0
BLOCK_RECORD
  5
1F
330
1
100
AcDbSymbolTableRecord
100
AcDbBlockTableRecord
  2
*Model_Space
340
22
  0
BLOCK_RECORD
  5
1B
330
1
100
AcDbSymbolTableRecord
100
AcDbBlockTableRecord
  2
*Paper_Space
340
1E
  0
BLOCK_RECORD
  5
23
330
1
100
AcDbSymbolTableRecord
100
AcDbBlockTableRecord
  2
*Paper_Space0
340
26
  0
ENDTAB
  0
ENDSEC
  0
SECTION
  2
BLOCKS
  0
BLOCK
  5
20
330
1F
100
AcDbEntity
  8
0
100
AcDbBlockBegin
  2
*Model_Space
 70
     0
 10
0.0
 20
0.0
 30
0.0
  3
*Model_Space
  1
*Model_Space
  0
ENDBLK
  5
21
330
1F
100
AcDbEntity
  8
0
100
AcDbBlockEnd
  0
BLOCK
  5
1C
330
1B
100
AcDbEntity
 67
     1
  8
0
100
AcDbBlockBegin
  2
*Paper_Space
 70
     0
 10
0.0
 20
0.0
 30
0.0
  3
*Paper_Space
  1
*Paper_Space
  0
ENDBLK
  5
1D
330
1B
100
AcDbEntity
 67
     1
  8
0
100
AcDbBlockEnd
  0
BLOCK
  5
24
330
23
100
AcDbEntity
  8
0
100
AcDbBlockBegin
  2
*Paper_Space0
 70
     0
 10
0.0
 20
0.0
 30
0.0
  3
*Paper_Space0
  1
*Paper_Space0
  0
ENDBLK
  5
25
330
23
100
AcDbEntity
  8
0
100
AcDbBlockEnd
  0
ENDSEC
  0
SECTION
  2
ENTITIES
  0
LWPOLYLINE
  5
166
330
1F
100
AcDbEntity
  8
0
  6
Continuous
 62
     7
370
    15
100
AcDbPolyline
 90
        3
 70
   128
 43
0.0
 10
1229.0817682529
 20
517.438460776
 10
1221.4739343748
 20
516.9860331345
 10
1214.1305459539
 20
516.551971251
  0
LWPOLYLINE
  5
169
330
1F
100
AcDbEntity
  8
0
  6
Continuous
 62
     7
370
    15
100
AcDbPolyline
 90
        3
 70
   128
 43
0.0
 10
791.3581905937
 20
495.9289295262
 10
784.0074199524
 20
495.6462031628
 10
776.3916718533
 20
495.3560170492
  0
LWPOLYLINE
  5
16C
330
1F
100
AcDbEntity
  8
0
  6
Continuous
 62
     7
370
    15
100
AcDbPolyline
 90
        3
 70
   128
 43
0.0
 10
776.6917268738
 20
486.6806104693
 10
784.4303831793
 20
486.9754570109
 10
791.7467443751
 20
487.2568538794
  0
LWPOLYLINE
  5
16F
330
1F
100
AcDbEntity
  8
0
  6
Continuous
 62
     7
370
    15
100
AcDbPolyline
 90
        3
 70
   128
 43
0.0
 10
1214.587884657
 20
507.8832509663
 10
1221.8968976017
 20
508.3152869827
 10
1229.6275097424
 20
508.7750389018
  0
LWPOLYLINE
  5
172
330
1F
100
AcDbEntity
  8
0
  6
Continuous
 62
     7
370
    15
100
AcDbPolyline
 90
        3
 70
   128
 43
0.0
 10
1228.8960239316
 20
520.3870755443
 10
1221.2981249451
 20
519.9352403301
 10
1213.9748909269
 20
519.502366397
  0
LWPOLYLINE
  5
175
330
1F
100
AcDbEntity
  8
0
  6
Continuous
 62
     7
370
    15
100
AcDbPolyline
 90
        3
 70
   128
 43
0.0
 10
791.2259464847
 20
498.8804666682
 10
783.89535018
 20
498.5985196099
 10
776.2895474644
 20
498.3087108386
  0
LWPOLYLINE
  5
178
330
1F
100
AcDbEntity
  8
0
  6
Continuous
 62
     7
370
    15
100
AcDbPolyline
 90
        3
 70
   128
 43
0.0
 10
1225.8291480318
 20
569.0724701238
 10
1218.9530735423
 20
568.6636801995
 10
1211.4048072212
 20
568.2175453227
  0
LWPOLYLINE
  5
17B
330
1F
100
AcDbEntity
  8
0
  6
Continuous
 62
     7
370
    15
100
AcDbPolyline
 90
        3
 70
   128
 43
0.0
 10
789.0424100044
 20
547.6145015561
 10
781.48655912
 20
547.3238502277
 10
774.6033434127
 20
547.0614552644
  0
LWPOLYLINE
  5
17E
330
1F
100
AcDbEntity
  8
0
  6
Continuous
 62
     7
370
    15
100
AcDbPolyline
 90
        3
 70
   128
 43
0.0
 10
774.9033985823
 20
538.3860443744
 10
781.9095223469
 20
538.6531040759
 10
789.4309638008
 20
538.9424255716
  0
LWPOLYLINE
  5
181
330
1F
100
AcDbEntity
  8
0
  6
Continuous
 62
     7
370
    15
100
AcDbPolyline
 90
        3
 70
   128
 43
0.0
 10
1211.8621459421
 20
559.5488247004
 10
1219.3760367692
 20
559.9929340477
 10
1226.3748897924
 20
560.4090439456
  0
LWPOLYLINE
  5
184
330
1F
100
AcDbEntity
  8
0
  6
Continuous
 62
     7
370
    15
100
AcDbPolyline
 90
        3
 70
   128
 43
0.0
 10
1225.6434036909
 20
572.0210852035
 10
1218.7772641126
 20
571.6128873951
 10
1211.2491522041
 20
571.1679402814
  0
LWPOLYLINE
  5
187
330
1F
100
AcDbEntity
  8
0
  6
Continuous
 62
     7
370
    15
100
AcDbPolyline
 90
        3
 70
   128
 43
0.0
 10
788.9101659037
 20
550.5660385107
 10
781.3744893476
 20
550.2761666749
 10
774.5012190131
 20
550.0141493656
  0
LWPOLYLINE
  5
18A
330
1F
100
AcDbEntity
  8
0
  6
Continuous
 62
     7
370
    15
100
AcDbPolyline
 90
        3
 70
   128
 43
0.0
 10
-776.3916718534
 20
495.3560170494
 10
-784.0074199524
 20
495.646203163
 10
-791.3581905938
 20
495.9289295264
  0
LWPOLYLINE
  5
18D
330
1F
100
AcDbEntity
  8
0
  6
Continuous
 62
     7
370
    15
100
AcDbPolyline
 90
        3
 70
   128
 43
0.0
 10
-1214.1305459539
 20
516.5519712514
 10
-1221.4739343747
 20
516.9860331349
 10
-1229.081768253
 20
517.4384607764
  0
LWPOLYLINE
  5
190
330
1F
100
AcDbEntity
  8
0
  6
Continuous
 62
     7
370
    15
100
AcDbPolyline
 90
        3
 70
   128
 43
0.0
 10
-1229.6275097425
 20
508.7750389022
 10
-1221.8968976017
 20
508.3152869831
 10
-1214.5878846571
 20
507.8832509667
  0
LWPOLYLINE
  5
193
330
1F
100
AcDbEntity
  8
0
  6
Continuous
 62
     7
370
    15
100
AcDbPolyline
 90
        3
 70
   128
 43
0.0
 10
-791.7467443751
 20
487.2568538797
 10
-784.4303831793
 20
486.9754570111
 10
-776.6917268739
 20
486.6806104695
  0
LWPOLYLINE
  5
196
330
1F
100
AcDbEntity
  8
0
  6
Continuous
 62
     7
370
    15
100
AcDbPolyline
 90
        3
 70
   128
 43
0.0
 10
-776.2895474646
 20
498.3087108389
 10
-783.89535018
 20
498.5985196101
 10
-791.2259464848
 20
498.8804666684
  0
LWPOLYLINE
  5
199
330
1F
100
AcDbEntity
  8
0
  6
Continuous
 62
     7
370
    15
100
AcDbPolyline
 90
        3
 70
   128
 43
0.0
 10
-1213.9748909269
 20
519.5023663974
 10
-1221.2981249451
 20
519.9352403304
 10
-1228.8960239317
 20
520.3870755447
  0
LWPOLYLINE
  5
19C
330
1F
100
AcDbEntity
  8
0
  6
Continuous
 62
     7
370
    15
100
AcDbPolyline
 90
        3
 70
   128
 43
0.0
 10
-774.5012190132
 20
550.0141493658
 10
-781.3744893476
 20
550.2761666751
 10
-788.9101659038
 20
550.566038511
  0
LWPOLYLINE
  5
19F
330
1F
100
AcDbEntity
  8
0
  6
Continuous
 62
     7
370
    15
100
AcDbPolyline
 90
        3
 70
   128
 43
0.0
 10
-1211.2491522041
 20
571.1679402818
 10
-1218.7772641126
 20
571.6128873954
 10
-1225.6434036911
 20
572.0210852038
  0
LWPOLYLINE
  5
1A2
330
1F
100
AcDbEntity
  8
0
  6
Continuous
 62
     7
370
    15
100
AcDbPolyline
 90
        3
 70
   128
 43
0.0
 10
-774.6033434129
 20
547.0614552646
 10
-781.48655912
 20
547.323850228
 10
-789.0424100044
 20
547.6145015563
  0
LWPOLYLINE
  5
1A5
330
1F
100
AcDbEntity
  8
0
  6
Continuous
 62
     7
370
    15
100
AcDbPolyline
 90
        3
 70
   128
 43
0.0
 10
-1211.4048072212
 20
568.2175453231
 10
-1218.9530735423
 20
568.6636801999
 10
-1225.8291480319
 20
569.0724701242
  0
LWPOLYLINE
  5
1A8
330
1F
100
AcDbEntity
  8
0
  6
Continuous
 62
     7
370
    15
100
AcDbPolyline
 90
        3
 70
   128
 43
0.0
 10
-1226.3748897926
 20
560.409043946
 10
-1219.3760367692
 20
559.9929340481
 10
-1211.8621459422
 20
559.5488247008
  0
LWPOLYLINE
  5
1AB
330
1F
100
AcDbEntity
  8
0
  6
Continuous
 62
     7
370
    15
100
AcDbPolyline
 90
        3
 70
   128
 43
0.0
 10
-789.4309638009
 20
538.9424255719
 10
-781.9095223469
 20
538.6531040761
 10
-774.9033985824
 20
538.3860443747
  0
LWPOLYLINE
  5
273
330
1F
100
AcDbEntity
  8
0
  6
Continuous
 62
     7
370
    15
100
AcDbPolyline
 90
        9
 70
   128
 43
0.0
 10
226.2346635796
 20
26.0643673374
 10
225.6096995786
 20
26.0576554965
 10
224.9847353784
 20
26.0509622225
 10
224.3597709796
 20
26.0442875153
 10
223.7348063828
 20
26.037631375
 10
223.1098415886
 20
26.0309938015
 10
222.4848765974
 20
26.0243747949
 10
221.8599114099
 20
26.0177743552
 10
221.2349460265
 20
26.0111924823
  0
LWPOLYLINE
  5
27A
330
1F
100
AcDbEntity
  8
0
  6
Continuous
 62
     7
370
    15
100
AcDbPolyline
 90
        9
 70
   128
 43
0.0
 10
-221.2349460204
 20
26.0111924823
 10
-221.8599114038
 20
26.0177743552
 10
-222.4848765913
 20
26.0243747949
 10
-223.1098415825
 20
26.0309938015
 10
-223.7348063767
 20
26.037631375
 10
-224.3597709735
 20
26.0442875153
 10
-224.9847353723
 20
26.0509622225
 10
-225.6096995725
 20
26.0576554965
 10
-226.2346635736
 20
26.0643673374
  0
LWPOLYLINE
  5
291
330
1F
100
AcDbEntity
  8
0
  6
Continuous
 62
     7
370
    15
100
AcDbPolyline
 90
        9
 70
   128
 43
0.0
 10
-1822.302618952
 20
103.9213407706
 10
-1822.9252690242
 20
103.9754881529
 10
-1823.5479174875
 20
104.0296540332
 10
-1824.1705643413
 20
104.0838384115
 10
-1824.7932095851
 20
104.1380412878
 10
-1825.4158532184
 20
104.192262662
 10
-1826.0384952405
 20
104.246502534
 10
-1826.661135651
 20
104.3007609039
 10
-1827.2837744492
 20
104.3550377716
  0
LWPOLYLINE
  5
298
330
1F
100
AcDbEntity
  8
0
  6
Continuous
 62
     7
370
    15
100
AcDbPolyline
 90
        9
 70
   128
 43
0.0
 10
-2267.6529192342
 20
147.4203566415
 10
-2268.2742768132
 20
147.4877347565
 10
-2268.8956323903
 20
147.5551313311
 10
-2269.5169859649
 20
147.6225463653
 10
-2270.1383375363
 20
147.6899798591
 10
-2270.7596871042
 20
147.7574318123
 10
-2271.3810346678
 20
147.824902225
 10
-2272.0023802267
 20
147.892391097
 10
-2272.6237237804
 20
147.9598984283
  0
LWPOLYLINE
  5
2CB
330
1F
100
AcDbEntity
  8
0
  6
Continuous
 62
     7
370
    15
100
AcDbPolyline
 90
        9
 70
   128
 43
0.0
 10
-215.8660537994
 20
475.9762988753
 10
-216.4910193857
 20
475.9828616233
 10
-217.1159847725
 20
475.989443344
 10
-217.7409499592
 20
475.9960440374
 10
-218.3659149452
 20
476.0026637035
 10
-218.9908797299
 20
476.0093023423
 10
-219.6158443129
 20
476.0159599537
 10
-220.2408086934
 20
476.0226365378
 10
-220.8657728709
 20
476.0293320946
  0
LWPOLYLINE
  5
2D1
330
1F
100
AcDbEntity
  8
0
  6
Continuous
 62
     7
370
    15
100
AcDbPolyline
 90
        9
 70
   128
 43
0.0
 10
220.8657728767
 20
476.0293320946
 10
220.2408086991
 20
476.0226365378
 10
219.6158443186
 20
476.0159599537
 10
218.9908797357
 20
476.0093023423
 10
218.3659149509
 20
476.0026637035
 10
217.7409499649
 20
475.9960440374
 10
217.1159847782
 20
475.989443344
 10
216.4910193915
 20
475.9828616233
 10
215.8660538052
 20
475.9762988752
  0
LWPOLYLINE
  5
2DA
330
1F
100
AcDbEntity
  8
0
  6
Continuous
 62
     7
370
    15
100
AcDbPolyline
 90
        3
 70
   128
 43
0.0
 10
662.2267519706
 20
35.2733169793
 10
645.2272874958
 20
34.7448179166
 10
642.6079116716
 20
34.6646068355
  0
LWPOLYLINE
  5
2DD
330
1F
100
AcDbEntity
  8
0
  6
Continuous
 62
     7
370
    15
100
AcDbPolyline
 90
        3
 70
   128
 43
0.0
 10
662.3304510212
 20
32.2750954378
 10
645.3195116535
 20
31.7462357933
 10
642.6810186069
 20
31.6654404505
  0
LWPOLYLINE
  5
2DE
330
1F
100
AcDbEntity
  8
0
  6
Continuous
 62
     7
370
    15
100
AcDbPolyline
 90
        3
 70
   128
 43
0.0
 10
1407.2883083459
 20
68.9633570231
 10
1404.6544785148
 20
68.7869658841
 10
1387.6728296653
 20
67.6576504936
  0
LWPOLYLINE
  5
2E1
330
1F
100
AcDbEntity
  8
0
  6
Continuous
 62
     7
370
    15
100
AcDbPolyline
 90
        3
 70
   128
 43
0.0
 10
1407.0691611907
 20
71.9553994949
 10
1404.4544146835
 20
71.7802875356
 10
1387.4842213419
 20
70.6517301193
  0
LWPOLYLINE
  5
2E3
330
1F
100
AcDbEntity
  8
0
  6
Continuous
 62
     7
370
    15
100
AcDbPolyline
 90
        3
 70
   128
 43
0.0
 10
960.2266079134
 20
43.7701139133
 10
942.6435184589
 20
42.9742118209
 10
941.785047944
 20
42.9357303419
  0
LWPOLYLINE
  5
2E4
330
1F
100
AcDbEntity
  8
0
  6
Continuous
 62
     7
370
    15
100
AcDbPolyline
 90
        3
 70
   128
 43
0.0
 10
960.0804395547
 20
46.7665652671
 10
942.5089016218
 20
45.9711900245
 10
941.6507671656
 20
45.9327236139
  0
LWPOLYLINE
  5
2E5
330
1F
100
AcDbEntity
  8
0
  6
Continuous
 62
     7
370
    15
100
AcDbPolyline
 90
        3
 70
   128
 43
0.0
 10
1108.3493749502
 20
54.064363018
 10
1107.4915708172
 20
54.0191251072
 10
1089.9260452009
 20
53.1004972498
  0
LWPOLYLINE
  5
2E6
330
1F
100
AcDbEntity
  8
0
  6
Continuous
 62
     7
370
    15
100
AcDbPolyline
 90
        3
 70
   128
 43
0.0
 10
1108.5074271942
 20
51.0685293297
 10
1107.6492871315
 20
51.0232737074
 10
1090.0722135596
 20
50.1040458961
  0
LWPOLYLINE
  5
2EA
330
1F
100
AcDbEntity
  8
0
  6
Continuous
 62
     7
370
    15
100
AcDbPolyline
 90
        3
 70
   128
 43
0.0
 10
-1387.4842213419
 20
70.6517301197
 10
-1404.4544146775
 20
71.7802875356
 10
-1407.0691611906
 20
71.9553994953
  0
LWPOLYLINE
  5
2ED
330
1F
100
AcDbEntity
  8
0
  6
Continuous
 62
     7
370
    15
100
AcDbPolyline
 90
        3
 70
   128
 43
0.0
 10
-1387.6728296653
 20
67.657650494
 10
-1404.6544785088
 20
68.7869658841
 10
-1407.2883083459
 20
68.9633570235
  0
LWPOLYLINE
  5
2EE
330
1F
100
AcDbEntity
  8
0
  6
Continuous
 62
     7
370
    15
100
AcDbPolyline
 90
        3
 70
   128
 43
0.0
 10
-642.6810186069
 20
31.6654404507
 10
-645.3195116475
 20
31.7462357933
 10
-662.3304510212
 20
32.275095438
  0
LWPOLYLINE
  5
2F1
330
1F
100
AcDbEntity
  8
0
  6
Continuous
 62
     7
370
    15
100
AcDbPolyline
 90
        3
 70
   128
 43
0.0
 10
-642.6079116715
 20
34.6646068357
 10
-645.2272874898
 20
34.7448179166
 10
-662.2267519706
 20
35.2733169795
  0
LWPOLYLINE
  5
2F3
330
1F
100
AcDbEntity
  8
0
  6
Continuous
 62
     7
370
    15
100
AcDbPolyline
 90
        3
 70
   128
 43
0.0
 10
-1090.0722135596
 20
50.1040458964
 10
-1107.6492871254
 20
51.0232737074
 10
-1108.5074271942
 20
51.06852933
  0
LWPOLYLINE
  5
2F4
330
1F
100
AcDbEntity
  8
0
  6
Continuous
 62
     7
370
    15
100
AcDbPolyline
 90
        3
 70
   128
 43
0.0
 10
-1089.9260452009
 20
53.1004972502
 10
-1107.4915708111
 20
54.0191251073
 10
-1108.3493749502
 20
54.0643630184
  0
LWPOLYLINE
  5
2F5
330
1F
100
AcDbEntity
  8
0
  6
Continuous
 62
     7
370
    15
100
AcDbPolyline
 90
        3
 70
   128
 43
0.0
 10
-941.785047944
 20
42.9357303422
 10
-942.6435184528
 20
42.9742118209
 10
-960.2266079134
 20
43.7701139136
  0
LWPOLYLINE
  5
2F6
330
1F
100
AcDbEntity
  8
0
  6
Continuous
 62
     7
370
    15
100
AcDbPolyline
 90
        3
 70
   128
 43
0.0
 10
-941.6507671656
 20
45.9327236142
 10
-942.5089016157
 20
45.9711900245
 10
-960.0804395547
 20
46.7665652674
  0
LWPOLYLINE
  5
319
330
1F
100
AcDbEntity
  8
0
  6
Continuous
 62
     7
370
    15
100
AcDbPolyline
 90
        9
 70
   128
 43
0.0
 10
-2218.514693891
 20
594.7265792509
 10
-2219.1360535335
 20
594.7939383515
 10
-2219.7574111308
 20
594.8613163154
 10
-2220.3787666823
 20
594.9287131423
 10
-2221.0001201875
 20
594.9961288324
 10
-2221.6214716458
 20
595.0635633855
 10
-2222.2428210567
 20
595.1310168015
 10
-2222.8641684195
 20
595.1984890804
 10
-2223.4855137337
 20
595.2659802222
  0
LWPOLYLINE
  5
320
330
1F
100
AcDbEntity
  8
0
  6
Continuous
 62
     7
370
    15
100
AcDbPolyline
 90
        9
 70
   128
 43
0.0
 10
-1783.8512097463
 20
552.2725241375
 10
-1784.4738584093
 20
552.3266877436
 10
-1785.0965054277
 20
552.3808702521
 10
-1785.7191508009
 20
552.4350716629
 10
-1786.3417945283
 20
552.489291976
 10
-1786.9644366095
 20
552.5435311912
 10
-1787.5870770438
 20
552.5977893086
 10
-1788.2097158306
 20
552.652066328
 10
-1788.8323529694
 20
552.7063622495
  0
LWPOLYLINE
  5
353
330
1F
100
AcDbEntity
  8
0
  6
Continuous
 62
     7
370
    15
100
AcDbPolyline
 90
        9
 70
   128
 43
0.0
 10
1250.9148412872
 20
62.0709970007
 10
1250.2909465419
 20
62.0338432891
 10
1249.6670506931
 20
61.9967081125
 10
1249.0431537414
 20
61.959591471
 10
1248.4192556873
 20
61.9224933647
 10
1247.7953565313
 20
61.8854137936
 10
1247.171456274
 20
61.8483527577
 10
1246.547554916
 20
61.811310257
 10
1245.9236524577
 20
61.7742862916
  0
LWPOLYLINE
  5
35A
330
1F
100
AcDbEntity
  8
0
  6
Continuous
 62
     7
370
    15
100
AcDbPolyline
 90
        9
 70
   128
 43
0.0
 10
803.9792592803
 20
40.2160232098
 10
803.3547154508
 20
40.1921473562
 10
802.7301709121
 20
40.1682900571
 10
802.105625665
 20
40.1444513123
 10
801.48107971
 20
40.1206311219
 10
800.8565330475
 20
40.0968294859
 10
800.2319856782
 20
40.0730464044
 10
799.6074376027
 20
40.0492818774
 10
798.9828888214
 20
40.0255359048
  0
LWPOLYLINE
  5
387
330
1F
100
AcDbEntity
  8
0
  6
Continuous
 62
     7
370
    15
100
AcDbPolyline
 90
        9
 70
   128
 43
0.0
 10
-798.9828888153
 20
40.0255359048
 10
-799.6074375966
 20
40.0492818774
 10
-800.2319856722
 20
40.0730464044
 10
-800.8565330415
 20
40.0968294859
 10
-801.4810797039
 20
40.1206311219
 10
-802.1056256589
 20
40.1444513123
 10
-802.7301709061
 20
40.1682900571
 10
-803.3547154447
 20
40.1921473562
 10
-803.9792592742
 20
40.2160232098
  0
LWPOLYLINE
  5
38E
330
1F
100
AcDbEntity
  8
0
  6
Continuous
 62
     7
370
    15
100
AcDbPolyline
 90
        9
 70
   128
 43
0.0
 10
-1245.9236524516
 20
61.7742862916
 10
-1246.5475549099
 20
61.811310257
 10
-1247.1714562679
 20
61.8483527577
 10
-1247.7953565252
 20
61.8854137936
 10
-1248.4192556812
 20
61.9224933647
 10
-1249.0431537353
 20
61.959591471
 10
-1249.6670506871
 20
61.9967081125
 10
-1250.2909465358
 20
62.0338432891
 10
-1250.9148412811
 20
62.0709970007
  0
LWPOLYLINE
  5
3B7
330
1F
100
AcDbEntity
  8
0
  6
Continuous
 62
     7
370
    15
100
AcDbPolyline
 90
        3
 70
   128
 43
0.0
 10
371.7191564276
 20
478.200616273
 10
370.4937707878
 20
478.1785242756
 10
356.6842011968
 20
477.9346018485
  0
LWPOLYLINE
  5
3BA
330
1F
100
AcDbEntity
  8
0
  6
Continuous
 62
     7
370
    15
100
AcDbPolyline
 90
        3
 70
   128
 43
0.0
 10
371.6460494302
 20
481.1997852055
 10
370.4400015742
 20
481.1780423902
 10
356.6416960702
 20
480.9343156751
  0
LWPOLYLINE
  5
3BD
330
1F
100
AcDbEntity
  8
0
  6
Continuous
 62
     7
370
    15
100
AcDbPolyline
 90
        3
 70
   128
 43
0.0
 10
-356.6416960703
 20
480.9343156752
 10
-370.4400015681
 20
481.1780423902
 10
-371.6460494303
 20
481.1997852056
  0
LWPOLYLINE
  5
3C0
330
1F
100
AcDbEntity
  8
0
  6
Continuous
 62
     7
370
    15
100
AcDbPolyline
 90
        3
 70
   128
 43
0.0
 10
-356.6842011969
 20
477.9346018486
 10
-370.4937707816
 20
478.1785242756
 10
-371.7191564277
 20
478.2006162731
  0
LWPOLYLINE
  5
3C1
330
1F
100
AcDbEntity
  8
0
  6
Continuous
 62
     7
370
    15
100
AcDbPolyline
 90
        3
 70
   128
 43
0.0
 10
-65.0
 20
474.9471767488
 10
-80.5760478058
 20
475.0022464925
 10
-81.6634446432
 20
475.0065311008
  0
LWPOLYLINE
  5
3C2
330
1F
100
AcDbEntity
  8
0
  6
Continuous
 62
     7
370
    15
100
AcDbPolyline
 90
        3
 70
   128
 43
0.0
 10
-65.0
 20
477.9471917033
 10
-80.5645249698
 20
478.0022243711
 10
-81.6515447775
 20
478.0065074996
  0
LWPOLYLINE
  5
3C3
330
1F
100
AcDbEntity
  8
0
  6
Continuous
 62
     7
370
    15
100
AcDbPolyline
 90
        3
 70
   128
 43
0.0
 10
81.6515447775
 20
478.0065074996
 10
80.5645249755
 20
478.0022243711
 10
65.0
 20
477.9471917033
  0
LWPOLYLINE
  5
3C4
330
1F
100
AcDbEntity
  8
0
  6
Continuous
 62
     7
370
    15
100
AcDbPolyline
 90
        3
 70
   128
 43
0.0
 10
81.6634446431
 20
475.0065311008
 10
80.5760478115
 20
475.0022464925
 10
65.0
 20
474.9471767488
  0
LWPOLYLINE
  5
3C5
330
1F
100
AcDbEntity
  8
0
  6
Continuous
 62
     7
370
    15
100
AcDbPolyline
 90
        5
 70
   128
 43
0.0
 10
-211.6488937434
 20
478.9326691574
 10
-212.3355159678
 20
478.9397407491
 10
-213.8354356188
 20
478.9552682482
 10
-215.3353541344
 20
478.9709050461
 10
-216.8352715065
 20
478.9866511427
  0
LWPOLYLINE
  5
3C6
330
1F
100
AcDbEntity
  8
0
  6
Continuous
 62
     7
370
    15
100
AcDbPolyline
 90
        5
 70
   128
 43
0.0
 10
216.8352715122
 20
478.9866511427
 10
215.3353541401
 20
478.9709050461
 10
213.8354356245
 20
478.9552682482
 10
212.3355159735
 20
478.9397407491
 10
211.6488937433
 20
478.9326691573
  0
LWPOLYLINE
  5
3C7
330
1F
100
AcDbEntity
  8
0
  6
Continuous
 62
     7
370
    15
100
AcDbPolyline
 90
        3
 70
   128
 43
0.0
 10
-1633.5027143041
 20
539.7510337308
 10
-1634.7244322896
 20
539.848312642
 10
-1648.4921779764
 20
540.9496251064
  0
LWPOLYLINE
  5
3CA
330
1F
100
AcDbEntity
  8
0
  6
Continuous
 62
     7
370
    15
100
AcDbPolyline
 90
        3
 70
   128
 43
0.0
 10
-1633.2835669627
 20
542.743078744
 10
-1634.4860049901
 20
542.838823045
 10
-1648.2425210207
 20
543.9392339657
  0
LWPOLYLINE
  5
3CD
330
1F
100
AcDbEntity
  8
0
  6
Continuous
 62
     7
370
    15
100
AcDbPolyline
 90
        3
 70
   128
 43
0.0
 10
-2358.1394044745
 20
613.3626620437
 10
-2371.8484769602
 20
614.948212075
 10
-2373.0466825645
 20
615.0872355473
  0
LWPOLYLINE
  5
3D0
330
1F
100
AcDbEntity
  8
0
  6
Continuous
 62
     7
370
    15
100
AcDbPolyline
 90
        3
 70
   128
 43
0.0
 10
-2358.4736680738
 20
610.3813271794
 10
-2372.1939321186
 20
611.9681683201
 10
-2373.4113497096
 20
612.1094214511
  0
LWPOLYLINE
  5
3D1
330
1F
100
AcDbEntity
  8
0
  6
Continuous
 62
     7
370
    15
100
AcDbPolyline
 90
        3
 70
   128
 43
0.0
 10
-1922.4921853016
 20
564.8030550358
 10
-1923.5748364366
 20
564.9046264259
 10
-1939.0822925896
 20
566.3658251683
  0
LWPOLYLINE
  5
3D2
330
1F
100
AcDbEntity
  8
0
  6
Continuous
 62
     7
370
    15
100
AcDbPolyline
 90
        3
 70
   128
 43
0.0
 10
-1922.2120428359
 20
567.7899464297
 10
-1923.2943185872
 20
567.8914825965
 10
-1938.7903030035
 20
569.3515967283
  0
LWPOLYLINE
  5
3D3
330
1F
100
AcDbEntity
  8
0
  6
Continuous
 62
     7
370
    15
100
AcDbPolyline
 90
        3
 70
   128
 43
0.0
 10
-2068.4650819071
 20
579.0186441594
 10
-2083.9618182468
 20
580.5894594711
 10
-2085.043635351
 20
580.6995593937
  0
LWPOLYLINE
  5
3D4
330
1F
100
AcDbEntity
  8
0
  6
Continuous
 62
     7
370
    15
100
AcDbPolyline
 90
        3
 70
   128
 43
0.0
 10
-2068.173092321
 20
582.0044157194
 10
-2083.6583641411
 20
583.5740726209
 10
-2084.7398061497
 20
583.6841343746
  0
LWPOLYLINE
  5
3D5
330
1F
100
AcDbEntity
  8
0
  6
Continuous
 62
     7
370
    15
100
AcDbPolyline
 90
        5
 70
   128
 43
0.0
 10
-1787.5747411792
 20
555.6080886879
 10
-1789.0690698397
 20
555.7384033733
 10
-1790.5633890002
 20
555.8688269498
 10
-1792.0576986527
 20
555.9993594168
 10
-1792.741749229
 20
556.0591499131
  0
LWPOLYLINE
  5
3D6
330
1F
100
AcDbEntity
  8
0
  6
Continuous
 62
     7
370
    15
100
AcDbPolyline
 90
        5
 70
   128
 43
0.0
 10
-2214.0298142826
 20
597.2584597933
 10
-2214.7124883059
 20
597.3323263239
 10
-2216.2037753949
 20
597.4937663469
 10
-2217.6950507158
 20
597.6553150393
 10
-2219.1863142607
 20
597.8169724002
  0
LWPOLYLINE
  5
3D8
330
1F
100
AcDbEntity
  8
0
  6
Continuous
 62
     7
370
    15
100
AcDbPolyline
 90
        3
 70
   128
 43
0.0
 10
-363.0599223941
 20
27.9809006027
 10
-380.064947298
 20
28.2812865323
 10
-382.6851203122
 20
28.3287933931
  0
LWPOLYLINE
  5
3DB
330
1F
100
AcDbEntity
  8
0
  6
Continuous
 62
     7
370
    15
100
AcDbPolyline
 90
        3
 70
   128
 43
0.0
 10
-363.1024275116
 20
24.9811874131
 10
-380.1189312488
 20
25.2817722752
 10
-382.7582272475
 20
25.3296270082
  0
LWPOLYLINE
  5
3DC
330
1F
100
AcDbEntity
  8
0
  6
Continuous
 62
     7
370
    15
100
AcDbPolyline
 90
        3
 70
   128
 43
0.0
 10
382.7582272475
 20
25.3296270081
 10
380.1189312548
 20
25.2817722752
 10
363.1024275116
 20
24.981187413
  0
LWPOLYLINE
  5
3DF
330
1F
100
AcDbEntity
  8
0
  6
Continuous
 62
     7
370
    15
100
AcDbPolyline
 90
        3
 70
   128
 43
0.0
 10
382.6851203122
 20
28.328793393
 10
380.064947304
 20
28.2812865323
 10
363.0599223941
 20
27.9809006026
  0
LWPOLYLINE
  5
3E1
330
1F
100
AcDbEntity
  8
0
  6
Continuous
 62
     7
370
    15
100
AcDbPolyline
 90
        3
 70
   128
 43
0.0
 10
83.4603111698
 20
22.0134196171
 10
82.6009853066
 20
22.0100285179
 10
65.0
 20
21.9482923376
  0
LWPOLYLINE
  5
3E2
330
1F
100
AcDbEntity
  8
0
  6
Continuous
 62
     7
370
    15
100
AcDbPolyline
 90
        3
 70
   128
 43
0.0
 10
83.4484113041
 20
25.0133960159
 10
82.5894218347
 20
25.0100062398
 10
65.0
 20
24.948306655
  0
LWPOLYLINE
  5
3E3
330
1F
100
AcDbEntity
  8
0
  6
Continuous
 62
     7
370
    15
100
AcDbPolyline
 90
        3
 70
   128
 43
0.0
 10
-65.0
 20
21.9482923376
 10
-82.6009853006
 20
22.0100285179
 10
-83.4603111698
 20
22.0134196171
  0
LWPOLYLINE
  5
3E4
330
1F
100
AcDbEntity
  8
0
  6
Continuous
 62
     7
370
    15
100
AcDbPolyline
 90
        3
 70
   128
 43
0.0
 10
-65.0
 20
24.9483066551
 10
-82.5894218286
 20
25.0100062398
 10
-83.4484113041
 20
25.0133960159
  0
LWPOLYLINE
  5
3F0
330
1F
100
AcDbEntity
  8
0
  6
Continuous
 62
     7
370
    15
100
AcDbPolyline
 90
        3
 70
   128
 43
0.0
 10
-2408.6128321403
 20
163.1844496049
 10
-2425.5078846456
 20
165.1384978472
 10
-2428.1109938561
 20
165.4407989628
  0
LWPOLYLINE
  5
3F3
330
1F
100
AcDbEntity
  8
0
  6
Continuous
 62
     7
370
    15
100
AcDbPolyline
 90
        3
 70
   128
 43
0.0
 10
-2408.9470956687
 20
160.2031153737
 10
-2425.8535531463
 20
162.1584788316
 10
-2428.4756606915
 20
162.462987396
  0
LWPOLYLINE
  5
3F4
330
1F
100
AcDbEntity
  8
0
  6
Continuous
 62
     7
370
    15
100
AcDbPolyline
 90
        3
 70
   128
 43
0.0
 10
-1666.5937056837
 20
87.9557479078
 10
-1669.2251285656
 20
88.1650014127
 10
-1686.1900975239
 20
89.5220493652
  0
LWPOLYLINE
  5
3F7
330
1F
100
AcDbEntity
  8
0
  6
Continuous
 62
     7
370
    15
100
AcDbPolyline
 90
        3
 70
   128
 43
0.0
 10
-1666.3745585284
 20
90.9477903796
 10
-1668.9869153593
 20
91.1555288769
 10
-1685.9404406212
 20
92.5116575897
  0
LWPOLYLINE
  5
3F9
330
1F
100
AcDbEntity
  8
0
  6
Continuous
 62
     7
370
    15
100
AcDbPolyline
 90
        3
 70
   128
 43
0.0
 10
-1964.5132446866
 20
116.7726561813
 10
-1965.3684857925
 20
116.8528874089
 10
-1982.8804022012
 20
118.5034482263
  0
LWPOLYLINE
  5
3FA
330
1F
100
AcDbEntity
  8
0
  6
Continuous
 62
     7
370
    15
100
AcDbPolyline
 90
        3
 70
   128
 43
0.0
 10
-1964.7933871522
 20
113.7857647874
 10
-1965.6489631835
 20
113.8660274391
 10
-1983.1723917253
 20
115.5176773003
  0
LWPOLYLINE
  5
3FB
330
1F
100
AcDbEntity
  8
0
  6
Continuous
 62
     7
370
    15
100
AcDbPolyline
 90
        3
 70
   128
 43
0.0
 10
-2112.2631915187
 20
131.1562672174
 10
-2129.7630975571
 20
132.9296413322
 10
-2130.6176788195
 20
133.0166199248
  0
LWPOLYLINE
  5
3FC
330
1F
100
AcDbEntity
  8
0
  6
Continuous
 62
     7
370
    15
100
AcDbPolyline
 90
        3
 70
   128
 43
0.0
 10
-2112.5551810428
 20
128.1704962914
 10
-2130.0665920905
 20
129.9450322935
 10
-2130.9215080207
 20
130.032044944
  0
LWPOLYLINE
  5
4AF
330
1F
100
AcDbEntity
  8
0
  6
PHANTOM
 62
     8
370
     0
100
AcDbPolyline
 90
        9
 70
   128
 43
0.0
 10
505.9186599047
 20
512.6856053254
 10
504.9439045012
 20
512.6451569687
 10
504.0074214812
 20
512.5729069174
 10
503.1451993621
 20
512.4716317006
 10
502.3903728563
 20
512.345223268
 10
501.7719495232
 20
512.1985394248
 10
501.3136950246
 20
512.0372171489
 10
501.0332198239
 20
511.8674559648
 10
500.9413024258
 20
511.6957797003
  0
LWPOLYLINE
  5
4B0
330
1F
100
AcDbEntity
  8
0
  6
PHANTOM
 62
     8
370
     0
100
AcDbPolyline
 90
        9
 70
   128
 43
0.0
 10
630.9026981055
 20
514.8636864218
 10
630.8025253669
 20
515.0306803453
 10
630.5141120739
 20
515.1865744446
 10
630.0485417875
 20
515.3253777967
 10
629.4237061127
 20
515.4417562667
 10
628.6636171342
 20
515.5312374952
 10
627.797484645
 20
515.5903827689
 10
626.8585936311
 20
515.616919168
 10
625.8830251475
 20
515.6098269141
  0
LWPOLYLINE
  5
4B3
330
1F
100
AcDbEntity
  8
0
  6
PHANTOM
 62
     8
370
     0
100
AcDbPolyline
 90
        9
 70
   128
 43
0.0
 10
629.9427660747
 20
554.2442987473
 10
629.8425933362
 20
554.411292671
 10
629.5541800432
 20
554.5671867703
 10
629.0886097567
 20
554.7059901225
 10
628.463774082
 20
554.8223685926
 10
627.7036851034
 20
554.9118498213
 10
626.8375526143
 20
554.970995095
 10
625.8986616003
 20
554.9975314941
 10
624.9230931167
 20
554.9904392397
  0
LWPOLYLINE
  5
4B6
330
1F
100
AcDbEntity
  8
0
  6
PHANTOM
 62
     8
370
     0
100
AcDbPolyline
 90
        9
 70
   128
 43
0.0
 10
504.9587278739
 20
552.0662176509
 10
503.9839724704
 20
552.0257692943
 10
503.0474894504
 20
551.9535192432
 10
502.1852673313
 20
551.8522440266
 10
501.4304408256
 20
551.7258355941
 10
500.8120174924
 20
551.5791517511
 10
500.3537629938
 20
551.4178294752
 10
500.0732877932
 20
551.2480682911
 10
499.9813703951
 20
551.0763920259
  0
LWPOLYLINE
  5
4C1
330
1F
100
AcDbEntity
  8
0
  6
PHANTOM
 62
     8
370
     0
100
AcDbPolyline
 90
        9
 70
   128
 43
0.0
 10
650.575639837
 20
516.7886893934
 10
649.6013478141
 20
516.7382987165
 10
648.6656506229
 20
516.6564984539
 10
647.8045065817
 20
516.5464321436
 10
647.0510089732
 20
516.4123295724
 10
646.4341142879
 20
516.2593442267
 10
645.9775294425
 20
516.0933552477
 10
645.6988007366
 20
515.9207414987
 10
645.6086395581
 20
515.74813643
  0
LWPOLYLINE
  5
4C6
330
1F
100
AcDbEntity
  8
0
  6
PHANTOM
 62
     8
370
     0
100
AcDbPolyline
 90
        9
 70
   128
 43
0.0
 10
775.5309529702
 20
520.2417405105
 10
775.4290817779
 20
520.4077037842
 10
775.1390930674
 20
520.5606473868
 10
774.6721309424
 20
520.6946937815
 10
774.0461404953
 20
520.8046916403
 10
773.2851781881
 20
520.8864138074
 10
772.4184873755
 20
520.9367197457
 10
771.4793744992
 20
520.9536762261
 10
770.5039291405
 20
520.9366316212
  0
LWPOLYLINE
  5
4C9
330
1F
100
AcDbEntity
  8
0
  6
PHANTOM
 62
     8
370
     0
100
AcDbPolyline
 90
        9
 70
   128
 43
0.0
 10
774.1693110818
 20
559.6105102145
 10
774.0674398895
 20
559.7764734883
 10
773.777451179
 20
559.929417091
 10
773.310489054
 20
560.0634634858
 10
772.6844986069
 20
560.1734613447
 10
771.9235362997
 20
560.2551835119
 10
771.056845487
 20
560.3054894502
 10
770.1177326108
 20
560.3224459307
 10
769.1422872521
 20
560.3054013253
  0
LWPOLYLINE
  5
4CC
330
1F
100
AcDbEntity
  8
0
  6
PHANTOM
 62
     8
370
     0
100
AcDbPolyline
 90
        9
 70
   128
 43
0.0
 10
649.2139979486
 20
556.1574590973
 10
648.2397059257
 20
556.1070684206
 10
647.3040087345
 20
556.0252681581
 10
646.4428646933
 20
555.915201848
 10
645.6893670848
 20
555.7810992769
 10
645.0724723995
 20
555.6281139314
 10
644.6158875541
 20
555.4621249524
 10
644.3371588482
 20
555.2895112035
 10
644.2469976697
 20
555.1169061341
  0
LWPOLYLINE
  5
512
330
1F
100
AcDbEntity
  8
0
  6
PHANTOM
 62
     8
370
     0
100
AcDbPolyline
 90
        9
 70
   128
 43
0.0
 10
-1496.5839573097
 20
561.0107417846
 10
-1497.5580216077
 20
561.0653578035
 10
-1498.49709047
 20
561.084598088
 10
-1499.3650760066
 20
561.0677232446
 10
-1500.1286220204
 20
561.0153817642
 10
-1500.758385866
 20
560.9295851005
 10
-1501.2301660722
 20
560.8136303711
 10
-1501.5258323901
 20
560.6719736513
 10
-1501.634022529
 20
560.5100587301
  0
LWPOLYLINE
  5
513
330
1F
100
AcDbEntity
  8
0
  6
PHANTOM
 62
     8
370
     0
100
AcDbPolyline
 90
        9
 70
   128
 43
0.0
 10
-1371.9813238601
 20
551.0138632882
 10
-1372.0647675865
 20
551.1898141125
 10
-1372.3366384828
 20
551.3730391478
 10
-1372.7864887027
 20
551.5564971588
 10
-1373.3970307546
 20
551.7331379569
 10
-1374.1448018499
 20
551.8961733354
 10
-1375.0010655647
 20
552.0393379361
 10
-1375.9329161647
 20
552.1571300237
 10
-1376.9045431538
 20
552.2450229148
  0
LWPOLYLINE
  5
516
330
1F
100
AcDbEntity
  8
0
  6
PHANTOM
 62
     8
370
     0
100
AcDbPolyline
 90
        9
 70
   128
 43
0.0
 10
-1369.1038078922
 20
590.3009349338
 10
-1369.1872516187
 20
590.4768857583
 10
-1369.4591225149
 20
590.6601107937
 10
-1369.9089727348
 20
590.8435688047
 10
-1370.5195147867
 20
591.020209603
 10
-1371.267285882
 20
591.1832449816
 10
-1372.1235495968
 20
591.3264095823
 10
-1373.0554001968
 20
591.4442016699
 10
-1374.0270271859
 20
591.5320945606
  0
LWPOLYLINE
  5
519
330
1F
100
AcDbEntity
  8
0
  6
PHANTOM
 62
     8
370
     0
100
AcDbPolyline
 90
        9
 70
   128
 43
0.0
 10
-1493.7064413418
 20
600.2978134302
 10
-1494.6805056399
 20
600.3524294493
 10
-1495.6195745021
 20
600.3716697339
 10
-1496.4875600388
 20
600.3547948907
 10
-1497.2511060525
 20
600.3024534104
 10
-1497.8808698981
 20
600.2166567468
 10
-1498.3526501043
 20
600.1007020175
 10
-1498.6483164222
 20
599.9590452978
 10
-1498.7565065611
 20
599.7971303759
  0
LWPOLYLINE
  5
524
330
1F
100
AcDbEntity
  8
0
  6
PHANTOM
 62
     8
370
     0
100
AcDbPolyline
 90
        9
 70
   128
 43
0.0
 10
-1352.2144254796
 20
551.0149716202
 10
-1353.1889962769
 20
551.0596474224
 10
-1354.1282125575
 20
551.0693063535
 10
-1354.9959807663
 20
551.0435772262
 10
-1355.7589530578
 20
550.9834487964
 10
-1356.3878088346
 20
550.8912317659
 10
-1356.858381522
 20
550.7704699836
 10
-1357.1525872755
 20
550.625804257
 10
-1357.2591199329
 20
550.4627940096
  0
LWPOLYLINE
  5
529
330
1F
100
AcDbEntity
  8
0
  6
PHANTOM
 62
     8
370
     0
100
AcDbPolyline
 90
        9
 70
   128
 43
0.0
 10
-1227.5162886798
 20
542.2898056675
 10
-1227.6015231087
 20
542.4648960446
 10
-1227.8752491127
 20
542.645337926
 10
-1228.3269475548
 20
542.8241970312
 10
-1228.9392599173
 20
542.9945999051
 10
-1229.6886553795
 20
543.149998061
 10
-1230.546335094
 20
543.2844196347
 10
-1231.4793389104
 20
543.3926988806
 10
-1232.4518120153
 20
543.4706746886
  0
LWPOLYLINE
  5
52C
330
1F
100
AcDbEntity
  8
0
  6
PHANTOM
 62
     8
370
     0
100
AcDbPolyline
 90
        9
 70
   128
 43
0.0
 10
-1225.0397279768
 20
581.6041890877
 10
-1225.1249624057
 20
581.779279465
 10
-1225.3986884096
 20
581.9597213465
 10
-1225.8503868517
 20
582.1385804518
 10
-1226.4626992142
 20
582.3089833259
 10
-1227.2120946764
 20
582.4643814818
 10
-1228.0697743909
 20
582.5988030556
 10
-1229.0027782074
 20
582.7070823016
 10
-1229.9752513122
 20
582.785058109
  0
LWPOLYLINE
  5
52F
330
1F
100
AcDbEntity
  8
0
  6
PHANTOM
 62
     8
370
     0
100
AcDbPolyline
 90
        9
 70
   128
 43
0.0
 10
-1349.7378647766
 20
590.3293550404
 10
-1350.7124355739
 20
590.3740308428
 10
-1351.6516518544
 20
590.3836897741
 10
-1352.5194200632
 20
590.3579606469
 10
-1353.2823923547
 20
590.2978322173
 10
-1353.9112481315
 20
590.205615187
 10
-1354.3818208189
 20
590.0848534047
 10
-1354.6760265724
 20
589.9401876782
 10
-1354.7825592298
 20
589.7771774301
  0
LWPOLYLINE
  5
55E
330
1F
100
AcDbEntity
  8
0
  6
PHANTOM
 62
     8
370
     0
100
AcDbPolyline
 90
        9
 70
   128
 43
0.0
 10
795.2189861688
 20
521.4666250686
 10
794.2452589336
 20
521.4062973164
 10
793.3104449613
 20
521.3149553564
 10
792.4504686285
 20
521.1961094087
 10
791.6983783435
 20
521.0543266566
 10
791.0830765141
 20
520.8950557316
 10
790.6282088446
 20
520.7244173261
 10
790.3512556444
 20
520.5489689784
 10
790.2628600696
 20
520.3754530707
  0
LWPOLYLINE
  5
563
330
1F
100
AcDbEntity
  8
0
  6
PHANTOM
 62
     8
370
     0
100
AcDbPolyline
 90
        9
 70
   128
 43
0.0
 10
920.1325685239
 20
526.1942868029
 10
920.0290094807
 20
526.3592021528
 10
919.7374755357
 20
526.50917934
 10
919.2691701748
 20
526.6384548251
 10
918.6420901104
 20
526.742060624
 10
917.8803336777
 20
526.8160152237
 10
917.0131747492
 20
526.8574765906
 10
916.0739377563
 20
526.8648513875
 10
915.0987170497
 20
526.8378562056
  0
LWPOLYLINE
  5
566
330
1F
100
AcDbEntity
  8
0
  6
PHANTOM
 62
     8
370
     0
100
AcDbPolyline
 90
        9
 70
   128
 43
0.0
 10
918.3693585015
 20
565.5471162698
 10
918.2657994583
 20
565.7120316198
 10
917.9742655133
 20
565.8620088071
 10
917.5059601524
 20
565.9912842924
 10
916.878880088
 20
566.0948900914
 10
916.1171236553
 20
566.1688446912
 10
915.2499647268
 20
566.2103060581
 10
914.3107277338
 20
566.217680855
 10
913.3355070273
 20
566.1906856726
  0
LWPOLYLINE
  5
569
330
1F
100
AcDbEntity
  8
0
  6
PHANTOM
 62
     8
370
     0
100
AcDbPolyline
 90
        9
 70
   128
 43
0.0
 10
793.4557761465
 20
560.8194545354
 10
792.4820489112
 20
560.7591267834
 10
791.5472349389
 20
560.6677848236
 10
790.6872586061
 20
560.5489388761
 10
789.935168321
 20
560.4071561241
 10
789.3198664917
 20
560.2478851992
 10
788.8649988221
 20
560.0772467938
 10
788.5880456219
 20
559.9017984461
 10
788.4996500472
 20
559.7282825377
  0
LWPOLYLINE
  5
578
330
1F
100
AcDbEntity
  8
0
  6
PHANTOM
 62
     8
370
     0
100
AcDbPolyline
 90
        9
 70
   128
 43
0.0
 10
941.6082402954
 20
528.0685288406
 10
940.6347600179
 20
528.0043391553
 10
939.7003157188
 20
527.9092898603
 10
938.8408175685
 20
527.7870336466
 10
938.0892955988
 20
527.6422687521
 10
937.4746303776
 20
527.4805584105
 10
937.0204431445
 20
527.3081170593
 10
936.7441880604
 20
527.1315715232
 10
936.6564814531
 20
526.9577063488
  0
LWPOLYLINE
  5
579
330
1F
100
AcDbEntity
  8
0
  6
PHANTOM
 62
     8
370
     0
100
AcDbPolyline
 90
        9
 70
   128
 43
0.0
 10
1066.5020870993
 20
533.2916383318
 10
1066.397874714
 20
533.4561416047
 10
1066.1057481597
 20
533.604961207
 10
1065.6369336961
 20
533.7323780849
 10
1065.0094475999
 20
533.8334956792
 10
1064.2474038101
 20
533.9044280974
 10
1063.380087242
 20
533.9424494465
 10
1062.4408283851
 20
533.9460985873
 10
1061.4657224304
 20
533.915235286
  0
LWPOLYLINE
  5
57C
330
1F
100
AcDbEntity
  8
0
  6
PHANTOM
 62
     8
370
     0
100
AcDbPolyline
 90
        9
 70
   128
 43
0.0
 10
1064.5827931536
 20
572.6371642195
 10
1064.4785807683
 20
572.8016674926
 10
1064.186454214
 20
572.950487095
 10
1063.7176397503
 20
573.077903973
 10
1063.0901536541
 20
573.1790215674
 10
1062.3281098643
 20
573.2499539857
 10
1061.4607932962
 20
573.2879753348
 10
1060.5215344393
 20
573.2916244757
 10
1059.5464284846
 20
573.2607611739
  0
LWPOLYLINE
  5
57F
330
1F
100
AcDbEntity
  8
0
  6
PHANTOM
 62
     8
370
     0
100
AcDbPolyline
 90
        9
 70
   128
 43
0.0
 10
939.6889463496
 20
567.4140547283
 10
938.7154660722
 20
567.3498650432
 10
937.7810217731
 20
567.2548157483
 10
936.9215236227
 20
567.1325595349
 10
936.170001653
 20
566.9877946405
 10
935.5553364318
 20
566.8260842989
 10
935.1011491988
 20
566.6536429479
 10
934.8248941146
 20
566.4770974119
 10
934.7371875073
 20
566.3032322367
  0
LWPOLYLINE
  5
58A
330
1F
100
AcDbEntity
  8
0
  6
PHANTOM
 62
     8
370
     0
100
AcDbPolyline
 90
        9
 70
   128
 43
0.0
 10
1087.9691650387
 20
535.2705609857
 10
1086.9959470359
 20
535.2025103772
 10
1086.0618871127
 20
535.1037552428
 10
1085.2028806683
 20
534.9780906868
 10
1084.4519388385
 20
534.8303459276
 10
1083.8379198966
 20
534.6661987136
 10
1083.3844202464
 20
534.4919571301
 10
1083.108867625
 20
534.3143171834
 10
1083.021851365
 20
534.1401054778
  0
LWPOLYLINE
  5
58F
330
1F
100
AcDbEntity
  8
0
  6
PHANTOM
 62
     8
370
     0
100
AcDbPolyline
 90
        9
 70
   128
 43
0.0
 10
1212.8413111928
 20
540.9890360525
 10
1212.7364471051
 20
541.1531246602
 10
1212.4437325379
 20
541.3007843362
 10
1211.9744163479
 20
541.426340602
 10
1211.3465340929
 20
541.5249684006
 10
1210.5842149361
 20
541.5928775212
 10
1209.7167543749
 20
541.6274582543
 10
1208.7774884325
 20
541.6273816817
 10
1207.802512572
 20
541.5926507466
  0
LWPOLYLINE
  5
592
330
1F
100
AcDbEntity
  8
0
  6
PHANTOM
 62
     8
370
     0
100
AcDbPolyline
 90
        9
 70
   128
 43
0.0
 10
1210.7659635222
 20
580.3266392927
 10
1210.6610994345
 20
580.4907279005
 10
1210.3683848673
 20
580.6383875766
 10
1209.8990686772
 20
580.7639438425
 10
1209.2711864223
 20
580.8625716413
 10
1208.5088672654
 20
580.9304807619
 10
1207.6414067043
 20
580.9650614951
 10
1206.7021407618
 20
580.9649849225
 10
1205.7271649014
 20
580.9302539869
  0
LWPOLYLINE
  5
595
330
1F
100
AcDbEntity
  8
0
  6
PHANTOM
 62
     8
370
     0
100
AcDbPolyline
 90
        9
 70
   128
 43
0.0
 10
1085.893817368
 20
574.6081642258
 10
1084.9205993652
 20
574.5401136175
 10
1083.9865394421
 20
574.4413584832
 10
1083.1275329976
 20
574.3156939274
 10
1082.3765911678
 20
574.1679491684
 10
1081.762572226
 20
574.0038019545
 10
1081.3090725757
 20
573.8295603711
 10
1081.0335199543
 20
573.6519204245
 10
1080.9465036944
 20
573.4777087182
  0
LWPOLYLINE
  5
5A4
330
1F
100
AcDbEntity
  8
0
  6
PHANTOM
 62
     8
370
     0
100
AcDbPolyline
 90
        9
 70
   128
 43
0.0
 10
1232.4518120151
 20
543.4706746885
 10
1231.4793389103
 20
543.3926988808
 10
1230.5463350939
 20
543.2844196347
 10
1229.6886553794
 20
543.1499980607
 10
1228.9392599172
 20
542.9945999047
 10
1228.3269475547
 20
542.8241970305
 10
1227.8752491126
 20
542.645337925
 10
1227.6015231087
 20
542.4648960435
 10
1227.5162886797
 20
542.2898056669
  0
LWPOLYLINE
  5
5A5
330
1F
100
AcDbEntity
  8
0
  6
PHANTOM
 62
     8
370
     0
100
AcDbPolyline
 90
        9
 70
   128
 43
0.0
 10
1357.2591199327
 20
550.4627940095
 10
1357.1525872753
 20
550.6258042575
 10
1356.8583815219
 20
550.770469984
 10
1356.3878088345
 20
550.891231766
 10
1355.7589530576
 20
550.9834487962
 10
1354.9959807662
 20
551.0435772258
 10
1354.1282125574
 20
551.0693063529
 10
1353.1889962768
 20
551.0596474216
 10
1352.2144254795
 20
551.0149716197
  0
LWPOLYLINE
  5
5A8
330
1F
100
AcDbEntity
  8
0
  6
PHANTOM
 62
     8
370
     0
100
AcDbPolyline
 90
        9
 70
   128
 43
0.0
 10
1354.7825592297
 20
589.7771774298
 10
1354.6760265723
 20
589.940187678
 10
1354.3818208188
 20
590.0848534045
 10
1353.9112481314
 20
590.2056151867
 10
1353.2823923545
 20
590.297832217
 10
1352.5194200631
 20
590.3579606467
 10
1351.6516518543
 20
590.3836897738
 10
1350.7124355737
 20
590.3740308425
 10
1349.7378647764
 20
590.3293550402
  0
LWPOLYLINE
  5
5AB
330
1F
100
AcDbEntity
  8
0
  6
PHANTOM
 62
     8
370
     0
100
AcDbPolyline
 90
        9
 70
   128
 43
0.0
 10
1229.9752513121
 20
582.7850581087
 10
1229.0027782072
 20
582.7070823013
 10
1228.0697743908
 20
582.5988030553
 10
1227.2120946763
 20
582.4643814815
 10
1226.4626992141
 20
582.3089833256
 10
1225.8503868516
 20
582.1385804515
 10
1225.3986884095
 20
581.9597213462
 10
1225.1249624056
 20
581.7792794647
 10
1225.0397279767
 20
581.6041890874
  0
LWPOLYLINE
  5
5B6
330
1F
100
AcDbEntity
  8
0
  6
PHANTOM
 62
     8
370
     0
100
AcDbPolyline
 90
        9
 70
   128
 43
0.0
 10
1376.9045431537
 20
552.2450229147
 10
1375.9329161646
 20
552.1571300239
 10
1375.0010655646
 20
552.0393379361
 10
1374.1448018499
 20
551.8961733351
 10
1373.3970307546
 20
551.7331379564
 10
1372.7864887027
 20
551.5564971581
 10
1372.3366384828
 20
551.3730391469
 10
1372.0647675866
 20
551.1898141114
 10
1371.9813238601
 20
551.0138632877
  0
LWPOLYLINE
  5
5BB
330
1F
100
AcDbEntity
  8
0
  6
PHANTOM
 62
     8
370
     0
100
AcDbPolyline
 90
        9
 70
   128
 43
0.0
 10
1501.6340225289
 20
560.51005873
 10
1501.52583239
 20
560.6719736518
 10
1501.2301660721
 20
560.8136303714
 10
1500.7583858659
 20
560.9295851006
 10
1500.1286220203
 20
561.0153817641
 10
1499.3650760066
 20
561.0677232443
 10
1498.4970904699
 20
561.0845980874
 10
1497.5580216077
 20
561.0653578027
 10
1496.5839573096
 20
561.0107417841
  0
LWPOLYLINE
  5
5BE
330
1F
100
AcDbEntity
  8
0
  6
PHANTOM
 62
     8
370
     0
100
AcDbPolyline
 90
        9
 70
   128
 43
0.0
 10
1498.7565065611
 20
599.7971303756
 10
1498.6483164222
 20
599.9590452975
 10
1498.3526501042
 20
600.1007020173
 10
1497.8808698981
 20
600.2166567466
 10
1497.2511060524
 20
600.3024534102
 10
1496.4875600387
 20
600.3547948905
 10
1495.6195745021
 20
600.3716697337
 10
1494.6805056398
 20
600.352429449
 10
1493.7064413418
 20
600.2978134299
  0
LWPOLYLINE
  5
5C1
330
1F
100
AcDbEntity
  8
0
  6
PHANTOM
 62
     8
370
     0
100
AcDbPolyline
 90
        9
 70
   128
 43
0.0
 10
1374.0270271859
 20
591.5320945603
 10
1373.0554001967
 20
591.4442016696
 10
1372.1235495968
 20
591.326409582
 10
1371.267285882
 20
591.1832449812
 10
1370.5195147867
 20
591.0202096026
 10
1369.9089727348
 20
590.8435688044
 10
1369.4591225149
 20
590.6601107933
 10
1369.1872516187
 20
590.4768857579
 10
1369.1038078922
 20
590.3009349335
  0
LWPOLYLINE
  5
5D0
330
1F
100
AcDbEntity
  8
0
  6
PHANTOM
 62
     8
370
     0
100
AcDbPolyline
 90
        9
 70
   128
 43
0.0
 10
-1207.8025125721
 20
541.5926507471
 10
-1208.7774884325
 20
541.6273816825
 10
-1209.716754375
 20
541.6274582549
 10
-1210.5842149361
 20
541.5928775216
 10
-1211.346534093
 20
541.5249684008
 10
-1211.9744163479
 20
541.4263406019
 10
-1212.443732538
 20
541.3007843359
 10
-1212.7364471052
 20
541.1531246597
 10
-1212.8413111929
 20
540.9890360526
  0
LWPOLYLINE
  5
5D1
330
1F
100
AcDbEntity
  8
0
  6
PHANTOM
 62
     8
370
     0
100
AcDbPolyline
 90
        9
 70
   128
 43
0.0
 10
-1083.0218513651
 20
534.1401054784
 10
-1083.108867625
 20
534.3143171845
 10
-1083.3844202464
 20
534.491957131
 10
-1083.8379198967
 20
534.6661987143
 10
-1084.4519388385
 20
534.8303459281
 10
-1085.2028806683
 20
534.978090687
 10
-1086.0618871128
 20
535.1037552428
 10
-1086.9959470359
 20
535.202510377
 10
-1087.9691650387
 20
535.2705609859
  0
LWPOLYLINE
  5
5D4
330
1F
100
AcDbEntity
  8
0
  6
PHANTOM
 62
     8
370
     0
100
AcDbPolyline
 90
        9
 70
   128
 43
0.0
 10
-1080.9465036944
 20
573.4777087185
 10
-1081.0335199543
 20
573.6519204248
 10
-1081.3090725757
 20
573.8295603714
 10
-1081.762572226
 20
574.0038019549
 10
-1082.3765911678
 20
574.1679491687
 10
-1083.1275329977
 20
574.3156939277
 10
-1083.9865394421
 20
574.4413584835
 10
-1084.9205993653
 20
574.5401136178
 10
-1085.8938173681
 20
574.6081642261
  0
LWPOLYLINE
  5
5D7
330
1F
100
AcDbEntity
  8
0
  6
PHANTOM
 62
     8
370
     0
100
AcDbPolyline
 90
        9
 70
   128
 43
0.0
 10
-1205.7271649014
 20
580.9302539872
 10
-1206.7021407618
 20
580.9649849228
 10
-1207.6414067043
 20
580.9650614954
 10
-1208.5088672654
 20
580.9304807622
 10
-1209.2711864223
 20
580.8625716415
 10
-1209.8990686772
 20
580.7639438428
 10
-1210.3683848673
 20
580.6383875769
 10
-1210.6610994345
 20
580.4907279007
 10
-1210.7659635222
 20
580.3266392929
  0
LWPOLYLINE
  5
5E2
330
1F
100
AcDbEntity
  8
0
  6
PHANTOM
 62
     8
370
     0
100
AcDbPolyline
 90
        9
 70
   128
 43
0.0
 10
-1061.4657224303
 20
533.9152352865
 10
-1062.440828385
 20
533.9460985881
 10
-1063.380087242
 20
533.9424494471
 10
-1064.24740381
 20
533.9044280978
 10
-1065.0094475999
 20
533.8334956793
 10
-1065.6369336961
 20
533.7323780848
 10
-1066.1057481598
 20
533.6049612067
 10
-1066.3978747141
 20
533.4561416042
 10
-1066.5020870993
 20
533.2916383318
  0
LWPOLYLINE
  5
5E7
330
1F
100
AcDbEntity
  8
0
  6
PHANTOM
 62
     8
370
     0
100
AcDbPolyline
 90
        9
 70
   128
 43
0.0
 10
-936.6564814531
 20
526.9577063493
 10
-936.7441880604
 20
527.1315715243
 10
-937.0204431445
 20
527.3081170603
 10
-937.4746303775
 20
527.4805584111
 10
-938.0892955988
 20
527.6422687526
 10
-938.8408175685
 20
527.7870336469
 10
-939.7003157188
 20
527.9092898603
 10
-940.6347600179
 20
528.0043391551
 10
-941.6082402954
 20
528.0685288407
  0
LWPOLYLINE
  5
5EA
330
1F
100
AcDbEntity
  8
0
  6
PHANTOM
 62
     8
370
     0
100
AcDbPolyline
 90
        9
 70
   128
 43
0.0
 10
-934.7371875073
 20
566.303232237
 10
-934.8248941146
 20
566.4770974122
 10
-935.1011491987
 20
566.6536429482
 10
-935.5553364318
 20
566.8260842993
 10
-936.170001653
 20
566.9877946408
 10
-936.9215236227
 20
567.1325595352
 10
-937.7810217731
 20
567.2548157486
 10
-938.7154660722
 20
567.3498650435
 10
-939.6889463496
 20
567.4140547286
  0
LWPOLYLINE
  5
5ED
330
1F
100
AcDbEntity
  8
0
  6
PHANTOM
 62
     8
370
     0
100
AcDbPolyline
 90
        9
 70
   128
 43
0.0
 10
-1059.5464284846
 20
573.2607611742
 10
-1060.5215344393
 20
573.291624476
 10
-1061.4607932962
 20
573.2879753351
 10
-1062.3281098643
 20
573.249953986
 10
-1063.0901536541
 20
573.1790215677
 10
-1063.7176397503
 20
573.0779039733
 10
-1064.186454214
 20
572.9504870953
 10
-1064.4785807683
 20
572.8016674928
 10
-1064.5827931535
 20
572.6371642198
  0
LWPOLYLINE
  5
5F8
330
1F
100
AcDbEntity
  8
0
  6
PHANTOM
 62
     8
370
     0
100
AcDbPolyline
 90
        9
 70
   128
 43
0.0
 10
-915.0987170498
 20
526.8378562061
 10
-916.0739377563
 20
526.8648513883
 10
-917.0131747492
 20
526.8574765912
 10
-917.8803336777
 20
526.8160152241
 10
-918.6420901104
 20
526.7420606241
 10
-919.2691701749
 20
526.638454825
 10
-919.7374755358
 20
526.5091793396
 10
-920.0290094808
 20
526.3592021523
 10
-920.1325685239
 20
526.1942868029
  0
LWPOLYLINE
  5
5FD
330
1F
100
AcDbEntity
  8
0
  6
PHANTOM
 62
     8
370
     0
100
AcDbPolyline
 90
        9
 70
   128
 43
0.0
 10
-790.2628600696
 20
520.3754530712
 10
-790.3512556444
 20
520.5489689795
 10
-790.6282088446
 20
520.724417327
 10
-791.0830765141
 20
520.8950557323
 10
-791.6983783435
 20
521.054326657
 10
-792.4504686285
 20
521.1961094089
 10
-793.3104449613
 20
521.3149553564
 10
-794.2452589337
 20
521.4062973162
 10
-795.2189861689
 20
521.4666250687
  0
LWPOLYLINE
  5
600
330
1F
100
AcDbEntity
  8
0
  6
PHANTOM
 62
     8
370
     0
100
AcDbPolyline
 90
        9
 70
   128
 43
0.0
 10
-788.4996500472
 20
559.7282825381
 10
-788.588045622
 20
559.9017984465
 10
-788.8649988222
 20
560.0772467942
 10
-789.3198664917
 20
560.2478851995
 10
-789.9351683211
 20
560.4071561244
 10
-790.6872586061
 20
560.5489388764
 10
-791.5472349389
 20
560.6677848239
 10
-792.4820489113
 20
560.7591267837
 10
-793.4557761465
 20
560.8194545357
  0
LWPOLYLINE
  5
603
330
1F
100
AcDbEntity
  8
0
  6
PHANTOM
 62
     8
370
     0
100
AcDbPolyline
 90
        9
 70
   128
 43
0.0
 10
-913.3355070274
 20
566.1906856729
 10
-914.3107277339
 20
566.2176808553
 10
-915.2499647268
 20
566.2103060584
 10
-916.1171236553
 20
566.1688446914
 10
-916.878880088
 20
566.0948900916
 10
-917.5059601524
 20
565.9912842927
 10
-917.9742655134
 20
565.8620088073
 10
-918.2657994584
 20
565.7120316201
 10
-918.3693585015
 20
565.54711627
  0
LWPOLYLINE
  5
612
330
1F
100
AcDbEntity
  8
0
  6
PHANTOM
 62
     8
370
     0
100
AcDbPolyline
 90
        9
 70
   128
 43
0.0
 10
-770.5039291407
 20
520.9366316217
 10
-771.4793744993
 20
520.9536762269
 10
-772.4184873756
 20
520.9367197463
 10
-773.2851781883
 20
520.8864138078
 10
-774.0461404955
 20
520.8046916404
 10
-774.6721309425
 20
520.6946937814
 10
-775.1390930676
 20
520.5606473865
 10
-775.429081778
 20
520.4077037837
 10
-775.5309529704
 20
520.2417405106
  0
LWPOLYLINE
  5
613
330
1F
100
AcDbEntity
  8
0
  6
PHANTOM
 62
     8
370
     0
100
AcDbPolyline
 90
        9
 70
   128
 43
0.0
 10
-645.6086395582
 20
515.7481364305
 10
-645.6988007367
 20
515.9207414998
 10
-645.9775294426
 20
516.0933552486
 10
-646.434114288
 20
516.2593442274
 10
-647.0510089734
 20
516.4123295729
 10
-647.8045065819
 20
516.5464321439
 10
-648.665650623
 20
516.6564984539
 10
-649.6013478142
 20
516.7382987163
 10
-650.5756398371
 20
516.7886893935
  0
LWPOLYLINE
  5
616
330
1F
100
AcDbEntity
  8
0
  6
PHANTOM
 62
     8
370
     0
100
AcDbPolyline
 90
        9
 70
   128
 43
0.0
 10
-644.2469976698
 20
555.1169061345
 10
-644.3371588483
 20
555.2895112039
 10
-644.6158875542
 20
555.4621249528
 10
-645.0724723996
 20
555.6281139317
 10
-645.689367085
 20
555.7810992773
 10
-646.4428646935
 20
555.9152018484
 10
-647.3040087346
 20
556.0252681584
 10
-648.2397059258
 20
556.1070684209
 10
-649.2139979488
 20
556.1574590976
  0
LWPOLYLINE
  5
619
330
1F
100
AcDbEntity
  8
0
  6
PHANTOM
 62
     8
370
     0
100
AcDbPolyline
 90
        9
 70
   128
 43
0.0
 10
-769.1422872523
 20
560.3054013256
 10
-770.1177326109
 20
560.322445931
 10
-771.0568454872
 20
560.3054894505
 10
-771.9235362998
 20
560.2551835122
 10
-772.6844986071
 20
560.173461345
 10
-773.3104890541
 20
560.063463486
 10
-773.7774511791
 20
559.9294170913
 10
-774.0674398896
 20
559.7764734885
 10
-774.169311082
 20
559.6105102147
  0
LWPOLYLINE
  5
624
330
1F
100
AcDbEntity
  8
0
  6
PHANTOM
 62
     8
370
     0
100
AcDbPolyline
 90
        9
 70
   128
 43
0.0
 10
-625.8830251475
 20
515.6098269146
 10
-626.8585936311
 20
515.6169191688
 10
-627.7974846451
 20
515.5903827695
 10
-628.6636171342
 20
515.5312374956
 10
-629.4237061128
 20
515.4417562668
 10
-630.0485417876
 20
515.3253777966
 10
-630.514112074
 20
515.1865744443
 10
-630.802525367
 20
515.0306803449
 10
-630.9026981055
 20
514.8636864219
  0
LWPOLYLINE
  5
629
330
1F
100
AcDbEntity
  8
0
  6
PHANTOM
 62
     8
370
     0
100
AcDbPolyline
 90
        9
 70
   128
 43
0.0
 10
-500.9413024259
 20
511.6957797008
 10
-501.033219824
 20
511.8674559659
 10
-501.3136950246
 20
512.0372171498
 10
-501.7719495232
 20
512.1985394255
 10
-502.3903728564
 20
512.3452232685
 10
-503.1451993621
 20
512.4716317009
 10
-504.0074214812
 20
512.5729069175
 10
-504.9439045012
 20
512.6451569685
 10
-505.9186599047
 20
512.6856053256
  0
LWPOLYLINE
  5
62C
330
1F
100
AcDbEntity
  8
0
  6
PHANTOM
 62
     8
370
     0
100
AcDbPolyline
 90
        9
 70
   128
 43
0.0
 10
-499.9813703951
 20
551.0763920263
 10
-500.0732877932
 20
551.2480682915
 10
-500.3537629939
 20
551.4178294755
 10
-500.8120174925
 20
551.5791517514
 10
-501.4304408256
 20
551.7258355945
 10
-502.1852673314
 20
551.8522440269
 10
-503.0474894505
 20
551.9535192436
 10
-503.9839724704
 20
552.0257692946
 10
-504.958727874
 20
552.0662176512
  0
LWPOLYLINE
  5
62F
330
1F
100
AcDbEntity
  8
0
  6
PHANTOM
 62
     8
370
     0
100
AcDbPolyline
 90
        9
 70
   128
 43
0.0
 10
-624.9230931167
 20
554.99043924
 10
-625.8986616004
 20
554.9975314944
 10
-626.8375526143
 20
554.9709950953
 10
-627.7036851035
 20
554.9118498215
 10
-628.463774082
 20
554.8223685929
 10
-629.0886097568
 20
554.7059901228
 10
-629.5541800432
 20
554.5671867706
 10
-629.8425933362
 20
554.4112926712
 10
-629.9427660748
 20
554.2442987475
  0
LINE
  5
65D
330
1F
100
AcDbEntity
  8
0
  6
Continuous
 62
     7
370
    15
100
AcDbLine
 10
637.8045073011
 20
591.0994927934
 30
0.0
 11
633.8064065746
 21
590.9762427216
 31
0.0
  0
LINE
  5
65E
330
1F
100
AcDbEntity
  8
0
  6
Continuous
 62
     7
370
    15
100
AcDbLine
 10
926.9566929856
 20
602.1460301756
 30
0.0
 11
922.9609576368
 21
601.9613709701
 31
0.0
  0
LINE
  5
65F
330
1F
100
AcDbEntity
  8
0
  6
Continuous
 62
     7
370
    15
100
AcDbLine
 10
624.8224082901
 20
559.1209713995
 30
0.0
 11
504.8580430473
 21
556.1967498106
 31
0.0
  0
LINE
  5
660
330
1F
100
AcDbEntity
  8
0
  6
Continuous
 62
     7
370
    15
100
AcDbLine
 10
508.1344799647
 20
421.7829705851
 30
0.0
 11
628.0988452075
 21
424.7071921739
 31
0.0
  0
LINE
  5
661
330
1F
100
AcDbEntity
  8
0
  6
Continuous
 62
     7
370
    15
100
AcDbLine
 10
768.9994681014
 20
564.4346913426
 30
0.0
 11
649.0711787978
 21
560.2867491146
 31
0.0
  0
LINE
  5
662
330
1F
100
AcDbEntity
  8
0
  6
Continuous
 62
     7
370
    15
100
AcDbLine
 10
653.7187305082
 20
425.9133910868
 30
0.0
 11
773.6470198118
 21
430.0613333148
 31
0.0
  0
LINE
  5
663
330
1F
100
AcDbEntity
  8
0
  6
Continuous
 62
     7
370
    15
100
AcDbLine
 10
-1357.6922993698
 20
626.2159704557
 30
0.0
 11
-1361.6834138685
 21
626.4824381997
 31
0.0
  0
LINE
  5
664
330
1F
100
AcDbEntity
  8
0
  6
Continuous
 62
     7
370
    15
100
AcDbLine
 10
-1068.8377904538
 20
609.0670593207
 30
0.0
 11
-1072.8325277177
 21
609.272179267
 31
0.0
  0
LINE
  5
665
330
1F
100
AcDbEntity
  8
0
  6
Continuous
 62
     7
370
    15
100
AcDbLine
 10
-1373.7252118625
 20
595.6528154765
 30
0.0
 11
-1493.4046260184
 21
604.4185343461
 31
0.0
  0
LINE
  5
666
330
1F
100
AcDbEntity
  8
0
  6
Continuous
 62
     7
370
    15
100
AcDbLine
 10
-1503.2261542573
 20
470.324027868
 30
0.0
 11
-1383.5467401014
 21
461.5583089984
 31
0.0
  0
LINE
  5
667
330
1F
100
AcDbEntity
  8
0
  6
Continuous
 62
     7
370
    15
100
AcDbLine
 10
-1229.7154911657
 20
586.9086436875
 30
0.0
 11
-1349.47810463
 21
594.4529406189
 31
0.0
  0
LINE
  5
668
330
1F
100
AcDbEntity
  8
0
  6
Continuous
 62
     7
370
    15
100
AcDbLine
 10
-1357.9310936497
 20
460.2652136794
 30
0.0
 11
-1238.1684801854
 21
452.720916748
 31
0.0
  0
LINE
  5
669
330
1F
100
AcDbEntity
  8
0
  6
Continuous
 62
     7
370
    15
100
AcDbLine
 10
913.1505684174
 20
570.318303759
 30
0.0
 11
793.2708375365
 21
564.9470726218
 31
0.0
  0
LINE
  5
66A
330
1F
100
AcDbEntity
  8
0
  6
Continuous
 62
     7
370
    15
100
AcDbLine
 10
799.2890203093
 20
430.6281217598
 30
0.0
 11
919.1687511901
 21
435.999352897
 31
0.0
  0
LINE
  5
66B
330
1F
100
AcDbEntity
  8
0
  6
Continuous
 62
     7
370
    15
100
AcDbLine
 10
1059.3451186294
 20
577.3876132065
 30
0.0
 11
939.4876364944
 21
571.5409067609
 31
0.0
  0
LINE
  5
66C
330
1F
100
AcDbEntity
  8
0
  6
Continuous
 62
     7
370
    15
100
AcDbLine
 10
946.0385644119
 20
437.2468844517
 30
0.0
 11
1065.8960465469
 21
443.0935908973
 31
0.0
  0
LINE
  5
66D
330
1F
100
AcDbEntity
  8
0
  6
Continuous
 62
     7
370
    15
100
AcDbLine
 10
1205.5094869683
 20
585.0562750331
 30
0.0
 11
1085.6761394349
 21
578.7341852721
 31
0.0
  0
LINE
  5
66E
330
1F
100
AcDbEntity
  8
0
  6
Continuous
 62
     7
370
    15
100
AcDbLine
 10
1092.7597094239
 20
444.4672045182
 30
0.0
 11
1212.5930569573
 21
450.7892942792
 31
0.0
  0
LINE
  5
66F
330
1F
100
AcDbEntity
  8
0
  6
Continuous
 62
     7
370
    15
100
AcDbLine
 10
1349.4781046299
 20
594.4529406186
 30
0.0
 11
1229.7154911655
 21
586.9086436872
 31
0.0
  0
LINE
  5
670
330
1F
100
AcDbEntity
  8
0
  6
Continuous
 62
     7
370
    15
100
AcDbLine
 10
1238.1684801853
 20
452.7209167477
 30
0.0
 11
1357.9310936496
 21
460.2652136791
 31
0.0
  0
LINE
  5
671
330
1F
100
AcDbEntity
  8
0
  6
Continuous
 62
     7
370
    15
100
AcDbLine
 10
1493.4046260184
 20
604.4185343459
 30
0.0
 11
1373.7252118625
 21
595.6528154762
 31
0.0
  0
LINE
  5
672
330
1F
100
AcDbEntity
  8
0
  6
Continuous
 62
     7
370
    15
100
AcDbLine
 10
1383.5467401014
 20
461.5583089981
 30
0.0
 11
1503.2261542573
 21
470.3240278677
 31
0.0
  0
LINE
  5
673
330
1F
100
AcDbEntity
  8
0
  6
Continuous
 62
     7
370
    15
100
AcDbLine
 10
-1085.6761394349
 20
578.7341852724
 30
0.0
 11
-1205.5094869683
 21
585.0562750335
 31
0.0
  0
LINE
  5
674
330
1F
100
AcDbEntity
  8
0
  6
Continuous
 62
     7
370
    15
100
AcDbLine
 10
-1212.5930569573
 20
450.7892942795
 30
0.0
 11
-1092.759709424
 21
444.4672045185
 31
0.0
  0
LINE
  5
675
330
1F
100
AcDbEntity
  8
0
  6
Continuous
 62
     7
370
    15
100
AcDbLine
 10
-939.4876364944
 20
571.5409067612
 30
0.0
 11
-1059.3451186294
 21
577.3876132068
 31
0.0
  0
LINE
  5
676
330
1F
100
AcDbEntity
  8
0
  6
Continuous
 62
     7
370
    15
100
AcDbLine
 10
-1065.8960465469
 20
443.0935908976
 30
0.0
 11
-946.0385644119
 21
437.246884452
 31
0.0
  0
LINE
  5
677
330
1F
100
AcDbEntity
  8
0
  6
Continuous
 62
     7
370
    15
100
AcDbLine
 10
-793.2708375366
 20
564.9470726221
 30
0.0
 11
-913.1505684174
 21
570.3183037593
 31
0.0
  0
LINE
  5
678
330
1F
100
AcDbEntity
  8
0
  6
Continuous
 62
     7
370
    15
100
AcDbLine
 10
-919.1687511902
 20
435.9993528973
 30
0.0
 11
-799.2890203093
 21
430.6281217601
 31
0.0
  0
LINE
  5
679
330
1F
100
AcDbEntity
  8
0
  6
Continuous
 62
     7
370
    15
100
AcDbLine
 10
-649.071178798
 20
560.2867491149
 30
0.0
 11
-768.9994681015
 21
564.4346913429
 31
0.0
  0
LINE
  5
67A
330
1F
100
AcDbEntity
  8
0
  6
Continuous
 62
     7
370
    15
100
AcDbLine
 10
-773.6470198119
 20
430.0613333151
 30
0.0
 11
-653.7187305084
 21
425.9133910871
 31
0.0
  0
LINE
  5
67B
330
1F
100
AcDbEntity
  8
0
  6
Continuous
 62
     7
370
    15
100
AcDbLine
 10
-504.8580430474
 20
556.1967498109
 30
0.0
 11
-624.8224082901
 21
559.1209713998
 31
0.0
  0
LINE
  5
67C
330
1F
100
AcDbEntity
  8
0
  6
Continuous
 62
     7
370
    15
100
AcDbLine
 10
-628.0988452075
 20
424.7071921742
 30
0.0
 11
-508.1344799647
 21
421.7829705854
 31
0.0
  0
LINE
  5
67D
330
1F
100
AcDbEntity
  8
0
  6
Continuous
 62
     7
370
    15
100
AcDbLine
 10
1361.6834138685
 20
626.4824381994
 30
0.0
 11
1357.6922993698
 21
626.2159704554
 31
0.0
  0
LINE
  5
67E
330
1F
100
AcDbEntity
  8
0
  6
Continuous
 62
     7
370
    15
100
AcDbLine
 10
1072.8325277177
 20
609.2721792667
 30
0.0
 11
1068.8377904538
 21
609.0670593204
 31
0.0
  0
LINE
  5
67F
330
1F
100
AcDbEntity
  8
0
  6
Continuous
 62
     7
370
    15
100
AcDbLine
 10
-633.8064065746
 20
590.9762427219
 30
0.0
 11
-637.8045073011
 21
591.0994927937
 31
0.0
  0
LINE
  5
680
330
1F
100
AcDbEntity
  8
0
  6
Continuous
 62
     7
370
    15
100
AcDbLine
 10
-922.9609576368
 20
601.9613709704
 30
0.0
 11
-926.9566929856
 21
602.1460301759
 31
0.0
  0
LINE
  5
681
330
1F
100
AcDbEntity
  8
0
  6
Continuous
 62
     7
370
    15
100
AcDbLine
 10
238.4242964747
 20
1.3803691529
 30
0.0
 11
358.4122514184
 21
3.0805657412
 31
0.0
  0
LINE
  5
682
330
1F
100
AcDbEntity
  8
0
  6
Continuous
 62
     7
370
    15
100
AcDbLine
 10
363.3409080165
 20
8.1509053884
 30
0.0
 11
356.4005772288
 21
497.9507929926
 31
0.0
  0
LINE
  5
683
330
1F
100
AcDbEntity
  8
0
  6
Continuous
 62
     7
370
    15
100
AcDbLine
 10
351.3302375816
 20
502.8794495908
 30
0.0
 11
231.3422826379
 21
501.1792530025
 31
0.0
  0
LINE
  5
684
330
1F
100
AcDbEntity
  8
0
  6
Continuous
 62
     7
370
    15
100
AcDbLine
 10
226.4136260398
 20
496.1089133553
 30
0.0
 11
233.3539568276
 21
6.3090257511
 31
0.0
  0
LINE
  5
685
330
1F
100
AcDbEntity
  8
0
  6
Continuous
 62
     7
370
    15
100
AcDbLine
 10
-1651.3928556932
 20
566.2971382796
 30
0.0
 11
-1770.9766139609
 21
576.283366726
 31
0.0
  0
LINE
  5
686
330
1F
100
AcDbEntity
  8
0
  6
Continuous
 62
     7
370
    15
100
AcDbLine
 10
-1687.5908301324
 20
72.7484625652
 30
0.0
 11
-1646.8262919507
 21
560.8983888331
 31
0.0
  0
LINE
  5
687
330
1F
100
AcDbEntity
  8
0
  6
Continuous
 62
     7
370
    15
100
AcDbLine
 10
-1776.3753634073
 20
571.7168029834
 30
0.0
 11
-1817.139901589
 21
83.5668767155
 31
0.0
  0
LINE
  5
688
330
1F
100
AcDbEntity
  8
0
  6
Continuous
 62
     7
370
    15
100
AcDbLine
 10
-1812.5733378464
 20
78.1681272691
 30
0.0
 11
-1692.9895795788
 21
68.1818988226
 31
0.0
  0
LINE
  5
689
330
1F
100
AcDbEntity
  8
0
  6
Continuous
 62
     7
370
    15
100
AcDbLine
 10
388.2989985708
 20
3.2057513759
 30
0.0
 11
508.2633638136
 21
6.1299729647
 31
0.0
  0
LINE
  5
68A
330
1F
100
AcDbEntity
  8
0
  6
Continuous
 62
     7
370
    15
100
AcDbLine
 10
496.0827854636
 20
505.8305960665
 30
0.0
 11
376.1184202209
 21
502.9063744777
 31
0.0
  0
LINE
  5
68B
330
1F
100
AcDbEntity
  8
0
  6
Continuous
 62
     7
370
    15
100
AcDbLine
 10
371.2417475686
 20
497.786016693
 30
0.0
 11
383.1786407862
 21
8.0824240281
 31
0.0
  0
LINE
  5
68C
330
1F
100
AcDbEntity
  8
0
  6
Continuous
 62
     7
370
    15
100
AcDbLine
 10
1366.3493816178
 20
481.1921031501
 30
0.0
 11
1364.7183573412
 21
505.1366391118
 31
0.0
  0
LINE
  5
68D
330
1F
100
AcDbEntity
  8
0
  6
Continuous
 62
     7
370
    15
100
AcDbLine
 10
1372.336058784
 20
481.5918051278
 30
0.0
 11
1371.3614172854
 21
481.5267329477
 31
0.0
  0
LINE
  5
68E
330
1F
100
AcDbEntity
  8
0
  6
Continuous
 62
     7
370
    15
100
AcDbLine
 10
1367.3703027867
 20
481.2602652038
 30
0.0
 11
1366.3493816178
 21
481.1921031501
 31
0.0
  0
LINE
  5
68F
330
1F
100
AcDbEntity
  8
0
  6
Continuous
 62
     7
370
    15
100
AcDbLine
 10
1370.7050345074
 20
505.5363410896
 30
0.0
 11
1372.336058784
 21
481.5918051278
 31
0.0
  0
LINE
  5
690
330
1F
100
AcDbEntity
  8
0
  6
Continuous
 62
     7
370
    15
100
AcDbLine
 10
1364.7183573412
 20
505.1366391118
 30
0.0
 11
1365.7714963229
 21
505.2069521957
 31
0.0
  0
LINE
  5
691
330
1F
100
AcDbEntity
  8
0
  6
Continuous
 62
     7
370
    15
100
AcDbLine
 10
1369.7626108215
 20
505.4734199397
 30
0.0
 11
1370.7050345074
 21
505.5363410896
 31
0.0
  0
LINE
  5
692
330
1F
100
AcDbEntity
  8
0
  6
Continuous
 62
     7
370
    15
100
AcDbLine
 10
643.303609567
 20
445.9215776841
 30
0.0
 11
642.2809013256
 21
445.8900504984
 31
0.0
  0
LINE
  5
693
330
1F
100
AcDbEntity
  8
0
  6
Continuous
 62
     7
370
    15
100
AcDbLine
 10
638.282800599
 20
445.7668004265
 30
0.0
 11
637.3064530494
 21
445.736702409
 31
0.0
  0
LINE
  5
694
330
1F
100
AcDbEntity
  8
0
  6
Continuous
 62
     7
370
    15
100
AcDbLine
 10
642.5963833439
 20
469.9111769656
 30
0.0
 11
643.303609567
 21
445.9215776841
 31
0.0
  0
LINE
  5
695
330
1F
100
AcDbEntity
  8
0
  6
Continuous
 62
     7
370
    15
100
AcDbLine
 10
636.5992268264
 20
469.7263016904
 30
0.0
 11
637.5433001677
 21
469.7554047859
 31
0.0
  0
LINE
  5
696
330
1F
100
AcDbEntity
  8
0
  6
Continuous
 62
     7
370
    15
100
AcDbLine
 10
641.5414008943
 20
469.8786548578
 30
0.0
 11
642.5963833439
 21
469.9111769656
 31
0.0
  0
LINE
  5
697
330
1F
100
AcDbEntity
  8
0
  6
Continuous
 62
     7
370
    15
100
AcDbLine
 10
637.3064530494
 20
445.736702409
 30
0.0
 11
636.5992268264
 21
469.7263016904
 31
0.0
  0
LINE
  5
698
330
1F
100
AcDbEntity
  8
0
  6
Continuous
 62
     7
370
    15
100
AcDbLine
 10
1074.0842170117
 20
487.8982529837
 30
0.0
 11
1075.0569463642
 21
487.9482002466
 31
0.0
  0
LINE
  5
699
330
1F
100
AcDbEntity
  8
0
  6
Continuous
 62
     7
370
    15
100
AcDbLine
 10
1079.0516836281
 20
488.1533201929
 30
0.0
 11
1080.0763239061
 21
488.2059329544
 31
0.0
  0
LINE
  5
69A
330
1F
100
AcDbEntity
  8
0
  6
Continuous
 62
     7
370
    15
100
AcDbLine
 10
1075.3010992285
 20
463.9291188806
 30
0.0
 11
1074.0842170117
 21
487.8982529837
 31
0.0
  0
LINE
  5
69B
330
1F
100
AcDbEntity
  8
0
  6
Continuous
 62
     7
370
    15
100
AcDbLine
 10
1081.2932061229
 20
464.2367988513
 30
0.0
 11
1080.2824033057
 21
464.1848966095
 31
0.0
  0
LINE
  5
69C
330
1F
100
AcDbEntity
  8
0
  6
Continuous
 62
     7
370
    15
100
AcDbLine
 10
1076.2876660418
 20
463.9797766632
 30
0.0
 11
1075.3010992285
 21
463.9291188806
 31
0.0
  0
LINE
  5
69D
330
1F
100
AcDbEntity
  8
0
  6
Continuous
 62
     7
370
    15
100
AcDbLine
 10
1080.0763239061
 20
488.2059329544
 30
0.0
 11
1081.2932061229
 21
464.2367988513
 31
0.0
  0
LINE
  5
69E
330
1F
100
AcDbEntity
  8
0
  6
Continuous
 62
     7
370
    15
100
AcDbLine
 10
933.5284596986
 20
481.0418745782
 30
0.0
 11
934.6502558501
 21
457.0681021305
 31
0.0
  0
LINE
  5
69F
330
1F
100
AcDbEntity
  8
0
  6
Continuous
 62
     7
370
    15
100
AcDbLine
 10
927.5348556765
 20
480.7648857237
 30
0.0
 11
928.5597519551
 21
480.8122503552
 31
0.0
  0
LINE
  5
6A0
330
1F
100
AcDbEntity
  8
0
  6
Continuous
 62
     7
370
    15
100
AcDbLine
 10
932.555487304
 20
480.9969095608
 30
0.0
 11
933.5284596986
 21
481.0418745782
 31
0.0
  0
LINE
  5
6A1
330
1F
100
AcDbEntity
  8
0
  6
Continuous
 62
     7
370
    15
100
AcDbLine
 10
928.6566518281
 20
456.7911132759
 30
0.0
 11
927.5348556765
 21
480.7648857237
 31
0.0
  0
LINE
  5
6A2
330
1F
100
AcDbEntity
  8
0
  6
Continuous
 62
     7
370
    15
100
AcDbLine
 10
934.6502558501
 20
457.0681021305
 30
0.0
 11
933.6634425374
 21
457.0224974679
 31
0.0
  0
LINE
  5
6A3
330
1F
100
AcDbEntity
  8
0
  6
Continuous
 62
     7
370
    15
100
AcDbLine
 10
929.6677071886
 20
456.8378382623
 30
0.0
 11
928.6566518281
 21
456.7911132759
 31
0.0
  0
LINE
  5
6A4
330
1F
100
AcDbEntity
  8
0
  6
Continuous
 62
     7
370
    15
100
AcDbLine
 10
1087.2012295247
 20
446.4781489952
 30
0.0
 11
1087.3526227244
 21
443.4961316261
 31
0.0
  0
LINE
  5
6A5
330
1F
100
AcDbEntity
  8
0
  6
Continuous
 62
     7
370
    15
100
AcDbLine
 10
1071.2218094522
 20
445.6668943193
 30
0.0
 11
1077.2123710789
 21
445.9710274548
 31
0.0
  0
LINE
  5
6A6
330
1F
100
AcDbEntity
  8
0
  6
Continuous
 62
     7
370
    15
100
AcDbLine
 10
1081.2072267628
 20
446.1738411576
 30
0.0
 11
1087.2012295247
 21
446.4781489952
 31
0.0
  0
LINE
  5
6A7
330
1F
100
AcDbEntity
  8
0
  6
Continuous
 62
     7
370
    15
100
AcDbLine
 10
1071.3744795942
 20
442.659724803
 30
0.0
 11
1071.2218094522
 21
445.6668943193
 31
0.0
  0
LINE
  5
6A8
330
1F
100
AcDbEntity
  8
0
  6
Continuous
 62
     7
370
    15
100
AcDbLine
 10
1071.3744795942
 20
442.659724803
 30
0.0
 11
1070.9242968257
 21
442.6363389417
 31
0.0
  0
LINE
  5
6A9
330
1F
100
AcDbEntity
  8
0
  6
Continuous
 62
     7
370
    15
100
AcDbLine
 10
941.0786911794
 20
436.302406959
 30
0.0
 11
940.6283696515
 21
436.2818657814
 31
0.0
  0
LINE
  5
6AA
330
1F
100
AcDbEntity
  8
0
  6
Continuous
 62
     7
370
    15
100
AcDbLine
 10
940.487629015
 20
439.2896172247
 30
0.0
 11
940.6283696515
 21
436.2818657814
 31
0.0
  0
LINE
  5
6AB
330
1F
100
AcDbEntity
  8
0
  6
Continuous
 62
     7
370
    15
100
AcDbLine
 10
924.5051167133
 20
438.5417532483
 30
0.0
 11
930.5002793883
 21
438.8222827491
 31
0.0
  0
LINE
  5
6AC
330
1F
100
AcDbEntity
  8
0
  6
Continuous
 62
     7
370
    15
100
AcDbLine
 10
934.4959081296
 20
439.0092487744
 30
0.0
 11
940.487629015
 21
439.2896172247
 31
0.0
  0
LINE
  5
6AD
330
1F
100
AcDbEntity
  8
0
  6
Continuous
 62
     7
370
    15
100
AcDbLine
 10
924.6446801867
 20
435.5591588194
 30
0.0
 11
924.5051167133
 21
438.5417532483
 31
0.0
  0
LINE
  5
6AE
330
1F
100
AcDbEntity
  8
0
  6
Continuous
 62
     7
370
    15
100
AcDbLine
 10
924.6446801867
 20
435.5591588194
 30
0.0
 11
924.1943945696
 21
435.5389787732
 31
0.0
  0
LINE
  5
6AF
330
1F
100
AcDbEntity
  8
0
  6
Continuous
 62
     7
370
    15
100
AcDbLine
 10
633.0307061387
 20
427.5634852648
 30
0.0
 11
638.8386787305
 21
427.7347074046
 31
0.0
  0
LINE
  5
6B0
330
1F
100
AcDbEntity
  8
0
  6
Continuous
 62
     7
370
    15
100
AcDbLine
 10
642.8369452774
 20
427.8525784417
 30
0.0
 11
648.6427505608
 21
428.023736688
 31
0.0
  0
LINE
  5
6B1
330
1F
100
AcDbEntity
  8
0
  6
Continuous
 62
     7
370
    15
100
AcDbLine
 10
646.8780011008
 20
479.0474424562
 30
0.0
 11
641.2640882325
 21
478.8743814926
 31
0.0
  0
LINE
  5
6B2
330
1F
100
AcDbEntity
  8
0
  6
Continuous
 62
     7
370
    15
100
AcDbLine
 10
637.265987506
 20
478.7511314207
 30
0.0
 11
631.7870858211
 21
478.5822324677
 31
0.0
  0
LINE
  5
6B3
330
1F
100
AcDbEntity
  8
0
  6
Continuous
 62
     7
370
    15
100
AcDbLine
 10
777.6433170719
 20
483.5420170989
 30
0.0
 11
776.8013279922
 21
483.5117440978
 31
0.0
  0
LINE
  5
6B4
330
1F
100
AcDbEntity
  8
0
  6
Continuous
 62
     7
370
    15
100
AcDbLine
 10
938.4457000073
 20
490.2787259878
 30
0.0
 11
932.1400040914
 21
489.9873140956
 31
0.0
  0
LINE
  5
6B5
330
1F
100
AcDbEntity
  8
0
  6
Continuous
 62
     7
370
    15
100
AcDbLine
 10
928.1442687426
 20
489.8026548901
 30
0.0
 11
921.776287329
 21
489.5083645314
 31
0.0
  0
LINE
  5
6B6
330
1F
100
AcDbEntity
  8
0
  6
Continuous
 62
     7
370
    15
100
AcDbLine
 10
1084.9565545201
 20
497.4683775651
 30
0.0
 11
1078.590163749
 21
497.1414790367
 31
0.0
  0
LINE
  5
6B7
330
1F
100
AcDbEntity
  8
0
  6
Continuous
 62
     7
370
    15
100
AcDbLine
 10
1074.5954264851
 20
496.9363590904
 30
0.0
 11
1068.2913056535
 21
496.6126579705
 31
0.0
  0
LINE
  5
6B8
330
1F
100
AcDbEntity
  8
0
  6
Continuous
 62
     7
370
    15
100
AcDbLine
 10
1229.8268527746
 20
505.6105501847
 30
0.0
 11
1228.9859148227
 21
505.5587291844
 31
0.0
  0
LINE
  5
6B9
330
1F
100
AcDbEntity
  8
0
  6
Continuous
 62
     7
370
    15
100
AcDbLine
 10
1374.6323863226
 20
514.8185885897
 30
0.0
 11
1369.1630583976
 21
514.4534275617
 31
0.0
  0
LINE
  5
6BA
330
1F
100
AcDbEntity
  8
0
  6
Continuous
 62
     7
370
    15
100
AcDbLine
 10
1365.1719438989
 20
514.1869598177
 30
0.0
 11
1359.567840707
 21
513.8128004858
 31
0.0
  0
LINE
  5
6BB
330
1F
100
AcDbEntity
  8
0
  6
Continuous
 62
     7
370
    15
100
AcDbLine
 10
1362.7775753667
 20
462.8595818005
 30
0.0
 11
1368.5724747215
 21
463.2543115853
 31
0.0
  0
LINE
  5
6BC
330
1F
100
AcDbEntity
  8
0
  6
Continuous
 62
     7
370
    15
100
AcDbLine
 10
1372.5632307152
 20
463.5261489647
 30
0.0
 11
1378.360293307
 21
463.9210261023
 31
0.0
  0
LINE
  5
6BD
330
1F
100
AcDbEntity
  8
0
  6
Continuous
 62
     7
370
    15
100
AcDbLine
 10
1217.442008298
 20
453.7841788081
 30
0.0
 11
1233.0347441139
 21
454.6865934541
 31
0.0
  0
LINE
  5
6BE
330
1F
100
AcDbEntity
  8
0
  6
Continuous
 62
     7
370
    15
100
AcDbLine
 10
778.5650639731
 20
432.5173407643
 30
0.0
 11
794.171600451
 21
433.13684184
 31
0.0
  0
LINE
  5
6BF
330
1F
100
AcDbEntity
  8
0
  6
Continuous
 62
     7
370
    15
100
AcDbLine
 10
1087.8027345925
 20
443.5198734085
 30
0.0
 11
1087.3526227244
 21
443.4961316261
 31
0.0
  0
LINE
  5
6C0
330
1F
100
AcDbEntity
  8
0
  6
Continuous
 62
     7
370
    15
100
AcDbLine
 10
-643.3036095612
 20
445.9215776842
 30
0.0
 11
-642.5963833382
 21
469.9111769656
 31
0.0
  0
LINE
  5
6C1
330
1F
100
AcDbEntity
  8
0
  6
Continuous
 62
     7
370
    15
100
AcDbLine
 10
-637.3064530437
 20
445.736702409
 30
0.0
 11
-638.282800599
 21
445.7668004267
 31
0.0
  0
LINE
  5
6C2
330
1F
100
AcDbEntity
  8
0
  6
Continuous
 62
     7
370
    15
100
AcDbLine
 10
-642.2809013256
 20
445.8900504986
 30
0.0
 11
-643.3036095612
 21
445.9215776842
 31
0.0
  0
LINE
  5
6C3
330
1F
100
AcDbEntity
  8
0
  6
Continuous
 62
     7
370
    15
100
AcDbLine
 10
-636.5992268206
 20
469.7263016904
 30
0.0
 11
-637.3064530437
 21
445.736702409
 31
0.0
  0
LINE
  5
6C4
330
1F
100
AcDbEntity
  8
0
  6
Continuous
 62
     7
370
    15
100
AcDbLine
 10
-642.5963833382
 20
469.9111769656
 30
0.0
 11
-641.5414008943
 21
469.878654858
 31
0.0
  0
LINE
  5
6C5
330
1F
100
AcDbEntity
  8
0
  6
Continuous
 62
     7
370
    15
100
AcDbLine
 10
-637.5433001677
 20
469.7554047861
 30
0.0
 11
-636.5992268206
 21
469.7263016904
 31
0.0
  0
LINE
  5
6C6
330
1F
100
AcDbEntity
  8
0
  6
Continuous
 62
     7
370
    15
100
AcDbLine
 10
-1366.3493816121
 20
481.1921031501
 30
0.0
 11
-1367.3703027867
 21
481.2602652042
 31
0.0
  0
LINE
  5
6C7
330
1F
100
AcDbEntity
  8
0
  6
Continuous
 62
     7
370
    15
100
AcDbLine
 10
-1371.3614172854
 20
481.5267329481
 30
0.0
 11
-1372.3360587783
 21
481.5918051278
 31
0.0
  0
LINE
  5
6C8
330
1F
100
AcDbEntity
  8
0
  6
Continuous
 62
     7
370
    15
100
AcDbLine
 10
-1364.7183573355
 20
505.1366391119
 30
0.0
 11
-1366.3493816121
 21
481.1921031501
 31
0.0
  0
LINE
  5
6C9
330
1F
100
AcDbEntity
  8
0
  6
Continuous
 62
     7
370
    15
100
AcDbLine
 10
-1370.7050345017
 20
505.5363410896
 30
0.0
 11
-1369.7626108215
 21
505.4734199401
 31
0.0
  0
LINE
  5
6CA
330
1F
100
AcDbEntity
  8
0
  6
Continuous
 62
     7
370
    15
100
AcDbLine
 10
-1365.7714963228
 20
505.2069521961
 30
0.0
 11
-1364.7183573355
 21
505.1366391119
 31
0.0
  0
LINE
  5
6CB
330
1F
100
AcDbEntity
  8
0
  6
Continuous
 62
     7
370
    15
100
AcDbLine
 10
-1372.3360587783
 20
481.5918051278
 30
0.0
 11
-1370.7050345017
 21
505.5363410896
 31
0.0
  0
LINE
  5
6CC
330
1F
100
AcDbEntity
  8
0
  6
Continuous
 62
     7
370
    15
100
AcDbLine
 10
-933.5284596928
 20
481.0418745782
 30
0.0
 11
-932.555487304
 21
480.9969095611
 31
0.0
  0
LINE
  5
6CD
330
1F
100
AcDbEntity
  8
0
  6
Continuous
 62
     7
370
    15
100
AcDbLine
 10
-928.5597519551
 20
480.8122503555
 30
0.0
 11
-927.5348556708
 21
480.7648857237
 31
0.0
  0
LINE
  5
6CE
330
1F
100
AcDbEntity
  8
0
  6
Continuous
 62
     7
370
    15
100
AcDbLine
 10
-934.6502558444
 20
457.0681021305
 30
0.0
 11
-933.5284596928
 21
481.0418745782
 31
0.0
  0
LINE
  5
6CF
330
1F
100
AcDbEntity
  8
0
  6
Continuous
 62
     7
370
    15
100
AcDbLine
 10
-928.6566518223
 20
456.791113276
 30
0.0
 11
-929.6677071886
 21
456.8378382626
 31
0.0
  0
LINE
  5
6D0
330
1F
100
AcDbEntity
  8
0
  6
Continuous
 62
     7
370
    15
100
AcDbLine
 10
-933.6634425374
 20
457.0224974682
 30
0.0
 11
-934.6502558444
 21
457.0681021305
 31
0.0
  0
LINE
  5
6D1
330
1F
100
AcDbEntity
  8
0
  6
Continuous
 62
     7
370
    15
100
AcDbLine
 10
-927.5348556708
 20
480.7648857237
 30
0.0
 11
-928.6566518223
 21
456.791113276
 31
0.0
  0
LINE
  5
6D2
330
1F
100
AcDbEntity
  8
0
  6
Continuous
 62
     7
370
    15
100
AcDbLine
 10
-1074.0842170059
 20
487.8982529837
 30
0.0
 11
-1075.3010992227
 21
463.9291188807
 31
0.0
  0
LINE
  5
6D3
330
1F
100
AcDbEntity
  8
0
  6
Continuous
 62
     7
370
    15
100
AcDbLine
 10
-1080.0763239004
 20
488.2059329544
 30
0.0
 11
-1079.0516836281
 21
488.1533201932
 31
0.0
  0
LINE
  5
6D4
330
1F
100
AcDbEntity
  8
0
  6
Continuous
 62
     7
370
    15
100
AcDbLine
 10
-1075.0569463642
 20
487.948200247
 30
0.0
 11
-1074.0842170059
 21
487.8982529837
 31
0.0
  0
LINE
  5
6D5
330
1F
100
AcDbEntity
  8
0
  6
Continuous
 62
     7
370
    15
100
AcDbLine
 10
-1081.2932061172
 20
464.2367988513
 30
0.0
 11
-1080.0763239004
 21
488.2059329544
 31
0.0
  0
LINE
  5
6D6
330
1F
100
AcDbEntity
  8
0
  6
Continuous
 62
     7
370
    15
100
AcDbLine
 10
-1075.3010992227
 20
463.9291188807
 30
0.0
 11
-1076.2876660418
 21
463.9797766635
 31
0.0
  0
LINE
  5
6D7
330
1F
100
AcDbEntity
  8
0
  6
Continuous
 62
     7
370
    15
100
AcDbLine
 10
-1080.2824033057
 20
464.1848966098
 30
0.0
 11
-1081.2932061172
 21
464.2367988513
 31
0.0
  0
LINE
  5
6D8
330
1F
100
AcDbEntity
  8
0
  6
Continuous
 62
     7
370
    15
100
AcDbLine
 10
-924.1943945696
 20
435.5389787735
 30
0.0
 11
-924.644680181
 21
435.5591588194
 31
0.0
  0
LINE
  5
6D9
330
1F
100
AcDbEntity
  8
0
  6
Continuous
 62
     7
370
    15
100
AcDbLine
 10
-924.5051167076
 20
438.5417532483
 30
0.0
 11
-924.644680181
 21
435.5591588194
 31
0.0
  0
LINE
  5
6DA
330
1F
100
AcDbEntity
  8
0
  6
Continuous
 62
     7
370
    15
100
AcDbLine
 10
-940.4876290093
 20
439.2896172248
 30
0.0
 11
-934.4959081296
 21
439.0092487747
 31
0.0
  0
LINE
  5
6DB
330
1F
100
AcDbEntity
  8
0
  6
Continuous
 62
     7
370
    15
100
AcDbLine
 10
-930.5002793883
 20
438.8222827494
 30
0.0
 11
-924.5051167076
 21
438.5417532483
 31
0.0
  0
LINE
  5
6DC
330
1F
100
AcDbEntity
  8
0
  6
Continuous
 62
     7
370
    15
100
AcDbLine
 10
-940.6283696458
 20
436.2818657814
 30
0.0
 11
-940.4876290093
 21
439.2896172248
 31
0.0
  0
LINE
  5
6DD
330
1F
100
AcDbEntity
  8
0
  6
Continuous
 62
     7
370
    15
100
AcDbLine
 10
-940.6283696458
 20
436.2818657814
 30
0.0
 11
-941.0786911794
 21
436.3024069593
 31
0.0
  0
LINE
  5
6DE
330
1F
100
AcDbEntity
  8
0
  6
Continuous
 62
     7
370
    15
100
AcDbLine
 10
-1070.9242968256
 20
442.6363389421
 30
0.0
 11
-1071.3744795885
 21
442.659724803
 31
0.0
  0
LINE
  5
6DF
330
1F
100
AcDbEntity
  8
0
  6
Continuous
 62
     7
370
    15
100
AcDbLine
 10
-1071.2218094465
 20
445.6668943193
 30
0.0
 11
-1071.3744795885
 21
442.659724803
 31
0.0
  0
LINE
  5
6E0
330
1F
100
AcDbEntity
  8
0
  6
Continuous
 62
     7
370
    15
100
AcDbLine
 10
-1087.2012295189
 20
446.4781489952
 30
0.0
 11
-1081.2072267628
 21
446.1738411579
 31
0.0
  0
LINE
  5
6E1
330
1F
100
AcDbEntity
  8
0
  6
Continuous
 62
     7
370
    15
100
AcDbLine
 10
-1077.2123710789
 20
445.9710274551
 30
0.0
 11
-1071.2218094465
 21
445.6668943193
 31
0.0
  0
LINE
  5
6E2
330
1F
100
AcDbEntity
  8
0
  6
Continuous
 62
     7
370
    15
100
AcDbLine
 10
-1087.3526227186
 20
443.4961316261
 30
0.0
 11
-1087.2012295189
 21
446.4781489952
 31
0.0
  0
LINE
  5
6E3
330
1F
100
AcDbEntity
  8
0
  6
Continuous
 62
     7
370
    15
100
AcDbLine
 10
-1087.3526227186
 20
443.4961316261
 30
0.0
 11
-1087.8027345925
 21
443.5198734088
 31
0.0
  0
LINE
  5
6E4
330
1F
100
AcDbEntity
  8
0
  6
Continuous
 62
     7
370
    15
100
AcDbLine
 10
-1233.034744114
 20
454.6865934544
 30
0.0
 11
-1217.442008298
 21
453.7841788085
 31
0.0
  0
LINE
  5
6E5
330
1F
100
AcDbEntity
  8
0
  6
Continuous
 62
     7
370
    15
100
AcDbLine
 10
-1378.360293307
 20
463.9210261027
 30
0.0
 11
-1372.5632307151
 21
463.5261489651
 31
0.0
  0
LINE
  5
6E6
330
1F
100
AcDbEntity
  8
0
  6
Continuous
 62
     7
370
    15
100
AcDbLine
 10
-1368.5724747215
 20
463.2543115857
 30
0.0
 11
-1362.7775753668
 21
462.8595818009
 31
0.0
  0
LINE
  5
6E7
330
1F
100
AcDbEntity
  8
0
  6
Continuous
 62
     7
370
    15
100
AcDbLine
 10
-1359.5678407071
 20
513.8128004862
 30
0.0
 11
-1365.1719438989
 21
514.1869598181
 31
0.0
  0
LINE
  5
6E8
330
1F
100
AcDbEntity
  8
0
  6
Continuous
 62
     7
370
    15
100
AcDbLine
 10
-1369.1630583975
 20
514.4534275621
 30
0.0
 11
-1374.6323863227
 21
514.8185885901
 31
0.0
  0
LINE
  5
6E9
330
1F
100
AcDbEntity
  8
0
  6
Continuous
 62
     7
370
    15
100
AcDbLine
 10
-1228.9859148169
 20
505.5587291844
 30
0.0
 11
-1229.8268527747
 21
505.6105501851
 31
0.0
  0
LINE
  5
6EA
330
1F
100
AcDbEntity
  8
0
  6
Continuous
 62
     7
370
    15
100
AcDbLine
 10
-1068.2913056535
 20
496.6126579708
 30
0.0
 11
-1074.5954264851
 21
496.9363590908
 31
0.0
  0
LINE
  5
6EB
330
1F
100
AcDbEntity
  8
0
  6
Continuous
 62
     7
370
    15
100
AcDbLine
 10
-1078.590163749
 20
497.141479037
 30
0.0
 11
-1084.9565545202
 21
497.4683775654
 31
0.0
  0
LINE
  5
6EC
330
1F
100
AcDbEntity
  8
0
  6
Continuous
 62
     7
370
    15
100
AcDbLine
 10
-921.776287329
 20
489.5083645317
 30
0.0
 11
-928.1442687426
 21
489.8026548903
 31
0.0
  0
LINE
  5
6ED
330
1F
100
AcDbEntity
  8
0
  6
Continuous
 62
     7
370
    15
100
AcDbLine
 10
-932.1400040914
 20
489.9873140959
 30
0.0
 11
-938.4457000073
 21
490.278725988
 31
0.0
  0
LINE
  5
6EE
330
1F
100
AcDbEntity
  8
0
  6
Continuous
 62
     7
370
    15
100
AcDbLine
 10
-776.8013279923
 20
483.511744098
 30
0.0
 11
-777.6433170662
 21
483.542017099
 31
0.0
  0
LINE
  5
6EF
330
1F
100
AcDbEntity
  8
0
  6
Continuous
 62
     7
370
    15
100
AcDbLine
 10
-631.7870858211
 20
478.5822324679
 30
0.0
 11
-637.2659875059
 21
478.7511314209
 31
0.0
  0
LINE
  5
6F0
330
1F
100
AcDbEntity
  8
0
  6
Continuous
 62
     7
370
    15
100
AcDbLine
 10
-641.2640882325
 20
478.8743814928
 30
0.0
 11
-646.878001101
 21
479.0474424564
 31
0.0
  0
LINE
  5
6F1
330
1F
100
AcDbEntity
  8
0
  6
Continuous
 62
     7
370
    15
100
AcDbLine
 10
-648.6427505609
 20
428.0237366882
 30
0.0
 11
-642.8369452774
 21
427.8525784419
 31
0.0
  0
LINE
  5
6F2
330
1F
100
AcDbEntity
  8
0
  6
Continuous
 62
     7
370
    15
100
AcDbLine
 10
-638.8386787305
 20
427.7347074047
 30
0.0
 11
-633.0307061387
 21
427.563485265
 31
0.0
  0
LINE
  5
6F3
330
1F
100
AcDbEntity
  8
0
  6
Continuous
 62
     7
370
    15
100
AcDbLine
 10
-794.1716004511
 20
433.1368418402
 30
0.0
 11
-778.5650639732
 21
432.5173407646
 31
0.0
  0
LINE
  5
6F4
330
1F
100
AcDbEntity
  8
0
  6
Continuous
 62
     7
370
    15
100
AcDbLine
 10
-1507.0403270166
 20
555.1455980939
 30
0.0
 11
-1626.7197411725
 21
563.9113169635
 31
0.0
  0
LINE
  5
6F5
330
1F
100
AcDbEntity
  8
0
  6
Continuous
 62
     7
370
    15
100
AcDbLine
 10
-1632.0716217152
 20
559.2899129932
 30
0.0
 11
-1667.8539476922
 21
70.7495121703
 31
0.0
  0
LINE
  5
6F6
330
1F
100
AcDbEntity
  8
0
  6
Continuous
 62
     7
370
    15
100
AcDbLine
 10
-1663.232543722
 20
65.3976316276
 30
0.0
 11
-1543.5531295661
 21
56.6319127579
 31
0.0
  0
LINE
  5
6F7
330
1F
100
AcDbEntity
  8
0
  6
Continuous
 62
     7
370
    15
100
AcDbLine
 10
1373.7714556033
 20
526.5729792617
 30
0.0
 11
1358.8264033866
 21
525.5828132529
 31
0.0
  0
LINE
  5
6F8
330
1F
100
AcDbEntity
  8
0
  6
Continuous
 62
     7
370
    15
100
AcDbLine
 10
1084.3319559057
 20
509.3074601567
 30
0.0
 11
1067.7144389684
 21
508.4384250148
 31
0.0
  0
LINE
  5
6F9
330
1F
100
AcDbEntity
  8
0
  6
Continuous
 62
     7
370
    15
100
AcDbLine
 10
937.8688333222
 20
502.1044930321
 30
0.0
 11
921.2456299589
 21
501.3520296227
 31
0.0
  0
LINE
  5
6FA
330
1F
100
AcDbEntity
  8
0
  6
Continuous
 62
     7
370
    15
100
AcDbLine
 10
646.4703502358
 20
490.8337374894
 30
0.0
 11
631.4998815161
 21
490.3646097941
 31
0.0
  0
LINE
  5
6FB
330
1F
100
AcDbEntity
  8
0
  6
Continuous
 62
     7
370
    15
100
AcDbLine
 10
631.7113971142
 20
481.6873144187
 30
0.0
 11
646.7703788206
 21
482.1590952336
 31
0.0
  0
LINE
  5
6FC
330
1F
100
AcDbEntity
  8
0
  6
Continuous
 62
     7
370
    15
100
AcDbLine
 10
921.634193324
 20
492.6797400775
 30
0.0
 11
938.2917965491
 21
493.4337468803
 31
0.0
  0
LINE
  5
6FD
330
1F
100
AcDbEntity
  8
0
  6
Continuous
 62
     7
370
    15
100
AcDbLine
 10
1068.1374021953
 20
499.767678863
 30
0.0
 11
1084.7893058892
 21
500.6385260562
 31
0.0
  0
LINE
  5
6FE
330
1F
100
AcDbEntity
  8
0
  6
Continuous
 62
     7
370
    15
100
AcDbLine
 10
1359.372096795
 20
516.9201546469
 30
0.0
 11
1374.4054999852
 21
517.9162950465
 31
0.0
  0
LINE
  5
6FF
330
1F
100
AcDbEntity
  8
0
  6
Continuous
 62
     7
370
    15
100
AcDbLine
 10
1373.5556351035
 20
529.5196025065
 30
0.0
 11
1358.6406588196
 21
528.5314319224
 31
0.0
  0
LINE
  5
700
330
1F
100
AcDbEntity
  8
0
  6
Continuous
 62
     7
370
    15
100
AcDbLine
 10
1084.1763040393
 20
512.2577953943
 30
0.0
 11
1067.5704905079
 21
511.3893684557
 31
0.0
  0
LINE
  5
701
330
1F
100
AcDbEntity
  8
0
  6
Continuous
 62
     7
370
    15
100
AcDbLine
 10
937.7248848617
 20
505.0554364729
 30
0.0
 11
921.1133885351
 21
504.3035068331
 31
0.0
  0
LINE
  5
702
330
1F
100
AcDbEntity
  8
0
  6
Continuous
 62
     7
370
    15
100
AcDbLine
 10
646.3682257118
 20
493.7864351855
 30
0.0
 11
631.4278843446
 21
493.3182488109
 31
0.0
  0
LINE
  5
703
330
1F
100
AcDbEntity
  8
0
  6
Continuous
 62
     7
370
    15
100
AcDbLine
 10
1369.9925478441
 20
578.1668614633
 30
0.0
 11
1355.5740697291
 21
577.2122735221
 31
0.0
  0
LINE
  5
704
330
1F
100
AcDbEntity
  8
0
  6
Continuous
 62
     7
370
    15
100
AcDbLine
 10
1081.6061499421
 20
560.9743085699
 30
0.0
 11
1065.193578136
 21
560.1160720798
 31
0.0
  0
LINE
  5
705
330
1F
100
AcDbEntity
  8
0
  6
Continuous
 62
     7
370
    15
100
AcDbLine
 10
935.3479724897
 20
553.7821400971
 30
0.0
 11
918.9297922504
 21
553.0388764874
 31
0.0
  0
LINE
  5
706
330
1F
100
AcDbEntity
  8
0
  6
Continuous
 62
     7
370
    15
100
AcDbLine
 10
644.6821793512
 20
542.534620333
 30
0.0
 11
630.2392474692
 21
542.0813346158
 31
0.0
  0
LINE
  5
707
330
1F
100
AcDbEntity
  8
0
  6
Continuous
 62
     7
370
    15
100
AcDbLine
 10
630.4507633783
 20
533.4040264862
 30
0.0
 11
644.9822080851
 21
533.8599737671
 31
0.0
  0
LINE
  5
708
330
1F
100
AcDbEntity
  8
0
  6
Continuous
 62
     7
370
    15
100
AcDbLine
 10
919.3183556306
 20
544.3665866045
 30
0.0
 11
935.7709357167
 21
545.1113939453
 31
0.0
  0
LINE
  5
709
330
1F
100
AcDbEntity
  8
0
  6
Continuous
 62
     7
370
    15
100
AcDbLine
 10
1065.6165413629
 20
551.445325928
 30
0.0
 11
1082.0634999434
 21
552.3053741319
 31
0.0
  0
LINE
  5
70A
330
1F
100
AcDbEntity
  8
0
  6
Continuous
 62
     7
370
    15
100
AcDbLine
 10
1356.1197634086
 20
568.5496106121
 30
0.0
 11
1370.626593158
 21
569.5101645242
 31
0.0
  0
LINE
  5
70B
330
1F
100
AcDbEntity
  8
0
  6
Continuous
 62
     7
370
    15
100
AcDbLine
 10
1369.7767272652
 20
581.113485788
 30
0.0
 11
1355.3883251843
 21
580.1608918401
 31
0.0
  0
LINE
  5
70C
330
1F
100
AcDbEntity
  8
0
  6
Continuous
 62
     7
370
    15
100
AcDbLine
 10
1081.4504980758
 20
563.9246438059
 30
0.0
 11
1065.0496296755
 21
563.0670155206
 31
0.0
  0
LINE
  5
70D
330
1F
100
AcDbEntity
  8
0
  6
Continuous
 62
     7
370
    15
100
AcDbLine
 10
935.2040240292
 20
556.7330835379
 30
0.0
 11
918.7975508266
 21
555.9903536962
 31
0.0
  0
LINE
  5
70E
330
1F
100
AcDbEntity
  8
0
  6
Continuous
 62
     7
370
    15
100
AcDbLine
 10
644.5800548393
 20
545.487317677
 30
0.0
 11
630.1672502713
 21
545.0349747151
 31
0.0
  0
LINE
  5
70F
330
1F
100
AcDbEntity
  8
0
  6
Continuous
 62
     7
370
    15
100
AcDbLine
 10
-631.4998815161
 20
490.3646097943
 30
0.0
 11
-646.4703502359
 21
490.8337374896
 31
0.0
  0
LINE
  5
710
330
1F
100
AcDbEntity
  8
0
  6
Continuous
 62
     7
370
    15
100
AcDbLine
 10
-921.2456299589
 20
501.352029623
 30
0.0
 11
-937.8688333222
 21
502.1044930324
 31
0.0
  0
LINE
  5
711
330
1F
100
AcDbEntity
  8
0
  6
Continuous
 62
     7
370
    15
100
AcDbLine
 10
-1067.7144389684
 20
508.4384250152
 30
0.0
 11
-1084.3319559057
 21
509.307460157
 31
0.0
  0
LINE
  5
712
330
1F
100
AcDbEntity
  8
0
  6
Continuous
 62
     7
370
    15
100
AcDbLine
 10
-1358.8264033868
 20
525.5828132533
 30
0.0
 11
-1373.7714556034
 21
526.5729792621
 31
0.0
  0
LINE
  5
713
330
1F
100
AcDbEntity
  8
0
  6
Continuous
 62
     7
370
    15
100
AcDbLine
 10
-1374.4054999853
 20
517.9162950469
 30
0.0
 11
-1359.3720967951
 21
516.9201546474
 31
0.0
  0
LINE
  5
714
330
1F
100
AcDbEntity
  8
0
  6
Continuous
 62
     7
370
    15
100
AcDbLine
 10
-1084.7893058892
 20
500.6385260566
 30
0.0
 11
-1068.1374021953
 21
499.7676788633
 31
0.0
  0
LINE
  5
715
330
1F
100
AcDbEntity
  8
0
  6
Continuous
 62
     7
370
    15
100
AcDbLine
 10
-938.2917965491
 20
493.4337468805
 30
0.0
 11
-921.634193324
 21
492.6797400777
 31
0.0
  0
LINE
  5
716
330
1F
100
AcDbEntity
  8
0
  6
Continuous
 62
     7
370
    15
100
AcDbLine
 10
-646.7703788208
 20
482.1590952338
 30
0.0
 11
-631.7113971142
 21
481.6873144189
 31
0.0
  0
LINE
  5
717
330
1F
100
AcDbEntity
  8
0
  6
Continuous
 62
     7
370
    15
100
AcDbLine
 10
-631.4278843446
 20
493.3182488111
 30
0.0
 11
-646.3682257119
 21
493.7864351857
 31
0.0
  0
LINE
  5
718
330
1F
100
AcDbEntity
  8
0
  6
Continuous
 62
     7
370
    15
100
AcDbLine
 10
-921.1133885352
 20
504.3035068334
 30
0.0
 11
-937.7248848616
 21
505.0554364732
 31
0.0
  0
LINE
  5
719
330
1F
100
AcDbEntity
  8
0
  6
Continuous
 62
     7
370
    15
100
AcDbLine
 10
-1067.5704905079
 20
511.389368456
 30
0.0
 11
-1084.1763040393
 21
512.2577953946
 31
0.0
  0
LINE
  5
71A
330
1F
100
AcDbEntity
  8
0
  6
Continuous
 62
     7
370
    15
100
AcDbLine
 10
-1358.6406588198
 20
528.5314319228
 30
0.0
 11
-1373.5556351036
 21
529.5196025069
 31
0.0
  0
LINE
  5
71B
330
1F
100
AcDbEntity
  8
0
  6
Continuous
 62
     7
370
    15
100
AcDbLine
 10
-630.1672502714
 20
545.0349747153
 30
0.0
 11
-644.5800548395
 21
545.4873176772
 31
0.0
  0
LINE
  5
71C
330
1F
100
AcDbEntity
  8
0
  6
Continuous
 62
     7
370
    15
100
AcDbLine
 10
-918.7975508267
 20
555.9903536965
 30
0.0
 11
-935.2040240292
 21
556.7330835382
 31
0.0
  0
LINE
  5
71D
330
1F
100
AcDbEntity
  8
0
  6
Continuous
 62
     7
370
    15
100
AcDbLine
 10
-1065.0496296754
 20
563.067015521
 30
0.0
 11
-1081.4504980759
 21
563.9246438062
 31
0.0
  0
LINE
  5
71E
330
1F
100
AcDbEntity
  8
0
  6
Continuous
 62
     7
370
    15
100
AcDbLine
 10
-1355.3883251844
 20
580.1608918405
 30
0.0
 11
-1369.7767272653
 21
581.1134857884
 31
0.0
  0
LINE
  5
71F
330
1F
100
AcDbEntity
  8
0
  6
Continuous
 62
     7
370
    15
100
AcDbLine
 10
-630.2392474693
 20
542.081334616
 30
0.0
 11
-644.6821793513
 21
542.5346203332
 31
0.0
  0
LINE
  5
720
330
1F
100
AcDbEntity
  8
0
  6
Continuous
 62
     7
370
    15
100
AcDbLine
 10
-918.9297922504
 20
553.0388764877
 30
0.0
 11
-935.3479724897
 21
553.7821400974
 31
0.0
  0
LINE
  5
721
330
1F
100
AcDbEntity
  8
0
  6
Continuous
 62
     7
370
    15
100
AcDbLine
 10
-1065.193578136
 20
560.1160720801
 30
0.0
 11
-1081.6061499422
 21
560.9743085702
 31
0.0
  0
LINE
  5
722
330
1F
100
AcDbEntity
  8
0
  6
Continuous
 62
     7
370
    15
100
AcDbLine
 10
-1355.5740697293
 20
577.2122735225
 30
0.0
 11
-1369.9925478442
 21
578.1668614637
 31
0.0
  0
LINE
  5
723
330
1F
100
AcDbEntity
  8
0
  6
Continuous
 62
     7
370
    15
100
AcDbLine
 10
-1370.626593158
 20
569.5101645246
 30
0.0
 11
-1356.1197634088
 21
568.5496106126
 31
0.0
  0
LINE
  5
724
330
1F
100
AcDbEntity
  8
0
  6
Continuous
 62
     7
370
    15
100
AcDbLine
 10
-1082.0634999435
 20
552.3053741322
 30
0.0
 11
-1065.6165413629
 21
551.4453259283
 31
0.0
  0
LINE
  5
725
330
1F
100
AcDbEntity
  8
0
  6
Continuous
 62
     7
370
    15
100
AcDbLine
 10
-935.7709357167
 20
545.1113939455
 30
0.0
 11
-919.3183556306
 21
544.3665866047
 31
0.0
  0
LINE
  5
726
330
1F
100
AcDbEntity
  8
0
  6
Continuous
 62
     7
370
    15
100
AcDbLine
 10
-644.9822080853
 20
533.8599737673
 30
0.0
 11
-630.4507633783
 21
533.4040264864
 31
0.0
  0
LINE
  5
727
330
1F
100
AcDbEntity
  8
0
  6
Continuous
 62
     7
370
    15
100
AcDbLine
 10
-383.1786407862
 20
8.0824240281
 30
0.0
 11
-371.2417475687
 21
497.786016693
 31
0.0
  0
LINE
  5
728
330
1F
100
AcDbEntity
  8
0
  6
Continuous
 62
     7
370
    15
100
AcDbLine
 10
-508.2633638136
 20
6.1299729647
 30
0.0
 11
-388.2989985708
 21
3.2057513759
 31
0.0
  0
LINE
  5
729
330
1F
100
AcDbEntity
  8
0
  6
Continuous
 62
     7
370
    15
100
AcDbLine
 10
-376.1184202209
 20
502.9063744776
 30
0.0
 11
-496.0827854637
 21
505.8305960665
 31
0.0
  0
LINE
  5
72A
330
1F
100
AcDbEntity
  8
0
  6
Continuous
 62
     7
370
    15
100
AcDbLine
 10
-2375.3851307397
 20
637.1260598909
 30
0.0
 11
-2494.4953195656
 21
651.712454849
 31
0.0
  0
LINE
  5
72B
330
1F
100
AcDbEntity
  8
0
  6
Continuous
 62
     7
370
    15
100
AcDbLine
 10
-2430.57273772
 20
145.3385888338
 30
0.0
 11
-2371.0299726619
 21
631.5553688999
 31
0.0
  0
LINE
  5
72C
330
1F
100
AcDbEntity
  8
0
  6
Continuous
 62
     7
370
    15
100
AcDbLine
 10
-2500.0660105566
 20
647.3572967711
 30
0.0
 11
-2559.6087756147
 21
161.1405167051
 31
0.0
  0
LINE
  5
72D
330
1F
100
AcDbEntity
  8
0
  6
Continuous
 62
     7
370
    15
100
AcDbLine
 10
-2555.2536175368
 20
155.5698257141
 30
0.0
 11
-2436.143428711
 21
140.983430756
 31
0.0
  0
LINE
  5
72E
330
1F
100
AcDbEntity
  8
0
  6
Continuous
 62
     7
370
    15
100
AcDbLine
 10
-233.3539568276
 20
6.3090257511
 30
0.0
 11
-226.4136260399
 21
496.1089133553
 31
0.0
  0
LINE
  5
72F
330
1F
100
AcDbEntity
  8
0
  6
Continuous
 62
     7
370
    15
100
AcDbLine
 10
-358.4122514184
 20
3.0805657412
 30
0.0
 11
-238.4242964747
 21
1.3803691529
 31
0.0
  0
LINE
  5
730
330
1F
100
AcDbEntity
  8
0
  6
Continuous
 62
     7
370
    15
100
AcDbLine
 10
-231.3422826381
 20
501.1792530025
 30
0.0
 11
-351.3302375817
 21
502.8794495908
 31
0.0
  0
LINE
  5
731
330
1F
100
AcDbEntity
  8
0
  6
Continuous
 62
     7
370
    15
100
AcDbLine
 10
-356.4005772289
 20
497.9507929926
 30
0.0
 11
-363.3409080165
 21
8.1509053884
 31
0.0
  0
LINE
  5
732
330
1F
100
AcDbEntity
  8
0
  6
Continuous
 62
     7
370
    15
100
AcDbLine
 10
-2281.6319913217
 20
128.9912671247
 30
0.0
 11
-2227.0526938154
 21
615.7901972512
 31
0.0
  0
LINE
  5
733
330
1F
100
AcDbEntity
  8
0
  6
Continuous
 62
     7
370
    15
100
AcDbLine
 10
-2231.4644572652
 20
621.3161671446
 30
0.0
 11
-2350.717257384
 21
634.6866444677
 31
0.0
  0
LINE
  5
734
330
1F
100
AcDbEntity
  8
0
  6
Continuous
 62
     7
370
    15
100
AcDbLine
 10
-2356.2432272774
 20
630.2748810178
 30
0.0
 11
-2410.8225247837
 21
143.4759508914
 31
0.0
  0
LINE
  5
735
330
1F
100
AcDbEntity
  8
0
  6
Continuous
 62
     7
370
    15
100
AcDbLine
 10
-2406.4107613338
 20
137.949980998
 30
0.0
 11
-2287.1579612151
 21
124.5795036749
 31
0.0
  0
LINE
  5
736
330
1F
100
AcDbEntity
  8
0
  6
Continuous
 62
     7
370
    15
100
AcDbLine
 10
-208.5460013248
 20
0.6587004423
 30
0.0
 11
-88.5469453739
 21
0.1827058159
 31
0.0
  0
LINE
  5
737
330
1F
100
AcDbEntity
  8
0
  6
Continuous
 62
     7
370
    15
100
AcDbLine
 10
-83.5271515998
 20
5.1628333711
 30
0.0
 11
-81.5841056114
 21
495.0080361248
 31
0.0
  0
LINE
  5
738
330
1F
100
AcDbEntity
  8
0
  6
Continuous
 62
     7
370
    15
100
AcDbLine
 10
-86.5642331666
 20
500.0278298989
 30
0.0
 11
-206.5632891175
 21
500.5038245253
 31
0.0
  0
LINE
  5
739
330
1F
100
AcDbEntity
  8
0
  6
Continuous
 62
     7
370
    15
100
AcDbLine
 10
-211.5830828916
 20
495.5236969701
 30
0.0
 11
-213.52612888
 21
5.6784942164
 31
0.0
  0
LINE
  5
73A
330
1F
100
AcDbEntity
  8
0
  6
Continuous
 62
     7
370
    15
100
AcDbLine
 10
630.1357626359
 20
546.3267353019
 30
0.0
 11
631.1799314092
 21
546.3589240548
 31
0.0
  0
LINE
  5
73B
330
1F
100
AcDbEntity
  8
0
  6
Continuous
 62
     7
370
    15
100
AcDbLine
 10
631.0585537829
 20
550.2962846477
 30
0.0
 11
630.0397674382
 21
550.2648783628
 31
0.0
  0
LINE
  5
73C
330
1F
100
AcDbEntity
  8
0
  6
Continuous
 62
     7
370
    15
100
AcDbLine
 10
633.8064065746
 20
590.9762427216
 30
0.0
 11
634.9352768831
 21
554.3568953124
 31
0.0
  0
LINE
  5
73D
330
1F
100
AcDbEntity
  8
0
  6
Continuous
 62
     7
370
    15
100
AcDbLine
 10
639.2158266608
 20
545.3177997612
 30
0.0
 11
637.8045073011
 21
591.0994927934
 31
0.0
  0
LINE
  5
73E
330
1F
100
AcDbEntity
  8
0
  6
Continuous
 62
     7
370
    15
100
AcDbLine
 10
640.8098001655
 20
493.6110013031
 30
0.0
 11
639.5743060701
 21
533.6891105045
 31
0.0
  0
LINE
  5
73F
330
1F
100
AcDbEntity
  8
0
  6
Continuous
 62
     7
370
    15
100
AcDbLine
 10
640.8000432249
 20
493.6106946579
 30
0.0
 11
640.7978117013
 21
493.9998942805
 31
0.0
  0
LINE
  5
740
330
1F
100
AcDbEntity
  8
0
  6
Continuous
 62
     7
370
    15
100
AcDbLine
 10
638.8836446995
 20
426.2760593844
 30
0.0
 11
642.881745426
 21
426.3993094563
 31
0.0
  0
LINE
  5
741
330
1F
100
AcDbEntity
  8
0
  6
Continuous
 62
     7
370
    15
100
AcDbLine
 10
642.881745426
 20
426.3993094563
 30
0.0
 11
641.1682793618
 21
481.9823189558
 31
0.0
  0
LINE
  5
742
330
1F
100
AcDbEntity
  8
0
  6
Continuous
 62
     7
370
    15
100
AcDbLine
 10
637.1702399887
 20
481.8570786423
 30
0.0
 11
638.8836446995
 21
426.2760593844
 31
0.0
  0
LINE
  5
743
330
1F
100
AcDbEntity
  8
0
  6
Continuous
 62
     7
370
    15
100
AcDbLine
 10
918.7431851137
 20
557.2037341806
 30
0.0
 11
921.0202578965
 21
557.3089669886
 31
0.0
  0
LINE
  5
744
330
1F
100
AcDbEntity
  8
0
  6
Continuous
 62
     7
370
    15
100
AcDbLine
 10
920.8384040792
 20
561.2439981391
 30
0.0
 11
918.5668639372
 21
561.1390210169
 31
0.0
  0
LINE
  5
745
330
1F
100
AcDbEntity
  8
0
  6
Continuous
 62
     7
370
    15
100
AcDbLine
 10
922.9609576368
 20
601.9613709701
 30
0.0
 11
924.6522856107
 21
565.3636884952
 31
0.0
  0
LINE
  5
746
330
1F
100
AcDbEntity
  8
0
  6
Continuous
 62
     7
370
    15
100
AcDbLine
 10
929.068316828
 20
556.4538048443
 30
0.0
 11
926.9566929856
 21
602.1460301756
 31
0.0
  0
LINE
  5
747
330
1F
100
AcDbEntity
  8
0
  6
Continuous
 62
     7
370
    15
100
AcDbLine
 10
931.4568288671
 20
504.770153569
 30
0.0
 11
929.605464981
 21
544.8307619771
 31
0.0
  0
LINE
  5
748
330
1F
100
AcDbEntity
  8
0
  6
Continuous
 62
     7
370
    15
100
AcDbLine
 10
931.4496407767
 20
504.7698274941
 30
0.0
 11
931.4414060904
 21
505.1038782468
 31
0.0
  0
LINE
  5
749
330
1F
100
AcDbEntity
  8
0
  6
Continuous
 62
     7
370
    15
100
AcDbLine
 10
930.5679208158
 20
437.3586284368
 30
0.0
 11
934.5636561646
 21
437.5432876424
 31
0.0
  0
LINE
  5
74A
330
1F
100
AcDbEntity
  8
0
  6
Continuous
 62
     7
370
    15
100
AcDbLine
 10
927.998067072
 20
492.9662295489
 30
0.0
 11
930.5679208158
 21
437.3586284368
 31
0.0
  0
LINE
  5
74B
330
1F
100
AcDbEntity
  8
0
  6
Continuous
 62
     7
370
    15
100
AcDbLine
 10
934.5636561646
 20
437.5432876424
 30
0.0
 11
931.9939770143
 21
493.1471108248
 31
0.0
  0
LINE
  5
74C
330
1F
100
AcDbEntity
  8
0
  6
Continuous
 62
     7
370
    15
100
AcDbLine
 10
1413.9004308972
 20
47.1357173154
 30
0.0
 11
1533.5798450531
 21
55.901436185
 31
0.0
  0
LINE
  5
74D
330
1F
100
AcDbEntity
  8
0
  6
Continuous
 62
     7
370
    15
100
AcDbLine
 10
1264.2926646059
 20
38.0102247824
 30
0.0
 11
1384.0552780702
 21
45.5545217139
 31
0.0
  0
LINE
  5
74E
330
1F
100
AcDbEntity
  8
0
  6
Continuous
 62
     7
370
    15
100
AcDbLine
 10
1114.6516683887
 20
29.5115765594
 30
0.0
 11
1234.4850159221
 21
35.8336663205
 31
0.0
  0
LINE
  5
74F
330
1F
100
AcDbEntity
  8
0
  6
Continuous
 62
     7
370
    15
100
AcDbLine
 10
966.2843790751
 20
22.2076838567
 30
0.0
 11
1086.1418612101
 21
28.0543903023
 31
0.0
  0
LINE
  5
750
330
1F
100
AcDbEntity
  8
0
  6
Continuous
 62
     7
370
    15
100
AcDbLine
 10
817.8883721202
 20
15.511878818
 30
0.0
 11
937.7681030011
 21
20.8831099552
 31
0.0
  0
LINE
  5
751
330
1F
100
AcDbEntity
  8
0
  6
Continuous
 62
     7
370
    15
100
AcDbLine
 10
668.0821110479
 20
10.6290013712
 30
0.0
 11
788.0104003514
 21
14.7769435992
 31
0.0
  0
LINE
  5
752
330
1F
100
AcDbEntity
  8
0
  6
Continuous
 62
     7
370
    15
100
AcDbLine
 10
518.2603942505
 20
6.373658097
 30
0.0
 11
638.2247594933
 21
9.2978796859
 31
0.0
  0
LINE
  5
753
330
1F
100
AcDbEntity
  8
0
  6
Continuous
 62
     7
370
    15
100
AcDbLine
 10
643.1014321455
 20
14.4182374705
 30
0.0
 11
629.9427660747
 21
554.2442987473
 31
0.0
  0
LINE
  5
754
330
1F
100
AcDbEntity
  8
0
  6
Continuous
 62
     7
370
    15
100
AcDbLine
 10
499.9813703951
 20
551.0763920259
 30
0.0
 11
513.1400364659
 21
11.2503307492
 31
0.0
  0
LINE
  5
755
330
1F
100
AcDbEntity
  8
0
  6
Continuous
 62
     7
370
    15
100
AcDbLine
 10
792.8345814796
 20
19.9467865797
 30
0.0
 11
774.1693110818
 21
559.6105102145
 31
0.0
  0
LINE
  5
756
330
1F
100
AcDbEntity
  8
0
  6
Continuous
 62
     7
370
    15
100
AcDbLine
 10
644.2469976697
 20
555.1169061341
 30
0.0
 11
662.9122680674
 21
15.4531824994
 31
0.0
  0
LINE
  5
757
330
1F
100
AcDbEntity
  8
0
  6
Continuous
 62
     7
370
    15
100
AcDbLine
 10
-1369.6823391515
 20
582.4021780591
 30
0.0
 11
-1368.6399949448
 21
582.3325856911
 31
0.0
  0
LINE
  5
758
330
1F
100
AcDbEntity
  8
0
  6
Continuous
 62
     7
370
    15
100
AcDbLine
 10
-1368.3775754447
 20
586.2630661925
 30
0.0
 11
-1369.3945815756
 21
586.3309668577
 31
0.0
  0
LINE
  5
759
330
1F
100
AcDbEntity
  8
0
  6
Continuous
 62
     7
370
    15
100
AcDbLine
 10
-1361.6834138685
 20
626.4824381997
 30
0.0
 11
-1364.1240414458
 21
589.92707895
 31
0.0
  0
LINE
  5
75A
330
1F
100
AcDbEntity
  8
0
  6
Continuous
 62
     7
370
    15
100
AcDbLine
 10
-1360.7435842904
 20
580.5142757435
 30
0.0
 11
-1357.6922993698
 21
626.2159704557
 31
0.0
  0
LINE
  5
75B
330
1F
100
AcDbEntity
  8
0
  6
Continuous
 62
     7
370
    15
100
AcDbLine
 10
-1364.1897690856
 20
528.8978290556
 30
0.0
 11
-1361.5186199394
 21
568.9059063034
 31
0.0
  0
LINE
  5
75C
330
1F
100
AcDbEntity
  8
0
  6
Continuous
 62
     7
370
    15
100
AcDbLine
 10
-1364.1995095479
 20
528.8984735033
 30
0.0
 11
-1364.1638499201
 21
529.2860424866
 31
0.0
  0
LINE
  5
75D
330
1F
100
AcDbEntity
  8
0
  6
Continuous
 62
     7
370
    15
100
AcDbLine
 10
-1372.6604475373
 20
462.0700497671
 30
0.0
 11
-1368.6693330386
 21
461.8035820231
 31
0.0
  0
LINE
  5
75E
330
1F
100
AcDbEntity
  8
0
  6
Continuous
 62
     7
370
    15
100
AcDbLine
 10
-1368.6693330386
 20
461.8035820231
 30
0.0
 11
-1364.9648042741
 21
517.2894665129
 31
0.0
  0
LINE
  5
75F
330
1F
100
AcDbEntity
  8
0
  6
Continuous
 62
     7
370
    15
100
AcDbLine
 10
-1368.9560514196
 20
517.5539474929
 30
0.0
 11
-1372.6604475373
 21
462.0700497671
 31
0.0
  0
LINE
  5
760
330
1F
100
AcDbEntity
  8
0
  6
Continuous
 62
     7
370
    15
100
AcDbLine
 10
-1081.3865081063
 20
565.1375548147
 30
0.0
 11
-1079.1100041079
 21
565.0206619261
 31
0.0
  0
LINE
  5
761
330
1F
100
AcDbEntity
  8
0
  6
Continuous
 62
     7
370
    15
100
AcDbLine
 10
-1078.9080003945
 20
568.9547101548
 30
0.0
 11
-1081.1789731341
 21
569.0713190268
 31
0.0
  0
LINE
  5
762
330
1F
100
AcDbEntity
  8
0
  6
Continuous
 62
     7
370
    15
100
AcDbLine
 10
-1072.8325277177
 20
609.272179267
 30
0.0
 11
-1074.7112594172
 21
572.6836384373
 31
0.0
  0
LINE
  5
763
330
1F
100
AcDbEntity
  8
0
  6
Continuous
 62
     7
370
    15
100
AcDbLine
 10
-1071.1833879438
 20
563.3862473381
 30
0.0
 11
-1068.8377904538
 21
609.0670593207
 31
0.0
  0
LINE
  5
764
330
1F
100
AcDbEntity
  8
0
  6
Continuous
 62
     7
370
    15
100
AcDbLine
 10
-1073.8365535934
 20
511.715505995
 30
0.0
 11
-1071.7800535686
 21
551.7661077622
 31
0.0
  0
LINE
  5
765
330
1F
100
AcDbEntity
  8
0
  6
Continuous
 62
     7
370
    15
100
AcDbLine
 10
-1073.843739293
 20
511.7158810806
 30
0.0
 11
-1073.8194219313
 21
512.0491473125
 31
0.0
  0
LINE
  5
766
330
1F
100
AcDbEntity
  8
0
  6
Continuous
 62
     7
370
    15
100
AcDbLine
 10
-1081.2823630437
 20
444.7105524482
 30
0.0
 11
-1077.2876257798
 21
444.505432502
 31
0.0
  0
LINE
  5
767
330
1F
100
AcDbEntity
  8
0
  6
Continuous
 62
     7
370
    15
100
AcDbLine
 10
-1078.4277625368
 20
500.3042634743
 30
0.0
 11
-1081.2823630437
 21
444.7105524482
 31
0.0
  0
LINE
  5
768
330
1F
100
AcDbEntity
  8
0
  6
Continuous
 62
     7
370
    15
100
AcDbLine
 10
-1077.2876257798
 20
444.505432502
 30
0.0
 11
-1074.4332192119
 21
500.095366542
 31
0.0
  0
LINE
  5
769
330
1F
100
AcDbEntity
  8
0
  6
Continuous
 62
     7
370
    15
100
AcDbLine
 10
-638.2247594933
 20
9.2978796862
 30
0.0
 11
-518.2603942505
 21
6.3736580973
 31
0.0
  0
LINE
  5
76A
330
1F
100
AcDbEntity
  8
0
  6
Continuous
 62
     7
370
    15
100
AcDbLine
 10
-788.0104003514
 20
14.7769435995
 30
0.0
 11
-668.0821110479
 21
10.6290013715
 31
0.0
  0
LINE
  5
76B
330
1F
100
AcDbEntity
  8
0
  6
Continuous
 62
     7
370
    15
100
AcDbLine
 10
-937.7681030011
 20
20.8831099555
 30
0.0
 11
-817.8883721202
 21
15.5118788182
 31
0.0
  0
LINE
  5
76C
330
1F
100
AcDbEntity
  8
0
  6
Continuous
 62
     7
370
    15
100
AcDbLine
 10
-1086.1418612101
 20
28.0543903026
 30
0.0
 11
-966.2843790751
 21
22.207683857
 31
0.0
  0
LINE
  5
76D
330
1F
100
AcDbEntity
  8
0
  6
Continuous
 62
     7
370
    15
100
AcDbLine
 10
-1234.4850159221
 20
35.8336663208
 30
0.0
 11
-1114.6516683887
 21
29.5115765597
 31
0.0
  0
LINE
  5
76E
330
1F
100
AcDbEntity
  8
0
  6
Continuous
 62
     7
370
    15
100
AcDbLine
 10
-1384.0552780702
 20
45.5545217142
 30
0.0
 11
-1264.2926646059
 21
38.0102247827
 31
0.0
  0
LINE
  5
76F
330
1F
100
AcDbEntity
  8
0
  6
Continuous
 62
     7
370
    15
100
AcDbLine
 10
-1533.5798450531
 20
55.9014361853
 30
0.0
 11
-1413.9004308972
 21
47.1357173157
 31
0.0
  0
LINE
  5
770
330
1F
100
AcDbEntity
  8
0
  6
Continuous
 62
     7
370
    15
100
AcDbLine
 10
-1408.5485503544
 20
51.7571212859
 30
0.0
 11
-1369.1038078922
 21
590.3009349338
 31
0.0
  0
LINE
  5
771
330
1F
100
AcDbEntity
  8
0
  6
Continuous
 62
     7
370
    15
100
AcDbLine
 10
-1498.7565065611
 20
599.7971303759
 30
0.0
 11
-1538.2012490233
 21
61.253316728
 31
0.0
  0
LINE
  5
772
330
1F
100
AcDbEntity
  8
0
  6
Continuous
 62
     7
370
    15
100
AcDbLine
 10
-1258.988210006
 20
42.6859879716
 30
0.0
 11
-1225.0397279768
 21
581.6041890877
 31
0.0
  0
LINE
  5
773
330
1F
100
AcDbEntity
  8
0
  6
Continuous
 62
     7
370
    15
100
AcDbLine
 10
-1354.7825592298
 20
589.7771774301
 30
0.0
 11
-1388.7310412591
 21
50.858976314
 31
0.0
  0
LINE
  5
774
330
1F
100
AcDbEntity
  8
0
  6
Continuous
 62
     7
370
    15
100
AcDbLine
 10
-2132.6280881664
 20
113.2679670187
 30
0.0
 11
-2083.0179389829
 21
600.5983797641
 31
0.0
  0
LINE
  5
775
330
1F
100
AcDbEntity
  8
0
  6
Continuous
 62
     7
370
    15
100
AcDbLine
 10
-2087.4858486156
 20
606.0790534009
 30
0.0
 11
-2206.8688478506
 21
618.2322214511
 31
0.0
  0
LINE
  5
776
330
1F
100
AcDbEntity
  8
0
  6
Continuous
 62
     7
370
    15
100
AcDbLine
 10
-2212.3495214875
 20
613.7643118184
 30
0.0
 11
-2261.959670671
 21
126.433899073
 31
0.0
  0
LINE
  5
777
330
1F
100
AcDbEntity
  8
0
  6
Continuous
 62
     7
370
    15
100
AcDbLine
 10
-2257.4917610383
 20
120.9532254361
 30
0.0
 11
-2138.1087618033
 21
108.800057386
 31
0.0
  0
LINE
  5
778
330
1F
100
AcDbEntity
  8
0
  6
Continuous
 62
     7
370
    15
100
AcDbLine
 10
362.97433777
 20
34.0208633244
 30
0.0
 11
382.5377930535
 21
34.3728022119
 31
0.0
  0
LINE
  5
779
330
1F
100
AcDbEntity
  8
0
  6
Continuous
 62
     7
370
    15
100
AcDbLine
 10
231.159749174
 20
32.128125426
 30
0.0
 11
232.9877744049
 21
32.1516137972
 31
0.0
  0
LINE
  5
77A
330
1F
100
AcDbEntity
  8
0
  6
Continuous
 62
     7
370
    15
100
AcDbLine
 10
226.2346635796
 20
26.0643673374
 30
0.0
 11
226.2242532014
 21
27.0771456887
 31
0.0
  0
LINE
  5
77B
330
1F
100
AcDbEntity
  8
0
  6
Continuous
 62
     7
370
    15
100
AcDbLine
 10
221.2349460265
 20
26.0111924823
 30
0.0
 11
221.2657875922
 21
23.010756816
 31
0.0
  0
LINE
  5
77C
330
1F
100
AcDbEntity
  8
0
  6
Continuous
 62
     7
370
    15
100
AcDbLine
 10
221.2657875922
 20
23.010756816
 30
0.0
 11
213.4576961689
 21
22.9304972166
 31
0.0
  0
LINE
  5
77D
330
1F
100
AcDbEntity
  8
0
  6
Continuous
 62
     7
370
    15
100
AcDbLine
 10
65.0
 20
30.9915998933
 30
0.0
 11
83.4245100422
 21
31.0389448491
 31
0.0
  0
LINE
  5
77E
330
1F
100
AcDbEntity
  8
0
  6
Continuous
 62
     7
370
    15
100
AcDbLine
 10
-83.4245100422
 20
31.0389448491
 30
0.0
 11
-65.0
 21
30.9915998933
 31
0.0
  0
LINE
  5
77F
330
1F
100
AcDbEntity
  8
0
  6
Continuous
 62
     7
370
    15
100
AcDbLine
 10
-213.4576961689
 20
22.9304972166
 30
0.0
 11
-221.2657875861
 21
23.010756816
 31
0.0
  0
LINE
  5
780
330
1F
100
AcDbEntity
  8
0
  6
Continuous
 62
     7
370
    15
100
AcDbLine
 10
-221.2657875861
 20
23.010756816
 30
0.0
 11
-221.2349460204
 21
26.0111924823
 31
0.0
  0
LINE
  5
781
330
1F
100
AcDbEntity
  8
0
  6
Continuous
 62
     7
370
    15
100
AcDbLine
 10
-226.2242531954
 20
27.0771456887
 30
0.0
 11
-226.2346635736
 21
26.0643673374
 31
0.0
  0
LINE
  5
782
330
1F
100
AcDbEntity
  8
0
  6
Continuous
 62
     7
370
    15
100
AcDbLine
 10
-232.9877744049
 20
32.1516137973
 30
0.0
 11
-231.1597491679
 21
32.128125426
 31
0.0
  0
LINE
  5
783
330
1F
100
AcDbEntity
  8
0
  6
Continuous
 62
     7
370
    15
100
AcDbLine
 10
-382.5377930535
 20
34.372802212
 30
0.0
 11
-362.97433777
 21
34.0208633245
 31
0.0
  0
LINE
  5
784
330
1F
100
AcDbEntity
  8
0
  6
Continuous
 62
     7
370
    15
100
AcDbLine
 10
-362.2525708964
 20
84.9581084543
 30
0.0
 11
-381.2957921444
 21
85.3251139428
 31
0.0
  0
LINE
  5
785
330
1F
100
AcDbEntity
  8
0
  6
Continuous
 62
     7
370
    15
100
AcDbLine
 10
-213.2196453173
 20
82.9435207917
 30
0.0
 11
-232.2656197074
 21
83.1162288138
 31
0.0
  0
LINE
  5
786
330
1F
100
AcDbEntity
  8
0
  6
Continuous
 62
     7
370
    15
100
AcDbLine
 10
-65.0
 20
81.9602834233
 30
0.0
 11
-83.2223793991
 21
81.9964242093
 31
0.0
  0
LINE
  5
787
330
1F
100
AcDbEntity
  8
0
  6
Continuous
 62
     7
370
    15
100
AcDbLine
 10
83.2223793991
 20
81.9964242093
 30
0.0
 11
65.0
 21
81.9602834233
 31
0.0
  0
LINE
  5
788
330
1F
100
AcDbEntity
  8
0
  6
Continuous
 62
     7
370
    15
100
AcDbLine
 10
232.2656197135
 20
83.1162288138
 30
0.0
 11
213.2196453234
 21
82.9435207917
 31
0.0
  0
LINE
  5
789
330
1F
100
AcDbEntity
  8
0
  6
Continuous
 62
     7
370
    15
100
AcDbLine
 10
381.2957921505
 20
85.3251139428
 30
0.0
 11
362.2525709024
 21
84.9581084543
 31
0.0
  0
LINE
  5
78A
330
1F
100
AcDbEntity
  8
0
  6
Continuous
 62
     7
370
    15
100
AcDbLine
 10
65.0
 20
5.116320796
 30
0.0
 11
65.0
 21
494.9653772292
 31
0.0
  0
LINE
  5
78B
330
1F
100
AcDbEntity
  8
0
  6
Continuous
 62
     7
370
    15
100
AcDbLine
 10
-60.0
 20
0.116320796
 30
0.0
 11
60.0
 21
0.116320796
 31
0.0
  0
LINE
  5
78C
330
1F
100
AcDbEntity
  8
0
  6
Continuous
 62
     7
370
    15
100
AcDbLine
 10
-65.0
 20
494.9653772293
 30
0.0
 11
-65.0
 21
5.116320796
 31
0.0
  0
LINE
  5
78D
330
1F
100
AcDbEntity
  8
0
  6
Continuous
 62
     7
370
    15
100
AcDbLine
 10
60.0
 20
499.9653772292
 30
0.0
 11
-60.0
 21
499.9653772293
 31
0.0
  0
LINE
  5
78E
330
1F
100
AcDbEntity
  8
0
  6
Continuous
 62
     7
370
    15
100
AcDbLine
 10
-1685.4377531008
 20
98.5312738287
 30
0.0
 11
-1665.9329266985
 21
96.9774428779
 31
0.0
  0
LINE
  5
78F
330
1F
100
AcDbEntity
  8
0
  6
Continuous
 62
     7
370
    15
100
AcDbLine
 10
-1816.8107347571
 20
109.4769539915
 30
0.0
 11
-1814.9891024692
 21
109.3224102886
 31
0.0
  0
LINE
  5
790
330
1F
100
AcDbEntity
  8
0
  6
Continuous
 62
     7
370
    15
100
AcDbLine
 10
-1822.302618952
 20
103.9213407706
 30
0.0
 11
-1822.2144068182
 21
104.9303239144
 31
0.0
  0
LINE
  5
791
330
1F
100
AcDbEntity
  8
0
  6
Continuous
 62
     7
370
    15
100
AcDbLine
 10
-1827.2837744492
 20
104.3550377716
 30
0.0
 11
-1827.545109846
 21
101.3658457068
 31
0.0
  0
LINE
  5
792
330
1F
100
AcDbEntity
  8
0
  6
Continuous
 62
     7
370
    15
100
AcDbLine
 10
-1827.545109846
 20
101.3658457068
 30
0.0
 11
-1835.3239418289
 21
102.0459238345
 31
0.0
  0
LINE
  5
793
330
1F
100
AcDbEntity
  8
0
  6
Continuous
 62
     7
370
    15
100
AcDbLine
 10
-1982.2922122362
 20
124.5180492711
 30
0.0
 11
-1963.9505695575
 21
122.7719233625
 31
0.0
  0
LINE
  5
794
330
1F
100
AcDbEntity
  8
0
  6
Continuous
 62
     7
370
    15
100
AcDbLine
 10
-2130.0074281222
 20
139.0112345161
 30
0.0
 11
-2111.6750015537
 21
137.1708682622
 31
0.0
  0
LINE
  5
795
330
1F
100
AcDbEntity
  8
0
  6
Continuous
 62
     7
370
    15
100
AcDbLine
 10
-2260.2124361615
 20
143.5973329406
 30
0.0
 11
-2267.9756449048
 21
144.4371681575
 31
0.0
  0
LINE
  5
796
330
1F
100
AcDbEntity
  8
0
  6
Continuous
 62
     7
370
    15
100
AcDbLine
 10
-2267.9756449048
 20
144.4371681575
 30
0.0
 11
-2267.6529192342
 21
147.4203566415
 31
0.0
  0
LINE
  5
797
330
1F
100
AcDbEntity
  8
0
  6
Continuous
 62
     7
370
    15
100
AcDbLine
 10
-2272.5147897425
 20
148.9668551008
 30
0.0
 11
-2272.6237237804
 21
147.9598984283
 31
0.0
  0
LINE
  5
798
330
1F
100
AcDbEntity
  8
0
  6
Continuous
 62
     7
370
    15
100
AcDbLine
 10
-2278.7523044598
 20
154.6755200839
 30
0.0
 11
-2276.9352443829
 21
154.4742226729
 31
0.0
  0
LINE
  5
799
330
1F
100
AcDbEntity
  8
0
  6
Continuous
 62
     7
370
    15
100
AcDbLine
 10
-2427.3761064619
 20
171.4417729206
 30
0.0
 11
-2407.9397880448
 21
169.1874060477
 31
0.0
  0
LINE
  5
79A
330
1F
100
AcDbEntity
  8
0
  6
Continuous
 62
     7
370
    15
100
AcDbLine
 10
-2402.2637576303
 20
219.8125635049
 30
0.0
 11
-2421.180845543
 21
222.0312913915
 31
0.0
  0
LINE
  5
79B
330
1F
100
AcDbEntity
  8
0
  6
Continuous
 62
     7
370
    15
100
AcDbLine
 10
-2254.134485334
 20
203.3022588727
 30
0.0
 11
-2273.0732241687
 21
205.3278797351
 31
0.0
  0
LINE
  5
79C
330
1F
100
AcDbEntity
  8
0
  6
Continuous
 62
     7
370
    15
100
AcDbLine
 10
-2106.7142513466
 20
187.8975639773
 30
0.0
 11
-2124.8465974376
 21
189.7071060067
 31
0.0
  0
LINE
  5
79D
330
1F
100
AcDbEntity
  8
0
  6
Continuous
 62
     7
370
    15
100
AcDbLine
 10
-1959.1920808177
 20
173.5071413521
 30
0.0
 11
-1977.3314620291
 21
175.2447449861
 31
0.0
  0
LINE
  5
79E
330
1F
100
AcDbEntity
  8
0
  6
Continuous
 62
     7
370
    15
100
AcDbLine
 10
-1810.7474743118
 20
160.1153436727
 30
0.0
 11
-1829.7198322749
 21
161.7971884483
 31
0.0
  0
LINE
  5
79F
330
1F
100
AcDbEntity
  8
0
  6
Continuous
 62
     7
370
    15
100
AcDbLine
 10
-1662.2098741113
 20
147.8087276974
 30
0.0
 11
-1681.1984028549
 21
149.2969295255
 31
0.0
  0
LINE
  5
7A0
330
1F
100
AcDbEntity
  8
0
  6
Continuous
 62
     7
370
    15
100
AcDbLine
 10
-2066.5167229286
 20
598.9418027384
 30
0.0
 11
-2114.1934263442
 21
111.4184391547
 31
0.0
  0
LINE
  5
7A1
330
1F
100
AcDbEntity
  8
0
  6
Continuous
 62
     7
370
    15
100
AcDbLine
 10
-1984.8106370266
 20
98.7656201636
 30
0.0
 11
-1937.1339336111
 21
586.2889837473
 31
0.0
  0
LINE
  5
7A2
330
1F
100
AcDbEntity
  8
0
  6
Continuous
 62
     7
370
    15
100
AcDbLine
 10
-1941.6235478544
 20
591.7518917592
 30
0.0
 11
-2061.0538149167
 21
603.4314169818
 31
0.0
  0
LINE
  5
7A3
330
1F
100
AcDbEntity
  8
0
  6
Continuous
 62
     7
370
    15
100
AcDbLine
 10
-2109.7038121008
 20
105.9555311428
 30
0.0
 11
-1990.2735450385
 21
94.2760059203
 31
0.0
  0
LINE
  5
7A4
330
1F
100
AcDbEntity
  8
0
  6
Continuous
 62
     7
370
    15
100
AcDbLine
 10
361.9527588151
 20
439.0634391849
 30
0.0
 11
361.4903105622
 21
463.0590051133
 31
0.0
  0
LINE
  5
7A5
330
1F
100
AcDbEntity
  8
0
  6
Continuous
 62
     7
370
    15
100
AcDbLine
 10
367.951800412
 20
439.1709802572
 30
0.0
 11
361.9527588151
 21
439.0634391849
 31
0.0
  0
LINE
  5
7A6
330
1F
100
AcDbEntity
  8
0
  6
Continuous
 62
     7
370
    15
100
AcDbLine
 10
367.4893521591
 20
463.1665461857
 30
0.0
 11
367.951800412
 21
439.1709802572
 31
0.0
  0
LINE
  5
7A7
330
1F
100
AcDbEntity
  8
0
  6
Continuous
 62
     7
370
    15
100
AcDbLine
 10
361.4903105622
 20
463.0590051133
 30
0.0
 11
367.4893521591
 21
463.1665461857
 31
0.0
  0
LINE
  5
7A8
330
1F
100
AcDbEntity
  8
0
  6
Continuous
 62
     7
370
    15
100
AcDbLine
 10
-361.9527588094
 20
439.0634391849
 30
0.0
 11
-367.9518004063
 21
439.1709802572
 31
0.0
  0
LINE
  5
7A9
330
1F
100
AcDbEntity
  8
0
  6
Continuous
 62
     7
370
    15
100
AcDbLine
 10
-361.4903105565
 20
463.0590051133
 30
0.0
 11
-361.9527588094
 21
439.0634391849
 31
0.0
  0
LINE
  5
7AA
330
1F
100
AcDbEntity
  8
0
  6
Continuous
 62
     7
370
    15
100
AcDbLine
 10
-367.4893521534
 20
463.1665461857
 30
0.0
 11
-361.4903105565
 21
463.0590051133
 31
0.0
  0
LINE
  5
7AB
330
1F
100
AcDbEntity
  8
0
  6
Continuous
 62
     7
370
    15
100
AcDbLine
 10
-367.9518004063
 20
439.1709802572
 30
0.0
 11
-367.4893521534
 21
463.1665461857
 31
0.0
  0
LINE
  5
7AC
330
1F
100
AcDbEntity
  8
0
  6
Continuous
 62
     7
370
    15
100
AcDbLine
 10
70.3614433485
 20
460.0015296483
 30
0.0
 11
76.3614246778
 21
460.0168934532
 31
0.0
  0
LINE
  5
7AD
330
1F
100
AcDbEntity
  8
0
  6
Continuous
 62
     7
370
    15
100
AcDbLine
 10
70.4090429127
 20
436.0015728512
 30
0.0
 11
70.3614433485
 21
460.0015296483
 31
0.0
  0
LINE
  5
7AE
330
1F
100
AcDbEntity
  8
0
  6
Continuous
 62
     7
370
    15
100
AcDbLine
 10
76.409024242
 20
436.0169366561
 30
0.0
 11
70.4090429127
 21
436.0015728512
 31
0.0
  0
LINE
  5
7AF
330
1F
100
AcDbEntity
  8
0
  6
Continuous
 62
     7
370
    15
100
AcDbLine
 10
76.3614246778
 20
460.0168934532
 30
0.0
 11
76.409024242
 21
436.0169366561
 31
0.0
  0
LINE
  5
7B0
330
1F
100
AcDbEntity
  8
0
  6
Continuous
 62
     7
370
    15
100
AcDbLine
 10
-70.3614433427
 20
460.0015296483
 30
0.0
 11
-70.4090429069
 21
436.0015728512
 31
0.0
  0
LINE
  5
7B1
330
1F
100
AcDbEntity
  8
0
  6
Continuous
 62
     7
370
    15
100
AcDbLine
 10
-76.3614246721
 20
460.0168934532
 30
0.0
 11
-70.3614433427
 21
460.0015296483
 31
0.0
  0
LINE
  5
7B2
330
1F
100
AcDbEntity
  8
0
  6
Continuous
 62
     7
370
    15
100
AcDbLine
 10
-76.4090242362
 20
436.0169366561
 30
0.0
 11
-76.3614246721
 21
460.0168934532
 31
0.0
  0
LINE
  5
7B3
330
1F
100
AcDbEntity
  8
0
  6
Continuous
 62
     7
370
    15
100
AcDbLine
 10
-70.4090429069
 20
436.0015728512
 30
0.0
 11
-76.4090242362
 21
436.0169366561
 31
0.0
  0
LINE
  5
7B4
330
1F
100
AcDbEntity
  8
0
  6
Continuous
 62
     7
370
    15
100
AcDbLine
 10
81.9014401647
 20
415.0074547959
 30
0.0
 11
81.4507061112
 21
415.0056718101
 31
0.0
  0
LINE
  5
7B5
330
1F
100
AcDbEntity
  8
0
  6
Continuous
 62
     7
370
    15
100
AcDbLine
 10
81.4447842149
 20
417.991523853
 30
0.0
 11
81.4507061112
 21
415.0056718101
 31
0.0
  0
LINE
  5
7B6
330
1F
100
AcDbEntity
  8
0
  6
Continuous
 62
     7
370
    15
100
AcDbLine
 10
65.4448156832
 20
417.9597908155
 30
0.0
 11
81.4447842149
 21
417.991523853
 31
0.0
  0
LINE
  5
7B7
330
1F
100
AcDbEntity
  8
0
  6
Continuous
 62
     7
370
    15
100
AcDbLine
 10
65.4507875284
 20
414.9487542815
 30
0.0
 11
65.4448156832
 21
417.9597908155
 31
0.0
  0
LINE
  5
7B8
330
1F
100
AcDbEntity
  8
0
  6
Continuous
 62
     7
370
    15
100
AcDbLine
 10
65.4507875284
 20
414.9487542815
 30
0.0
 11
65.0
 21
414.9473302486
 31
0.0
  0
LINE
  5
7B9
330
1F
100
AcDbEntity
  8
0
  6
Continuous
 62
     7
370
    15
100
AcDbLine
 10
-65.0
 20
414.9473302486
 30
0.0
 11
-65.4507875227
 21
414.9487542815
 31
0.0
  0
LINE
  5
7BA
330
1F
100
AcDbEntity
  8
0
  6
Continuous
 62
     7
370
    15
100
AcDbLine
 10
-65.4448156775
 20
417.9597908155
 30
0.0
 11
-65.4507875227
 21
414.9487542815
 31
0.0
  0
LINE
  5
7BB
330
1F
100
AcDbEntity
  8
0
  6
Continuous
 62
     7
370
    15
100
AcDbLine
 10
-81.4447842091
 20
417.991523853
 30
0.0
 11
-65.4448156775
 21
417.9597908155
 31
0.0
  0
LINE
  5
7BC
330
1F
100
AcDbEntity
  8
0
  6
Continuous
 62
     7
370
    15
100
AcDbLine
 10
-81.4507061055
 20
415.0056718101
 30
0.0
 11
-81.4447842091
 21
417.991523853
 31
0.0
  0
LINE
  5
7BD
330
1F
100
AcDbEntity
  8
0
  6
Continuous
 62
     7
370
    15
100
AcDbLine
 10
-81.4507061055
 20
415.0056718101
 30
0.0
 11
-81.9014401648
 21
415.007454796
 31
0.0
  0
LINE
  5
7BE
330
1F
100
AcDbEntity
  8
0
  6
Continuous
 62
     7
370
    15
100
AcDbLine
 10
-227.5050361707
 20
419.0848383143
 30
0.0
 11
-211.8868511039
 21
418.9432133283
 31
0.0
  0
LINE
  5
7BF
330
1F
100
AcDbEntity
  8
0
  6
Continuous
 62
     7
370
    15
100
AcDbLine
 10
-373.1079147794
 20
421.2276718225
 30
0.0
 11
-357.4919873596
 21
420.9267179556
 31
0.0
  0
LINE
  5
7C0
330
1F
100
AcDbEntity
  8
0
  6
Continuous
 62
     7
370
    15
100
AcDbLine
 10
-356.768635672
 20
471.9758085774
 30
0.0
 11
-371.8642944618
 21
472.2464190253
 31
0.0
  0
LINE
  5
7C1
330
1F
100
AcDbEntity
  8
0
  6
Continuous
 62
     7
370
    15
100
AcDbLine
 10
-225.9396358268
 20
470.0938251124
 30
0.0
 11
-226.7820998971
 21
470.1046119231
 31
0.0
  0
LINE
  5
7C2
330
1F
100
AcDbEntity
  8
0
  6
Continuous
 62
     7
370
    15
100
AcDbLine
 10
-220.8657728709
 20
476.0293320946
 30
0.0
 11
-220.8758839349
 21
475.0422034793
 31
0.0
  0
LINE
  5
7C3
330
1F
100
AcDbEntity
  8
0
  6
Continuous
 62
     7
370
    15
100
AcDbLine
 10
-215.8660537994
 20
475.9762988753
 30
0.0
 11
-215.8353329172
 21
478.9755343838
 31
0.0
  0
LINE
  5
7C4
330
1F
100
AcDbEntity
  8
0
  6
Continuous
 62
     7
370
    15
100
AcDbLine
 10
-215.8353329172
 20
478.9755343838
 30
0.0
 11
-211.6488938071
 21
478.9326530888
 31
0.0
  0
LINE
  5
7C5
330
1F
100
AcDbEntity
  8
0
  6
Continuous
 62
     7
370
    15
100
AcDbLine
 10
-65.0
 20
468.9878304166
 30
0.0
 11
-81.6871492465
 21
469.0305602337
 31
0.0
  0
LINE
  5
7C6
330
1F
100
AcDbEntity
  8
0
  6
Continuous
 62
     7
370
    15
100
AcDbLine
 10
81.6871492465
 20
469.0305602337
 30
0.0
 11
65.0
 21
468.9878304166
 31
0.0
  0
LINE
  5
7C7
330
1F
100
AcDbEntity
  8
0
  6
Continuous
 62
     7
370
    15
100
AcDbLine
 10
215.835332923
 20
478.9755343838
 30
0.0
 11
215.8660538052
 21
475.9762988752
 31
0.0
  0
LINE
  5
7C8
330
1F
100
AcDbEntity
  8
0
  6
Continuous
 62
     7
370
    15
100
AcDbLine
 10
220.8758839406
 20
475.0422034793
 30
0.0
 11
220.8657728767
 21
476.0293320946
 31
0.0
  0
LINE
  5
7C9
330
1F
100
AcDbEntity
  8
0
  6
Continuous
 62
     7
370
    15
100
AcDbLine
 10
226.782099897
 20
470.104611923
 30
0.0
 11
225.9396358326
 21
470.0938251124
 31
0.0
  0
LINE
  5
7CA
330
1F
100
AcDbEntity
  8
0
  6
Continuous
 62
     7
370
    15
100
AcDbLine
 10
371.8642944618
 20
472.2464190252
 30
0.0
 11
356.7686356718
 21
471.9758085773
 31
0.0
  0
LINE
  5
7CB
330
1F
100
AcDbEntity
  8
0
  6
Continuous
 62
     7
370
    15
100
AcDbLine
 10
357.4919873595
 20
420.9267179555
 30
0.0
 11
373.1079147794
 21
421.2276718223
 31
0.0
  0
LINE
  5
7CC
330
1F
100
AcDbEntity
  8
0
  6
Continuous
 62
     7
370
    15
100
AcDbLine
 10
211.8868511038
 20
418.9432133283
 30
0.0
 11
227.5050361706
 21
419.0848383142
 31
0.0
  0
LINE
  5
7CD
330
1F
100
AcDbEntity
  8
0
  6
Continuous
 62
     7
370
    15
100
AcDbLine
 10
211.6488938071
 20
478.9326530887
 30
0.0
 11
215.835332923
 21
478.9755343838
 31
0.0
  0
LINE
  5
7CE
330
1F
100
AcDbEntity
  8
0
  6
Continuous
 62
     7
370
    15
100
AcDbLine
 10
802.9799888442
 20
40.1778307514
 30
0.0
 11
792.1490653828
 21
39.7669210595
 31
0.0
  0
LINE
  5
7CF
330
1F
100
AcDbEntity
  8
0
  6
Continuous
 62
     7
370
    15
100
AcDbLine
 10
803.0953499519
 20
37.1800494807
 30
0.0
 11
802.9799888442
 21
40.1778307514
 31
0.0
  0
LINE
  5
7D0
330
1F
100
AcDbEntity
  8
0
  6
Continuous
 62
     7
370
    15
100
AcDbLine
 10
803.0953499519
 20
37.1800494807
 30
0.0
 11
792.2527644334
 21
36.7686995181
 31
0.0
  0
LINE
  5
7D1
330
1F
100
AcDbEntity
  8
0
  6
Continuous
 62
     7
370
    15
100
AcDbLine
 10
1257.9299984123
 20
59.4846621512
 30
0.0
 11
1247.0988546151
 21
58.8387570253
 31
0.0
  0
LINE
  5
7D2
330
1F
100
AcDbEntity
  8
0
  6
Continuous
 62
     7
370
    15
100
AcDbLine
 10
1246.9218958313
 20
61.8335335313
 30
0.0
 11
1247.0988546151
 21
58.8387570253
 31
0.0
  0
LINE
  5
7D3
330
1F
100
AcDbEntity
  8
0
  6
Continuous
 62
     7
370
    15
100
AcDbLine
 10
1257.7413900889
 20
62.4787417769
 30
0.0
 11
1246.9218958313
 21
61.8335335313
 31
0.0
  0
LINE
  5
7D4
330
1F
100
AcDbEntity
  8
0
  6
Continuous
 62
     7
370
    15
100
AcDbLine
 10
804.0946203866
 20
37.2182419763
 30
0.0
 11
803.0953499519
 21
37.1800494807
 31
0.0
  0
LINE
  5
7D5
330
1F
100
AcDbEntity
  8
0
  6
Continuous
 62
     7
370
    15
100
AcDbLine
 10
1247.0988546151
 20
58.8387570253
 30
0.0
 11
1246.1006112393
 21
58.7795098228
 31
0.0
  0
LINE
  5
7D6
330
1F
100
AcDbEntity
  8
0
  6
Continuous
 62
     7
370
    15
100
AcDbLine
 10
-1246.9218958252
 20
61.8335335313
 30
0.0
 11
-1257.7413900889
 21
62.4787417772
 31
0.0
  0
LINE
  5
7D7
330
1F
100
AcDbEntity
  8
0
  6
Continuous
 62
     7
370
    15
100
AcDbLine
 10
-1247.098854609
 20
58.8387570253
 30
0.0
 11
-1246.9218958252
 21
61.8335335313
 31
0.0
  0
LINE
  5
7D8
330
1F
100
AcDbEntity
  8
0
  6
Continuous
 62
     7
370
    15
100
AcDbLine
 10
-1247.098854609
 20
58.8387570253
 30
0.0
 11
-1257.9299984123
 21
59.4846621515
 31
0.0
  0
LINE
  5
7D9
330
1F
100
AcDbEntity
  8
0
  6
Continuous
 62
     7
370
    15
100
AcDbLine
 10
-792.2527644334
 20
36.7686995183
 30
0.0
 11
-803.0953499458
 21
37.1800494807
 31
0.0
  0
LINE
  5
7DA
330
1F
100
AcDbEntity
  8
0
  6
Continuous
 62
     7
370
    15
100
AcDbLine
 10
-802.9799888381
 20
40.1778307514
 30
0.0
 11
-803.0953499458
 21
37.1800494807
 31
0.0
  0
LINE
  5
7DB
330
1F
100
AcDbEntity
  8
0
  6
Continuous
 62
     7
370
    15
100
AcDbLine
 10
-792.1490653828
 20
39.7669210598
 30
0.0
 11
-802.9799888381
 21
40.1778307514
 31
0.0
  0
LINE
  5
7DC
330
1F
100
AcDbEntity
  8
0
  6
Continuous
 62
     7
370
    15
100
AcDbLine
 10
-803.0953499458
 20
37.1800494807
 30
0.0
 11
-804.0946203805
 21
37.2182419763
 31
0.0
  0
LINE
  5
7DD
330
1F
100
AcDbEntity
  8
0
  6
Continuous
 62
     7
370
    15
100
AcDbLine
 10
-1246.1006112332
 20
58.7795098228
 30
0.0
 11
-1247.098854609
 21
58.8387570253
 31
0.0
  0
LINE
  5
7DE
330
1F
100
AcDbEntity
  8
0
  6
Continuous
 62
     7
370
    15
100
AcDbLine
 10
-1647.0319403211
 20
501.750228527
 30
0.0
 11
-1645.1567194949
 21
525.6768787202
 31
0.0
  0
LINE
  5
7DF
330
1F
100
AcDbEntity
  8
0
  6
Continuous
 62
     7
370
    15
100
AcDbLine
 10
-1641.0509139153
 20
501.2733760382
 30
0.0
 11
-1647.0319403211
 21
501.750228527
 31
0.0
  0
LINE
  5
7E0
330
1F
100
AcDbEntity
  8
0
  6
Continuous
 62
     7
370
    15
100
AcDbLine
 10
-1639.1756930891
 20
525.2000262314
 30
0.0
 11
-1641.0509139153
 21
501.2733760382
 31
0.0
  0
LINE
  5
7E1
330
1F
100
AcDbEntity
  8
0
  6
Continuous
 62
     7
370
    15
100
AcDbLine
 10
-1645.1567194949
 20
525.6768787202
 30
0.0
 11
-1639.1756930891
 21
525.2000262314
 31
0.0
  0
LINE
  5
7E2
330
1F
100
AcDbEntity
  8
0
  6
Continuous
 62
     7
370
    15
100
AcDbLine
 10
-2367.5005178026
 20
572.2075014591
 30
0.0
 11
-2373.4606103973
 21
572.898414931
 31
0.0
  0
LINE
  5
7E3
330
1F
100
AcDbEntity
  8
0
  6
Continuous
 62
     7
370
    15
100
AcDbLine
 10
-2364.7047916706
 20
596.0441320518
 30
0.0
 11
-2367.5005178026
 21
572.2075014591
 31
0.0
  0
LINE
  5
7E4
330
1F
100
AcDbEntity
  8
0
  6
Continuous
 62
     7
370
    15
100
AcDbLine
 10
-2370.6648842653
 20
596.7350455237
 30
0.0
 11
-2364.7047916706
 21
596.0441320518
 31
0.0
  0
LINE
  5
7E5
330
1F
100
AcDbEntity
  8
0
  6
Continuous
 62
     7
370
    15
100
AcDbLine
 10
-2373.4606103973
 20
572.898414931
 30
0.0
 11
-2370.6648842653
 21
596.7350455237
 31
0.0
  0
LINE
  5
7E6
330
1F
100
AcDbEntity
  8
0
  6
Continuous
 62
     7
370
    15
100
AcDbLine
 10
-1935.200954684
 20
550.9693106895
 30
0.0
 11
-1929.2279645634
 21
550.4006271066
 31
0.0
  0
LINE
  5
7E7
330
1F
100
AcDbEntity
  8
0
  6
Continuous
 62
     7
370
    15
100
AcDbLine
 10
-1937.4894819515
 20
527.0786674389
 30
0.0
 11
-1935.200954684
 21
550.9693106895
 31
0.0
  0
LINE
  5
7E8
330
1F
100
AcDbEntity
  8
0
  6
Continuous
 62
     7
370
    15
100
AcDbLine
 10
-1931.5164918308
 20
526.509983856
 30
0.0
 11
-1937.4894819515
 21
527.0786674389
 31
0.0
  0
LINE
  5
7E9
330
1F
100
AcDbEntity
  8
0
  6
Continuous
 62
     7
370
    15
100
AcDbLine
 10
-1929.2279645634
 20
550.4006271066
 30
0.0
 11
-1931.5164918308
 21
526.509983856
 31
0.0
  0
LINE
  5
7EA
330
1F
100
AcDbEntity
  8
0
  6
Continuous
 62
     7
370
    15
100
AcDbLine
 10
-2075.255720845
 20
564.6657815603
 30
0.0
 11
-2077.6389952567
 21
540.7844039816
 31
0.0
  0
LINE
  5
7EB
330
1F
100
AcDbEntity
  8
0
  6
Continuous
 62
     7
370
    15
100
AcDbLine
 10
-2081.2257202665
 20
565.2650468653
 30
0.0
 11
-2075.255720845
 21
564.6657815603
 31
0.0
  0
LINE
  5
7EC
330
1F
100
AcDbEntity
  8
0
  6
Continuous
 62
     7
370
    15
100
AcDbLine
 10
-2083.6089946783
 20
541.3836692865
 30
0.0
 11
-2081.2257202665
 21
565.2650468653
 31
0.0
  0
LINE
  5
7ED
330
1F
100
AcDbEntity
  8
0
  6
Continuous
 62
     7
370
    15
100
AcDbLine
 10
-2077.6389952567
 20
540.7844039816
 30
0.0
 11
-2083.6089946783
 21
541.3836692865
 31
0.0
  0
LINE
  5
7EE
330
1F
100
AcDbEntity
  8
0
  6
Continuous
 62
     7
370
    15
100
AcDbLine
 10
-1928.0949924377
 20
505.0656768585
 30
0.0
 11
-1928.5437600445
 21
505.1077720025
 31
0.0
  0
LINE
  5
7EF
330
1F
100
AcDbEntity
  8
0
  6
Continuous
 62
     7
370
    15
100
AcDbLine
 10
-1928.2590427063
 20
508.0800242676
 30
0.0
 11
-1928.5437600445
 21
505.1077720025
 31
0.0
  0
LINE
  5
7F0
330
1F
100
AcDbEntity
  8
0
  6
Continuous
 62
     7
370
    15
100
AcDbLine
 10
-1944.1861355524
 20
509.6057088584
 30
0.0
 11
-1928.2590427063
 21
508.0800242676
 31
0.0
  0
LINE
  5
7F1
330
1F
100
AcDbEntity
  8
0
  6
Continuous
 62
     7
370
    15
100
AcDbLine
 10
-1944.4732543698
 20
506.6083868108
 30
0.0
 11
-1944.1861355524
 21
509.6057088584
 31
0.0
  0
LINE
  5
7F2
330
1F
100
AcDbEntity
  8
0
  6
Continuous
 62
     7
370
    15
100
AcDbLine
 10
-1944.4732543698
 20
506.6083868108
 30
0.0
 11
-1944.9220402609
 21
506.6508444081
 31
0.0
  0
LINE
  5
7F3
330
1F
100
AcDbEntity
  8
0
  6
Continuous
 62
     7
370
    15
100
AcDbLine
 10
-2074.3048295784
 20
519.3036633993
 30
0.0
 11
-2074.7533382633
 21
519.3489555399
 31
0.0
  0
LINE
  5
7F4
330
1F
100
AcDbEntity
  8
0
  6
Continuous
 62
     7
370
    15
100
AcDbLine
 10
-2074.4543324615
 20
522.3451151154
 30
0.0
 11
-2074.7533382633
 21
519.3489555399
 31
0.0
  0
LINE
  5
7F5
330
1F
100
AcDbEntity
  8
0
  6
Continuous
 62
     7
370
    15
100
AcDbLine
 10
-2090.3752481942
 20
523.9339644585
 30
0.0
 11
-2074.4543324615
 21
522.3451151154
 31
0.0
  0
LINE
  5
7F6
330
1F
100
AcDbEntity
  8
0
  6
Continuous
 62
     7
370
    15
100
AcDbLine
 10
-2090.6717530934
 20
520.9628649423
 30
0.0
 11
-2090.3752481942
 21
523.9339644585
 31
0.0
  0
LINE
  5
7F7
330
1F
100
AcDbEntity
  8
0
  6
Continuous
 62
     7
370
    15
100
AcDbLine
 10
-2090.6717530934
 20
520.9628649423
 30
0.0
 11
-2091.1201736321
 21
521.008509128
 31
0.0
  0
LINE
  5
7F8
330
1F
100
AcDbEntity
  8
0
  6
Continuous
 62
     7
370
    15
100
AcDbLine
 10
-2235.6356274036
 20
539.2380414159
 30
0.0
 11
-2220.1053782289
 21
537.5769806134
 31
0.0
  0
LINE
  5
7F9
330
1F
100
AcDbEntity
  8
0
  6
Continuous
 62
     7
370
    15
100
AcDbLine
 10
-2380.3386557309
 20
555.5421386771
 30
0.0
 11
-2364.8261608651
 21
553.7227251866
 31
0.0
  0
LINE
  5
7FA
330
1F
100
AcDbEntity
  8
0
  6
Continuous
 62
     7
370
    15
100
AcDbLine
 10
-2359.1376673089
 20
604.4590428697
 30
0.0
 11
-2374.1353169689
 21
606.1976195835
 31
0.0
  0
LINE
  5
7FB
330
1F
100
AcDbEntity
  8
0
  6
Continuous
 62
     7
370
    15
100
AcDbLine
 10
-2229.1129863285
 20
589.8524896082
 30
0.0
 11
-2229.9504006958
 21
589.9452217086
 31
0.0
  0
LINE
  5
7FC
330
1F
100
AcDbEntity
  8
0
  6
Continuous
 62
     7
370
    15
100
AcDbLine
 10
-2223.4855137337
 20
595.2659802222
 30
0.0
 11
-2223.5916534056
 21
594.2845223745
 31
0.0
  0
LINE
  5
7FD
330
1F
100
AcDbEntity
  8
0
  6
Continuous
 62
     7
370
    15
100
AcDbLine
 10
-2218.514693891
 20
594.7265792509
 30
0.0
 11
-2218.1922051416
 21
597.7085850214
 31
0.0
  0
LINE
  5
7FE
330
1F
100
AcDbEntity
  8
0
  6
Continuous
 62
     7
370
    15
100
AcDbLine
 10
-2218.1922051416
 20
597.7085850214
 30
0.0
 11
-2214.02981591
 21
597.2584438072
 31
0.0
  0
LINE
  5
7FF
330
1F
100
AcDbEntity
  8
0
  6
Continuous
 62
     7
370
    15
100
AcDbLine
 10
-2069.0451013721
 20
573.0875914596
 30
0.0
 11
-2085.6488649308
 21
574.7542682429
 31
0.0
  0
LINE
  5
800
330
1F
100
AcDbEntity
  8
0
  6
Continuous
 62
     7
370
    15
100
AcDbLine
 10
-1923.050230763
 20
558.8531495765
 30
0.0
 11
-1939.6623120546
 21
560.4347724685
 31
0.0
  0
LINE
  5
801
330
1F
100
AcDbEntity
  8
0
  6
Continuous
 62
     7
370
    15
100
AcDbLine
 10
-1792.7417507296
 20
556.0591339147
 30
0.0
 11
-1788.5710142727
 21
555.6943481086
 31
0.0
  0
LINE
  5
802
330
1F
100
AcDbEntity
  8
0
  6
Continuous
 62
     7
370
    15
100
AcDbLine
 10
-1788.5710142727
 20
555.6943481086
 30
0.0
 11
-1788.8323529694
 21
552.7063622495
 31
0.0
  0
LINE
  5
803
330
1F
100
AcDbEntity
  8
0
  6
Continuous
 62
     7
370
    15
100
AcDbLine
 10
-1783.9372233005
 20
551.2890980827
 30
0.0
 11
-1783.8512097463
 21
552.2725241375
 31
0.0
  0
LINE
  5
804
330
1F
100
AcDbEntity
  8
0
  6
Continuous
 62
     7
370
    15
100
AcDbLine
 10
-1778.5396214348
 20
545.8001007789
 30
0.0
 11
-1779.3791355434
 21
545.871361684
 31
0.0
  0
LINE
  5
805
330
1F
100
AcDbEntity
  8
0
  6
Continuous
 62
     7
370
    15
100
AcDbLine
 10
-1633.9377836604
 20
533.8109794743
 30
0.0
 11
-1648.988110013
 21
535.0109048871
 31
0.0
  0
LINE
  5
806
330
1F
100
AcDbEntity
  8
0
  6
Continuous
 62
     7
370
    15
100
AcDbLine
 10
-1653.2367688153
 20
484.133780466
 30
0.0
 11
-1637.6656906448
 21
482.9134169869
 31
0.0
  0
LINE
  5
807
330
1F
100
AcDbEntity
  8
0
  6
Continuous
 62
     7
370
    15
100
AcDbLine
 10
-1798.3436579901
 20
496.33135025
 30
0.0
 11
-1782.7858402722
 21
494.9521946123
 31
0.0
  0
LINE
  5
808
330
1F
100
AcDbEntity
  8
0
  6
Continuous
 62
     7
370
    15
100
AcDbLine
 10
942.5392904904
 20
26.1019000392
 30
0.0
 11
918.3693585015
 21
565.5471162698
 31
0.0
  0
LINE
  5
809
330
1F
100
AcDbEntity
  8
0
  6
Continuous
 62
     7
370
    15
100
AcDbLine
 10
788.4996500472
 20
559.7282825377
 30
0.0
 11
812.6695820362
 21
20.2830663073
 31
0.0
  0
LINE
  5
80A
330
1F
100
AcDbEntity
  8
0
  6
Continuous
 62
     7
370
    15
100
AcDbLine
 10
1090.8923101972
 20
33.2920648265
 30
0.0
 11
1064.5827931536
 21
572.6371642195
 31
0.0
  0
LINE
  5
80B
330
1F
100
AcDbEntity
  8
0
  6
Continuous
 62
     7
370
    15
100
AcDbLine
 10
934.7371875073
 20
566.3032322367
 30
0.0
 11
961.0467045509
 21
26.9581328437
 31
0.0
  0
LINE
  5
80C
330
1F
100
AcDbEntity
  8
0
  6
Continuous
 62
     7
370
    15
100
AcDbLine
 10
1239.2146516626
 20
41.0901428744
 30
0.0
 11
1210.7659635222
 21
580.3266392927
 31
0.0
  0
LINE
  5
80D
330
1F
100
AcDbEntity
  8
0
  6
Continuous
 62
     7
370
    15
100
AcDbLine
 10
1080.9465036944
 20
573.4777087182
 30
0.0
 11
1109.3951918348
 21
34.2412123
 31
0.0
  0
LINE
  5
80E
330
1F
100
AcDbEntity
  8
0
  6
Continuous
 62
     7
370
    15
100
AcDbLine
 10
1388.7310412591
 20
50.8589763137
 30
0.0
 11
1354.7825592297
 21
589.7771774298
 31
0.0
  0
LINE
  5
80F
330
1F
100
AcDbEntity
  8
0
  6
Continuous
 62
     7
370
    15
100
AcDbLine
 10
1225.0397279767
 20
581.6041890874
 30
0.0
 11
1258.9882100061
 21
42.6859879713
 31
0.0
  0
LINE
  5
810
330
1F
100
AcDbEntity
  8
0
  6
Continuous
 62
     7
370
    15
100
AcDbLine
 10
1538.2012490234
 20
61.2533167277
 30
0.0
 11
1498.7565065611
 21
599.7971303756
 31
0.0
  0
LINE
  5
811
330
1F
100
AcDbEntity
  8
0
  6
Continuous
 62
     7
370
    15
100
AcDbLine
 10
1369.1038078922
 20
590.3009349335
 30
0.0
 11
1408.5485503545
 21
51.7571212857
 31
0.0
  0
LINE
  5
812
330
1F
100
AcDbEntity
  8
0
  6
Continuous
 62
     7
370
    15
100
AcDbLine
 10
-1109.3951918348
 20
34.2412123003
 30
0.0
 11
-1080.9465036944
 21
573.4777087185
 31
0.0
  0
LINE
  5
813
330
1F
100
AcDbEntity
  8
0
  6
Continuous
 62
     7
370
    15
100
AcDbLine
 10
-1210.7659635222
 20
580.3266392929
 30
0.0
 11
-1239.2146516626
 21
41.0901428747
 31
0.0
  0
LINE
  5
814
330
1F
100
AcDbEntity
  8
0
  6
Continuous
 62
     7
370
    15
100
AcDbLine
 10
-961.0467045509
 20
26.958132844
 30
0.0
 11
-934.7371875073
 21
566.303232237
 31
0.0
  0
LINE
  5
815
330
1F
100
AcDbEntity
  8
0
  6
Continuous
 62
     7
370
    15
100
AcDbLine
 10
-1064.5827931535
 20
572.6371642198
 30
0.0
 11
-1090.8923101972
 21
33.2920648268
 31
0.0
  0
LINE
  5
816
330
1F
100
AcDbEntity
  8
0
  6
Continuous
 62
     7
370
    15
100
AcDbLine
 10
-812.6695820361
 20
20.2830663075
 30
0.0
 11
-788.4996500472
 21
559.7282825381
 31
0.0
  0
LINE
  5
817
330
1F
100
AcDbEntity
  8
0
  6
Continuous
 62
     7
370
    15
100
AcDbLine
 10
-918.3693585015
 20
565.54711627
 30
0.0
 11
-942.5392904904
 21
26.1019000395
 31
0.0
  0
LINE
  5
818
330
1F
100
AcDbEntity
  8
0
  6
Continuous
 62
     7
370
    15
100
AcDbLine
 10
-662.9122680674
 20
15.4531824997
 30
0.0
 11
-644.2469976698
 21
555.1169061345
 31
0.0
  0
LINE
  5
819
330
1F
100
AcDbEntity
  8
0
  6
Continuous
 62
     7
370
    15
100
AcDbLine
 10
-774.169311082
 20
559.6105102147
 30
0.0
 11
-792.8345814795
 21
19.94678658
 31
0.0
  0
LINE
  5
81A
330
1F
100
AcDbEntity
  8
0
  6
Continuous
 62
     7
370
    15
100
AcDbLine
 10
-499.9813703951
 20
551.0763920263
 30
0.0
 11
-513.1400364658
 21
11.2503307494
 31
0.0
  0
LINE
  5
81B
330
1F
100
AcDbEntity
  8
0
  6
Continuous
 62
     7
370
    15
100
AcDbLine
 10
-629.9427660748
 20
554.2442987475
 30
0.0
 11
-643.1014321455
 21
14.4182374708
 31
0.0
  0
LINE
  5
81C
330
1F
100
AcDbEntity
  8
0
  6
Continuous
 62
     7
370
    15
100
AcDbLine
 10
1387.1044559542
 20
76.6803495847
 30
0.0
 11
1406.6275293607
 21
77.9850519933
 31
0.0
  0
LINE
  5
81D
330
1F
100
AcDbEntity
  8
0
  6
Continuous
 62
     7
370
    15
100
AcDbLine
 10
1255.53863583
 20
68.3675162213
 30
0.0
 11
1257.3633455954
 21
68.480042754
 31
0.0
  0
LINE
  5
81E
330
1F
100
AcDbEntity
  8
0
  6
Continuous
 62
     7
370
    15
100
AcDbLine
 10
1250.9148412872
 20
62.0709970007
 30
0.0
 11
1250.8550981252
 21
63.0820653068
 31
0.0
  0
LINE
  5
81F
330
1F
100
AcDbEntity
  8
0
  6
Continuous
 62
     7
370
    15
100
AcDbLine
 10
1245.9236524577
 20
61.7742862916
 30
0.0
 11
1246.1006462824
 21
58.7789167692
 31
0.0
  0
LINE
  5
820
330
1F
100
AcDbEntity
  8
0
  6
Continuous
 62
     7
370
    15
100
AcDbLine
 10
1246.1006462824
 20
58.7789167692
 30
0.0
 11
1238.3057385827
 21
58.3183223362
 31
0.0
  0
LINE
  5
821
330
1F
100
AcDbEntity
  8
0
  6
Continuous
 62
     7
370
    15
100
AcDbLine
 10
1089.6316005215
 20
59.1366131777
 30
0.0
 11
1108.0319219479
 21
60.0815910844
 31
0.0
  0
LINE
  5
822
330
1F
100
AcDbEntity
  8
0
  6
Continuous
 62
     7
370
    15
100
AcDbLine
 10
941.3810599145
 20
51.9522807414
 30
0.0
 11
959.7859948753
 21
52.8026811949
 31
0.0
  0
LINE
  5
823
330
1F
100
AcDbEntity
  8
0
  6
Continuous
 62
     7
370
    15
100
AcDbLine
 10
811.8973718303
 20
37.517914202
 30
0.0
 11
804.0946432315
 21
37.2176483277
 31
0.0
  0
LINE
  5
824
330
1F
100
AcDbEntity
  8
0
  6
Continuous
 62
     7
370
    15
100
AcDbLine
 10
804.0946432315
 20
37.2176483277
 30
0.0
 11
803.9792592803
 21
40.2160232098
 31
0.0
  0
LINE
  5
825
330
1F
100
AcDbEntity
  8
0
  6
Continuous
 62
     7
370
    15
100
AcDbLine
 10
798.9439416881
 20
41.0376186513
 30
0.0
 11
798.9828888214
 21
40.0255359048
 31
0.0
  0
LINE
  5
826
330
1F
100
AcDbEntity
  8
0
  6
Continuous
 62
     7
370
    15
100
AcDbLine
 10
791.9412121219
 20
45.776524048
 30
0.0
 11
793.7682107202
 21
45.8421296306
 31
0.0
  0
LINE
  5
827
330
1F
100
AcDbEntity
  8
0
  6
Continuous
 62
     7
370
    15
100
AcDbLine
 10
642.4605844129
 20
40.7086156544
 30
0.0
 11
662.017952542
 21
41.3102762475
 31
0.0
  0
LINE
  5
828
330
1F
100
AcDbEntity
  8
0
  6
Continuous
 62
     7
370
    15
100
AcDbLine
 10
660.2570695483
 20
92.2221921407
 30
0.0
 11
641.2185835159
 21
91.6609273855
 31
0.0
  0
LINE
  5
829
330
1F
100
AcDbEntity
  8
0
  6
Continuous
 62
     7
370
    15
100
AcDbLine
 10
809.2111521965
 20
97.4712618225
 30
0.0
 11
790.1793829605
 21
96.7157962179
 31
0.0
  0
LINE
  5
82A
330
1F
100
AcDbEntity
  8
0
  6
Continuous
 62
     7
370
    15
100
AcDbLine
 10
957.3026704543
 20
103.7108318253
 30
0.0
 11
939.1001719722
 21
102.8590888296
 31
0.0
  0
LINE
  5
82B
330
1F
100
AcDbEntity
  8
0
  6
Continuous
 62
     7
370
    15
100
AcDbLine
 10
1105.3472528398
 20
110.9687025305
 30
0.0
 11
1087.1482761005
 21
110.044763808
 31
0.0
  0
LINE
  5
82C
330
1F
100
AcDbEntity
  8
0
  6
Continuous
 62
     7
370
    15
100
AcDbLine
 10
1254.1589223775
 20
119.3489444822
 30
0.0
 11
1235.1439826934
 21
118.2484730663
 31
0.0
  0
LINE
  5
82D
330
1F
100
AcDbEntity
  8
0
  6
Continuous
 62
     7
370
    15
100
AcDbLine
 10
1402.9044767735
 20
128.8163368127
 30
0.0
 11
1383.9017536304
 21
127.5219328277
 31
0.0
  0
LINE
  5
82E
330
1F
100
AcDbEntity
  8
0
  6
Continuous
 62
     7
370
    15
100
AcDbLine
 10
1368.6399949449
 20
582.3325856908
 30
0.0
 11
1369.6823391515
 21
582.4021780588
 31
0.0
  0
LINE
  5
82F
330
1F
100
AcDbEntity
  8
0
  6
Continuous
 62
     7
370
    15
100
AcDbLine
 10
1357.6922993698
 20
626.2159704554
 30
0.0
 11
1360.7435842904
 21
580.5142757431
 31
0.0
  0
LINE
  5
830
330
1F
100
AcDbEntity
  8
0
  6
Continuous
 62
     7
370
    15
100
AcDbLine
 10
1364.1240414458
 20
589.9270789497
 30
0.0
 11
1361.6834138685
 21
626.4824381994
 31
0.0
  0
LINE
  5
831
330
1F
100
AcDbEntity
  8
0
  6
Continuous
 62
     7
370
    15
100
AcDbLine
 10
1369.3945815756
 20
586.3309668574
 30
0.0
 11
1368.3775754447
 21
586.2630661922
 31
0.0
  0
LINE
  5
832
330
1F
100
AcDbEntity
  8
0
  6
Continuous
 62
     7
370
    15
100
AcDbLine
 10
1364.1638499201
 20
529.2860424863
 30
0.0
 11
1364.1995095479
 21
528.8984735029
 31
0.0
  0
LINE
  5
833
330
1F
100
AcDbEntity
  8
0
  6
Continuous
 62
     7
370
    15
100
AcDbLine
 10
1361.5186199395
 20
568.905906303
 30
0.0
 11
1364.1897690856
 21
528.8978290552
 31
0.0
  0
LINE
  5
834
330
1F
100
AcDbEntity
  8
0
  6
Continuous
 62
     7
370
    15
100
AcDbLine
 10
1372.6604475373
 20
462.0700497668
 30
0.0
 11
1368.6693330386
 21
461.8035820228
 31
0.0
  0
LINE
  5
835
330
1F
100
AcDbEntity
  8
0
  6
Continuous
 62
     7
370
    15
100
AcDbLine
 10
1364.9648042741
 20
517.2894665125
 30
0.0
 11
1368.6693330386
 21
461.8035820228
 31
0.0
  0
LINE
  5
836
330
1F
100
AcDbEntity
  8
0
  6
Continuous
 62
     7
370
    15
100
AcDbLine
 10
1372.6604475373
 20
462.0700497668
 30
0.0
 11
1368.9560514196
 21
517.5539474925
 31
0.0
  0
LINE
  5
837
330
1F
100
AcDbEntity
  8
0
  6
Continuous
 62
     7
370
    15
100
AcDbLine
 10
1079.1100041079
 20
565.0206619258
 30
0.0
 11
1081.3865081062
 21
565.1375548144
 31
0.0
  0
LINE
  5
838
330
1F
100
AcDbEntity
  8
0
  6
Continuous
 62
     7
370
    15
100
AcDbLine
 10
1068.8377904538
 20
609.0670593204
 30
0.0
 11
1071.1833879438
 21
563.3862473377
 31
0.0
  0
LINE
  5
839
330
1F
100
AcDbEntity
  8
0
  6
Continuous
 62
     7
370
    15
100
AcDbLine
 10
1074.7112594172
 20
572.683638437
 30
0.0
 11
1072.8325277177
 21
609.2721792667
 31
0.0
  0
LINE
  5
83A
330
1F
100
AcDbEntity
  8
0
  6
Continuous
 62
     7
370
    15
100
AcDbLine
 10
1081.178973134
 20
569.0713190265
 30
0.0
 11
1078.9080003945
 21
568.9547101545
 31
0.0
  0
LINE
  5
83B
330
1F
100
AcDbEntity
  8
0
  6
Continuous
 62
     7
370
    15
100
AcDbLine
 10
1073.8194219313
 20
512.0491473122
 30
0.0
 11
1073.8437392931
 21
511.7158810803
 31
0.0
  0
LINE
  5
83C
330
1F
100
AcDbEntity
  8
0
  6
Continuous
 62
     7
370
    15
100
AcDbLine
 10
1071.7800535686
 20
551.7661077619
 30
0.0
 11
1073.8365535934
 21
511.7155059947
 31
0.0
  0
LINE
  5
83D
330
1F
100
AcDbEntity
  8
0
  6
Continuous
 62
     7
370
    15
100
AcDbLine
 10
1081.2823630437
 20
444.7105524479
 30
0.0
 11
1077.2876257798
 21
444.5054325017
 31
0.0
  0
LINE
  5
83E
330
1F
100
AcDbEntity
  8
0
  6
Continuous
 62
     7
370
    15
100
AcDbLine
 10
1074.4332192119
 20
500.0953665417
 30
0.0
 11
1077.2876257798
 21
444.5054325017
 31
0.0
  0
LINE
  5
83F
330
1F
100
AcDbEntity
  8
0
  6
Continuous
 62
     7
370
    15
100
AcDbLine
 10
1081.2823630437
 20
444.7105524479
 30
0.0
 11
1078.4277625368
 21
500.304263474
 31
0.0
  0
LINE
  5
840
330
1F
100
AcDbEntity
  8
0
  6
Continuous
 62
     7
370
    15
100
AcDbLine
 10
-662.017952542
 20
41.3102762477
 30
0.0
 11
-642.4605844129
 21
40.7086156546
 31
0.0
  0
LINE
  5
841
330
1F
100
AcDbEntity
  8
0
  6
Continuous
 62
     7
370
    15
100
AcDbLine
 10
-793.7682107141
 20
45.8421296306
 30
0.0
 11
-791.9412121219
 21
45.7765240483
 31
0.0
  0
LINE
  5
842
330
1F
100
AcDbEntity
  8
0
  6
Continuous
 62
     7
370
    15
100
AcDbLine
 10
-798.9828888153
 20
40.0255359048
 30
0.0
 11
-798.943941682
 21
41.0376186513
 31
0.0
  0
LINE
  5
843
330
1F
100
AcDbEntity
  8
0
  6
Continuous
 62
     7
370
    15
100
AcDbLine
 10
-803.9792592742
 20
40.2160232098
 30
0.0
 11
-804.0946432254
 21
37.2176483277
 31
0.0
  0
LINE
  5
844
330
1F
100
AcDbEntity
  8
0
  6
Continuous
 62
     7
370
    15
100
AcDbLine
 10
-804.0946432254
 20
37.2176483277
 30
0.0
 11
-811.8973718303
 21
37.5179142022
 31
0.0
  0
LINE
  5
845
330
1F
100
AcDbEntity
  8
0
  6
Continuous
 62
     7
370
    15
100
AcDbLine
 10
-959.7859948752
 20
52.8026811952
 30
0.0
 11
-941.3810599145
 21
51.9522807416
 31
0.0
  0
LINE
  5
846
330
1F
100
AcDbEntity
  8
0
  6
Continuous
 62
     7
370
    15
100
AcDbLine
 10
-1108.0319219479
 20
60.0815910848
 30
0.0
 11
-1089.6316005215
 21
59.136613178
 31
0.0
  0
LINE
  5
847
330
1F
100
AcDbEntity
  8
0
  6
Continuous
 62
     7
370
    15
100
AcDbLine
 10
-1238.3057385827
 20
58.3183223366
 30
0.0
 11
-1246.1006462763
 21
58.7789167692
 31
0.0
  0
LINE
  5
848
330
1F
100
AcDbEntity
  8
0
  6
Continuous
 62
     7
370
    15
100
AcDbLine
 10
-1246.1006462763
 20
58.7789167692
 30
0.0
 11
-1245.9236524516
 21
61.7742862916
 31
0.0
  0
LINE
  5
849
330
1F
100
AcDbEntity
  8
0
  6
Continuous
 62
     7
370
    15
100
AcDbLine
 10
-1250.8550981191
 20
63.0820653068
 30
0.0
 11
-1250.9148412811
 21
62.0709970007
 31
0.0
  0
LINE
  5
84A
330
1F
100
AcDbEntity
  8
0
  6
Continuous
 62
     7
370
    15
100
AcDbLine
 10
-1257.3633455954
 20
68.4800427544
 30
0.0
 11
-1255.5386358239
 21
68.3675162213
 31
0.0
  0
LINE
  5
84B
330
1F
100
AcDbEntity
  8
0
  6
Continuous
 62
     7
370
    15
100
AcDbLine
 10
-1406.6275293607
 20
77.9850519937
 30
0.0
 11
-1387.1044559542
 21
76.6803495851
 31
0.0
  0
LINE
  5
84C
330
1F
100
AcDbEntity
  8
0
  6
Continuous
 62
     7
370
    15
100
AcDbLine
 10
-1383.9017536243
 20
127.5219328277
 30
0.0
 11
-1402.9044767674
 21
128.8163368127
 31
0.0
  0
LINE
  5
84D
330
1F
100
AcDbEntity
  8
0
  6
Continuous
 62
     7
370
    15
100
AcDbLine
 10
-1235.1439826873
 20
118.2484730663
 30
0.0
 11
-1254.1589223715
 21
119.3489444822
 31
0.0
  0
LINE
  5
84E
330
1F
100
AcDbEntity
  8
0
  6
Continuous
 62
     7
370
    15
100
AcDbLine
 10
-1087.1482761005
 20
110.0447638083
 30
0.0
 11
-1105.3472528398
 21
110.9687025308
 31
0.0
  0
LINE
  5
84F
330
1F
100
AcDbEntity
  8
0
  6
Continuous
 62
     7
370
    15
100
AcDbLine
 10
-939.1001719722
 20
102.8590888299
 30
0.0
 11
-957.3026704542
 21
103.7108318255
 31
0.0
  0
LINE
  5
850
330
1F
100
AcDbEntity
  8
0
  6
Continuous
 62
     7
370
    15
100
AcDbLine
 10
-790.1793829544
 20
96.7157962179
 30
0.0
 11
-809.2111521904
 21
97.4712618225
 31
0.0
  0
LINE
  5
851
330
1F
100
AcDbEntity
  8
0
  6
Continuous
 62
     7
370
    15
100
AcDbLine
 10
-641.2185835098
 20
91.6609273855
 30
0.0
 11
-660.2570695422
 21
92.2221921408
 31
0.0
  0
LINE
  5
852
330
1F
100
AcDbEntity
  8
0
  6
Continuous
 62
     7
370
    15
100
AcDbLine
 10
-631.1799314092
 20
546.3589240551
 30
0.0
 11
-630.135762636
 21
546.3267353022
 31
0.0
  0
LINE
  5
853
330
1F
100
AcDbEntity
  8
0
  6
Continuous
 62
     7
370
    15
100
AcDbLine
 10
-637.8045073011
 20
591.0994927937
 30
0.0
 11
-639.2158266608
 21
545.3177997614
 31
0.0
  0
LINE
  5
854
330
1F
100
AcDbEntity
  8
0
  6
Continuous
 62
     7
370
    15
100
AcDbLine
 10
-634.9352768831
 20
554.3568953127
 30
0.0
 11
-633.8064065746
 21
590.9762427219
 31
0.0
  0
LINE
  5
855
330
1F
100
AcDbEntity
  8
0
  6
Continuous
 62
     7
370
    15
100
AcDbLine
 10
-630.0397674383
 20
550.2648783631
 30
0.0
 11
-631.0585537829
 21
550.296284648
 31
0.0
  0
LINE
  5
856
330
1F
100
AcDbEntity
  8
0
  6
Continuous
 62
     7
370
    15
100
AcDbLine
 10
-640.7978117012
 20
493.9998942808
 30
0.0
 11
-640.8000432249
 21
493.6106946581
 31
0.0
  0
LINE
  5
857
330
1F
100
AcDbEntity
  8
0
  6
Continuous
 62
     7
370
    15
100
AcDbLine
 10
-639.5743060701
 20
533.6891105047
 30
0.0
 11
-640.8098001654
 21
493.6110013033
 31
0.0
  0
LINE
  5
858
330
1F
100
AcDbEntity
  8
0
  6
Continuous
 62
     7
370
    15
100
AcDbLine
 10
-638.8836446995
 20
426.2760593847
 30
0.0
 11
-642.881745426
 21
426.3993094566
 31
0.0
  0
LINE
  5
859
330
1F
100
AcDbEntity
  8
0
  6
Continuous
 62
     7
370
    15
100
AcDbLine
 10
-641.1682793618
 20
481.982318956
 30
0.0
 11
-642.881745426
 21
426.3993094566
 31
0.0
  0
LINE
  5
85A
330
1F
100
AcDbEntity
  8
0
  6
Continuous
 62
     7
370
    15
100
AcDbLine
 10
-638.8836446995
 20
426.2760593847
 30
0.0
 11
-637.1702399887
 21
481.8570786425
 31
0.0
  0
LINE
  5
85B
330
1F
100
AcDbEntity
  8
0
  6
Continuous
 62
     7
370
    15
100
AcDbLine
 10
-921.0202578965
 20
557.3089669889
 30
0.0
 11
-918.7431851137
 21
557.2037341809
 31
0.0
  0
LINE
  5
85C
330
1F
100
AcDbEntity
  8
0
  6
Continuous
 62
     7
370
    15
100
AcDbLine
 10
-926.9566929856
 20
602.1460301759
 30
0.0
 11
-929.068316828
 21
556.4538048446
 31
0.0
  0
LINE
  5
85D
330
1F
100
AcDbEntity
  8
0
  6
Continuous
 62
     7
370
    15
100
AcDbLine
 10
-924.6522856106
 20
565.3636884955
 30
0.0
 11
-922.9609576368
 21
601.9613709704
 31
0.0
  0
LINE
  5
85E
330
1F
100
AcDbEntity
  8
0
  6
Continuous
 62
     7
370
    15
100
AcDbLine
 10
-918.5668639372
 20
561.1390210172
 30
0.0
 11
-920.8384040791
 21
561.2439981394
 31
0.0
  0
LINE
  5
85F
330
1F
100
AcDbEntity
  8
0
  6
Continuous
 62
     7
370
    15
100
AcDbLine
 10
-931.4414060904
 20
505.1038782471
 30
0.0
 11
-931.4496407767
 21
504.7698274944
 31
0.0
  0
LINE
  5
860
330
1F
100
AcDbEntity
  8
0
  6
Continuous
 62
     7
370
    15
100
AcDbLine
 10
-929.6054649809
 20
544.8307619774
 30
0.0
 11
-931.4568288671
 21
504.7701535693
 31
0.0
  0
LINE
  5
861
330
1F
100
AcDbEntity
  8
0
  6
Continuous
 62
     7
370
    15
100
AcDbLine
 10
-930.5679208157
 20
437.3586284371
 30
0.0
 11
-934.5636561646
 21
437.5432876427
 31
0.0
  0
LINE
  5
862
330
1F
100
AcDbEntity
  8
0
  6
Continuous
 62
     7
370
    15
100
AcDbLine
 10
-931.9939770143
 20
493.1471108251
 30
0.0
 11
-934.5636561646
 21
437.5432876427
 31
0.0
  0
LINE
  5
863
330
1F
100
AcDbEntity
  8
0
  6
Continuous
 62
     7
370
    15
100
AcDbLine
 10
-930.5679208157
 20
437.3586284371
 30
0.0
 11
-927.998067072
 21
492.9662295492
 31
0.0
  0
LINE
  5
864
330
1F
100
AcDbEntity
  8
0
  6
Continuous
 62
     7
370
    15
100
AcDbLine
 10
226.6972500078
 20
476.0927222112
 30
0.0
 11
216.8659986145
 21
475.9868083786
 31
0.0
  0
LINE
  5
865
330
1F
100
AcDbEntity
  8
0
  6
Continuous
 62
     7
370
    15
100
AcDbLine
 10
216.8352715122
 20
478.9866511427
 30
0.0
 11
216.8659986145
 21
475.9868083786
 31
0.0
  0
LINE
  5
866
330
1F
100
AcDbEntity
  8
0
  6
Continuous
 62
     7
370
    15
100
AcDbLine
 10
226.6547448812
 20
479.0924360377
 30
0.0
 11
216.8352715122
 21
478.9866511427
 31
0.0
  0
LINE
  5
867
330
1F
100
AcDbEntity
  8
0
  6
Continuous
 62
     7
370
    15
100
AcDbLine
 10
-216.8352715065
 20
478.9866511427
 30
0.0
 11
-226.6547448813
 21
479.0924360378
 31
0.0
  0
LINE
  5
868
330
1F
100
AcDbEntity
  8
0
  6
Continuous
 62
     7
370
    15
100
AcDbLine
 10
-216.8659986087
 20
475.9868083786
 30
0.0
 11
-216.8352715065
 21
478.9866511427
 31
0.0
  0
LINE
  5
869
330
1F
100
AcDbEntity
  8
0
  6
Continuous
 62
     7
370
    15
100
AcDbLine
 10
-216.8659986087
 20
475.9868083786
 30
0.0
 11
-226.6972500079
 21
476.0927222112
 31
0.0
  0
LINE
  5
86A
330
1F
100
AcDbEntity
  8
0
  6
Continuous
 62
     7
370
    15
100
AcDbLine
 10
-1778.041249433
 20
551.7680392567
 30
0.0
 11
-1787.8361327892
 21
552.6194978509
 31
0.0
  0
LINE
  5
86B
330
1F
100
AcDbEntity
  8
0
  6
Continuous
 62
     7
370
    15
100
AcDbLine
 10
-1787.5747411792
 20
555.6080886879
 30
0.0
 11
-1787.8361327892
 21
552.6194978509
 31
0.0
  0
LINE
  5
86C
330
1F
100
AcDbEntity
  8
0
  6
Continuous
 62
     7
370
    15
100
AcDbLine
 10
-1777.7915924774
 20
554.757648116
 30
0.0
 11
-1787.5747411792
 21
555.6080886879
 31
0.0
  0
LINE
  5
86D
330
1F
100
AcDbEntity
  8
0
  6
Continuous
 62
     7
370
    15
100
AcDbLine
 10
-2219.1863142607
 20
597.8169724002
 30
0.0
 11
-2228.9488710125
 21
598.877978277
 31
0.0
  0
LINE
  5
86E
330
1F
100
AcDbEntity
  8
0
  6
Continuous
 62
     7
370
    15
100
AcDbLine
 10
-2219.5088683045
 20
594.8343628626
 30
0.0
 11
-2219.1863142607
 21
597.8169724002
 31
0.0
  0
LINE
  5
86F
330
1F
100
AcDbEntity
  8
0
  6
Continuous
 62
     7
370
    15
100
AcDbLine
 10
-2219.5088683045
 20
594.8343628626
 30
0.0
 11
-2229.2831346118
 21
595.8966434127
 31
0.0
  0
LINE
  5
870
330
1F
100
AcDbEntity
  8
0
  6
Continuous
 62
     7
370
    15
100
AcDbLine
 10
-222.2348905082
 20
26.0217323907
 30
0.0
 11
-233.0729712051
 21
26.1390209653
 31
0.0
  0
LINE
  5
871
330
1F
100
AcDbEntity
  8
0
  6
Continuous
 62
     7
370
    15
100
AcDbLine
 10
-222.265725968
 20
23.0218907438
 30
0.0
 11
-222.2348905082
 21
26.0217323907
 31
0.0
  0
LINE
  5
872
330
1F
100
AcDbEntity
  8
0
  6
Continuous
 62
     7
370
    15
100
AcDbLine
 10
-222.265725968
 20
23.0218907438
 30
0.0
 11
-233.1154763227
 21
23.1393077757
 31
0.0
  0
LINE
  5
873
330
1F
100
AcDbEntity
  8
0
  6
Continuous
 62
     7
370
    15
100
AcDbLine
 10
233.1154763227
 20
23.1393077757
 30
0.0
 11
222.2657259741
 21
23.0218907438
 31
0.0
  0
LINE
  5
874
330
1F
100
AcDbEntity
  8
0
  6
Continuous
 62
     7
370
    15
100
AcDbLine
 10
222.2348905143
 20
26.0217323907
 30
0.0
 11
222.2657259741
 21
23.0218907438
 31
0.0
  0
LINE
  5
875
330
1F
100
AcDbEntity
  8
0
  6
Continuous
 62
     7
370
    15
100
AcDbLine
 10
233.0729712051
 20
26.1390209653
 30
0.0
 11
222.2348905143
 21
26.0217323907
 31
0.0
  0
LINE
  5
876
330
1F
100
AcDbEntity
  8
0
  6
Continuous
 62
     7
370
    15
100
AcDbLine
 10
222.2657259741
 20
23.0218907438
 30
0.0
 11
221.2657814859
 21
23.0113508727
 31
0.0
  0
LINE
  5
877
330
1F
100
AcDbEntity
  8
0
  6
Continuous
 62
     7
370
    15
100
AcDbLine
 10
-221.2657814798
 20
23.0113508727
 30
0.0
 11
-222.265725968
 21
23.0218907438
 31
0.0
  0
LINE
  5
878
330
1F
100
AcDbEntity
  8
0
  6
Continuous
 62
     7
370
    15
100
AcDbLine
 10
213.52612888
 20
5.6784942163
 30
0.0
 11
211.5830828915
 21
495.5236969701
 31
0.0
  0
LINE
  5
879
330
1F
100
AcDbEntity
  8
0
  6
Continuous
 62
     7
370
    15
100
AcDbLine
 10
88.5469453739
 20
0.1827058159
 30
0.0
 11
208.5460013248
 21
0.6587004423
 31
0.0
  0
LINE
  5
87A
330
1F
100
AcDbEntity
  8
0
  6
Continuous
 62
     7
370
    15
100
AcDbLine
 10
206.5632891175
 20
500.5038245253
 30
0.0
 11
86.5642331666
 21
500.0278298989
 31
0.0
  0
LINE
  5
87B
330
1F
100
AcDbEntity
  8
0
  6
Continuous
 62
     7
370
    15
100
AcDbLine
 10
81.5841056114
 20
495.0080361248
 30
0.0
 11
83.5271515998
 21
5.1628333711
 31
0.0
  0
LINE
  5
87C
330
1F
100
AcDbEntity
  8
0
  6
Continuous
 62
     7
370
    15
100
AcDbLine
 10
-2268.6470903683
 20
147.5281704827
 30
0.0
 11
-2279.4222986784
 21
148.6997658382
 31
0.0
  0
LINE
  5
87D
330
1F
100
AcDbEntity
  8
0
  6
Continuous
 62
     7
370
    15
100
AcDbLine
 10
-2268.9697521464
 20
144.5455726035
 30
0.0
 11
-2268.6470903683
 21
147.5281704827
 31
0.0
  0
LINE
  5
87E
330
1F
100
AcDbEntity
  8
0
  6
Continuous
 62
     7
370
    15
100
AcDbLine
 10
-2268.9697521464
 20
144.5455726035
 30
0.0
 11
-2279.7565622067
 21
145.718431607
 31
0.0
  0
LINE
  5
87F
330
1F
100
AcDbEntity
  8
0
  6
Continuous
 62
     7
370
    15
100
AcDbLine
 10
-1815.7391689805
 20
100.3404635155
 30
0.0
 11
-1826.5488352878
 21
101.2796033936
 31
0.0
  0
LINE
  5
880
330
1F
100
AcDbEntity
  8
0
  6
Continuous
 62
     7
370
    15
100
AcDbLine
 10
-1826.2875516296
 20
104.268203665
 30
0.0
 11
-1826.5488352878
 21
101.2796033936
 31
0.0
  0
LINE
  5
881
330
1F
100
AcDbEntity
  8
0
  6
Continuous
 62
     7
370
    15
100
AcDbLine
 10
-1815.4895120779
 20
103.33007174
 30
0.0
 11
-1826.2875516296
 21
104.268203665
 31
0.0
  0
LINE
  5
882
330
1F
100
AcDbEntity
  8
0
  6
Continuous
 62
     7
370
    15
100
AcDbLine
 10
-2267.9755810083
 20
144.4377587994
 30
0.0
 11
-2268.9697521464
 21
144.5455726035
 31
0.0
  0
LINE
  5
883
330
1F
100
AcDbEntity
  8
0
  6
Continuous
 62
     7
370
    15
100
AcDbLine
 10
-1826.5488352878
 20
101.2796033936
 30
0.0
 11
-1827.5450581041
 21
101.3664375374
 31
0.0
  0
LINE
  5
884
330
1F
100
AcDbEntity
  8
0
  6
Continuous
 62
     7
370
    15
100
AcDbLine
 10
-1795.703701441
 20
578.0228690293
 30
0.0
 11
-1915.1793571968
 21
589.2285676569
 31
0.0
  0
LINE
  5
885
330
1F
100
AcDbEntity
  8
0
  6
Continuous
 62
     7
370
    15
100
AcDbLine
 10
-1836.9349607224
 20
84.8691689408
 30
0.0
 11
-1791.1924532274
 21
572.5778125967
 31
0.0
  0
LINE
  5
886
330
1F
100
AcDbEntity
  8
0
  6
Continuous
 62
     7
370
    15
100
AcDbLine
 10
-1920.6244136294
 20
584.7173194432
 30
0.0
 11
-1966.3669211244
 21
97.0086757874
 31
0.0
  0
LINE
  5
887
330
1F
100
AcDbEntity
  8
0
  6
Continuous
 62
     7
370
    15
100
AcDbLine
 10
-1961.8556729108
 20
91.5636193547
 30
0.0
 11
-1842.380017155
 21
80.3579207271
 31
0.0
  0
LINE
  5
888
330
1F
100
AcDbEntity
  8
0
  6
PHANTOM
 62
     8
370
     0
100
AcDbLine
 10
231.3422826379
 20
501.1792530025
 30
0.0
 11
238.4242964747
 21
1.3803691529
 31
0.0
  0
LINE
  5
889
330
1F
100
AcDbEntity
  8
0
  6
PHANTOM
 62
     8
370
     0
100
AcDbLine
 10
233.3539568276
 20
6.3090257511
 30
0.0
 11
363.3409080165
 21
8.1509053884
 31
0.0
  0
LINE
  5
88A
330
1F
100
AcDbEntity
  8
0
  6
PHANTOM
 62
     8
370
     0
100
AcDbLine
 10
358.4122514184
 20
3.0805657412
 30
0.0
 11
351.3302375816
 21
502.8794495908
 31
0.0
  0
LINE
  5
88B
330
1F
100
AcDbEntity
  8
0
  6
PHANTOM
 62
     8
370
     0
100
AcDbLine
 10
356.4005772288
 20
497.9507929926
 30
0.0
 11
226.4136260398
 21
496.1089133553
 31
0.0
  0
LINE
  5
88C
330
1F
100
AcDbEntity
  8
0
  6
PHANTOM
 62
     8
370
     0
100
AcDbLine
 10
-1646.8262919507
 20
560.8983888331
 30
0.0
 11
-1776.3753634073
 21
571.7168029834
 31
0.0
  0
LINE
  5
88D
330
1F
100
AcDbEntity
  8
0
  6
PHANTOM
 62
     8
370
     0
100
AcDbLine
 10
-1692.9895795788
 20
68.1818988226
 30
0.0
 11
-1651.3928556932
 21
566.2971382796
 31
0.0
  0
LINE
  5
88E
330
1F
100
AcDbEntity
  8
0
  6
PHANTOM
 62
     8
370
     0
100
AcDbLine
 10
-1817.139901589
 20
83.5668767155
 30
0.0
 11
-1687.5908301324
 21
72.7484625652
 31
0.0
  0
LINE
  5
88F
330
1F
100
AcDbEntity
  8
0
  6
PHANTOM
 62
     8
370
     0
100
AcDbLine
 10
-1770.9766139609
 20
576.283366726
 30
0.0
 11
-1812.5733378464
 21
78.1681272691
 31
0.0
  0
LINE
  5
890
330
1F
100
AcDbEntity
  8
0
  6
PHANTOM
 62
     8
370
     0
100
AcDbLine
 10
508.2633638136
 20
6.1299729647
 30
0.0
 11
496.0827854636
 21
505.8305960665
 31
0.0
  0
LINE
  5
891
330
1F
100
AcDbEntity
  8
0
  6
PHANTOM
 62
     8
370
     0
100
AcDbLine
 10
501.2031432483
 20
500.9539234143
 30
0.0
 11
371.2417475686
 21
497.786016693
 31
0.0
  0
LINE
  5
892
330
1F
100
AcDbEntity
  8
0
  6
PHANTOM
 62
     8
370
     0
100
AcDbLine
 10
376.1184202209
 20
502.9063744777
 30
0.0
 11
388.2989985708
 21
3.2057513759
 31
0.0
  0
LINE
  5
893
330
1F
100
AcDbEntity
  8
0
  6
PHANTOM
 62
     8
370
     0
100
AcDbLine
 10
-1502.4189230463
 20
549.7937175511
 30
0.0
 11
-1632.0716217152
 21
559.2899129932
 31
0.0
  0
LINE
  5
894
330
1F
100
AcDbEntity
  8
0
  6
PHANTOM
 62
     8
370
     0
100
AcDbLine
 10
-1543.5531295661
 20
56.6319127579
 30
0.0
 11
-1507.0403270166
 21
555.1455980939
 31
0.0
  0
LINE
  5
895
330
1F
100
AcDbEntity
  8
0
  6
PHANTOM
 62
     8
370
     0
100
AcDbLine
 10
-1626.7197411725
 20
563.9113169635
 30
0.0
 11
-1663.232543722
 21
65.3976316276
 31
0.0
  0
LINE
  5
896
330
1F
100
AcDbEntity
  8
0
  6
PHANTOM
 62
     8
370
     0
100
AcDbLine
 10
-643.1014321455
 20
14.4182374708
 30
0.0
 11
-383.1786407862
 21
8.0824240281
 31
0.0
  0
LINE
  5
897
330
1F
100
AcDbEntity
  8
0
  6
PHANTOM
 62
     8
370
     0
100
AcDbLine
 10
-388.2989985708
 20
3.2057513759
 30
0.0
 11
-376.1184202209
 21
502.9063744776
 31
0.0
  0
LINE
  5
898
330
1F
100
AcDbEntity
  8
0
  6
PHANTOM
 62
     8
370
     0
100
AcDbLine
 10
-371.2417475687
 20
497.786016693
 30
0.0
 11
-501.2031432483
 21
500.9539234143
 31
0.0
  0
LINE
  5
899
330
1F
100
AcDbEntity
  8
0
  6
PHANTOM
 62
     8
370
     0
100
AcDbLine
 10
-496.0827854637
 20
505.8305960665
 30
0.0
 11
-508.2633638136
 21
6.1299729647
 31
0.0
  0
LINE
  5
89A
330
1F
100
AcDbEntity
  8
0
  6
PHANTOM
 62
     8
370
     0
100
AcDbLine
 10
-2436.143428711
 20
140.983430756
 30
0.0
 11
-2375.3851307397
 21
637.1260598909
 31
0.0
  0
LINE
  5
89B
330
1F
100
AcDbEntity
  8
0
  6
PHANTOM
 62
     8
370
     0
100
AcDbLine
 10
-2371.0299726619
 20
631.5553688999
 30
0.0
 11
-2500.0660105566
 21
647.3572967711
 31
0.0
  0
LINE
  5
89C
330
1F
100
AcDbEntity
  8
0
  6
PHANTOM
 62
     8
370
     0
100
AcDbLine
 10
-2494.4953195656
 20
651.712454849
 30
0.0
 11
-2555.2536175368
 21
155.5698257141
 31
0.0
  0
LINE
  5
89D
330
1F
100
AcDbEntity
  8
0
  6
PHANTOM
 62
     8
370
     0
100
AcDbLine
 10
-2559.6087756147
 20
161.1405167051
 30
0.0
 11
-2430.57273772
 21
145.3385888338
 31
0.0
  0
LINE
  5
89E
330
1F
100
AcDbEntity
  8
0
  6
PHANTOM
 62
     8
370
     0
100
AcDbLine
 10
-226.4136260399
 20
496.1089133553
 30
0.0
 11
-356.4005772289
 21
497.9507929926
 31
0.0
  0
LINE
  5
89F
330
1F
100
AcDbEntity
  8
0
  6
PHANTOM
 62
     8
370
     0
100
AcDbLine
 10
-238.4242964747
 20
1.3803691529
 30
0.0
 11
-231.3422826381
 21
501.1792530025
 31
0.0
  0
LINE
  5
8A0
330
1F
100
AcDbEntity
  8
0
  6
PHANTOM
 62
     8
370
     0
100
AcDbLine
 10
-363.3409080165
 20
8.1509053884
 30
0.0
 11
-233.3539568276
 21
6.3090257511
 31
0.0
  0
LINE
  5
8A1
330
1F
100
AcDbEntity
  8
0
  6
PHANTOM
 62
     8
370
     0
100
AcDbLine
 10
-351.3302375817
 20
502.8794495908
 30
0.0
 11
-358.4122514184
 21
3.0805657412
 31
0.0
  0
LINE
  5
8A2
330
1F
100
AcDbEntity
  8
0
  6
PHANTOM
 62
     8
370
     0
100
AcDbLine
 10
-2227.0526938154
 20
615.7901972512
 30
0.0
 11
-2356.2432272774
 21
630.2748810178
 31
0.0
  0
LINE
  5
8A3
330
1F
100
AcDbEntity
  8
0
  6
PHANTOM
 62
     8
370
     0
100
AcDbLine
 10
-2287.1579612151
 20
124.5795036749
 30
0.0
 11
-2231.4644572652
 21
621.3161671446
 31
0.0
  0
LINE
  5
8A4
330
1F
100
AcDbEntity
  8
0
  6
PHANTOM
 62
     8
370
     0
100
AcDbLine
 10
-2410.8225247837
 20
143.4759508914
 30
0.0
 11
-2281.6319913217
 21
128.9912671247
 31
0.0
  0
LINE
  5
8A5
330
1F
100
AcDbEntity
  8
0
  6
PHANTOM
 62
     8
370
     0
100
AcDbLine
 10
-2350.717257384
 20
634.6866444677
 30
0.0
 11
-2406.4107613338
 21
137.949980998
 31
0.0
  0
LINE
  5
8A6
330
1F
100
AcDbEntity
  8
0
  6
PHANTOM
 62
     8
370
     0
100
AcDbLine
 10
-88.5469453739
 20
0.1827058159
 30
0.0
 11
-86.5642331666
 21
500.0278298989
 31
0.0
  0
LINE
  5
8A7
330
1F
100
AcDbEntity
  8
0
  6
PHANTOM
 62
     8
370
     0
100
AcDbLine
 10
-213.52612888
 20
5.6784942164
 30
0.0
 11
-83.5271515998
 21
5.1628333711
 31
0.0
  0
LINE
  5
8A8
330
1F
100
AcDbEntity
  8
0
  6
PHANTOM
 62
     8
370
     0
100
AcDbLine
 10
-81.5841056114
 20
495.0080361248
 30
0.0
 11
-211.5830828916
 21
495.5236969701
 31
0.0
  0
LINE
  5
8A9
330
1F
100
AcDbEntity
  8
0
  6
PHANTOM
 62
     8
370
     0
100
AcDbLine
 10
-206.5632891175
 20
500.5038245253
 30
0.0
 11
-208.5460013248
 21
0.6587004423
 31
0.0
  0
LINE
  5
8AA
330
1F
100
AcDbEntity
  8
0
  6
PHANTOM
 62
     8
370
     0
100
AcDbLine
 10
631.1799314092
 20
546.3589240548
 30
0.0
 11
631.2197370993
 21
545.0676699743
 31
0.0
  0
LINE
  5
8AB
330
1F
100
AcDbEntity
  8
0
  6
PHANTOM
 62
     8
370
     0
100
AcDbLine
 10
631.5782146772
 20
533.4390401261
 30
0.0
 11
632.8136996687
 21
493.3612262414
 31
0.0
  0
LINE
  5
8AC
330
1F
100
AcDbEntity
  8
0
  6
PHANTOM
 62
     8
370
     0
100
AcDbLine
 10
638.6956766143
 20
562.1909118573
 30
0.0
 11
634.6975758878
 21
562.0676617854
 31
0.0
  0
LINE
  5
8AD
330
1F
100
AcDbEntity
  8
0
  6
PHANTOM
 62
     8
370
     0
100
AcDbLine
 10
921.0202578965
 20
557.3089669886
 30
0.0
 11
921.0764642877
 21
556.0927489102
 31
0.0
  0
LINE
  5
8AE
330
1F
100
AcDbEntity
  8
0
  6
PHANTOM
 62
     8
370
     0
100
AcDbLine
 10
921.6136121077
 20
544.4697132459
 30
0.0
 11
923.4649739861
 21
504.409148282
 31
0.0
  0
LINE
  5
8AF
330
1F
100
AcDbEntity
  8
0
  6
PHANTOM
 62
     8
370
     0
100
AcDbLine
 10
928.2918858572
 20
573.2545522889
 30
0.0
 11
924.2961505084
 21
573.0698930833
 31
0.0
  0
LINE
  5
8B0
330
1F
100
AcDbEntity
  8
0
  6
PHANTOM
 62
     8
370
     0
100
AcDbLine
 10
1408.5485503545
 20
51.7571212857
 30
0.0
 11
1538.2012490234
 21
61.2533167277
 31
0.0
  0
LINE
  5
8B1
330
1F
100
AcDbEntity
  8
0
  6
PHANTOM
 62
     8
370
     0
100
AcDbLine
 10
1258.9882100061
 20
42.6859879713
 30
0.0
 11
1388.7310412591
 21
50.8589763137
 31
0.0
  0
LINE
  5
8B2
330
1F
100
AcDbEntity
  8
0
  6
PHANTOM
 62
     8
370
     0
100
AcDbLine
 10
1109.3951918348
 20
34.2412123
 30
0.0
 11
1239.2146516626
 21
41.0901428744
 31
0.0
  0
LINE
  5
8B3
330
1F
100
AcDbEntity
  8
0
  6
PHANTOM
 62
     8
370
     0
100
AcDbLine
 10
961.0467045509
 20
26.9581328437
 30
0.0
 11
1090.8923101972
 21
33.2920648265
 31
0.0
  0
LINE
  5
8B4
330
1F
100
AcDbEntity
  8
0
  6
PHANTOM
 62
     8
370
     0
100
AcDbLine
 10
812.6695820362
 20
20.2830663073
 30
0.0
 11
942.5392904904
 21
26.1019000392
 31
0.0
  0
LINE
  5
8B5
330
1F
100
AcDbEntity
  8
0
  6
PHANTOM
 62
     8
370
     0
100
AcDbLine
 10
662.9122680674
 20
15.4531824994
 30
0.0
 11
792.8345814796
 21
19.9467865797
 31
0.0
  0
LINE
  5
8B6
330
1F
100
AcDbEntity
  8
0
  6
PHANTOM
 62
     8
370
     0
100
AcDbLine
 10
383.1786407862
 20
8.0824240281
 30
0.0
 11
643.1014321455
 21
14.4182374705
 31
0.0
  0
LINE
  5
8B7
330
1F
100
AcDbEntity
  8
0
  6
PHANTOM
 62
     8
370
     0
100
AcDbLine
 10
638.2247594933
 20
9.2978796859
 30
0.0
 11
624.8224082901
 21
559.1209713995
 31
0.0
  0
LINE
  5
8B8
330
1F
100
AcDbEntity
  8
0
  6
PHANTOM
 62
     8
370
     0
100
AcDbLine
 10
626.0241743909
 20
509.8192673149
 30
0.0
 11
506.0598091481
 21
506.895045726
 31
0.0
  0
LINE
  5
8B9
330
1F
100
AcDbEntity
  8
0
  6
PHANTOM
 62
     8
370
     0
100
AcDbLine
 10
504.8580430473
 20
556.1967498106
 30
0.0
 11
518.2603942505
 21
6.373658097
 31
0.0
  0
LINE
  5
8BA
330
1F
100
AcDbEntity
  8
0
  6
PHANTOM
 62
     8
370
     0
100
AcDbLine
 10
625.8830251475
 20
515.6098269141
 30
0.0
 11
505.9186599047
 21
512.6856053254
 31
0.0
  0
LINE
  5
8BB
330
1F
100
AcDbEntity
  8
0
  6
PHANTOM
 62
     8
370
     0
100
AcDbLine
 10
624.9230931167
 20
554.9904392397
 30
0.0
 11
504.9587278739
 21
552.0662176509
 31
0.0
  0
LINE
  5
8BC
330
1F
100
AcDbEntity
  8
0
  6
PHANTOM
 62
     8
370
     0
100
AcDbLine
 10
508.1326289024
 20
421.8589092628
 30
0.0
 11
628.0969941451
 21
424.7831308517
 31
0.0
  0
LINE
  5
8BD
330
1F
100
AcDbEntity
  8
0
  6
PHANTOM
 62
     8
370
     0
100
AcDbLine
 10
649.0711787978
 20
560.2867491146
 30
0.0
 11
668.0821110479
 21
10.6290013712
 31
0.0
  0
LINE
  5
8BE
330
1F
100
AcDbEntity
  8
0
  6
PHANTOM
 62
     8
370
     0
100
AcDbLine
 10
788.0104003514
 20
14.7769435992
 30
0.0
 11
768.9994681014
 21
564.4346913426
 31
0.0
  0
LINE
  5
8BF
330
1F
100
AcDbEntity
  8
0
  6
PHANTOM
 62
     8
370
     0
100
AcDbLine
 10
770.704146152
 20
515.1478133714
 30
0.0
 11
650.7758568484
 21
510.9998711434
 31
0.0
  0
LINE
  5
8C0
330
1F
100
AcDbEntity
  8
0
  6
PHANTOM
 62
     8
370
     0
100
AcDbLine
 10
770.5039291405
 20
520.9366316212
 30
0.0
 11
650.575639837
 21
516.7886893934
 31
0.0
  0
LINE
  5
8C1
330
1F
100
AcDbEntity
  8
0
  6
PHANTOM
 62
     8
370
     0
100
AcDbLine
 10
769.1422872521
 20
560.3054013253
 30
0.0
 11
649.2139979486
 21
556.1574590973
 31
0.0
  0
LINE
  5
8C2
330
1F
100
AcDbEntity
  8
0
  6
PHANTOM
 62
     8
370
     0
100
AcDbLine
 10
653.7161048181
 20
425.9893069281
 30
0.0
 11
773.6443941217
 21
430.1372491561
 31
0.0
  0
LINE
  5
8C3
330
1F
100
AcDbEntity
  8
0
  6
PHANTOM
 62
     8
370
     0
100
AcDbLine
 10
-1359.6190152958
 20
597.3579039885
 30
0.0
 11
-1363.6101297945
 21
597.6243717325
 31
0.0
  0
LINE
  5
8C4
330
1F
100
AcDbEntity
  8
0
  6
PHANTOM
 62
     8
370
     0
100
AcDbLine
 10
-1368.6399949448
 20
582.3325856911
 30
0.0
 11
-1368.7260551983
 21
581.0435879307
 31
0.0
  0
LINE
  5
8C5
330
1F
100
AcDbEntity
  8
0
  6
PHANTOM
 62
     8
370
     0
100
AcDbLine
 10
-1369.5010868878
 20
569.4352777953
 30
0.0
 11
-1372.1722163515
 21
529.4274953483
 31
0.0
  0
LINE
  5
8C6
330
1F
100
AcDbEntity
  8
0
  6
PHANTOM
 62
     8
370
     0
100
AcDbLine
 10
-1079.1100041079
 20
565.0206619261
 30
0.0
 11
-1079.1724383197
 21
563.8047476438
 31
0.0
  0
LINE
  5
8C7
330
1F
100
AcDbEntity
  8
0
  6
PHANTOM
 62
     8
370
     0
100
AcDbLine
 10
-1079.7691035747
 20
552.184615269
 30
0.0
 11
-1081.8256013693
 21
512.1340569352
 31
0.0
  0
LINE
  5
8C8
330
1F
100
AcDbEntity
  8
0
  6
PHANTOM
 62
     8
370
     0
100
AcDbLine
 10
-1070.320926316
 20
580.1827981652
 30
0.0
 11
-1074.3156635799
 21
580.3879181115
 31
0.0
  0
LINE
  5
8C9
330
1F
100
AcDbEntity
  8
0
  6
PHANTOM
 62
     8
370
     0
100
AcDbLine
 10
-792.8345814795
 20
19.94678658
 30
0.0
 11
-662.9122680674
 21
15.4531824997
 31
0.0
  0
LINE
  5
8CA
330
1F
100
AcDbEntity
  8
0
  6
PHANTOM
 62
     8
370
     0
100
AcDbLine
 10
-942.5392904904
 20
26.1019000395
 30
0.0
 11
-812.6695820361
 21
20.2830663075
 31
0.0
  0
LINE
  5
8CB
330
1F
100
AcDbEntity
  8
0
  6
PHANTOM
 62
     8
370
     0
100
AcDbLine
 10
-1090.8923101972
 20
33.2920648268
 30
0.0
 11
-961.0467045509
 21
26.958132844
 31
0.0
  0
LINE
  5
8CC
330
1F
100
AcDbEntity
  8
0
  6
PHANTOM
 62
     8
370
     0
100
AcDbLine
 10
-1239.2146516626
 20
41.0901428747
 30
0.0
 11
-1109.3951918348
 21
34.2412123003
 31
0.0
  0
LINE
  5
8CD
330
1F
100
AcDbEntity
  8
0
  6
PHANTOM
 62
     8
370
     0
100
AcDbLine
 10
-1388.7310412591
 20
50.858976314
 30
0.0
 11
-1258.988210006
 21
42.6859879716
 31
0.0
  0
LINE
  5
8CE
330
1F
100
AcDbEntity
  8
0
  6
PHANTOM
 62
     8
370
     0
100
AcDbLine
 10
-1667.8539476922
 20
70.7495121703
 30
0.0
 11
-1408.5485503544
 21
51.7571212859
 31
0.0
  0
LINE
  5
8CF
330
1F
100
AcDbEntity
  8
0
  6
PHANTOM
 62
     8
370
     0
100
AcDbLine
 10
-1413.9004308972
 20
47.1357173157
 30
0.0
 11
-1373.7252118625
 21
595.6528154765
 31
0.0
  0
LINE
  5
8D0
330
1F
100
AcDbEntity
  8
0
  6
PHANTOM
 62
     8
370
     0
100
AcDbLine
 10
-1377.3276556126
 20
546.4682176188
 30
0.0
 11
-1497.0070697685
 21
555.2339364884
 31
0.0
  0
LINE
  5
8D1
330
1F
100
AcDbEntity
  8
0
  6
PHANTOM
 62
     8
370
     0
100
AcDbLine
 10
-1493.4046260184
 20
604.4185343461
 30
0.0
 11
-1533.5798450531
 21
55.9014361853
 31
0.0
  0
LINE
  5
8D2
330
1F
100
AcDbEntity
  8
0
  6
PHANTOM
 62
     8
370
     0
100
AcDbLine
 10
-1376.9045431538
 20
552.2450229148
 30
0.0
 11
-1496.5839573097
 21
561.0107417846
 31
0.0
  0
LINE
  5
8D3
330
1F
100
AcDbEntity
  8
0
  6
PHANTOM
 62
     8
370
     0
100
AcDbLine
 10
-1374.0270271859
 20
591.5320945606
 30
0.0
 11
-1493.7064413418
 21
600.2978134302
 31
0.0
  0
LINE
  5
8D4
330
1F
100
AcDbEntity
  8
0
  6
PHANTOM
 62
     8
370
     0
100
AcDbLine
 10
-1503.2206054671
 20
470.3997861688
 30
0.0
 11
-1383.5411913112
 21
461.6340672992
 31
0.0
  0
LINE
  5
8D5
330
1F
100
AcDbEntity
  8
0
  6
PHANTOM
 62
     8
370
     0
100
AcDbLine
 10
-1349.47810463
 20
594.4529406189
 30
0.0
 11
-1384.0552780702
 21
45.5545217142
 31
0.0
  0
LINE
  5
8D6
330
1F
100
AcDbEntity
  8
0
  6
PHANTOM
 62
     8
370
     0
100
AcDbLine
 10
-1264.2926646059
 20
38.0102247827
 30
0.0
 11
-1229.7154911657
 21
586.9086436875
 31
0.0
  0
LINE
  5
8D7
330
1F
100
AcDbEntity
  8
0
  6
PHANTOM
 62
     8
370
     0
100
AcDbLine
 10
-1232.8159676621
 20
537.6898534454
 30
0.0
 11
-1352.5785811264
 21
545.2341503768
 31
0.0
  0
LINE
  5
8D8
330
1F
100
AcDbEntity
  8
0
  6
PHANTOM
 62
     8
370
     0
100
AcDbLine
 10
-1232.4518120153
 20
543.4706746886
 30
0.0
 11
-1352.2144254796
 21
551.0149716202
 31
0.0
  0
LINE
  5
8D9
330
1F
100
AcDbEntity
  8
0
  6
PHANTOM
 62
     8
370
     0
100
AcDbLine
 10
-1229.9752513122
 20
582.785058109
 30
0.0
 11
-1349.7378647766
 21
590.3293550404
 31
0.0
  0
LINE
  5
8DA
330
1F
100
AcDbEntity
  8
0
  6
PHANTOM
 62
     8
370
     0
100
AcDbLine
 10
-1357.9263180321
 20
460.3410246462
 30
0.0
 11
-1238.1637045678
 21
452.7967277148
 31
0.0
  0
LINE
  5
8DB
330
1F
100
AcDbEntity
  8
0
  6
PHANTOM
 62
     8
370
     0
100
AcDbLine
 10
-2083.0179389829
 20
600.5983797641
 30
0.0
 11
-2212.3495214875
 21
613.7643118184
 31
0.0
  0
LINE
  5
8DC
330
1F
100
AcDbEntity
  8
0
  6
PHANTOM
 62
     8
370
     0
100
AcDbLine
 10
-2138.1087618033
 20
108.800057386
 30
0.0
 11
-2087.4858486156
 21
606.0790534009
 31
0.0
  0
LINE
  5
8DD
330
1F
100
AcDbEntity
  8
0
  6
PHANTOM
 62
     8
370
     0
100
AcDbLine
 10
-2261.959670671
 20
126.433899073
 30
0.0
 11
-2132.6280881664
 21
113.2679670187
 31
0.0
  0
LINE
  5
8DE
330
1F
100
AcDbEntity
  8
0
  6
PHANTOM
 62
     8
370
     0
100
AcDbLine
 10
-2206.8688478506
 20
618.2322214511
 30
0.0
 11
-2257.4917610383
 21
120.9532254361
 31
0.0
  0
LINE
  5
8DF
330
1F
100
AcDbEntity
  8
0
  6
PHANTOM
 62
     8
370
     0
100
AcDbLine
 10
60.0
 20
0.116320796
 30
0.0
 11
60.0
 21
499.9653772292
 31
0.0
  0
LINE
  5
8E0
330
1F
100
AcDbEntity
  8
0
  6
PHANTOM
 62
     8
370
     0
100
AcDbLine
 10
-65.0
 20
5.116320796
 30
0.0
 11
65.0
 21
5.116320796
 31
0.0
  0
LINE
  5
8E1
330
1F
100
AcDbEntity
  8
0
  6
PHANTOM
 62
     8
370
     0
100
AcDbLine
 10
65.0
 20
494.9653772292
 30
0.0
 11
-65.0
 21
494.9653772293
 31
0.0
  0
LINE
  5
8E2
330
1F
100
AcDbEntity
  8
0
  6
PHANTOM
 62
     8
370
     0
100
AcDbLine
 10
-60.0
 20
499.9653772293
 30
0.0
 11
-60.0
 21
0.116320796
 31
0.0
  0
LINE
  5
8E3
330
1F
100
AcDbEntity
  8
0
  6
PHANTOM
 62
     8
370
     0
100
AcDbLine
 10
-2061.0538149167
 20
603.4314169818
 30
0.0
 11
-2109.7038121008
 21
105.9555311428
 31
0.0
  0
LINE
  5
8E4
330
1F
100
AcDbEntity
  8
0
  6
PHANTOM
 62
     8
370
     0
100
AcDbLine
 10
-2114.1934263442
 20
111.4184391547
 30
0.0
 11
-1984.8106370266
 21
98.7656201636
 31
0.0
  0
LINE
  5
8E5
330
1F
100
AcDbEntity
  8
0
  6
PHANTOM
 62
     8
370
     0
100
AcDbLine
 10
-1990.2735450385
 20
94.2760059203
 30
0.0
 11
-1941.6235478544
 21
591.7518917592
 31
0.0
  0
LINE
  5
8E6
330
1F
100
AcDbEntity
  8
0
  6
PHANTOM
 62
     8
370
     0
100
AcDbLine
 10
-1937.1339336111
 20
586.2889837473
 30
0.0
 11
-2066.5167229286
 21
598.9418027384
 31
0.0
  0
LINE
  5
8E7
330
1F
100
AcDbEntity
  8
0
  6
PHANTOM
 62
     8
370
     0
100
AcDbLine
 10
793.2708375365
 20
564.9470726218
 30
0.0
 11
817.8883721202
 21
15.511878818
 31
0.0
  0
LINE
  5
8E8
330
1F
100
AcDbEntity
  8
0
  6
PHANTOM
 62
     8
370
     0
100
AcDbLine
 10
937.7681030011
 20
20.8831099552
 30
0.0
 11
913.1505684174
 21
570.318303759
 31
0.0
  0
LINE
  5
8E9
330
1F
100
AcDbEntity
  8
0
  6
PHANTOM
 62
     8
370
     0
100
AcDbLine
 10
915.35798099
 20
521.0513818222
 30
0.0
 11
795.4782501091
 21
515.6801506849
 31
0.0
  0
LINE
  5
8EA
330
1F
100
AcDbEntity
  8
0
  6
PHANTOM
 62
     8
370
     0
100
AcDbLine
 10
915.0987170497
 20
526.8378562056
 30
0.0
 11
795.2189861688
 21
521.4666250686
 31
0.0
  0
LINE
  5
8EB
330
1F
100
AcDbEntity
  8
0
  6
PHANTOM
 62
     8
370
     0
100
AcDbLine
 10
913.3355070273
 20
566.1906856726
 30
0.0
 11
793.4557761465
 21
560.8194545354
 31
0.0
  0
LINE
  5
8EC
330
1F
100
AcDbEntity
  8
0
  6
PHANTOM
 62
     8
370
     0
100
AcDbLine
 10
799.2856202647
 20
430.7040068631
 30
0.0
 11
919.1653511456
 21
436.0752380004
 31
0.0
  0
LINE
  5
8ED
330
1F
100
AcDbEntity
  8
0
  6
PHANTOM
 62
     8
370
     0
100
AcDbLine
 10
1086.1418612101
 20
28.0543903023
 30
0.0
 11
1059.3451186294
 21
577.3876132065
 31
0.0
  0
LINE
  5
8EE
330
1F
100
AcDbEntity
  8
0
  6
PHANTOM
 62
     8
370
     0
100
AcDbLine
 10
1061.7479370869
 20
528.1298348272
 30
0.0
 11
941.8904549519
 21
522.2831283816
 31
0.0
  0
LINE
  5
8EF
330
1F
100
AcDbEntity
  8
0
  6
PHANTOM
 62
     8
370
     0
100
AcDbLine
 10
939.4876364944
 20
571.5409067609
 30
0.0
 11
966.2843790751
 21
22.2076838567
 31
0.0
  0
LINE
  5
8F0
330
1F
100
AcDbEntity
  8
0
  6
PHANTOM
 62
     8
370
     0
100
AcDbLine
 10
1061.4657224304
 20
533.915235286
 30
0.0
 11
941.6082402954
 21
528.0685288406
 31
0.0
  0
LINE
  5
8F1
330
1F
100
AcDbEntity
  8
0
  6
PHANTOM
 62
     8
370
     0
100
AcDbLine
 10
1059.5464284846
 20
573.2607611739
 30
0.0
 11
939.6889463496
 21
567.4140547283
 31
0.0
  0
LINE
  5
8F2
330
1F
100
AcDbEntity
  8
0
  6
PHANTOM
 62
     8
370
     0
100
AcDbLine
 10
946.0348633866
 20
437.3227554714
 30
0.0
 11
1065.8923455215
 21
443.169461917
 31
0.0
  0
LINE
  5
8F3
330
1F
100
AcDbEntity
  8
0
  6
PHANTOM
 62
     8
370
     0
100
AcDbLine
 10
1085.6761394349
 20
578.7341852721
 30
0.0
 11
1114.6516683887
 21
29.5115765594
 31
0.0
  0
LINE
  5
8F4
330
1F
100
AcDbEntity
  8
0
  6
PHANTOM
 62
     8
370
     0
100
AcDbLine
 10
1234.4850159221
 20
35.8336663205
 30
0.0
 11
1205.5094869683
 21
585.0562750331
 31
0.0
  0
LINE
  5
8F5
330
1F
100
AcDbEntity
  8
0
  6
PHANTOM
 62
     8
370
     0
100
AcDbLine
 10
1208.1076735044
 20
535.8084152408
 30
0.0
 11
1088.2743259711
 21
529.4863254798
 31
0.0
  0
LINE
  5
8F6
330
1F
100
AcDbEntity
  8
0
  6
PHANTOM
 62
     8
370
     0
100
AcDbLine
 10
1207.802512572
 20
541.5926507466
 30
0.0
 11
1087.9691650387
 21
535.2705609857
 31
0.0
  0
LINE
  5
8F7
330
1F
100
AcDbEntity
  8
0
  6
PHANTOM
 62
     8
370
     0
100
AcDbLine
 10
1205.7271649014
 20
580.9302539869
 30
0.0
 11
1085.893817368
 21
574.6081642258
 31
0.0
  0
LINE
  5
8F8
330
1F
100
AcDbEntity
  8
0
  6
PHANTOM
 62
     8
370
     0
100
AcDbLine
 10
1092.755707476
 20
444.5430602604
 30
0.0
 11
1212.5890550094
 21
450.8651500215
 31
0.0
  0
LINE
  5
8F9
330
1F
100
AcDbEntity
  8
0
  6
PHANTOM
 62
     8
370
     0
100
AcDbLine
 10
1384.0552780702
 20
45.5545217139
 30
0.0
 11
1349.4781046299
 21
594.4529406186
 31
0.0
  0
LINE
  5
8FA
330
1F
100
AcDbEntity
  8
0
  6
PHANTOM
 62
     8
370
     0
100
AcDbLine
 10
1352.5785811263
 20
545.2341503765
 30
0.0
 11
1232.8159676619
 21
537.6898534451
 31
0.0
  0
LINE
  5
8FB
330
1F
100
AcDbEntity
  8
0
  6
PHANTOM
 62
     8
370
     0
100
AcDbLine
 10
1229.7154911655
 20
586.9086436872
 30
0.0
 11
1264.2926646059
 21
38.0102247824
 31
0.0
  0
LINE
  5
8FC
330
1F
100
AcDbEntity
  8
0
  6
PHANTOM
 62
     8
370
     0
100
AcDbLine
 10
1352.2144254795
 20
551.0149716197
 30
0.0
 11
1232.4518120151
 21
543.4706746885
 31
0.0
  0
LINE
  5
8FD
330
1F
100
AcDbEntity
  8
0
  6
PHANTOM
 62
     8
370
     0
100
AcDbLine
 10
1349.7378647764
 20
590.3293550402
 30
0.0
 11
1229.9752513121
 21
582.7850581087
 31
0.0
  0
LINE
  5
8FE
330
1F
100
AcDbEntity
  8
0
  6
PHANTOM
 62
     8
370
     0
100
AcDbLine
 10
1238.1637045677
 20
452.7967277145
 30
0.0
 11
1357.926318032
 21
460.341024646
 31
0.0
  0
LINE
  5
8FF
330
1F
100
AcDbEntity
  8
0
  6
PHANTOM
 62
     8
370
     0
100
AcDbLine
 10
1373.7252118625
 20
595.6528154762
 30
0.0
 11
1413.9004308972
 21
47.1357173154
 31
0.0
  0
LINE
  5
900
330
1F
100
AcDbEntity
  8
0
  6
PHANTOM
 62
     8
370
     0
100
AcDbLine
 10
1533.5798450531
 20
55.901436185
 30
0.0
 11
1493.4046260184
 21
604.4185343459
 31
0.0
  0
LINE
  5
901
330
1F
100
AcDbEntity
  8
0
  6
PHANTOM
 62
     8
370
     0
100
AcDbLine
 10
1497.0070697684
 20
555.2339364881
 30
0.0
 11
1377.3276556125
 21
546.4682176185
 31
0.0
  0
LINE
  5
902
330
1F
100
AcDbEntity
  8
0
  6
PHANTOM
 62
     8
370
     0
100
AcDbLine
 10
1496.5839573096
 20
561.0107417841
 30
0.0
 11
1376.9045431537
 21
552.2450229147
 31
0.0
  0
LINE
  5
903
330
1F
100
AcDbEntity
  8
0
  6
PHANTOM
 62
     8
370
     0
100
AcDbLine
 10
1493.7064413418
 20
600.2978134299
 30
0.0
 11
1374.0270271859
 21
591.5320945603
 31
0.0
  0
LINE
  5
904
330
1F
100
AcDbEntity
  8
0
  6
PHANTOM
 62
     8
370
     0
100
AcDbLine
 10
1383.5411913111
 20
461.6340672989
 30
0.0
 11
1503.220605467
 21
470.3997861685
 31
0.0
  0
LINE
  5
905
330
1F
100
AcDbEntity
  8
0
  6
PHANTOM
 62
     8
370
     0
100
AcDbLine
 10
-1114.6516683887
 20
29.5115765597
 30
0.0
 11
-1085.6761394349
 21
578.7341852724
 31
0.0
  0
LINE
  5
906
330
1F
100
AcDbEntity
  8
0
  6
PHANTOM
 62
     8
370
     0
100
AcDbLine
 10
-1088.2743259711
 20
529.4863254801
 30
0.0
 11
-1208.1076735045
 21
535.8084152411
 31
0.0
  0
LINE
  5
907
330
1F
100
AcDbEntity
  8
0
  6
PHANTOM
 62
     8
370
     0
100
AcDbLine
 10
-1205.5094869683
 20
585.0562750335
 30
0.0
 11
-1234.4850159221
 21
35.8336663208
 31
0.0
  0
LINE
  5
908
330
1F
100
AcDbEntity
  8
0
  6
PHANTOM
 62
     8
370
     0
100
AcDbLine
 10
-1087.9691650387
 20
535.2705609859
 30
0.0
 11
-1207.8025125721
 21
541.5926507471
 31
0.0
  0
LINE
  5
909
330
1F
100
AcDbEntity
  8
0
  6
PHANTOM
 62
     8
370
     0
100
AcDbLine
 10
-1085.8938173681
 20
574.6081642261
 30
0.0
 11
-1205.7271649014
 21
580.9302539872
 31
0.0
  0
LINE
  5
90A
330
1F
100
AcDbEntity
  8
0
  6
PHANTOM
 62
     8
370
     0
100
AcDbLine
 10
-1212.5890550094
 20
450.8651500218
 30
0.0
 11
-1092.7557074761
 21
444.5430602607
 31
0.0
  0
LINE
  5
90B
330
1F
100
AcDbEntity
  8
0
  6
PHANTOM
 62
     8
370
     0
100
AcDbLine
 10
-1059.3451186294
 20
577.3876132068
 30
0.0
 11
-1086.1418612101
 21
28.0543903026
 31
0.0
  0
LINE
  5
90C
330
1F
100
AcDbEntity
  8
0
  6
PHANTOM
 62
     8
370
     0
100
AcDbLine
 10
-966.2843790751
 20
22.207683857
 30
0.0
 11
-939.4876364944
 21
571.5409067612
 31
0.0
  0
LINE
  5
90D
330
1F
100
AcDbEntity
  8
0
  6
PHANTOM
 62
     8
370
     0
100
AcDbLine
 10
-941.8904549519
 20
522.2831283819
 30
0.0
 11
-1061.7479370869
 21
528.1298348275
 31
0.0
  0
LINE
  5
90E
330
1F
100
AcDbEntity
  8
0
  6
PHANTOM
 62
     8
370
     0
100
AcDbLine
 10
-941.6082402954
 20
528.0685288407
 30
0.0
 11
-1061.4657224303
 21
533.9152352865
 31
0.0
  0
LINE
  5
90F
330
1F
100
AcDbEntity
  8
0
  6
PHANTOM
 62
     8
370
     0
100
AcDbLine
 10
-939.6889463496
 20
567.4140547286
 30
0.0
 11
-1059.5464284846
 21
573.2607611742
 31
0.0
  0
LINE
  5
910
330
1F
100
AcDbEntity
  8
0
  6
PHANTOM
 62
     8
370
     0
100
AcDbLine
 10
-1065.8923455215
 20
443.1694619173
 30
0.0
 11
-946.0348633866
 21
437.3227554717
 31
0.0
  0
LINE
  5
911
330
1F
100
AcDbEntity
  8
0
  6
PHANTOM
 62
     8
370
     0
100
AcDbLine
 10
-913.1505684174
 20
570.3183037593
 30
0.0
 11
-937.7681030011
 21
20.8831099555
 31
0.0
  0
LINE
  5
912
330
1F
100
AcDbEntity
  8
0
  6
PHANTOM
 62
     8
370
     0
100
AcDbLine
 10
-817.8883721202
 20
15.5118788182
 30
0.0
 11
-793.2708375366
 21
564.9470726221
 31
0.0
  0
LINE
  5
913
330
1F
100
AcDbEntity
  8
0
  6
PHANTOM
 62
     8
370
     0
100
AcDbLine
 10
-795.4782501091
 20
515.6801506852
 30
0.0
 11
-915.35798099
 21
521.0513818224
 31
0.0
  0
LINE
  5
914
330
1F
100
AcDbEntity
  8
0
  6
PHANTOM
 62
     8
370
     0
100
AcDbLine
 10
-795.2189861689
 20
521.4666250687
 30
0.0
 11
-915.0987170498
 21
526.8378562061
 31
0.0
  0
LINE
  5
915
330
1F
100
AcDbEntity
  8
0
  6
PHANTOM
 62
     8
370
     0
100
AcDbLine
 10
-793.4557761465
 20
560.8194545357
 30
0.0
 11
-913.3355070274
 21
566.1906856729
 31
0.0
  0
LINE
  5
916
330
1F
100
AcDbEntity
  8
0
  6
PHANTOM
 62
     8
370
     0
100
AcDbLine
 10
-919.1653511456
 20
436.0752380007
 30
0.0
 11
-799.2856202647
 21
430.7040068634
 31
0.0
  0
LINE
  5
917
330
1F
100
AcDbEntity
  8
0
  6
PHANTOM
 62
     8
370
     0
100
AcDbLine
 10
-668.0821110479
 20
10.6290013715
 30
0.0
 11
-649.071178798
 21
560.2867491149
 31
0.0
  0
LINE
  5
918
330
1F
100
AcDbEntity
  8
0
  6
PHANTOM
 62
     8
370
     0
100
AcDbLine
 10
-650.7758568486
 20
510.9998711437
 30
0.0
 11
-770.7041461521
 21
515.1478133717
 31
0.0
  0
LINE
  5
919
330
1F
100
AcDbEntity
  8
0
  6
PHANTOM
 62
     8
370
     0
100
AcDbLine
 10
-768.9994681015
 20
564.4346913429
 30
0.0
 11
-788.0104003514
 21
14.7769435995
 31
0.0
  0
LINE
  5
91A
330
1F
100
AcDbEntity
  8
0
  6
PHANTOM
 62
     8
370
     0
100
AcDbLine
 10
-650.5756398371
 20
516.7886893935
 30
0.0
 11
-770.5039291407
 21
520.9366316217
 31
0.0
  0
LINE
  5
91B
330
1F
100
AcDbEntity
  8
0
  6
PHANTOM
 62
     8
370
     0
100
AcDbLine
 10
-649.2139979488
 20
556.1574590976
 30
0.0
 11
-769.1422872523
 21
560.3054013256
 31
0.0
  0
LINE
  5
91C
330
1F
100
AcDbEntity
  8
0
  6
PHANTOM
 62
     8
370
     0
100
AcDbLine
 10
-773.6443941218
 20
430.1372491564
 30
0.0
 11
-653.7161048182
 21
425.9893069284
 31
0.0
  0
LINE
  5
91D
330
1F
100
AcDbEntity
  8
0
  6
PHANTOM
 62
     8
370
     0
100
AcDbLine
 10
-624.8224082901
 20
559.1209713998
 30
0.0
 11
-638.2247594933
 21
9.2978796862
 31
0.0
  0
LINE
  5
91E
330
1F
100
AcDbEntity
  8
0
  6
PHANTOM
 62
     8
370
     0
100
AcDbLine
 10
-518.2603942505
 20
6.3736580973
 30
0.0
 11
-504.8580430474
 21
556.1967498109
 31
0.0
  0
LINE
  5
91F
330
1F
100
AcDbEntity
  8
0
  6
PHANTOM
 62
     8
370
     0
100
AcDbLine
 10
-506.0598091482
 20
506.8950457264
 30
0.0
 11
-626.0241743909
 21
509.8192673152
 31
0.0
  0
LINE
  5
920
330
1F
100
AcDbEntity
  8
0
  6
PHANTOM
 62
     8
370
     0
100
AcDbLine
 10
-505.9186599047
 20
512.6856053256
 30
0.0
 11
-625.8830251475
 21
515.6098269146
 31
0.0
  0
LINE
  5
921
330
1F
100
AcDbEntity
  8
0
  6
PHANTOM
 62
     8
370
     0
100
AcDbLine
 10
-504.958727874
 20
552.0662176512
 30
0.0
 11
-624.9230931167
 21
554.99043924
 31
0.0
  0
LINE
  5
922
330
1F
100
AcDbEntity
  8
0
  6
PHANTOM
 62
     8
370
     0
100
AcDbLine
 10
-628.0969941452
 20
424.783130852
 30
0.0
 11
-508.1326289024
 21
421.8589092632
 31
0.0
  0
LINE
  5
923
330
1F
100
AcDbEntity
  8
0
  6
PHANTOM
 62
     8
370
     0
100
AcDbLine
 10
1363.6101297945
 20
597.6243717322
 30
0.0
 11
1359.6190152959
 21
597.3579039882
 31
0.0
  0
LINE
  5
924
330
1F
100
AcDbEntity
  8
0
  6
PHANTOM
 62
     8
370
     0
100
AcDbLine
 10
1372.1722163515
 20
529.4274953479
 30
0.0
 11
1369.5010868879
 21
569.4352777949
 31
0.0
  0
LINE
  5
925
330
1F
100
AcDbEntity
  8
0
  6
PHANTOM
 62
     8
370
     0
100
AcDbLine
 10
1368.7260551983
 20
581.0435879303
 30
0.0
 11
1368.6399949449
 21
582.3325856908
 31
0.0
  0
LINE
  5
926
330
1F
100
AcDbEntity
  8
0
  6
PHANTOM
 62
     8
370
     0
100
AcDbLine
 10
1074.3156635799
 20
580.3879181112
 30
0.0
 11
1070.320926316
 21
580.1827981649
 31
0.0
  0
LINE
  5
927
330
1F
100
AcDbEntity
  8
0
  6
PHANTOM
 62
     8
370
     0
100
AcDbLine
 10
1081.8256013693
 20
512.1340569349
 30
0.0
 11
1079.7691035747
 21
552.1846152687
 31
0.0
  0
LINE
  5
928
330
1F
100
AcDbEntity
  8
0
  6
PHANTOM
 62
     8
370
     0
100
AcDbLine
 10
1079.1724383197
 20
563.8047476435
 30
0.0
 11
1079.1100041079
 21
565.0206619258
 31
0.0
  0
LINE
  5
929
330
1F
100
AcDbEntity
  8
0
  6
PHANTOM
 62
     8
370
     0
100
AcDbLine
 10
-632.8136996687
 20
493.3612262416
 30
0.0
 11
-631.5782146772
 21
533.4390401263
 31
0.0
  0
LINE
  5
92A
330
1F
100
AcDbEntity
  8
0
  6
PHANTOM
 62
     8
370
     0
100
AcDbLine
 10
-631.2197370992
 20
545.0676699745
 30
0.0
 11
-631.1799314092
 21
546.3589240551
 31
0.0
  0
LINE
  5
92B
330
1F
100
AcDbEntity
  8
0
  6
PHANTOM
 62
     8
370
     0
100
AcDbLine
 10
-634.6975758877
 20
562.0676617857
 30
0.0
 11
-638.6956766143
 21
562.1909118576
 31
0.0
  0
LINE
  5
92C
330
1F
100
AcDbEntity
  8
0
  6
PHANTOM
 62
     8
370
     0
100
AcDbLine
 10
-924.2961505083
 20
573.0698930836
 30
0.0
 11
-928.2918858572
 21
573.2545522892
 31
0.0
  0
LINE
  5
92D
330
1F
100
AcDbEntity
  8
0
  6
PHANTOM
 62
     8
370
     0
100
AcDbLine
 10
-923.4649739861
 20
504.4091482823
 30
0.0
 11
-921.6136121077
 21
544.4697132462
 31
0.0
  0
LINE
  5
92E
330
1F
100
AcDbEntity
  8
0
  6
PHANTOM
 62
     8
370
     0
100
AcDbLine
 10
-921.0764642877
 20
556.0927489105
 30
0.0
 11
-921.0202578965
 21
557.3089669889
 31
0.0
  0
LINE
  5
92F
330
1F
100
AcDbEntity
  8
0
  6
PHANTOM
 62
     8
370
     0
100
AcDbLine
 10
83.5271515998
 20
5.1628333711
 30
0.0
 11
213.52612888
 21
5.6784942163
 31
0.0
  0
LINE
  5
930
330
1F
100
AcDbEntity
  8
0
  6
PHANTOM
 62
     8
370
     0
100
AcDbLine
 10
208.5460013248
 20
0.6587004423
 30
0.0
 11
206.5632891175
 21
500.5038245253
 31
0.0
  0
LINE
  5
931
330
1F
100
AcDbEntity
  8
0
  6
PHANTOM
 62
     8
370
     0
100
AcDbLine
 10
211.5830828915
 20
495.5236969701
 30
0.0
 11
81.5841056114
 21
495.0080361248
 31
0.0
  0
LINE
  5
932
330
1F
100
AcDbEntity
  8
0
  6
PHANTOM
 62
     8
370
     0
100
AcDbLine
 10
86.5642331666
 20
500.0278298989
 30
0.0
 11
88.5469453739
 21
0.1827058159
 31
0.0
  0
LINE
  5
933
330
1F
100
AcDbEntity
  8
0
  6
PHANTOM
 62
     8
370
     0
100
AcDbLine
 10
-1842.380017155
 20
80.3579207271
 30
0.0
 11
-1795.703701441
 21
578.0228690293
 31
0.0
  0
LINE
  5
934
330
1F
100
AcDbEntity
  8
0
  6
PHANTOM
 62
     8
370
     0
100
AcDbLine
 10
-1791.1924532274
 20
572.5778125967
 30
0.0
 11
-1920.6244136294
 21
584.7173194432
 31
0.0
  0
LINE
  5
935
330
1F
100
AcDbEntity
  8
0
  6
PHANTOM
 62
     8
370
     0
100
AcDbLine
 10
-1915.1793571968
 20
589.2285676569
 30
0.0
 11
-1961.8556729108
 21
91.5636193547
 31
0.0
  0
LINE
  5
936
330
1F
100
AcDbEntity
  8
0
  6
PHANTOM
 62
     8
370
     0
100
AcDbLine
 10
-1966.3669211244
 20
97.0086757874
 30
0.0
 11
-1836.9349607224
 21
84.8691689408
 31
0.0
  0
ARC
  5
937
330
1F
100
AcDbEntity
  8
0
  6
Continuous
 62
     7
370
    15
100
AcDbCircle
 10
504.9798856135
 20
551.1982345921
 30
0.0
 40
5.000000000000155
100
AcDbArc
 50
91.3963511829
 51
181.3963511829
  0
ARC
  5
938
330
1F
100
AcDbEntity
  8
0
  6
Continuous
 62
     7
370
    15
100
AcDbCircle
 10
624.9442508563
 20
554.122456181
 30
0.0
 40
5.000000000000117
100
AcDbArc
 50
1.3963511829
 51
91.3963511829
  0
ARC
  5
939
330
1F
100
AcDbEntity
  8
0
  6
Continuous
 62
     7
370
    15
100
AcDbCircle
 10
508.0126373985
 20
426.7814858035
 30
0.0
 40
4.999999999999825
100
AcDbArc
 50
181.3963511829
 51
271.3963511829
  0
ARC
  5
93A
330
1F
100
AcDbEntity
  8
0
  6
Continuous
 62
     7
370
    15
100
AcDbCircle
 10
627.9770026408
 20
429.7057073924
 30
0.0
 40
5.000000000457136
100
AcDbArc
 50
271.3963511829
 51
1.396351183
  0
ARC
  5
93B
330
1F
100
AcDbEntity
  8
0
  6
Continuous
 62
     7
370
    15
100
AcDbCircle
 10
649.244009724
 20
555.2897370603
 30
0.0
 40
5.00000000000007
100
AcDbArc
 50
91.9808911298
 51
181.9808911298
  0
ARC
  5
93C
330
1F
100
AcDbEntity
  8
0
  6
Continuous
 62
     7
370
    15
100
AcDbCircle
 10
769.1722990275
 20
559.4376792883
 30
0.0
 40
4.999999999999854
100
AcDbArc
 50
1.9808911298
 51
91.9808911298
  0
ARC
  5
93D
330
1F
100
AcDbEntity
  8
0
  6
Continuous
 62
     7
370
    15
100
AcDbCircle
 10
653.5458995821
 20
430.9104031411
 30
0.0
 40
5.000000000000051
100
AcDbArc
 50
181.9808911298
 51
271.9808911298
  0
ARC
  5
93E
330
1F
100
AcDbEntity
  8
0
  6
Continuous
 62
     7
370
    15
100
AcDbCircle
 10
773.4741888861
 20
435.0583453691
 30
0.0
 40
4.999999999999656
100
AcDbArc
 50
271.9808911298
 51
1.9808911301
  0
ARC
  5
93F
330
1F
100
AcDbEntity
  8
0
  6
Continuous
 62
     7
370
    15
100
AcDbCircle
 10
-1493.7698643046
 20
599.4318920896
 30
0.0
 40
5.000000000000222
100
AcDbArc
 50
85.8109464514
 51
175.8109464514
  0
ARC
  5
940
330
1F
100
AcDbEntity
  8
0
  6
Continuous
 62
     7
370
    15
100
AcDbCircle
 10
-1374.0904501487
 20
590.66617322
 30
0.0
 40
5.000000000116634
100
AcDbArc
 50
355.8109464515
 51
85.8109464514
  0
ARC
  5
941
330
1F
100
AcDbEntity
  8
0
  6
Continuous
 62
     7
370
    15
100
AcDbCircle
 10
-1502.8609159711
 20
475.3106701245
 30
0.0
 40
5.00000000000042
100
AcDbArc
 50
175.8109464514
 51
265.8109464514
  0
ARC
  5
942
330
1F
100
AcDbEntity
  8
0
  6
Continuous
 62
     7
370
    15
100
AcDbCircle
 10
-1383.1815018152
 20
466.5449512549
 30
0.0
 40
4.999999999999946
100
AcDbArc
 50
265.8109464514
 51
355.8109464516
  0
ARC
  5
943
330
1F
100
AcDbEntity
  8
0
  6
Continuous
 62
     7
370
    15
100
AcDbCircle
 10
-1349.7924503355
 20
589.4628317246
 30
0.0
 40
5.000000000000302
100
AcDbArc
 50
86.3954863984
 51
176.3954863984
  0
ARC
  5
944
330
1F
100
AcDbEntity
  8
0
  6
Continuous
 62
     7
370
    15
100
AcDbCircle
 10
-1230.0298368712
 20
581.9185347932
 30
0.0
 40
5.000000000000188
100
AcDbArc
 50
356.3954863984
 51
86.3954863984
  0
ARC
  5
945
330
1F
100
AcDbEntity
  8
0
  6
Continuous
 62
     7
370
    15
100
AcDbCircle
 10
-1357.6167479442
 20
465.2553225738
 30
0.0
 40
5.000000000000018
100
AcDbArc
 50
176.3954863984
 51
266.3954863984
  0
ARC
  5
946
330
1F
100
AcDbEntity
  8
0
  6
Continuous
 62
     7
370
    15
100
AcDbCircle
 10
-1237.8541344799
 20
457.7110256423
 30
0.0
 40
5.000000000000265
100
AcDbArc
 50
266.3954863984
 51
356.3954863986
  0
ARC
  5
947
330
1F
100
AcDbEntity
  8
0
  6
Continuous
 62
     7
370
    15
100
AcDbCircle
 10
793.4946388339
 20
559.9520838351
 30
0.0
 40
5.000000000000367
100
AcDbArc
 50
92.5654310767
 51
182.5654310767
  0
ARC
  5
948
330
1F
100
AcDbEntity
  8
0
  6
Continuous
 62
     7
370
    15
100
AcDbCircle
 10
913.3743697148
 20
565.3233149723
 30
0.0
 40
5.000000000000227
100
AcDbArc
 50
2.5654310767
 51
92.5654310767
  0
ARC
  5
949
330
1F
100
AcDbEntity
  8
0
  6
Continuous
 62
     7
370
    15
100
AcDbCircle
 10
799.0652190119
 20
435.6231105465
 30
0.0
 40
5.000000000000046
100
AcDbArc
 50
182.5654310767
 51
272.5654310767
  0
ARC
  5
94A
330
1F
100
AcDbEntity
  8
0
  6
Continuous
 62
     7
370
    15
100
AcDbCircle
 10
918.9449498932
 20
440.9943416837
 30
0.0
 40
4.999999999999726
100
AcDbArc
 50
272.5654310767
 51
2.565431077
  0
ARC
  5
94B
330
1F
100
AcDbEntity
  8
0
  6
Continuous
 62
     7
370
    15
100
AcDbCircle
 10
939.7312492629
 20
566.5468450053
 30
0.0
 40
5.000000000000348
100
AcDbArc
 50
92.7927023657
 51
182.7927023657
  0
ARC
  5
94C
330
1F
100
AcDbEntity
  8
0
  6
Continuous
 62
     7
370
    15
100
AcDbCircle
 10
1059.5887313979
 20
572.3935514509
 30
0.0
 40
5.000000000000722
100
AcDbArc
 50
2.7927023657
 51
92.7927023657
  0
ARC
  5
94D
330
1F
100
AcDbEntity
  8
0
  6
Continuous
 62
     7
370
    15
100
AcDbCircle
 10
945.7949516433
 20
442.2409462073
 30
0.0
 40
4.999999999999773
100
AcDbArc
 50
182.7927023657
 51
272.7927023657
  0
ARC
  5
94E
330
1F
100
AcDbEntity
  8
0
  6
Continuous
 62
     7
370
    15
100
AcDbCircle
 10
1065.6524337782
 20
448.0876526529
 30
0.0
 40
5.000000000112548
100
AcDbArc
 50
272.7927023657
 51
2.7927023659
  0
ARC
  5
94F
330
1F
100
AcDbEntity
  8
0
  6
Continuous
 62
     7
370
    15
100
AcDbCircle
 10
1085.9395598416
 20
573.7411291249
 30
0.0
 40
5.000000000000575
100
AcDbArc
 50
93.0199736547
 51
183.0199736547
  0
ARC
  5
950
330
1F
100
AcDbEntity
  8
0
  6
Continuous
 62
     7
370
    15
100
AcDbCircle
 10
1205.772907375
 20
580.0632188859
 30
0.0
 40
4.999999999999948
100
AcDbArc
 50
3.0199736548
 51
93.0199736547
  0
ARC
  5
951
330
1F
100
AcDbEntity
  8
0
  6
Continuous
 62
     7
370
    15
100
AcDbCircle
 10
1092.4962890172
 20
449.4602606654
 30
0.0
 40
4.999999999999896
100
AcDbArc
 50
183.0199736547
 51
273.0199736547
  0
ARC
  5
952
330
1F
100
AcDbEntity
  8
0
  6
Continuous
 62
     7
370
    15
100
AcDbCircle
 10
1212.3296365506
 20
455.7823504265
 30
0.0
 40
4.99999999999958
100
AcDbArc
 50
273.0199736547
 51
3.0199736549
  0
ARC
  5
953
330
1F
100
AcDbEntity
  8
0
  6
Continuous
 62
     7
370
    15
100
AcDbCircle
 10
1230.029836871
 20
581.9185347928
 30
0.0
 40
4.999999999999905
100
AcDbArc
 50
93.6045136016
 51
183.6045136017
  0
ARC
  5
954
330
1F
100
AcDbEntity
  8
0
  6
Continuous
 62
     7
370
    15
100
AcDbCircle
 10
1349.7924503354
 20
589.4628317243
 30
0.0
 40
5.000000000000119
100
AcDbArc
 50
3.6045136017
 51
93.6045136016
  0
ARC
  5
955
330
1F
100
AcDbEntity
  8
0
  6
Continuous
 62
     7
370
    15
100
AcDbCircle
 10
1237.8541344798
 20
457.711025642
 30
0.0
 40
5.000000000000533
100
AcDbArc
 50
183.6045136017
 51
273.6045136016
  0
ARC
  5
956
330
1F
100
AcDbEntity
  8
0
  6
Continuous
 62
     7
370
    15
100
AcDbCircle
 10
1357.6167479444
 20
465.2553225735
 30
0.0
 40
4.999999999999692
100
AcDbArc
 50
273.6045136016
 51
3.6045136019
  0
ARC
  5
957
330
1F
100
AcDbEntity
  8
0
  6
Continuous
 62
     7
370
    15
100
AcDbCircle
 10
1374.0904501487
 20
590.6661732197
 30
0.0
 40
5.00000000000007
100
AcDbArc
 50
94.1890535486
 51
184.1890535486
  0
ARC
  5
958
330
1F
100
AcDbEntity
  8
0
  6
Continuous
 62
     7
370
    15
100
AcDbCircle
 10
1493.7698643046
 20
599.4318920894
 30
0.0
 40
5.000000000000701
100
AcDbArc
 50
4.1890535486
 51
94.1890535486
  0
ARC
  5
959
330
1F
100
AcDbEntity
  8
0
  6
Continuous
 62
     7
370
    15
100
AcDbCircle
 10
1383.1815018151
 20
466.5449512546
 30
0.0
 40
4.99999999999981
100
AcDbArc
 50
184.1890535486
 51
274.1890535486
  0
ARC
  5
95A
330
1F
100
AcDbEntity
  8
0
  6
Continuous
 62
     7
370
    15
100
AcDbCircle
 10
1502.8609159707
 20
475.3106701242
 30
0.0
 40
5.000000000297176
100
AcDbArc
 50
274.1890535486
 51
4.1890535486
  0
ARC
  5
95B
330
1F
100
AcDbEntity
  8
0
  6
Continuous
 62
     7
370
    15
100
AcDbCircle
 10
-1205.772907375
 20
580.0632188862
 30
0.0
 40
5.000000000000103
100
AcDbArc
 50
86.9800263453
 51
176.9800263453
  0
ARC
  5
95C
330
1F
100
AcDbEntity
  8
0
  6
Continuous
 62
     7
370
    15
100
AcDbCircle
 10
-1085.9395598416
 20
573.7411291252
 30
0.0
 40
5.000000000182347
100
AcDbArc
 50
356.9800263454
 51
86.9800263453
  0
ARC
  5
95D
330
1F
100
AcDbEntity
  8
0
  6
Continuous
 62
     7
370
    15
100
AcDbCircle
 10
-1212.3296365506
 20
455.7823504268
 30
0.0
 40
4.999999999999843
100
AcDbArc
 50
176.9800263453
 51
266.9800263453
  0
ARC
  5
95E
330
1F
100
AcDbEntity
  8
0
  6
Continuous
 62
     7
370
    15
100
AcDbCircle
 10
-1092.4962890172
 20
449.4602606657
 30
0.0
 40
5.000000000000419
100
AcDbArc
 50
266.9800263453
 51
356.9800263455
  0
ARC
  5
95F
330
1F
100
AcDbEntity
  8
0
  6
Continuous
 62
     7
370
    15
100
AcDbCircle
 10
-1059.5887313979
 20
572.3935514512
 30
0.0
 40
5.000000000000218
100
AcDbArc
 50
87.2072976343
 51
177.2072976343
  0
ARC
  5
960
330
1F
100
AcDbEntity
  8
0
  6
Continuous
 62
     7
370
    15
100
AcDbCircle
 10
-939.7312492629
 20
566.5468450056
 30
0.0
 40
5.000000000374476
100
AcDbArc
 50
357.2072976344
 51
87.2072976343
  0
ARC
  5
961
330
1F
100
AcDbEntity
  8
0
  6
Continuous
 62
     7
370
    15
100
AcDbCircle
 10
-1065.6524337783
 20
448.0876526532
 30
0.0
 40
4.999999999999966
100
AcDbArc
 50
177.2072976343
 51
267.2072976343
  0
ARC
  5
962
330
1F
100
AcDbEntity
  8
0
  6
Continuous
 62
     7
370
    15
100
AcDbCircle
 10
-945.7949516433
 20
442.2409462076
 30
0.0
 40
5.000000000000074
100
AcDbArc
 50
267.2072976343
 51
357.2072976345
  0
ARC
  5
963
330
1F
100
AcDbEntity
  8
0
  6
Continuous
 62
     7
370
    15
100
AcDbCircle
 10
-913.3743697148
 20
565.3233149726
 30
0.0
 40
5.000000000000011
100
AcDbArc
 50
87.4345689233
 51
177.4345689233
  0
ARC
  5
964
330
1F
100
AcDbEntity
  8
0
  6
Continuous
 62
     7
370
    15
100
AcDbCircle
 10
-793.494638834
 20
559.9520838354
 30
0.0
 40
5.000000000000005
100
AcDbArc
 50
357.4345689233
 51
87.4345689233
  0
ARC
  5
965
330
1F
100
AcDbEntity
  8
0
  6
Continuous
 62
     7
370
    15
100
AcDbCircle
 10
-918.9449498928
 20
440.994341684
 30
0.0
 40
5.000000000000211
100
AcDbArc
 50
177.4345689233
 51
267.4345689233
  0
ARC
  5
966
330
1F
100
AcDbEntity
  8
0
  6
Continuous
 62
     7
370
    15
100
AcDbCircle
 10
-799.0652190119
 20
435.6231105468
 30
0.0
 40
4.999999999999689
100
AcDbArc
 50
267.4345689233
 51
357.4345689235
  0
ARC
  5
967
330
1F
100
AcDbEntity
  8
0
  6
Continuous
 62
     7
370
    15
100
AcDbCircle
 10
-769.1722990277
 20
559.4376792885
 30
0.0
 40
4.999999999999807
100
AcDbArc
 50
88.0191088702
 51
178.0191088702
  0
ARC
  5
968
330
1F
100
AcDbEntity
  8
0
  6
Continuous
 62
     7
370
    15
100
AcDbCircle
 10
-649.2440097241
 20
555.2897370606
 30
0.0
 40
5.000000000141992
100
AcDbArc
 50
358.0191088702
 51
88.0191088702
  0
ARC
  5
969
330
1F
100
AcDbEntity
  8
0
  6
Continuous
 62
     7
370
    15
100
AcDbCircle
 10
-773.4741888857
 20
435.0583453694
 30
0.0
 40
5.000000000000218
100
AcDbArc
 50
178.0191088702
 51
268.0191088702
  0
ARC
  5
96A
330
1F
100
AcDbEntity
  8
0
  6
Continuous
 62
     7
370
    15
100
AcDbCircle
 10
-653.5458995822
 20
430.9104031414
 30
0.0
 40
5.000000000000123
100
AcDbArc
 50
268.0191088702
 51
358.0191088704
  0
ARC
  5
96B
330
1F
100
AcDbEntity
  8
0
  6
Continuous
 62
     7
370
    15
100
AcDbCircle
 10
-624.9442508563
 20
554.1224561813
 30
0.0
 40
5.000000000000433
100
AcDbArc
 50
88.6036488171
 51
178.6036488171
  0
ARC
  5
96C
330
1F
100
AcDbEntity
  8
0
  6
Continuous
 62
     7
370
    15
100
AcDbCircle
 10
-504.9798856136
 20
551.1982345925
 30
0.0
 40
5.000000000000203
100
AcDbArc
 50
358.6036488171
 51
88.6036488171
  0
ARC
  5
96D
330
1F
100
AcDbEntity
  8
0
  6
Continuous
 62
     7
370
    15
100
AcDbCircle
 10
-627.9770026413
 20
429.7057073927
 30
0.0
 40
5.000000000000329
100
AcDbArc
 50
178.6036488172
 51
268.6036488171
  0
ARC
  5
96E
330
1F
100
AcDbEntity
  8
0
  6
Continuous
 62
     7
370
    15
100
AcDbCircle
 10
-508.0126373985
 20
426.7814858038
 30
0.0
 40
5.000000000000087
100
AcDbArc
 50
268.6036488171
 51
358.6036488173
  0
ARC
  5
96F
330
1F
100
AcDbEntity
  8
0
  6
Continuous
 62
     7
370
    15
100
AcDbCircle
 10
358.3414098939
 20
8.0800638639
 30
0.0
 40
5.000000000000227
100
AcDbArc
 50
270.8118112359
 51
0.8118112359
  0
ARC
  5
970
330
1F
100
AcDbEntity
  8
0
  6
Continuous
 62
     7
370
    15
100
AcDbCircle
 10
351.4010791061
 20
497.8799514681
 30
0.0
 40
4.999999999999815
100
AcDbArc
 50
0.8118112359
 51
90.8118112359
  0
ARC
  5
971
330
1F
100
AcDbEntity
  8
0
  6
Continuous
 62
     7
370
    15
100
AcDbCircle
 10
238.3534549502
 20
6.3798672756
 30
0.0
 40
5.000000000000248
100
AcDbArc
 50
180.8118112359
 51
270.8118112359
  0
ARC
  5
972
330
1F
100
AcDbEntity
  8
0
  6
Continuous
 62
     7
370
    15
100
AcDbCircle
 10
231.4131241624
 20
496.1797548798
 30
0.0
 40
5.000000000000418
100
AcDbArc
 50
90.8118112359
 51
180.8118112359
  0
ARC
  5
973
330
1F
100
AcDbEntity
  8
0
  6
Continuous
 62
     7
370
    15
100
AcDbCircle
 10
-1651.8089485452
 20
561.3144816851
 30
0.0
 40
5.000000000000001
100
AcDbArc
 50
355.2264065045
 51
85.2264065045
  0
ARC
  5
974
330
1F
100
AcDbEntity
  8
0
  6
Continuous
 62
     7
370
    15
100
AcDbCircle
 10
-1771.3927068128
 20
571.3007101315
 30
0.0
 40
5.000000000000227
100
AcDbArc
 50
85.2264065045
 51
175.2264065045
  0
ARC
  5
975
330
1F
100
AcDbEntity
  8
0
  6
Continuous
 62
     7
370
    15
100
AcDbCircle
 10
-1692.5734867268
 20
73.1645554171
 30
0.0
 40
5.000000000000114
100
AcDbArc
 50
265.2264065045
 51
355.2264065045
  0
ARC
  5
976
330
1F
100
AcDbEntity
  8
0
  6
Continuous
 62
     7
370
    15
100
AcDbCircle
 10
-1812.1572449945
 20
83.1507838635
 30
0.0
 40
5.000000000000265
100
AcDbArc
 50
175.2264065045
 51
265.2264065045
  0
ARC
  5
977
330
1F
100
AcDbEntity
  8
0
  6
Continuous
 62
     7
370
    15
100
AcDbCircle
 10
508.1415212474
 20
11.1284881832
 30
0.0
 40
4.999999999999735
100
AcDbArc
 50
271.3963511829
 51
1.3963511829
  0
ARC
  5
978
330
1F
100
AcDbEntity
  8
0
  6
Continuous
 62
     7
370
    15
100
AcDbCircle
 10
388.1771560046
 20
8.2042665943
 30
0.0
 40
5.000000000000147
100
AcDbArc
 50
181.3963511829
 51
271.3963511829
  0
ARC
  5
979
330
1F
100
AcDbEntity
  8
0
  6
Continuous
 62
     7
370
    15
100
AcDbCircle
 10
496.2046280298
 20
500.8320808481
 30
0.0
 40
4.999999999999617
100
AcDbArc
 50
1.3963511829
 51
91.3963511829
  0
ARC
  5
97A
330
1F
100
AcDbEntity
  8
0
  6
Continuous
 62
     7
370
    15
100
AcDbCircle
 10
376.2402627871
 20
497.9078592592
 30
0.0
 40
5.000000000000209
100
AcDbArc
 50
91.3963511829
 51
181.3963511829
  0
ARC
  5
97B
330
1F
100
AcDbEntity
  8
0
  6
Continuous
 62
     7
370
    15
100
AcDbCircle
 10
777.4636624075
 20
488.5387884767
 30
0.0
 40
4.999999999999683
100
AcDbArc
 50
272.0591340388
 51
340.7406734702
  0
ARC
  5
97C
330
1F
100
AcDbEntity
  8
0
  6
Continuous
 62
     7
370
    15
100
AcDbCircle
 10
1228.6783838828
 20
510.549262695
 30
0.0
 40
4.999999999994086
100
AcDbArc
 50
204.8447312613
 51
273.5262706926
  0
ARC
  5
97D
330
1F
100
AcDbEntity
  8
0
  6
Continuous
 62
     7
370
    15
100
AcDbCircle
 10
-1228.6783838771
 20
510.5492626951
 30
0.0
 40
4.999999999998659
100
AcDbArc
 50
266.4737293074
 51
335.1552687388
  0
ARC
  5
97E
330
1F
100
AcDbEntity
  8
0
  6
Continuous
 62
     7
370
    15
100
AcDbCircle
 10
-777.4636624017
 20
488.5387884767
 30
0.0
 40
4.999999999999792
100
AcDbArc
 50
199.2593265298
 51
267.9408659612
  0
ARC
  5
97F
330
1F
100
AcDbEntity
  8
0
  6
Continuous
 62
     7
370
    15
100
AcDbCircle
 10
-1507.4055653028
 20
550.1589558374
 30
0.0
 40
4.999999999999276
100
AcDbArc
 50
355.8109464514
 51
85.8109464514
  0
ARC
  5
980
330
1F
100
AcDbEntity
  8
0
  6
Continuous
 62
     7
370
    15
100
AcDbCircle
 10
-1627.0849794587
 20
558.924674707
 30
0.0
 40
5.000000000000767
100
AcDbArc
 50
85.8109464514
 51
175.8109464514
  0
ARC
  5
981
330
1F
100
AcDbEntity
  8
0
  6
Continuous
 62
     7
370
    15
100
AcDbCircle
 10
-1543.1878912798
 20
61.6185550144
 30
0.0
 40
5.000000000000486
100
AcDbArc
 50
265.8109464514
 51
355.8109464514
  0
ARC
  5
982
330
1F
100
AcDbEntity
  8
0
  6
Continuous
 62
     7
370
    15
100
AcDbCircle
 10
-1662.8673054357
 20
70.3842738841
 30
0.0
 40
4.999999999999852
100
AcDbArc
 50
175.8109464514
 51
265.8109464514
  0
ARC
  5
983
330
1F
100
AcDbEntity
  8
0
  6
Continuous
 62
     7
370
    15
100
AcDbCircle
 10
-388.1771560046
 20
8.2042665943
 30
0.0
 40
5.000000000000165
100
AcDbArc
 50
268.6036488171
 51
358.6036488172
  0
ARC
  5
984
330
1F
100
AcDbEntity
  8
0
  6
Continuous
 62
     7
370
    15
100
AcDbCircle
 10
-376.2402627871
 20
497.9078592592
 30
0.0
 40
5.00000000000007
100
AcDbArc
 50
358.6036488171
 51
88.6036488171
  0
ARC
  5
985
330
1F
100
AcDbEntity
  8
0
  6
Continuous
 62
     7
370
    15
100
AcDbCircle
 10
-496.2046280299
 20
500.8320808481
 30
0.0
 40
5.000000000000248
100
AcDbArc
 50
88.6036488171
 51
178.6036488172
  0
ARC
  5
986
330
1F
100
AcDbEntity
  8
0
  6
Continuous
 62
     7
370
    15
100
AcDbCircle
 10
-508.1415212474
 20
11.1284881832
 30
0.0
 40
5.000000000000069
100
AcDbArc
 50
178.6036488171
 51
268.6036488171
  0
ARC
  5
987
330
1F
100
AcDbEntity
  8
0
  6
Continuous
 62
     7
370
    15
100
AcDbCircle
 10
-2375.9928971963
 20
632.1631353565
 30
0.0
 40
5.000000000000799
100
AcDbArc
 50
353.0182440857
 51
83.0182440857
  0
ARC
  5
988
330
1F
100
AcDbEntity
  8
0
  6
Continuous
 62
     7
370
    15
100
AcDbCircle
 10
-2495.1030860221
 20
646.7495303145
 30
0.0
 40
5.000000000001368
100
AcDbArc
 50
83.0182440857
 51
173.0182440857
  0
ARC
  5
989
330
1F
100
AcDbEntity
  8
0
  6
Continuous
 62
     7
370
    15
100
AcDbCircle
 10
-2435.5356622544
 20
145.9463552904
 30
0.0
 40
4.999999999999871
100
AcDbArc
 50
263.0182440857
 51
353.0182440857
  0
ARC
  5
98A
330
1F
100
AcDbEntity
  8
0
  6
Continuous
 62
     7
370
    15
100
AcDbCircle
 10
-2554.6458510802
 20
160.5327502485
 30
0.0
 40
5.000000000000068
100
AcDbArc
 50
173.0182440857
 51
263.0182440857
  0
ARC
  5
98B
330
1F
100
AcDbEntity
  8
0
  6
Continuous
 62
     7
370
    15
100
AcDbCircle
 10
-238.3534549502
 20
6.3798672756
 30
0.0
 40
5.000000000000009
100
AcDbArc
 50
269.1881887641
 51
359.1881887641
  0
ARC
  5
98C
330
1F
100
AcDbEntity
  8
0
  6
Continuous
 62
     7
370
    15
100
AcDbCircle
 10
-231.4131241626
 20
496.1797548798
 30
0.0
 40
4.99999999999992
100
AcDbArc
 50
359.1881887641
 51
89.1881887641
  0
ARC
  5
98D
330
1F
100
AcDbEntity
  8
0
  6
Continuous
 62
     7
370
    15
100
AcDbCircle
 10
-351.4010791062
 20
497.8799514681
 30
0.0
 40
5.000000000000187
100
AcDbArc
 50
89.1881887641
 51
179.1881887641
  0
ARC
  5
98E
330
1F
100
AcDbEntity
  8
0
  6
Continuous
 62
     7
370
    15
100
AcDbCircle
 10
-358.3414098939
 20
8.0800638639
 30
0.0
 40
5.000000000000137
100
AcDbArc
 50
179.1881887641
 51
269.1881887641
  0
ARC
  5
98F
330
1F
100
AcDbEntity
  8
0
  6
Continuous
 62
     7
370
    15
100
AcDbCircle
 10
-2232.021560487
 20
616.347300473
 30
0.0
 40
4.999999999999583
100
AcDbArc
 50
353.6027840326
 51
83.6027840326
  0
ARC
  5
990
330
1F
100
AcDbEntity
  8
0
  6
Continuous
 62
     7
370
    15
100
AcDbCircle
 10
-2351.2743606057
 20
629.7177777961
 30
0.0
 40
4.999999999999798
100
AcDbArc
 50
83.6027840326
 51
173.6027840327
  0
ARC
  5
991
330
1F
100
AcDbEntity
  8
0
  6
Continuous
 62
     7
370
    15
100
AcDbCircle
 10
-2286.6008579933
 20
129.5483703465
 30
0.0
 40
5.000000000000256
100
AcDbArc
 50
263.6027840326
 51
353.6027840327
  0
ARC
  5
992
330
1F
100
AcDbEntity
  8
0
  6
Continuous
 62
     7
370
    15
100
AcDbCircle
 10
-2405.853658112
 20
142.9188476696
 30
0.0
 40
4.999999999999442
100
AcDbArc
 50
173.6027840326
 51
263.6027840326
  0
ARC
  5
993
330
1F
100
AcDbEntity
  8
0
  6
Continuous
 62
     7
370
    15
100
AcDbCircle
 10
-88.5271122644
 20
5.1826664805
 30
0.0
 40
5.00000000000008
100
AcDbArc
 50
269.772728711
 51
359.772728711
  0
ARC
  5
994
330
1F
100
AcDbEntity
  8
0
  6
Continuous
 62
     7
370
    15
100
AcDbCircle
 10
-86.584066276
 20
495.0278692343
 30
0.0
 40
5.000000000000101
100
AcDbArc
 50
359.772728711
 51
89.772728711
  0
ARC
  5
995
330
1F
100
AcDbEntity
  8
0
  6
Continuous
 62
     7
370
    15
100
AcDbCircle
 10
-206.583122227
 20
495.5038638607
 30
0.0
 40
5.000000000000181
100
AcDbArc
 50
89.772728711
 51
179.772728711
  0
ARC
  5
996
330
1F
100
AcDbEntity
  8
0
  6
Continuous
 62
     7
370
    15
100
AcDbCircle
 10
-208.5261682154
 20
5.6586611069
 30
0.0
 40
5.000000000000183
100
AcDbArc
 50
179.772728711
 51
269.772728711
  0
ARC
  5
997
330
1F
100
AcDbEntity
  8
0
  6
Continuous
 62
     7
370
    15
100
AcDbCircle
 10
630.9955680124
 20
554.2967121037
 30
0.0
 40
7.939928776169319
100
AcDbArc
 50
271.3305149546
 51
1.3238012882
  0
ARC
  5
998
330
1F
100
AcDbEntity
  8
0
  6
Continuous
 62
     7
370
    15
100
AcDbCircle
 10
630.9663720845
 20
554.2651786721
 30
0.0
 40
3.969964388084664
100
AcDbArc
 50
271.3305149546
 51
1.3238012882
  0
ARC
  5
999
330
1F
100
AcDbEntity
  8
0
  6
Continuous
 62
     7
370
    15
100
AcDbCircle
 10
920.7139663165
 20
565.2429857962
 30
0.0
 40
7.939928776169007
100
AcDbArc
 50
272.2107969468
 51
2.2040832804
  0
ARC
  5
99A
330
1F
100
AcDbEntity
  8
0
  6
Continuous
 62
     7
370
    15
100
AcDbCircle
 10
920.6852582892
 20
565.2110075429
 30
0.0
 40
3.969964388085209
100
AcDbArc
 50
272.2107969468
 51
2.2040832804
  0
ARC
  5
99B
330
1F
100
AcDbEntity
  8
0
  6
Continuous
 62
     7
370
    15
100
AcDbCircle
 10
1533.2146067669
 20
60.8880784415
 30
0.0
 40
5.000000000000778
100
AcDbArc
 50
274.1890535486
 51
4.1890535486
  0
ARC
  5
99C
330
1F
100
AcDbEntity
  8
0
  6
Continuous
 62
     7
370
    15
100
AcDbCircle
 10
1413.535192611
 20
52.1223595719
 30
0.0
 40
4.999999999999829
100
AcDbArc
 50
184.1890535486
 51
274.1890535486
  0
ARC
  5
99D
330
1F
100
AcDbEntity
  8
0
  6
Continuous
 62
     7
370
    15
100
AcDbCircle
 10
1383.7409323647
 20
50.5446306082
 30
0.0
 40
4.999999999999955
100
AcDbArc
 50
273.6045136016
 51
3.6045136017
  0
ARC
  5
99E
330
1F
100
AcDbEntity
  8
0
  6
Continuous
 62
     7
370
    15
100
AcDbCircle
 10
1263.9783189004
 20
43.0003336768
 30
0.0
 40
5.000000000000033
100
AcDbArc
 50
183.6045136017
 51
273.6045136016
  0
ARC
  5
99F
330
1F
100
AcDbEntity
  8
0
  6
Continuous
 62
     7
370
    15
100
AcDbCircle
 10
1234.2215955154
 20
40.8267224677
 30
0.0
 40
5.000000000000162
100
AcDbArc
 50
273.0199736547
 51
3.0199736547
  0
ARC
  5
9A0
330
1F
100
AcDbEntity
  8
0
  6
Continuous
 62
     7
370
    15
100
AcDbCircle
 10
1114.388247982
 20
34.5046327067
 30
0.0
 40
5.000000000000148
100
AcDbArc
 50
183.0199736547
 51
273.0199736547
  0
ARC
  5
9A1
330
1F
100
AcDbEntity
  8
0
  6
Continuous
 62
     7
370
    15
100
AcDbCircle
 10
1085.8982484415
 20
33.0484520579
 30
0.0
 40
5.000000000000684
100
AcDbArc
 50
272.7927023657
 51
2.7927023657
  0
ARC
  5
9A2
330
1F
100
AcDbEntity
  8
0
  6
Continuous
 62
     7
370
    15
100
AcDbCircle
 10
966.0407663065
 20
27.2017456123
 30
0.0
 40
5.000000000000339
100
AcDbArc
 50
182.7927023657
 51
272.7927023657
  0
ARC
  5
9A3
330
1F
100
AcDbEntity
  8
0
  6
Continuous
 62
     7
370
    15
100
AcDbCircle
 10
937.5443017037
 20
25.8780987419
 30
0.0
 40
5.000000000000178
100
AcDbArc
 50
272.5654310767
 51
2.5654310767
  0
ARC
  5
9A4
330
1F
100
AcDbEntity
  8
0
  6
Continuous
 62
     7
370
    15
100
AcDbCircle
 10
817.6645708229
 20
20.5068676047
 30
0.0
 40
5.000000000000853
100
AcDbArc
 50
182.5654310767
 51
272.5654310767
  0
ARC
  5
9A5
330
1F
100
AcDbEntity
  8
0
  6
Continuous
 62
     7
370
    15
100
AcDbCircle
 10
787.8375694252
 20
19.7739556535
 30
0.0
 40
5.000000000000148
100
AcDbArc
 50
271.9808911298
 51
1.9808911298
  0
ARC
  5
9A6
330
1F
100
AcDbEntity
  8
0
  6
Continuous
 62
     7
370
    15
100
AcDbCircle
 10
667.9092801217
 20
15.6260134256
 30
0.0
 40
5.000000000000302
100
AcDbArc
 50
181.9808911298
 51
271.9808911298
  0
ARC
  5
9A7
330
1F
100
AcDbEntity
  8
0
  6
Continuous
 62
     7
370
    15
100
AcDbCircle
 10
638.1029169271
 20
14.2963949043
 30
0.0
 40
5.000000000000008
100
AcDbArc
 50
271.3963511829
 51
1.3963511829
  0
ARC
  5
9A8
330
1F
100
AcDbEntity
  8
0
  6
Continuous
 62
     7
370
    15
100
AcDbCircle
 10
518.1385516843
 20
11.3721733154
 30
0.0
 40
4.999999999999987
100
AcDbArc
 50
181.3963511829
 51
271.3963511829
  0
ARC
  5
9A9
330
1F
100
AcDbEntity
  8
0
  6
Continuous
 62
     7
370
    15
100
AcDbCircle
 10
-1368.0509030614
 20
590.2506308869
 30
0.0
 40
7.93992877616903
100
AcDbArc
 50
265.7451102231
 51
355.7383965568
  0
ARC
  5
9AA
330
1F
100
AcDbEntity
  8
0
  6
Continuous
 62
     7
370
    15
100
AcDbCircle
 10
-1368.0830295029
 20
590.2220887904
 30
0.0
 40
3.969964388084781
100
AcDbArc
 50
265.7451102231
 51
355.7383965568
  0
ARC
  5
9AB
330
1F
100
AcDbEntity
  8
0
  6
Continuous
 62
     7
370
    15
100
AcDbCircle
 10
-1078.642628378
 20
572.9468229702
 30
0.0
 40
7.939928776169049
100
AcDbArc
 50
266.6253922153
 51
356.618678549
  0
ARC
  5
9AC
330
1F
100
AcDbEntity
  8
0
  6
Continuous
 62
     7
370
    15
100
AcDbCircle
 10
-1078.6743125296
 20
572.9177906769
 30
0.0
 40
3.969964388085123
100
AcDbArc
 50
266.6253922153
 51
356.6186785489
  0
ARC
  5
9AD
330
1F
100
AcDbEntity
  8
0
  6
Continuous
 62
     7
370
    15
100
AcDbCircle
 10
-518.1385516843
 20
11.3721733157
 30
0.0
 40
5.00000000000017
100
AcDbArc
 50
268.6036488171
 51
358.6036488172
  0
ARC
  5
9AE
330
1F
100
AcDbEntity
  8
0
  6
Continuous
 62
     7
370
    15
100
AcDbCircle
 10
-638.1029169271
 20
14.2963949046
 30
0.0
 40
5.000000000000083
100
AcDbArc
 50
178.6036488171
 51
268.6036488171
  0
ARC
  5
9AF
330
1F
100
AcDbEntity
  8
0
  6
Continuous
 62
     7
370
    15
100
AcDbCircle
 10
-667.9092801217
 20
15.6260134259
 30
0.0
 40
5.000000000000218
100
AcDbArc
 50
268.0191088702
 51
358.0191088702
  0
ARC
  5
9B0
330
1F
100
AcDbEntity
  8
0
  6
Continuous
 62
     7
370
    15
100
AcDbCircle
 10
-787.8375694252
 20
19.7739556539
 30
0.0
 40
5.000000000000149
100
AcDbArc
 50
178.0191088702
 51
268.0191088702
  0
ARC
  5
9B1
330
1F
100
AcDbEntity
  8
0
  6
Continuous
 62
     7
370
    15
100
AcDbCircle
 10
-817.6645708228
 20
20.5068676049
 30
0.0
 40
5.000000000000218
100
AcDbArc
 50
267.4345689233
 51
357.4345689233
  0
ARC
  5
9B2
330
1F
100
AcDbEntity
  8
0
  6
Continuous
 62
     7
370
    15
100
AcDbCircle
 10
-937.5443017037
 20
25.8780987422
 30
0.0
 40
5.00000000000011
100
AcDbArc
 50
177.4345689233
 51
267.4345689233
  0
ARC
  5
9B3
330
1F
100
AcDbEntity
  8
0
  6
Continuous
 62
     7
370
    15
100
AcDbCircle
 10
-966.0407663065
 20
27.2017456126
 30
0.0
 40
5.000000000000163
100
AcDbArc
 50
267.2072976343
 51
357.2072976343
  0
ARC
  5
9B4
330
1F
100
AcDbEntity
  8
0
  6
Continuous
 62
     7
370
    15
100
AcDbCircle
 10
-1085.8982484415
 20
33.0484520582
 30
0.0
 40
5.00000000000064
100
AcDbArc
 50
177.2072976343
 51
267.2072976343
  0
ARC
  5
9B5
330
1F
100
AcDbEntity
  8
0
  6
Continuous
 62
     7
370
    15
100
AcDbCircle
 10
-1114.388247982
 20
34.504632707
 30
0.0
 40
5.000000000000035
100
AcDbArc
 50
266.9800263453
 51
356.9800263453
  0
ARC
  5
9B6
330
1F
100
AcDbEntity
  8
0
  6
Continuous
 62
     7
370
    15
100
AcDbCircle
 10
-1234.2215955154
 20
40.826722468
 30
0.0
 40
4.999999999999755
100
AcDbArc
 50
176.9800263453
 51
266.9800263453
  0
ARC
  5
9B7
330
1F
100
AcDbEntity
  8
0
  6
Continuous
 62
     7
370
    15
100
AcDbCircle
 10
-1263.9783189004
 20
43.0003336771
 30
0.0
 40
5.000000000000819
100
AcDbArc
 50
266.3954863984
 51
356.3954863984
  0
ARC
  5
9B8
330
1F
100
AcDbEntity
  8
0
  6
Continuous
 62
     7
370
    15
100
AcDbCircle
 10
-1383.7409323647
 20
50.5446306085
 30
0.0
 40
5.000000000000604
100
AcDbArc
 50
176.3954863984
 51
266.3954863984
  0
ARC
  5
9B9
330
1F
100
AcDbEntity
  8
0
  6
Continuous
 62
     7
370
    15
100
AcDbCircle
 10
-1413.5351926109
 20
52.1223595722
 30
0.0
 40
5.000000000000429
100
AcDbArc
 50
265.8109464514
 51
355.8109464514
  0
ARC
  5
9BA
330
1F
100
AcDbEntity
  8
0
  6
Continuous
 62
     7
370
    15
100
AcDbCircle
 10
-1533.2146067668
 20
60.8880784418
 30
0.0
 40
4.999999999999861
100
AcDbArc
 50
175.8109464514
 51
265.8109464514
  0
ARC
  5
9BB
330
1F
100
AcDbEntity
  8
0
  6
Continuous
 62
     7
370
    15
100
AcDbCircle
 10
-2087.9922306177
 20
601.1047617661
 30
0.0
 40
5.000000000000359
100
AcDbArc
 50
354.1873239796
 51
84.1873239795
  0
ARC
  5
9BC
330
1F
100
AcDbEntity
  8
0
  6
Continuous
 62
     7
370
    15
100
AcDbCircle
 10
-2207.3752298527
 20
613.2579298163
 30
0.0
 40
5.000000000000299
100
AcDbArc
 50
84.1873239795
 51
174.1873239796
  0
ARC
  5
9BD
330
1F
100
AcDbEntity
  8
0
  6
Continuous
 62
     7
370
    15
100
AcDbCircle
 10
-2137.6023798012
 20
113.7743490208
 30
0.0
 40
5.00000000000027
100
AcDbArc
 50
264.1873239795
 51
354.1873239796
  0
ARC
  5
9BE
330
1F
100
AcDbEntity
  8
0
  6
Continuous
 62
     7
370
    15
100
AcDbCircle
 10
-2256.9853790362
 20
125.9275170709
 30
0.0
 40
4.999999999999945
100
AcDbArc
 50
174.1873239795
 51
264.1873239795
  0
ARC
  5
9BF
330
1F
100
AcDbEntity
  8
0
  6
Continuous
 62
     7
370
    15
100
AcDbCircle
 10
231.2239890763
 20
27.1285381196
 30
0.0
 40
4.99999999999979
100
AcDbArc
 50
90.7361553092
 51
180.5889242472
  0
ARC
  5
9C0
330
1F
100
AcDbEntity
  8
0
  6
Continuous
 62
     7
370
    15
100
AcDbCircle
 10
-231.2239890702
 20
27.1285381196
 30
0.0
 40
5.000000000000325
100
AcDbArc
 50
359.4110757526
 51
89.2638446908
  0
ARC
  5
9C1
330
1F
100
AcDbEntity
  8
0
  6
Continuous
 62
     7
370
    15
100
AcDbCircle
 10
60.0
 20
5.116320796
 30
0.0
 40
4.999999999999985
100
AcDbArc
 50
270.0
 51
0.0
  0
ARC
  5
9C2
330
1F
100
AcDbEntity
  8
0
  6
Continuous
 62
     7
370
    15
100
AcDbCircle
 10
-60.0
 20
5.116320796
 30
0.0
 40
5.000000000000136
100
AcDbArc
 50
180.0
 51
270.0
  0
ARC
  5
9C3
330
1F
100
AcDbEntity
  8
0
  6
Continuous
 62
     7
370
    15
100
AcDbCircle
 10
-60.0
 20
494.9653772293
 30
0.0
 40
5.000000000000227
100
AcDbArc
 50
90.0
 51
180.0
  0
ARC
  5
9C4
330
1F
100
AcDbEntity
  8
0
  6
Continuous
 62
     7
370
    15
100
AcDbCircle
 10
60.0
 20
494.9653772292
 30
0.0
 40
4.999999999999787
100
AcDbArc
 50
360.0
 51
90.0
  0
ARC
  5
9C5
330
1F
100
AcDbEntity
  8
0
  6
Continuous
 62
     7
370
    15
100
AcDbCircle
 10
-1817.2334065685
 20
104.4948511684
 30
0.0
 40
5.000000000000067
100
AcDbArc
 50
85.1507505778
 51
175.0035195157
  0
ARC
  5
9C6
330
1F
100
AcDbEntity
  8
0
  6
Continuous
 62
     7
370
    15
100
AcDbCircle
 10
-2277.4857860056
 20
149.5046247091
 30
0.0
 40
5.000000000001113
100
AcDbArc
 50
353.8256710211
 51
83.6784399593
  0
ARC
  5
9C7
330
1F
100
AcDbEntity
  8
0
  6
Continuous
 62
     7
370
    15
100
AcDbCircle
 10
-1942.1101947387
 20
586.7756306316
 30
0.0
 40
5.000000000000728
100
AcDbArc
 50
354.4145952686
 51
84.4145952685
  0
ARC
  5
9C8
330
1F
100
AcDbEntity
  8
0
  6
Continuous
 62
     7
370
    15
100
AcDbCircle
 10
-2061.540461801
 20
598.4551558542
 30
0.0
 40
5.000000000000513
100
AcDbArc
 50
84.4145952686
 51
174.4145952686
  0
ARC
  5
9C9
330
1F
100
AcDbEntity
  8
0
  6
Continuous
 62
     7
370
    15
100
AcDbCircle
 10
-1989.7868981542
 20
99.2522670478
 30
0.0
 40
5.000000000000459
100
AcDbArc
 50
264.4145952686
 51
354.4145952686
  0
ARC
  5
9CA
330
1F
100
AcDbEntity
  8
0
  6
Continuous
 62
     7
370
    15
100
AcDbCircle
 10
-2109.2171652166
 20
110.9317922704
 30
0.0
 40
5.000000000000214
100
AcDbArc
 50
174.4145952686
 51
264.4145952686
  0
ARC
  5
9CB
330
1F
100
AcDbEntity
  8
0
  6
Continuous
 62
     7
370
    15
100
AcDbCircle
 10
-225.8756216628
 20
475.0934153142
 30
0.0
 40
5.000000000000114
100
AcDbArc
 50
269.2664316731
 51
359.4131453384
  0
ARC
  5
9CC
330
1F
100
AcDbEntity
  8
0
  6
Continuous
 62
     7
370
    15
100
AcDbCircle
 10
225.8756216685
 20
475.0934153142
 30
0.0
 40
5.000000000000334
100
AcDbArc
 50
180.5868546614
 51
270.7335683269
  0
ARC
  5
9CD
330
1F
100
AcDbEntity
  8
0
  6
Continuous
 62
     7
370
    15
100
AcDbCircle
 10
-2228.5626690904
 20
594.8221124247
 30
0.0
 40
5.000000000000412
100
AcDbArc
 50
263.6810269417
 51
353.8277406069
  0
ARC
  5
9CE
330
1F
100
AcDbEntity
  8
0
  6
Continuous
 62
     7
370
    15
100
AcDbCircle
 10
-1778.9562387838
 20
550.8534454179
 30
0.0
 40
4.999999999999744
100
AcDbArc
 50
175.0014499299
 51
265.1481635954
  0
ARC
  5
9CF
330
1F
100
AcDbEntity
  8
0
  6
Continuous
 62
     7
370
    15
100
AcDbCircle
 10
1255.8463920989
 20
63.3769966012
 30
0.0
 40
4.999999999999957
100
AcDbArc
 50
93.5288576749
 51
183.3816266129
  0
ARC
  5
9D0
330
1F
100
AcDbEntity
  8
0
  6
Continuous
 62
     7
370
    15
100
AcDbCircle
 10
793.9476397735
 20
40.8453501462
 30
0.0
 40
5.000000000000078
100
AcDbArc
 50
2.2037781183
 51
92.0565470565
  0
ARC
  5
9D1
330
1F
100
AcDbEntity
  8
0
  6
Continuous
 62
     7
370
    15
100
AcDbCircle
 10
1368.0509030614
 20
590.2506308866
 30
0.0
 40
7.93992877616903
100
AcDbArc
 50
184.2616034433
 51
274.2548897769
  0
ARC
  5
9D2
330
1F
100
AcDbEntity
  8
0
  6
Continuous
 62
     7
370
    15
100
AcDbCircle
 10
1368.083029503
 20
590.2220887901
 30
0.0
 40
3.969964388084265
100
AcDbArc
 50
184.2616034432
 51
274.2548897769
  0
ARC
  5
9D3
330
1F
100
AcDbEntity
  8
0
  6
Continuous
 62
     7
370
    15
100
AcDbCircle
 10
1078.642628378
 20
572.9468229699
 30
0.0
 40
7.939928776169056
100
AcDbArc
 50
183.3813214511
 51
273.3746077847
  0
ARC
  5
9D4
330
1F
100
AcDbEntity
  8
0
  6
Continuous
 62
     7
370
    15
100
AcDbCircle
 10
1078.6743125296
 20
572.9177906766
 30
0.0
 40
3.969964388084669
100
AcDbArc
 50
183.3813214511
 51
273.3746077847
  0
ARC
  5
9D5
330
1F
100
AcDbEntity
  8
0
  6
Continuous
 62
     7
370
    15
100
AcDbCircle
 10
-793.9476397674
 20
40.8453501462
 30
0.0
 40
4.999999999999945
100
AcDbArc
 50
87.9434529435
 51
177.7962218814
  0
ARC
  5
9D6
330
1F
100
AcDbEntity
  8
0
  6
Continuous
 62
     7
370
    15
100
AcDbCircle
 10
-1255.8463920928
 20
63.3769966012
 30
0.0
 40
5.000000000000312
100
AcDbArc
 50
356.6183733869
 51
86.4711423251
  0
ARC
  5
9D7
330
1F
100
AcDbEntity
  8
0
  6
Continuous
 62
     7
370
    15
100
AcDbCircle
 10
-630.9955680124
 20
554.296712104
 30
0.0
 40
7.939928776168848
100
AcDbArc
 50
178.6761987118
 51
268.6694850454
  0
ARC
  5
9D8
330
1F
100
AcDbEntity
  8
0
  6
Continuous
 62
     7
370
    15
100
AcDbCircle
 10
-630.9663720844
 20
554.2651786724
 30
0.0
 40
3.969964388084426
100
AcDbArc
 50
178.6761987118
 51
268.6694850454
  0
ARC
  5
9D9
330
1F
100
AcDbEntity
  8
0
  6
Continuous
 62
     7
370
    15
100
AcDbCircle
 10
-920.7139663165
 20
565.2429857965
 30
0.0
 40
7.939928776168768
100
AcDbArc
 50
177.7959167196
 51
267.7892030532
  0
ARC
  5
9DA
330
1F
100
AcDbEntity
  8
0
  6
Continuous
 62
     7
370
    15
100
AcDbCircle
 10
-920.6852582892
 20
565.2110075432
 30
0.0
 40
3.969964388084545
100
AcDbArc
 50
177.7959167196
 51
267.7892030532
  0
ARC
  5
9DB
330
1F
100
AcDbEntity
  8
0
  6
Continuous
 62
     7
370
    15
100
AcDbCircle
 10
208.5261682154
 20
5.6586611069
 30
0.0
 40
4.999999999999934
100
AcDbArc
 50
270.227271289
 51
0.227271289
  0
ARC
  5
9DC
330
1F
100
AcDbEntity
  8
0
  6
Continuous
 62
     7
370
    15
100
AcDbCircle
 10
206.5831222269
 20
495.5038638607
 30
0.0
 40
4.999999999999816
100
AcDbArc
 50
0.227271289
 51
90.227271289
  0
ARC
  5
9DD
330
1F
100
AcDbEntity
  8
0
  6
Continuous
 62
     7
370
    15
100
AcDbCircle
 10
86.584066276
 20
495.0278692343
 30
0.0
 40
5.000000000000159
100
AcDbArc
 50
90.227271289
 51
180.227271289
  0
ARC
  5
9DE
330
1F
100
AcDbEntity
  8
0
  6
Continuous
 62
     7
370
    15
100
AcDbCircle
 10
88.5271122644
 20
5.1826664805
 30
0.0
 40
5.000000000000115
100
AcDbArc
 50
180.227271289
 51
270.227271289
  0
ARC
  5
9DF
330
1F
100
AcDbEntity
  8
0
  6
Continuous
 62
     7
370
    15
100
AcDbCircle
 10
-1796.1706055505
 20
573.0447167061
 30
0.0
 40
4.999999999999725
100
AcDbArc
 50
354.6418665576
 51
84.6418665576
  0
ARC
  5
9E0
330
1F
100
AcDbEntity
  8
0
  6
Continuous
 62
     7
370
    15
100
AcDbCircle
 10
-1915.6462613063
 20
584.2504153337
 30
0.0
 40
5.000000000000556
100
AcDbArc
 50
84.6418665576
 51
174.6418665576
  0
ARC
  5
9E1
330
1F
100
AcDbEntity
  8
0
  6
Continuous
 62
     7
370
    15
100
AcDbCircle
 10
-1841.9131130455
 20
85.3360730503
 30
0.0
 40
5.000000000000281
100
AcDbArc
 50
264.6418665576
 51
354.6418665576
  0
ARC
  5
9E2
330
1F
100
AcDbEntity
  8
0
  6
Continuous
 62
     7
370
    15
100
AcDbCircle
 10
-1961.3887688013
 20
96.5417716779
 30
0.0
 40
5.000000000000352
100
AcDbArc
 50
174.6418665576
 51
264.6418665576
  0
ARC
  5
9E3
330
1F
100
AcDbEntity
  8
0
  6
PHANTOM
 62
     8
370
     0
100
AcDbCircle
 10
505.9012040551
 20
511.854965974
 30
0.0
 40
4.962455485110802
100
AcDbArc
 50
181.8382566056
 51
271.8315429364
  0
ARC
  5
9E4
330
1F
100
AcDbEntity
  8
0
  6
PHANTOM
 62
     8
370
     0
100
AcDbCircle
 10
625.9409311361
 20
514.7810245643
 30
0.0
 40
4.962455485105816
100
AcDbArc
 50
270.9611594293
 51
0.9544457629
  0
ARC
  5
9E5
330
1F
100
AcDbEntity
  8
0
  6
PHANTOM
 62
     8
370
     0
100
AcDbCircle
 10
507.9740238093
 20
426.8188295108
 30
0.0
 40
4.962455485105373
100
AcDbArc
 50
181.8382566028
 51
271.8315429364
  0
ARC
  5
9E6
330
1F
100
AcDbEntity
  8
0
  6
PHANTOM
 62
     8
370
     0
100
AcDbCircle
 10
628.0137508903
 20
429.7448881011
 30
0.0
 40
4.962455485107689
100
AcDbArc
 50
270.9611594293
 51
0.9544457614
  0
ARC
  5
9E7
330
1F
100
AcDbEntity
  8
0
  6
PHANTOM
 62
     8
370
     0
100
AcDbCircle
 10
650.5666590533
 20
515.9579151856
 30
0.0
 40
4.962455485110439
100
AcDbArc
 50
182.4227965525
 51
272.4160828833
  0
ARC
  5
9E8
330
1F
100
AcDbEntity
  8
0
  6
PHANTOM
 62
     8
370
     0
100
AcDbCircle
 10
770.5702875321
 20
520.1084631586
 30
0.0
 40
4.962455485105777
100
AcDbArc
 50
271.5456993763
 51
1.5389857099
  0
ARC
  5
9E9
330
1F
100
AcDbEntity
  8
0
  6
PHANTOM
 62
     8
370
     0
100
AcDbCircle
 10
653.506907023
 20
430.9473509703
 30
0.0
 40
4.96245548510557
100
AcDbArc
 50
182.4227965497
 51
272.4160828833
  0
ARC
  5
9EA
330
1F
100
AcDbEntity
  8
0
  6
PHANTOM
 62
     8
370
     0
100
AcDbCircle
 10
773.5105355018
 20
435.0978989434
 30
0.0
 40
4.962455485107782
100
AcDbArc
 50
271.5456993763
 51
1.5389857083
  0
ARC
  5
9EB
330
1F
100
AcDbEntity
  8
0
  6
PHANTOM
 62
     8
370
     0
100
AcDbCircle
 10
-1496.6821758933
 20
560.1857450884
 30
0.0
 40
4.962455485110465
100
AcDbArc
 50
176.2528518742
 51
266.2461382049
  0
ARC
  5
9EC
330
1F
100
AcDbEntity
  8
0
  6
PHANTOM
 62
     8
370
     0
100
AcDbCircle
 10
-1376.927578906
 20
551.4145195779
 30
0.0
 40
4.962455485105722
100
AcDbArc
 50
265.3757546979
 51
355.3690410315
  0
ARC
  5
9ED
330
1F
100
AcDbEntity
  8
0
  6
PHANTOM
 62
     8
370
     0
100
AcDbCircle
 10
-1502.8957115919
 20
475.3515947689
 30
0.0
 40
4.962455485106042
100
AcDbArc
 50
176.2528518714
 51
266.246138205
  0
ARC
  5
9EE
330
1F
100
AcDbEntity
  8
0
  6
PHANTOM
 62
     8
370
     0
100
AcDbCircle
 10
-1383.1411146046
 20
466.5803692583
 30
0.0
 40
4.962455485108276
100
AcDbArc
 50
265.3757546979
 51
355.3690410299
  0
ARC
  5
9EF
330
1F
100
AcDbEntity
  8
0
  6
PHANTOM
 62
     8
370
     0
100
AcDbCircle
 10
-1352.3042223605
 20
550.1890158351
 30
0.0
 40
4.962455485110061
100
AcDbArc
 50
176.8373918211
 51
266.8306781519
  0
ARC
  5
9F0
330
1F
100
AcDbEntity
  8
0
  6
PHANTOM
 62
     8
370
     0
100
AcDbCircle
 10
-1232.4663737988
 20
542.6399795622
 30
0.0
 40
4.962455485106331
100
AcDbArc
 50
265.9602946448
 51
355.9535809784
  0
ARC
  5
9F1
330
1F
100
AcDbEntity
  8
0
  6
PHANTOM
 62
     8
370
     0
100
AcDbCircle
 10
-1357.6519592662
 20
465.2958901045
 30
0.0
 40
4.962455485105744
100
AcDbArc
 50
176.8373918183
 51
266.8306781519
  0
ARC
  5
9F2
330
1F
100
AcDbEntity
  8
0
  6
PHANTOM
 62
     8
370
     0
100
AcDbCircle
 10
-1237.8141107045
 20
457.7468538316
 30
0.0
 40
4.962455485107633
100
AcDbArc
 50
265.9602946448
 51
355.9535809769
  0
ARC
  5
9F3
330
1F
100
AcDbEntity
  8
0
  6
PHANTOM
 62
     8
370
     0
100
AcDbCircle
 10
795.2184813858
 20
520.6358024738
 30
0.0
 40
4.96245548510985
100
AcDbArc
 50
183.0073364994
 51
273.0006228302
  0
ARC
  5
9F4
330
1F
100
AcDbEntity
  8
0
  6
PHANTOM
 62
     8
370
     0
100
AcDbCircle
 10
915.1735209374
 20
526.0104078284
 30
0.0
 40
4.962455485106092
100
AcDbArc
 50
272.1302393232
 51
2.1235256568
  0
ARC
  5
9F5
330
1F
100
AcDbEntity
  8
0
  6
PHANTOM
 62
     8
370
     0
100
AcDbCircle
 10
799.0258515414
 20
435.659658652
 30
0.0
 40
4.962455485105574
100
AcDbArc
 50
183.0073364966
 51
273.0006228302
  0
ARC
  5
9F6
330
1F
100
AcDbEntity
  8
0
  6
PHANTOM
 62
     8
370
     0
100
AcDbCircle
 10
918.980891093
 20
441.0342640066
 30
0.0
 40
4.962455485107987
100
AcDbArc
 50
272.1302393232
 51
2.1235256552
  0
ARC
  5
9F7
330
1F
100
AcDbEntity
  8
0
  6
PHANTOM
 62
     8
370
     0
100
AcDbCircle
 10
941.6110310754
 20
527.2377107797
 30
0.0
 40
4.962455485110643
100
AcDbArc
 50
183.2346077885
 51
273.2278941192
  0
ARC
  5
9F8
330
1F
100
AcDbEntity
  8
0
  6
PHANTOM
 62
     8
370
     0
100
AcDbCircle
 10
1061.5438079044
 20
533.0880901372
 30
0.0
 40
4.962455485105775
100
AcDbArc
 50
272.3575106122
 51
2.3507969458
  0
ARC
  5
9F9
330
1F
100
AcDbEntity
  8
0
  6
PHANTOM
 62
     8
370
     0
100
AcDbCircle
 10
945.7554395101
 20
442.2773378694
 30
0.0
 40
4.962455485105602
100
AcDbArc
 50
183.2346077857
 51
273.2278941193
  0
ARC
  5
9FA
330
1F
100
AcDbEntity
  8
0
  6
PHANTOM
 62
     8
370
     0
100
AcDbCircle
 10
1065.6882163391
 20
448.1277172269
 30
0.0
 40
4.962455485107744
100
AcDbArc
 50
272.3575106122
 51
2.3507969442
  0
ARC
  5
9FB
330
1F
100
AcDbEntity
  8
0
  6
PHANTOM
 62
     8
370
     0
100
AcDbCircle
 10
1087.9752513379
 20
534.4397605309
 30
0.0
 40
4.962455485110209
100
AcDbArc
 50
183.4618790775
 51
273.4551654083
  0
ARC
  5
9FC
330
1F
100
AcDbEntity
  8
0
  6
PHANTOM
 62
     8
370
     0
100
AcDbCircle
 10
1207.8838784039
 20
540.7658218405
 30
0.0
 40
4.962455485106092
100
AcDbArc
 50
272.5847819012
 51
2.5780682348
  0
ARC
  5
9FD
330
1F
100
AcDbEntity
  8
0
  6
PHANTOM
 62
     8
370
     0
100
AcDbCircle
 10
1092.4566328428
 20
449.4964953115
 30
0.0
 40
4.96245548510562
100
AcDbArc
 50
183.4618790747
 51
273.4551654083
  0
ARC
  5
9FE
330
1F
100
AcDbEntity
  8
0
  6
PHANTOM
 62
     8
370
     0
100
AcDbCircle
 10
1212.3652599088
 20
455.8225566211
 30
0.0
 40
4.962455485108167
100
AcDbArc
 50
272.5847819012
 51
2.5780682332
  0
ARC
  5
9FF
330
1F
100
AcDbEntity
  8
0
  6
PHANTOM
 62
     8
370
     0
100
AcDbCircle
 10
1232.4663737987
 20
542.6399795619
 30
0.0
 40
4.962455485109894
100
AcDbArc
 50
184.0464190244
 51
274.0397053552
  0
ARC
  5
A00
330
1F
100
AcDbEntity
  8
0
  6
PHANTOM
 62
     8
370
     0
100
AcDbCircle
 10
1352.3042223604
 20
550.1890158348
 30
0.0
 40
4.962455485106177
100
AcDbArc
 50
273.1693218481
 51
3.1626081817
  0
ARC
  5
A01
330
1F
100
AcDbEntity
  8
0
  6
PHANTOM
 62
     8
370
     0
100
AcDbCircle
 10
1237.8141107044
 20
457.7468538313
 30
0.0
 40
4.962455485105476
100
AcDbArc
 50
184.0464190216
 51
274.0397053552
  0
ARC
  5
A02
330
1F
100
AcDbEntity
  8
0
  6
PHANTOM
 62
     8
370
     0
100
AcDbCircle
 10
1357.6519592661
 20
465.2958901042
 30
0.0
 40
4.962455485108169
100
AcDbArc
 50
273.1693218481
 51
3.1626081801
  0
ARC
  5
A03
330
1F
100
AcDbEntity
  8
0
  6
PHANTOM
 62
     8
370
     0
100
AcDbCircle
 10
1376.927578906
 20
551.4145195776
 30
0.0
 40
4.962455485110604
100
AcDbArc
 50
184.6309589713
 51
274.6242453021
  0
ARC
  5
A04
330
1F
100
AcDbEntity
  8
0
  6
PHANTOM
 62
     8
370
     0
100
AcDbCircle
 10
1496.6821758933
 20
560.1857450882
 30
0.0
 40
4.96245548510545
100
AcDbArc
 50
273.753861795
 51
3.7471481286
  0
ARC
  5
A05
330
1F
100
AcDbEntity
  8
0
  6
PHANTOM
 62
     8
370
     0
100
AcDbCircle
 10
1383.1411146046
 20
466.580369258
 30
0.0
 40
4.96245548510574
100
AcDbArc
 50
184.6309589685
 51
274.6242453021
  0
ARC
  5
A06
330
1F
100
AcDbEntity
  8
0
  6
PHANTOM
 62
     8
370
     0
100
AcDbCircle
 10
1502.8957115919
 20
475.3515947686
 30
0.0
 40
4.962455485106871
100
AcDbArc
 50
273.753861795
 51
3.7471481271
  0
ARC
  5
A07
330
1F
100
AcDbEntity
  8
0
  6
PHANTOM
 62
     8
370
     0
100
AcDbCircle
 10
-1207.8838784039
 20
540.7658218408
 30
0.0
 40
4.962455485109926
100
AcDbArc
 50
177.421931768
 51
267.4152180988
  0
ARC
  5
A08
330
1F
100
AcDbEntity
  8
0
  6
PHANTOM
 62
     8
370
     0
100
AcDbCircle
 10
-1087.9752513379
 20
534.4397605312
 30
0.0
 40
4.962455485105806
100
AcDbArc
 50
266.5448345917
 51
356.5381209253
  0
ARC
  5
A09
330
1F
100
AcDbEntity
  8
0
  6
PHANTOM
 62
     8
370
     0
100
AcDbCircle
 10
-1212.3652599089
 20
455.8225566214
 30
0.0
 40
4.962455485105582
100
AcDbArc
 50
177.4219317652
 51
267.4152180988
  0
ARC
  5
A0A
330
1F
100
AcDbEntity
  8
0
  6
PHANTOM
 62
     8
370
     0
100
AcDbCircle
 10
-1092.4566328429
 20
449.4964953118
 30
0.0
 40
4.962455485107665
100
AcDbArc
 50
266.5448345917
 51
356.5381209238
  0
ARC
  5
A0B
330
1F
100
AcDbEntity
  8
0
  6
PHANTOM
 62
     8
370
     0
100
AcDbCircle
 10
-1061.5438079044
 20
533.0880901375
 30
0.0
 40
4.962455485110809
100
AcDbArc
 50
177.649203057
 51
267.6424893878
  0
ARC
  5
A0C
330
1F
100
AcDbEntity
  8
0
  6
PHANTOM
 62
     8
370
     0
100
AcDbCircle
 10
-941.6110310754
 20
527.2377107799
 30
0.0
 40
4.962455485105803
100
AcDbArc
 50
266.7721058807
 51
356.7653922143
  0
ARC
  5
A0D
330
1F
100
AcDbEntity
  8
0
  6
PHANTOM
 62
     8
370
     0
100
AcDbCircle
 10
-1065.6882163391
 20
448.1277172272
 30
0.0
 40
4.962455485105369
100
AcDbArc
 50
177.6492030542
 51
267.6424893878
  0
ARC
  5
A0E
330
1F
100
AcDbEntity
  8
0
  6
PHANTOM
 62
     8
370
     0
100
AcDbCircle
 10
-945.7554395101
 20
442.2773378697
 30
0.0
 40
4.962455485107762
100
AcDbArc
 50
266.7721058808
 51
356.7653922128
  0
ARC
  5
A0F
330
1F
100
AcDbEntity
  8
0
  6
PHANTOM
 62
     8
370
     0
100
AcDbCircle
 10
-915.1735209375
 20
526.0104078287
 30
0.0
 40
4.962455485110223
100
AcDbArc
 50
177.876474346
 51
267.8697606768
  0
ARC
  5
A10
330
1F
100
AcDbEntity
  8
0
  6
PHANTOM
 62
     8
370
     0
100
AcDbCircle
 10
-795.2184813859
 20
520.635802474
 30
0.0
 40
4.962455485105957
100
AcDbArc
 50
266.9993771698
 51
356.9926635034
  0
ARC
  5
A11
330
1F
100
AcDbEntity
  8
0
  6
PHANTOM
 62
     8
370
     0
100
AcDbCircle
 10
-918.9808910931
 20
441.0342640069
 30
0.0
 40
4.962455485105538
100
AcDbArc
 50
177.8764743432
 51
267.8697606768
  0
ARC
  5
A12
330
1F
100
AcDbEntity
  8
0
  6
PHANTOM
 62
     8
370
     0
100
AcDbCircle
 10
-799.0258515415
 20
435.6596586523
 30
0.0
 40
4.962455485108063
100
AcDbArc
 50
266.9993771698
 51
356.9926635018
  0
ARC
  5
A13
330
1F
100
AcDbEntity
  8
0
  6
PHANTOM
 62
     8
370
     0
100
AcDbCircle
 10
-770.5702875322
 20
520.1084631589
 30
0.0
 40
4.962455485110008
100
AcDbArc
 50
178.4610142929
 51
268.4543006237
  0
ARC
  5
A14
330
1F
100
AcDbEntity
  8
0
  6
PHANTOM
 62
     8
370
     0
100
AcDbCircle
 10
-650.5666590535
 20
515.9579151859
 30
0.0
 40
4.962455485105687
100
AcDbArc
 50
267.5839171167
 51
357.5772034503
  0
ARC
  5
A15
330
1F
100
AcDbEntity
  8
0
  6
PHANTOM
 62
     8
370
     0
100
AcDbCircle
 10
-773.5105355019
 20
435.0978989436
 30
0.0
 40
4.962455485105615
100
AcDbArc
 50
178.4610142902
 51
268.4543006238
  0
ARC
  5
A16
330
1F
100
AcDbEntity
  8
0
  6
PHANTOM
 62
     8
370
     0
100
AcDbCircle
 10
-653.5069070231
 20
430.9473509706
 30
0.0
 40
4.962455485107964
100
AcDbArc
 50
267.5839171167
 51
357.5772034487
  0
ARC
  5
A17
330
1F
100
AcDbEntity
  8
0
  6
PHANTOM
 62
     8
370
     0
100
AcDbCircle
 10
-625.9409311361
 20
514.7810245646
 30
0.0
 40
4.96245548511007
100
AcDbArc
 50
179.0455542399
 51
269.0388405707
  0
ARC
  5
A18
330
1F
100
AcDbEntity
  8
0
  6
PHANTOM
 62
     8
370
     0
100
AcDbCircle
 10
-505.9012040551
 20
511.8549659743
 30
0.0
 40
4.962455485106041
100
AcDbArc
 50
268.1684570636
 51
358.1617433972
  0
ARC
  5
A19
330
1F
100
AcDbEntity
  8
0
  6
PHANTOM
 62
     8
370
     0
100
AcDbCircle
 10
-628.0137508903
 20
429.7448881014
 30
0.0
 40
4.962455485105576
100
AcDbArc
 50
179.0455542371
 51
269.0388405707
  0
ARC
  5
A1A
330
1F
100
AcDbEntity
  8
0
  6
PHANTOM
 62
     8
370
     0
100
AcDbCircle
 10
-507.9740238094
 20
426.8188295111
 30
0.0
 40
4.962455485107985
100
AcDbArc
 50
268.1684570636
 51
358.1617433956
  0
ENDSEC
  0
SECTION
  2
OBJECTS
  0
DICTIONARY
  5
C
330
0
100
AcDbDictionary
281
     1
  3
ACAD_GROUP
350
D
  3
ACAD_LAYOUT
350
1A
  3
ACAD_MLINESTYLE
350
17
  3
ACAD_PLOTSETTINGS
350
19
  3
ACAD_PLOTSTYLENAME
350
E
  3
ACAD_SCALELIST
350
47
  0
DICTIONARY
  5
D
102
{ACAD_REACTORS
330
C
102
}
330
C
100
AcDbDictionary
281
     1
  0
DICTIONARY
  5
1A
102
{ACAD_REACTORS
330
C
102
}
330
C
100
AcDbDictionary
281
     1
  3
Layout1
350
1E
  3
Layout2
350
26
  3
Model
350
22
  0
DICTIONARY
  5
17
102
{ACAD_REACTORS
330
C
102
}
330
C
100
AcDbDictionary
281
     1
  3
Standard
350
18
  0
DICTIONARY
  5
19
102
{ACAD_REACTORS
330
C
102
}
330
C
100
AcDbDictionary
281
     1
  0
ACDBDICTIONARYWDFLT
  5
E
102
{ACAD_REACTORS
330
C
102
}
330
C
100
AcDbDictionary
281
     1
  3
Normal
350
F
100
AcDbDictionaryWithDefault
340
F
  0
DICTIONARY
  5
47
102
{ACAD_REACTORS
330
C
102
}
330
C
100
AcDbDictionary
281
     1
  3
A0
350
48
  3
A1
350
49
  3
A2
350
4A
  3
A3
350
4B
  3
A4
350
4C
  3
A5
350
4D
  3
A6
350
4E
  3
A7
350
4F
  3
A8
350
50
  3
A9
350
51
  3
B0
350
52
  3
B1
350
53
  3
B2
350
54
  3
B3
350
55
  3
B4
350
56
  3
B5
350
57
  3
B6
350
58
  3
B7
350
59
  3
B8
350
5A
  3
B9
350
5B
  3
C0
350
5C
  3
C1
350
5D
  3
C2
350
5E
  3
C3
350
5F
  3
C4
350
60
  3
C5
350
61
  3
C6
350
62
  3
C7
350
63
  3
C8
350
64
  3
C9
350
65
  3
D0
350
66
  3
D1
350
67
  3
D2
350
68
  0
LAYOUT
  5
1E
102
{ACAD_REACTORS
330
1A
102
}
330
1A
100
AcDbPlotSettings
  1

  2
none_device
  4

  6

 40
0.0
 41
0.0
 42
0.0
 43
0.0
 44
0.0
 45
0.0
 46
0.0
 47
0.0
 48
0.0
 49
0.0
140
0.0
141
0.0
142
1.0
143
1.0
 70
   688
 72
     1
 73
     0
 74
     5
  7

 75
    16
147
1.0
148
0.0
149
0.0
100
AcDbLayout
  1
Layout1
 70
     1
 71
     1
 10
0.0
 20
0.0
 11
420.0
 21
297.0
 12
0.0
 22
0.0
 32
0.0
 14
1.0000000000E+20
 24
1.0000000000E+20
 34
1.0000000000E+20
 15
-1.0000000000E+20
 25
-1.0000000000E+20
 35
-1.0000000000E+20
146
0.0
 13
0.0
 23
0.0
 33
0.0
 16
1.0
 26
0.0
 36
0.0
 17
0.0
 27
1.0
 37
0.0
 76
     0
330
1B
  0
LAYOUT
  5
26
102
{ACAD_REACTORS
330
1A
102
}
330
1A
100
AcDbPlotSettings
  1

  2
none_device
  4

  6

 40
0.0
 41
0.0
 42
0.0
 43
0.0
 44
0.0
 45
0.0
 46
0.0
 47
0.0
 48
0.0
 49
0.0
140
0.0
141
0.0
142
1.0
143
1.0
 70
   688
 72
     1
 73
     0
 74
     5
  7

 75
    16
147
1.0
148
0.0
149
0.0
100
AcDbLayout
  1
Layout2
 70
     1
 71
     2
 10
0.0
 20
0.0
 11
0.0
 21
0.0
 12
0.0
 22
0.0
 32
0.0
 14
0.0
 24
0.0
 34
0.0
 15
0.0
 25
0.0
 35
0.0
146
0.0
 13
0.0
 23
0.0
 33
0.0
 16
1.0
 26
0.0
 36
0.0
 17
0.0
 27
1.0
 37
0.0
 76
     0
330
23
  0
LAYOUT
  5
22
102
{ACAD_REACTORS
330
1A
102
}
330
1A
100
AcDbPlotSettings
  1

  2
none_device
  4
ANSI_A_(11.00_x_8.50_Inches)
  6

 40
6.35
 41
19.05
 42
6.35000508
 43
19.05000254
 44
279.4
 45
215.9
 46
167.8233541874
 47
66.8994929213
 48
0.0
 49
0.0
140
0.0
141
0.0
142
0.0026574843
143
1.0
 70
  1696
 72
     0
 73
     0
 74
     0
  7

 75
     0
147
0.0179189148
148
-1300.4909072572
149
0.0
100
AcDbLayout
  1
Model
 70
     1
 71
     0
 10
0.0
 20
0.0
 11
420.0
 21
297.0
 12
0.0
 22
0.0
 32
0.0
 14
-2559.6458510802
 24
0.116320796
 34
0.0
 15
1538.2146067669
 25
651.7495303145
 35
0.0
146
0.0
 13
0.0
 23
0.0
 33
0.0
 16
1.0
 26
0.0
 36
0.0
 17
0.0
 27
1.0
 37
0.0
 76
     0
330
1F
331
29
  0
MLINESTYLE
  5
18
102
{ACAD_REACTORS
330
17
102
}
330
17
100
AcDbMlineStyle
  2
Standard
 70
     0
  3

 62
   256
 51
90.0
 52
90.0
 71
     2
 49
0.5
 62
   256
  6
BYLAYER
 49
-0.5
 62
   256
  6
BYLAYER
  0
ACDBPLACEHOLDER
  5
F
102
{ACAD_REACTORS
330
E
102
}
330
E
  0
SCALE
  5
48
102
{ACAD_REACTORS
330
47
102
}
330
47
100
AcDbScale
 70
     0
300
1:1
140
1.0
141
1.0
290
     1
  0
SCALE
  5
49
102
{ACAD_REACTORS
330
47
102
}
330
47
100
AcDbScale
 70
     0
300
1:2
140
1.0
141
2.0
290
     0
  0
SCALE
  5
4A
102
{ACAD_REACTORS
330
47
102
}
330
47
100
AcDbScale
 70
     0
300
1:4
140
1.0
141
4.0
290
     0
  0
SCALE
  5
4B
102
{ACAD_REACTORS
330
47
102
}
330
47
100
AcDbScale
 70
     0
300
1:5
140
1.0
141
5.0
290
     0
  0
SCALE
  5
4C
102
{ACAD_REACTORS
330
47
102
}
330
47
100
AcDbScale
 70
     0
300
1:8
140
1.0
141
8.0
290
     0
  0
SCALE
  5
4D
102
{ACAD_REACTORS
330
47
102
}
330
47
100
AcDbScale
 70
     0
300
1:10
140
1.0
141
10.0
290
     0
  0
SCALE
  5
4E
102
{ACAD_REACTORS
330
47
102
}
330
47
100
AcDbScale
 70
     0
300
1:16
140
1.0
141
16.0
290
     0
  0
SCALE
  5
4F
102
{ACAD_REACTORS
330
47
102
}
330
47
100
AcDbScale
 70
     0
300
1:20
140
1.0
141
20.0
290
     0
  0
SCALE
  5
50
102
{ACAD_REACTORS
330
47
102
}
330
47
100
AcDbScale
 70
     0
300
1:30
140
1.0
141
30.0
290
     0
  0
SCALE
  5
51
102
{ACAD_REACTORS
330
47
102
}
330
47
100
AcDbScale
 70
     0
300
1:40
140
1.0
141
40.0
290
     0
  0
SCALE
  5
52
102
{ACAD_REACTORS
330
47
102
}
330
47
100
AcDbScale
 70
     0
300
1:50
140
1.0
141
50.0
290
     0
  0
SCALE
  5
53
102
{ACAD_REACTORS
330
47
102
}
330
47
100
AcDbScale
 70
     0
300
1:100
140
1.0
141
100.0
290
     0
  0
SCALE
  5
54
102
{ACAD_REACTORS
330
47
102
}
330
47
100
AcDbScale
 70
     0
300
2:1
140
2.0
141
1.0
290
     0
  0
SCALE
  5
55
102
{ACAD_REACTORS
330
47
102
}
330
47
100
AcDbScale
 70
     0
300
4:1
140
4.0
141
1.0
290
     0
  0
SCALE
  5
56
102
{ACAD_REACTORS
330
47
102
}
330
47
100
AcDbScale
 70
     0
300
8:1
140
8.0
141
1.0
290
     0
  0
SCALE
  5
57
102
{ACAD_REACTORS
330
47
102
}
330
47
100
AcDbScale
 70
     0
300
10:1
140
10.0
141
1.0
290
     0
  0
SCALE
  5
58
102
{ACAD_REACTORS
330
47
102
}
330
47
100
AcDbScale
 70
     0
300
100:1
140
100.0
141
1.0
290
     0
  0
SCALE
  5
59
102
{ACAD_REACTORS
330
47
102
}
330
47
100
AcDbScale
 70
     0
300
1/128" = 1'-0"
140
0.0078125
141
12.0
290
     0
  0
SCALE
  5
5A
102
{ACAD_REACTORS
330
47
102
}
330
47
100
AcDbScale
 70
     0
300
1/64" = 1'-0"
140
0.015625
141
12.0
290
     0
  0
SCALE
  5
5B
102
{ACAD_REACTORS
330
47
102
}
330
47
100
AcDbScale
 70
     0
300
1/32" = 1'-0"
140
0.03125
141
12.0
290
     0
  0
SCALE
  5
5C
102
{ACAD_REACTORS
330
47
102
}
330
47
100
AcDbScale
 70
     0
300
1/16" = 1'-0"
140
0.0625
141
12.0
290
     0
  0
SCALE
  5
5D
102
{ACAD_REACTORS
330
47
102
}
330
47
100
AcDbScale
 70
     0
300
3/32" = 1'-0"
140
0.09375
141
12.0
290
     0
  0
SCALE
  5
5E
102
{ACAD_REACTORS
330
47
102
}
330
47
100
AcDbScale
 70
     0
300
1/8" = 1'-0"
140
0.125
141
12.0
290
     0
  0
SCALE
  5
5F
102
{ACAD_REACTORS
330
47
102
}
330
47
100
AcDbScale
 70
     0
300
3/16" = 1'-0"
140
0.1875
141
12.0
290
     0
  0
SCALE
  5
60
102
{ACAD_REACTORS
330
47
102
}
330
47
100
AcDbScale
 70
     0
300
1/4" = 1'-0"
140
0.25
141
12.0
290
     0
  0
SCALE
  5
61
102
{ACAD_REACTORS
330
47
102
}
330
47
100
AcDbScale
 70
     0
300
3/8" = 1'-0"
140
0.375
141
12.0
290
     0
  0
SCALE
  5
62
102
{ACAD_REACTORS
330
47
102
}
330
47
100
AcDbScale
 70
     0
300
1/2" = 1'-0"
140
0.5
141
12.0
290
     0
  0
SCALE
  5
63
102
{ACAD_REACTORS
330
47
102
}
330
47
100
AcDbScale
 70
     0
300
3/4" = 1'-0"
140
0.75
141
12.0
290
     0
  0
SCALE
  5
64
102
{ACAD_REACTORS
330
47
102
}
330
47
100
AcDbScale
 70
     0
300
1" = 1'-0"
140
1.0
141
12.0
290
     0
  0
SCALE
  5
65
102
{ACAD_REACTORS
330
47
102
}
330
47
100
AcDbScale
 70
     0
300
1-1/2" = 1'-0"
140
1.5
141
12.0
290
     0
  0
SCALE
  5
66
102
{ACAD_REACTORS
330
47
102
}
330
47
100
AcDbScale
 70
     0
300
3" = 1'-0"
140
3.0
141
12.0
290
     0
  0
SCALE
  5
67
102
{ACAD_REACTORS
330
47
102
}
330
47
100
AcDbScale
 70
     0
300
6" = 1'-0"
140
6.0
141
12.0
290
     0
  0
SCALE
  5
68
102
{ACAD_REACTORS
330
47
102
}
330
47
100
AcDbScale
 70
     0
300
1'-0" = 1'-0"
140
12.0
141
12.0
290
     0
  0
ENDSEC
  0
EOF
