  0
SECTION
  2
HEADER
  9
$ACADVER
  1
AC1015
  9
$ACADMAINTVER
 70
     6
  9
$DWGCODEPAGE
  3
ANSI_1251
  9
$INSBASE
 10
0.0
 20
0.0
 30
0.0
  9
$EXTMIN
 10
-2092.0
 20
-1591.5580701239
 30
0.0
  9
$EXTMAX
 10
2092.0
 20
1566.4419298761
 30
0.0
  9
$LIMMIN
 10
0.0
 20
0.0
  9
$LIMMAX
 10
420.0
 20
297.0
  9
$ORTHOMODE
 70
     0
  9
$REGENMODE
 70
     1
  9
$FILLMODE
 70
     1
  9
$QTEXTMODE
 70
     0
  9
$MIRRTEXT
 70
     1
  9
$LTSCALE
 40
1.0
  9
$ATTMODE
 70
     1
  9
$TEXTSIZE
 40
3.0
  9
$TRACEWID
 40
1.0
  9
$TEXTSTYLE
  7
Standard
  9
$CLAYER
  8
0
  9
$CELTYPE
  6
ByLayer
  9
$CECOLOR
 62
   256
  9
$CELTSCALE
 40
1.0
  9
$DISPSILH
 70
     0
  9
$DIMSCALE
 40
1.0
  9
$DIMASZ
 40
3.0
  9
$DIMEXO
 40
0.0
  9
$DIMDLI
 40
3.75
  9
$DIMRND
 40
0.0
  9
$DIMDLE
 40
0.0
  9
$DIMEXE
 40
2.0
  9
$DIMTP
 40
0.0
  9
$DIMTM
 40
0.0
  9
$DIMTXT
 40
3.0
  9
$DIMCEN
 40
2.5
  9
$DIMTSZ
 40
0.0
  9
$DIMTOL
 70
     0
  9
$DIMLIM
 70
     0
  9
$DIMTIH
 70
     1
  9
$DIMTOH
 70
     1
  9
$DIMSE1
 70
     0
  9
$DIMSE2
 70
     0
  9
$DIMTAD
 70
     1
  9
$DIMZIN
 70
     0
  9
$DIMBLK
  1

  9
$DIMASO
 70
     1
  9
$DIMSHO
 70
     1
  9
$DIMPOST
  1

  9
$DIMAPOST
  1

  9
$DIMALT
 70
     0
  9
$DIMALTD
 70
     3
  9
$DIMALTF
 40
0.0393700787
  9
$DIMLFAC
 40
1.0
  9
$DIMTOFL
 70
     1
  9
$DIMTVP
 40
0.0
  9
$DIMTIX
 70
     0
  9
$DIMSOXD
 70
     0
  9
$DIMSAH
 70
     0
  9
$DIMBLK1
  1

  9
$DIMBLK2
  1

  9
$DIMSTYLE
  2
ISO-25
  9
$DIMCLRD
 70
     0
  9
$DIMCLRE
 70
     0
  9
$DIMCLRT
 70
     0
  9
$DIMTFAC
 40
1.0
  9
$DIMGAP
 40
2.0
  9
$DIMJUST
 70
     0
  9
$DIMSD1
 70
     0
  9
$DIMSD2
 70
     0
  9
$DIMTOLJ
 70
     0
  9
$DIMTZIN
 70
     0
  9
$DIMALTZ
 70
     0
  9
$DIMALTTZ
 70
     0
  9
$DIMUPT
 70
     0
  9
$DIMDEC
 70
     2
  9
$DIMTDEC
 70
     2
  9
$DIMALTU
 70
     2
  9
$DIMALTTD
 70
     3
  9
$DIMTXSTY
  7
Standard
  9
$DIMAUNIT
 70
     0
  9
$DIMADEC
 70
     2
  9
$DIMALTRND
 40
0.0
  9
$DIMAZIN
 70
     0
  9
$DIMDSEP
 70
    44
  9
$DIMATFIT
 70
     3
  9
$DIMFRAC
 70
     0
  9
$DIMLDRBLK
  1

  9
$DIMLUNIT
 70
     2
  9
$DIMLWD
 70
    -2
  9
$DIMLWE
 70
    -2
  9
$DIMTMOVE
 70
     0
  9
$LUNITS
 70
     2
  9
$LUPREC
 70
     2
  9
$SKETCHINC
 40
1.0
  9
$FILLETRAD
 40
10.0
  9
$AUNITS
 70
     1
  9
$AUPREC
 70
     2
  9
$MENU
  1
.
  9
$ELEVATION
 40
0.0
  9
$PELEVATION
 40
0.0
  9
$THICKNESS
 40
0.0
  9
$LIMCHECK
 70
     0
  9
$CHAMFERA
 40
0.0
  9
$CHAMFERB
 40
0.0
  9
$CHAMFERC
 40
0.0
  9
$CHAMFERD
 40
0.0
  9
$SKPOLY
 70
     0
  9
$TDCREATE
 40
2459296.667656169
  9
$TDUCREATE
 40
2459296.542656169
  9
$TDUPDATE
 40
2459296.667851215
  9
$TDUUPDATE
 40
2459296.542851215
  9
$TDINDWG
 40
0.0000000116
  9
$TDUSRTIMER
 40
0.0000000116
  9
$USRTIMER
 70
     1
  9
$ANGBASE
 50
0.0
  9
$ANGDIR
 70
     0
  9
$PDMODE
 70
     0
  9
$PDSIZE
 40
-1.0
  9
$PLINEWID
 40
0.0
  9
$SPLFRAME
 70
     0
  9
$SPLINETYPE
 70
     6
  9
$SPLINESEGS
 70
     8
  9
$HANDSEED
  5
536
  9
$SURFTAB1
 70
     6
  9
$SURFTAB2
 70
     6
  9
$SURFTYPE
 70
     6
  9
$SURFU
 70
     6
  9
$SURFV
 70
     6
  9
$UCSBASE
  2

  9
$UCSNAME
  2

  9
$UCSORG
 10
0.0
 20
0.0
 30
0.0
  9
$UCSXDIR
 10
1.0
 20
0.0
 30
0.0
  9
$UCSYDIR
 10
0.0
 20
1.0
 30
0.0
  9
$UCSORTHOREF
  2

  9
$UCSORTHOVIEW
 70
     0
  9
$UCSORGTOP
 10
0.0
 20
0.0
 30
0.0
  9
$UCSORGBOTTOM
 10
0.0
 20
0.0
 30
0.0
  9
$UCSORGLEFT
 10
0.0
 20
0.0
 30
0.0
  9
$UCSORGRIGHT
 10
0.0
 20
0.0
 30
0.0
  9
$UCSORGFRONT
 10
0.0
 20
0.0
 30
0.0
  9
$UCSORGBACK
 10
0.0
 20
0.0
 30
0.0
  9
$PUCSBASE
  2

  9
$PUCSNAME
  2

  9
$PUCSORG
 10
0.0
 20
0.0
 30
0.0
  9
$PUCSXDIR
 10
1.0
 20
0.0
 30
0.0
  9
$PUCSYDIR
 10
0.0
 20
1.0
 30
0.0
  9
$PUCSORTHOREF
  2

  9
$PUCSORTHOVIEW
 70
     0
  9
$PUCSORGTOP
 10
0.0
 20
0.0
 30
0.0
  9
$PUCSORGBOTTOM
 10
0.0
 20
0.0
 30
0.0
  9
$PUCSORGLEFT
 10
0.0
 20
0.0
 30
0.0
  9
$PUCSORGRIGHT
 10
0.0
 20
0.0
 30
0.0
  9
$PUCSORGFRONT
 10
0.0
 20
0.0
 30
0.0
  9
$PUCSORGBACK
 10
0.0
 20
0.0
 30
0.0
  9
$USERI1
 70
     0
  9
$USERI2
 70
     0
  9
$USERI3
 70
     0
  9
$USERI4
 70
     0
  9
$USERI5
 70
     0
  9
$USERR1
 40
0.0
  9
$USERR2
 40
0.0
  9
$USERR3
 40
0.0
  9
$USERR4
 40
0.0
  9
$USERR5
 40
0.0
  9
$WORLDVIEW
 70
     1
  9
$SHADEDGE
 70
     3
  9
$SHADEDIF
 70
    70
  9
$TILEMODE
 70
     1
  9
$MAXACTVP
 70
    64
  9
$PINSBASE
 10
0.0
 20
0.0
 30
0.0
  9
$PLIMCHECK
 70
     0
  9
$PEXTMIN
 10
1.0000000000E+20
 20
1.0000000000E+20
 30
1.0000000000E+20
  9
$PEXTMAX
 10
-1.0000000000E+20
 20
-1.0000000000E+20
 30
-1.0000000000E+20
  9
$PLIMMIN
 10
0.0
 20
0.0
  9
$PLIMMAX
 10
420.0
 20
297.0
  9
$UNITMODE
 70
     0
  9
$VISRETAIN
 70
     1
  9
$PLINEGEN
 70
     0
  9
$PSLTSCALE
 70
     1
  9
$TREEDEPTH
 70
  3020
  9
$CMLSTYLE
  2
Standard
  9
$CMLJUST
 70
     0
  9
$CMLSCALE
 40
20.0
  9
$PROXYGRAPHICS
 70
     1
  9
$MEASUREMENT
 70
     1
  9
$CELWEIGHT
370
    -1
  9
$ENDCAPS
280
     0
  9
$JOINSTYLE
280
     0
  9
$LWDISPLAY
290
     1
  9
$INSUNITS
 70
     4
  9
$HYPERLINKBASE
  1

  9
$STYLESHEET
  1

  9
$XEDIT
290
     1
  9
$CEPSNTYPE
380
     0
  9
$PSTYLEMODE
290
     1
  9
$FINGERPRINTGUID
  2
{7E95F55A-9E45-477C-99D2-B225554FB0BD}
  9
$VERSIONGUID
  2
{FAEB1C32-E019-11D5-929B-00C0DF256EC4}
  9
$EXTNAMES
290
     1
  9
$PSVPSCALE
 40
0.0
  9
$OLESTARTUP
290
     0
  0
ENDSEC
  0
SECTION
  2
CLASSES
  0
CLASS
  1
ACDBDICTIONARYWDFLT
  2
AcDbDictionaryWithDefault
  3
ObjectDBX Classes
 90
        0
280
     0
281
     0
  0
CLASS
  1
VISUALSTYLE
  2
AcDbVisualStyle
  3
ObjectDBX Classes
 90
     4095
280
     0
281
     0
  0
CLASS
  1
MATERIAL
  2
AcDbMaterial
  3
ObjectDBX Classes
 90
     1153
280
     0
281
     0
  0
CLASS
  1
SCALE
  2
AcDbScale
  3
ObjectDBX Classes
 90
     1153
280
     0
281
     0
  0
CLASS
  1
SUN
  2
AcDbSun
  3
SCENEOE
 90
     1153
280
     0
281
     0
  0
CLASS
  1
ACDBPLACEHOLDER
  2
AcDbPlaceHolder
  3
ObjectDBX Classes
 90
        0
280
     0
281
     0
  0
CLASS
  1
LAYOUT
  2
AcDbLayout
  3
ObjectDBX Classes
 90
        0
280
     0
281
     0
  0
ENDSEC
  0
SECTION
  2
TABLES
  0
TABLE
  2
VPORT
  5
8
330
0
100
AcDbSymbolTable
 70
     1
  0
VPORT
  5
29
330
8
100
AcDbSymbolTableRecord
100
AcDbViewportTableRecord
  2
*Active
 70
     0
 10
0.0
 20
0.0
 11
1.0
 21
1.0
 12
0.0
 22
-12.5580701239
 13
0.0
 23
0.0
 14
10.0
 24
10.0
 15
10.0
 25
10.0
 16
0.0
 26
0.0
 36
1.0
 17
0.0
 27
0.0
 37
0.0
 40
3221.16
 41
1.3248891704
 42
50.0
 43
0.0
 44
0.0
 50
0.0
 51
0.0
 71
     0
 72
   100
 73
     1
 74
     3
 75
     0
 76
     0
 77
     0
 78
     0
281
     0
 65
     1
110
0.0
120
0.0
130
0.0
111
1.0
121
0.0
131
0.0
112
0.0
122
1.0
132
0.0
 79
     0
146
0.0
  0
ENDTAB
  0
TABLE
  2
LTYPE
  5
5
330
0
100
AcDbSymbolTable
 70
     6
  0
LTYPE
  5
14
330
5
100
AcDbSymbolTableRecord
100
AcDbLinetypeTableRecord
  2
ByBlock
 70
     0
  3

 72
    65
 73
     0
 40
0.0
  0
LTYPE
  5
15
330
5
100
AcDbSymbolTableRecord
100
AcDbLinetypeTableRecord
  2
ByLayer
 70
     0
  3

 72
    65
 73
     0
 40
0.0
  0
LTYPE
  5
16
330
5
100
AcDbSymbolTableRecord
100
AcDbLinetypeTableRecord
  2
Continuous
 70
     0
  3
Solid line
 72
    65
 73
     0
 40
0.0
  0
LTYPE
  5
6A
330
5
100
AcDbSymbolTableRecord
100
AcDbLinetypeTableRecord
  2
HIDDEN
 70
     0
  3
Hidden __ __ __ __ __ __ __ __ __ __ __ __ __ __
 72
    65
 73
     2
 40
1.905
 49
1.27
 74
     0
 49
-0.635
 74
     0
  0
LTYPE
  5
6B
330
5
100
AcDbSymbolTableRecord
100
AcDbLinetypeTableRecord
  2
PHANTOM
 70
     0
  3
Phantom ______  __  __  ______  __  __  ______
 72
    65
 73
     6
 40
12.7
 49
6.35
 74
     0
 49
-1.27
 74
     0
 49
1.27
 74
     0
 49
-1.27
 74
     0
 49
1.27
 74
     0
 49
-1.27
 74
     0
  0
LTYPE
  5
6C
330
5
100
AcDbSymbolTableRecord
100
AcDbLinetypeTableRecord
  2
CENTER
 70
     0
  3
Center ____ _ ____ _ ____ _ ____ _ ____ _ ____
 72
    65
 73
     4
 40
10.16
 49
6.35
 74
     0
 49
-1.27
 74
     0
 49
1.27
 74
     0
 49
-1.27
 74
     0
  0
LTYPE
  5
6D
330
5
100
AcDbSymbolTableRecord
100
AcDbLinetypeTableRecord
  2
CENTERX2
 70
     0
  3
Center (2x) ________  __  ________  __  _____
 72
    65
 73
     4
 40
20.32
 49
12.7
 74
     0
 49
-2.54
 74
     0
 49
2.54
 74
     0
 49
-2.54
 74
     0
  0
LTYPE
  5
6E
330
5
100
AcDbSymbolTableRecord
100
AcDbLinetypeTableRecord
  2
DOT2
 70
     0
  3
Dot (.5x) ........................................
 72
    65
 73
     2
 40
0.635
 49
0.0
 74
     0
 49
-0.635
 74
     0
  0
ENDTAB
  0
TABLE
  2
LAYER
  5
2
330
0
100
AcDbSymbolTable
 70
     1
  0
LAYER
  5
10
330
2
100
AcDbSymbolTableRecord
100
AcDbLayerTableRecord
  2
0
 70
     0
 62
     7
  6
Continuous
370
    -3
390
F
  0
ENDTAB
  0
TABLE
  2
STYLE
  5
3
330
0
100
AcDbSymbolTable
 70
     1
  0
STYLE
  5
11
330
3
100
AcDbSymbolTableRecord
100
AcDbTextStyleTableRecord
  2
Standard
 70
     0
 40
0.0
 41
1.0
 50
0.0
 71
     0
 42
3.0
  3
txt
  4

  0
ENDTAB
  0
TABLE
  2
VIEW
  5
6
330
0
100
AcDbSymbolTable
 70
     0
  0
ENDTAB
  0
TABLE
  2
UCS
  5
7
330
0
100
AcDbSymbolTable
 70
     0
  0
ENDTAB
  0
TABLE
  2
APPID
  5
9
330
0
100
AcDbSymbolTable
 70
     1
  0
APPID
  5
12
330
9
100
AcDbSymbolTableRecord
100
AcDbRegAppTableRecord
  2
ACAD
 70
     0
  0
ENDTAB
  0
TABLE
  2
DIMSTYLE
  5
A
330
0
100
AcDbSymbolTable
 70
     1
100
AcDbDimStyleTable
  0
DIMSTYLE
105
27
330
A
100
AcDbSymbolTableRecord
100
AcDbDimStyleTableRecord
  2
ISO-25
 70
     0
 41
2.5
 42
0.625
 43
3.75
 44
1.25
 73
     0
 74
     0
 77
     1
 78
     8
140
2.5
141
2.5
143
0.0393700787
147
0.625
171
     3
172
     1
178
     0
271
     2
272
     2
274
     3
278
    44
283
     0
284
     8
340
11
  0
ENDTAB
  0
TABLE
  2
BLOCK_RECORD
  5
1
330
0
100
AcDbSymbolTable
 70
     1
  0
BLOCK_RECORD
  5
1F
330
1
100
AcDbSymbolTableRecord
100
AcDbBlockTableRecord
  2
*Model_Space
340
22
  0
BLOCK_RECORD
  5
1B
330
1
100
AcDbSymbolTableRecord
100
AcDbBlockTableRecord
  2
*Paper_Space
340
1E
  0
BLOCK_RECORD
  5
23
330
1
100
AcDbSymbolTableRecord
100
AcDbBlockTableRecord
  2
*Paper_Space0
340
26
  0
ENDTAB
  0
ENDSEC
  0
SECTION
  2
BLOCKS
  0
BLOCK
  5
20
330
1F
100
AcDbEntity
  8
0
100
AcDbBlockBegin
  2
*Model_Space
 70
     0
 10
0.0
 20
0.0
 30
0.0
  3
*Model_Space
  1
*Model_Space
  0
ENDBLK
  5
21
330
1F
100
AcDbEntity
  8
0
100
AcDbBlockEnd
  0
BLOCK
  5
1C
330
1B
100
AcDbEntity
 67
     1
  8
0
100
AcDbBlockBegin
  2
*Paper_Space
 70
     0
 10
0.0
 20
0.0
 30
0.0
  3
*Paper_Space
  1
*Paper_Space
  0
ENDBLK
  5
1D
330
1B
100
AcDbEntity
 67
     1
  8
0
100
AcDbBlockEnd
  0
BLOCK
  5
24
330
23
100
AcDbEntity
  8
0
100
AcDbBlockBegin
  2
*Paper_Space0
 70
     0
 10
0.0
 20
0.0
 30
0.0
  3
*Paper_Space0
  1
*Paper_Space0
  0
ENDBLK
  5
25
330
23
100
AcDbEntity
  8
0
100
AcDbBlockEnd
  0
ENDSEC
  0
SECTION
  2
ENTITIES
  0
SPLINE
  5
11C
330
1F
100
AcDbEntity
  8
0
  6
Continuous
 62
     7
370
    15
100
AcDbSpline
210
0.0
220
0.0
230
1.0
 70
     8
 71
     3
 72
    98
 73
    94
 74
     0
 42
0.000000001
 43
0.00000001
 40
0.0
 40
0.0
 40
0.0
 40
0.0
 40
0.0052448568835961
 40
0.010365257836777
 40
0.0164989779458705
 40
0.0224360587412466
 40
0.0289896958773066
 40
0.0324539109316349
 40
0.0359891402037959
 40
0.0399707284039676
 40
0.0430281564568375
 40
0.0452111226174582
 40
0.0485832137665366
 40
0.0533325061399548
 40
0.0596391152633324
 40
0.0672274878822858
 40
0.076298628689198
 40
0.0865919213849631
 40
0.0964430351468471
 40
0.1050144603401744
 40
0.1144698368986719
 40
0.1220688864885896
 40
0.127917928005865
 40
0.1317256859092863
 40
0.1380764077531572
 40
0.1465342428807682
 40
0.1547282647588457
 40
0.1625508685318925
 40
0.1700060070121692
 40
0.1771010928144084
 40
0.1981223576801754
 40
0.2180262333384453
 40
0.2371604636588889
 40
0.2566240499973653
 40
0.2665653953707569
 40
0.2770131718009499
 40
0.288180407982884
 40
0.3001066509588086
 40
0.312838905583907
 40
0.3261804793430829
 40
0.3384711279699605
 40
0.3493380130408997
 40
0.3591159566889151
 40
0.3676715498277282
 40
0.3763520958558579
 40
0.3852838785822263
 40
0.3947786952499238
 40
0.404903391907471
 40
0.423619016421071
 40
0.4440089509290595
 40
0.4660062098707325
 40
0.4895561535935835
 40
0.5136464287156448
 40
0.5361329236321495
 40
0.5568400652889254
 40
0.5757176988647125
 40
0.590835847929287
 40
0.6045854851813843
 40
0.619203156776706
 40
0.6360604303297684
 40
0.6503704358270643
 40
0.6643491224225192
 40
0.6778666982967251
 40
0.6903515493586833
 40
0.69732315616278
 40
0.7050778437410345
 40
0.7143839816669851
 40
0.7250525868960725
 40
0.7354905157929229
 40
0.7450684351400214
 40
0.7553239584648616
 40
0.7646514014805857
 40
0.7736879686662921
 40
0.7825294560424548
 40
0.7923625193254383
 40
0.8019400472570615
 40
0.8104659823170901
 40
0.8178012196121296
 40
0.824177045288133
 40
0.8311853278377812
 40
0.8393192423958157
 40
0.8487380528907403
 40
0.8594649427544262
 40
0.8707830288515275
 40
0.8826203179036468
 40
0.8948775990674422
 40
0.9116566982441062
 40
0.9286546400792474
 40
0.9456089290221921
 40
0.9624996703853967
 40
0.9791138855655757
 40
0.9952008210620428
 40
1.0
 40
1.0
 40
1.0
 40
1.0
 10
-404.3720491785445
 20
-26.39999999999998
 30
0.0
 10
-404.35921051563
 20
-27.32772329593209
 30
0.0
 10
-404.3338378401993
 20
-29.16115581409984
 30
0.0
 10
-404.2518489185532
 20
-32.05478681680047
 30
0.0
 10
-404.1266486186291
 20
-35.02719135244652
 30
0.0
 10
-403.9269968116247
 20
-38.14805914324533
 30
0.0
 10
-403.6852511413344
 20
-40.66309666833812
 30
0.0
 10
-403.4248296524195
 20
-42.58800319574902
 30
0.0
 10
-403.1832239794826
 20
-43.99657313332695
 30
0.0
 10
-402.9205516956671
 20
-45.17131687211482
 30
0.0
 10
-402.6697406963607
 20
-46.03913772192727
 30
0.0
 10
-402.4163869183457
 20
-46.76090579930705
 30
0.0
 10
-402.0701576622954
 20
-47.54292318312833
 30
0.0
 10
-401.6051653536827
 20
-48.27522537492145
 30
0.0
 10
-401.0169638272351
 20
-48.83003587151891
 30
0.0
 10
-400.3486971123268
 20
-49.07734480493374
 30
0.0
 10
-399.6428139503636
 20
-49.02773412321999
 30
0.0
 10
-398.9883004246155
 20
-48.90755060342757
 30
0.0
 10
-398.4757991230005
 20
-48.86222437500586
 30
0.0
 10
-398.1111322368692
 20
-48.84765654407646
 30
0.0
 10
-397.9069364797227
 20
-48.85916643992795
 30
0.0
 10
-397.8475136707096
 20
-48.85370473563918
 30
0.0
 10
-397.8831407972456
 20
-48.80571247029498
 30
0.0
 10
-397.9669409401652
 20
-48.63723109643867
 30
0.0
 10
-397.9623501830219
 20
-48.64871750195502
 30
0.0
 10
-397.9726604452857
 20
-48.75482382334484
 30
0.0
 10
-397.9980548019806
 20
-48.94845255340629
 30
0.0
 10
-398.0474389162657
 20
-49.23282340901385
 30
0.0
 10
-398.1275806561391
 20
-49.60052910725596
 30
0.0
 10
-398.3298237827443
 20
-50.37719417576475
 30
0.0
 10
-398.7705619861238
 20
-51.71294711228261
 30
0.0
 10
-399.4816219032452
 20
-53.67540310178632
 30
0.0
 10
-400.2447356307743
 20
-55.88099826338928
 30
0.0
 10
-400.8683207807778
 20
-57.88034565615771
 30
0.0
 10
-401.3414709208118
 20
-59.6062322438084
 30
0.0
 10
-401.6863368925104
 20
-61.01209690148565
 30
0.0
 10
-402.0091915717292
 20
-62.53900360047747
 30
0.0
 10
-402.2934743212209
 20
-64.19398414036202
 30
0.0
 10
-402.5155527601775
 20
-65.9628279243132
 30
0.0
 10
-402.6446376916475
 20
-67.74965691750069
 30
0.0
 10
-402.6706297704558
 20
-69.43570857304069
 30
0.0
 10
-402.6103624966485
 20
-70.94379619908973
 30
0.0
 10
-402.4874877493449
 20
-72.26963980767373
 30
0.0
 10
-402.3133496654258
 20
-73.49004614473169
 30
0.0
 10
-402.0878796128237
 20
-74.6585261552304
 30
0.0
 10
-401.7978559063275
 20
-75.85650777733619
 30
0.0
 10
-401.4427573086843
 20
-77.08179098525608
 30
0.0
 10
-400.9031232142033
 20
-78.68549237015752
 30
0.0
 10
-400.1052562261328
 20
-80.67747147040541
 30
0.0
 10
-398.9826009268518
 20
-83.0400554163679
 30
0.0
 10
-397.649714363847
 20
-85.4883108823234
 30
0.0
 10
-396.1466563400703
 20
-87.96490911564399
 30
0.0
 10
-394.573529579234
 20
-90.35214997006713
 30
0.0
 10
-393.0570938190634
 20
-92.53111984751217
 30
0.0
 10
-391.6849670597151
 20
-94.452048581478
 30
0.0
 10
-390.5469270291939
 20
-96.05365671736122
 30
0.0
 10
-389.6314921081203
 20
-97.38515565038165
 30
0.0
 10
-388.8874925996683
 20
-98.52492261490751
 30
0.0
 10
-388.2149034971095
 20
-99.638310116855
 30
0.0
 10
-387.6588435187786
 20
-100.6861684778329
 30
0.0
 10
-387.2590006747699
 20
-101.6164285308158
 30
0.0
 10
-387.0380945300859
 20
-102.3297501355127
 30
0.0
 10
-386.9545732272044
 20
-102.8510586438689
 30
0.0
 10
-386.9652716465723
 20
-103.1075950550218
 30
0.0
 10
-386.9703121252917
 20
-103.1847804578014
 30
0.0
 10
-386.9722785766763
 20
-103.2397747435253
 30
0.0
 10
-387.0104117068546
 20
-103.3264937549137
 30
0.0
 10
-387.1249748455393
 20
-103.4432893748947
 30
0.0
 10
-387.4145538531094
 20
-103.6062111677357
 30
0.0
 10
-387.9433583576134
 20
-103.7762275794266
 30
0.0
 10
-388.7256884285575
 20
-103.9117560211559
 30
0.0
 10
-389.8048330287224
 20
-103.9836033810944
 30
0.0
 10
-391.0993488711319
 20
-103.973049055048
 30
0.0
 10
-392.7221451123482
 20
-103.868179350596
 30
0.0
 10
-394.7351057479505
 20
-103.6427602267713
 30
0.0
 10
-397.1345599451785
 20
-103.2786307278722
 30
0.0
 10
-399.6795586669525
 20
-102.8156917431592
 30
0.0
 10
-402.1877349322079
 20
-102.3047125276882
 30
0.0
 10
-404.7512605852447
 20
-101.7413317881796
 30
0.0
 10
-407.6260029425983
 20
-101.0707955373069
 30
0.0
 10
-411.1513598083999
 20
-100.2025895641306
 30
0.0
 10
-415.4792141567428
 20
-99.08227249337537
 30
0.0
 10
-420.5446343044632
 20
-97.71190096056377
 30
0.0
 10
-426.1808991889786
 20
-96.12985957891196
 30
0.0
 10
-432.1674457904077
 20
-94.40223999586159
 30
0.0
 10
-439.116489769734
 20
-92.35512340781405
 30
0.0
 10
-446.9410600270275
 20
-90.0061434228808
 30
0.0
 10
-455.5008468150039
 20
-87.39442616256156
 30
0.0
 10
-463.9770688949486
 20
-84.77455601478232
 30
0.0
 10
-472.2621037766951
 20
-82.18656962097307
 30
0.0
 10
-480.2074922009518
 20
-79.68030788001386
 30
0.0
 10
-486.1184246219498
 20
-77.80377787155932
 30
0.0
 10
-489.2309439576302
 20
-76.80535201302953
 30
0.0
 10
-489.9461338167436
 20
-76.57593526984294
 30
0.0
  0
SPLINE
  5
11D
330
1F
100
AcDbEntity
  8
0
  6
Continuous
 62
     7
370
    15
100
AcDbSpline
210
0.0
220
0.0
230
1.0
 70
     8
 71
     3
 72
    99
 73
    95
 74
     0
 42
0.000000001
 43
0.00000001
 40
0.0
 40
0.0
 40
0.0
 40
0.0
 40
0.0154411137720933
 40
0.0318440483404155
 40
0.0490763618819547
 40
0.066877490945433
 40
0.0849382512535602
 40
0.098446807760288
 40
0.111749254598727
 40
0.12443797328045
 40
0.1357507648203201
 40
0.1457322648404553
 40
0.1545786228296324
 40
0.1624754735222915
 40
0.1698285196386786
 40
0.1782324794771544
 40
0.1879977199879742
 40
0.1991702033419485
 40
0.2108036818262898
 40
0.2227300741247295
 40
0.2350220897315871
 40
0.2470720372108931
 40
0.2578620893874238
 40
0.2672317813531089
 40
0.2757698621245779
 40
0.2837202839919788
 40
0.2910869540650204
 40
0.2968527972083483
 40
0.3044244771874181
 40
0.3138859822120172
 40
0.3247089251791627
 40
0.3347545400842164
 40
0.346346791894664
 40
0.3561125221786673
 40
0.3651943747329124
 40
0.3808666678063162
 40
0.3957633843552543
 40
0.4095272983265247
 40
0.4189255838612642
 40
0.4274592700517159
 40
0.4370333594074481
 40
0.448225072936299
 40
0.4610416859013929
 40
0.4753586525532138
 40
0.4899092221432686
 40
0.5067267100172345
 40
0.5233321469070604
 40
0.5396838922462559
 40
0.5556533078759724
 40
0.5701236119182578
 40
0.5827920381833845
 40
0.5894285599813669
 40
0.5954613346944705
 40
0.6012338102861106
 40
0.6082402677513049
 40
0.6166195899690351
 40
0.6263123699397857
 40
0.6372374820963845
 40
0.6477354960615648
 40
0.6559780793609841
 40
0.6628654058689464
 40
0.6685204006558947
 40
0.6743551455039801
 40
0.6808760168928735
 40
0.6880640503129059
 40
0.6959003143706487
 40
0.7115879274241749
 40
0.7276784678432389
 40
0.7440303025279297
 40
0.7618622257527258
 40
0.7795584816829245
 40
0.7969731596720518
 40
0.8141951665742417
 40
0.830634257184899
 40
0.8422525768953113
 40
0.8525692377880331
 40
0.8619399693085461
 40
0.8720976770242626
 40
0.8846407611387938
 40
0.8992416387401435
 40
0.9146390981272792
 40
0.9269272673213912
 40
0.9381986506208536
 40
0.9480458049762612
 40
0.9564664847957727
 40
0.9638872417570113
 40
0.9676979563829805
 40
0.9721078842043144
 40
0.9755142560916108
 40
0.9796115907525584
 40
0.9846388811546853
 40
0.9891749039442385
 40
0.9945166144651931
 40
1.0
 40
1.0
 40
1.0
 40
1.0
 10
-491.9683082535664
 20
-79.91987111892075
 30
0.0
 10
-489.6122568499825
 20
-80.67291481157179
 30
0.0
 10
-484.7533965439451
 20
-82.22590898706729
 30
0.0
 10
-476.9223960534434
 20
-84.70368322533699
 30
0.0
 10
-468.5411625264699
 20
-87.33329529127737
 30
0.0
 10
-459.7197882767881
 20
-90.07186437559993
 30
0.0
 10
-451.4027430048702
 20
-92.62151593787083
 30
0.0
 10
-443.7833986014802
 20
-94.9246406889393
 30
0.0
 10
-437.0531025824138
 20
-96.92897599822014
 30
0.0
 10
-430.7079862972705
 20
-98.78348968902904
 30
0.0
 10
-424.9819386464052
 20
-100.4182990842846
 30
0.0
 10
-420.0076786528905
 20
-101.7971951418753
 30
0.0
 10
-415.7400036571428
 20
-102.9407958537246
 30
0.0
 10
-412.0566001197221
 20
-103.8911613555208
 30
0.0
 10
-408.6308936802398
 20
-104.7379507607529
 30
0.0
 10
-405.1798283546806
 20
-105.5451774176668
 30
0.0
 10
-401.5875330091374
 20
-106.318793411989
 30
0.0
 10
-398.1205659804401
 20
-106.9735336856654
 30
0.0
 10
-395.0027884141634
 20
-107.4481676777282
 30
0.0
 10
-392.3426954215348
 20
-107.7230972428323
 30
0.0
 10
-390.1520053848881
 20
-107.8048757059871
 30
0.0
 10
-388.4293276803252
 20
-107.7139758200196
 30
0.0
 10
-387.1092855314365
 20
-107.4941430004627
 30
0.0
 10
-386.0484113090688
 20
-107.1667150310877
 30
0.0
 10
-385.2075102521663
 20
-106.7508200838595
 30
0.0
 10
-384.5524754875723
 20
-106.2681614649708
 30
0.0
 10
-384.069380356695
 20
-105.7497978844692
 30
0.0
 10
-383.700729627225
 20
-105.1874677728788
 30
0.0
 10
-383.4133799441313
 20
-104.5279330412889
 30
0.0
 10
-383.2341944928891
 20
-103.680251482217
 30
0.0
 10
-383.238028718049
 20
-102.7412305677893
 30
0.0
 10
-383.4084060190842
 20
-101.7812532498929
 30
0.0
 10
-383.6868742375335
 20
-100.8997799788981
 30
0.0
 10
-384.0091414792581
 20
-100.1124528985808
 30
0.0
 10
-384.4257290247407
 20
-99.22490622575647
 30
0.0
 10
-384.9794281886257
 20
-98.18546264055212
 30
0.0
 10
-385.6742903379175
 20
-96.99402513115663
 30
0.0
 10
-386.3218168896766
 20
-95.93952051242482
 30
0.0
 10
-386.891220423278
 20
-95.03649826071913
 30
0.0
 10
-387.4042907360907
 20
-94.23475897538354
 30
0.0
 10
-387.9578757295959
 20
-93.37898761660928
 30
0.0
 10
-388.6074039005982
 20
-92.38351888475293
 30
0.0
 10
-389.3693787735816
 20
-91.22211663003893
 30
0.0
 10
-390.2232735304837
 20
-89.92152360713631
 30
0.0
 10
-391.1805898706613
 20
-88.45335961063027
 30
0.0
 10
-392.195228598753
 20
-86.8694544462667
 30
0.0
 10
-393.2406692510756
 20
-85.18369784372591
 30
0.0
 10
-394.2437709998995
 20
-83.48797482725827
 30
0.0
 10
-395.162653658779
 20
-81.83243468076718
 30
0.0
 10
-395.9622286485426
 20
-80.27060467752855
 30
0.0
 10
-396.5436966379615
 20
-79.02379419621289
 30
0.0
 10
-396.948397600326
 20
-78.08085202307022
 30
0.0
 10
-397.2259799015966
 20
-77.39224949227395
 30
0.0
 10
-397.4906642894645
 20
-76.69089550855988
 30
0.0
 10
-397.7664018913778
 20
-75.89866899636138
 30
0.0
 10
-398.0600955073333
 20
-74.95198844694727
 30
0.0
 10
-398.3503179099632
 20
-73.84542656304639
 30
0.0
 10
-398.5925529006366
 20
-72.64345099450895
 30
0.0
 10
-398.7487592979953
 20
-71.48021253213712
 30
0.0
 10
-398.8299609070943
 20
-70.46241196168387
 30
0.0
 10
-398.8615168204448
 20
-69.62892601408032
 30
0.0
 10
-398.8651619792477
 20
-68.8852549374409
 30
0.0
 10
-398.8472260333682
 20
-68.14396088731375
 30
0.0
 10
-398.8028163658492
 20
-67.3298859914415
 30
0.0
 10
-398.7243403734666
 20
-66.42484623159432
 30
0.0
 10
-398.5686948238213
 20
-65.12856722530451
 30
0.0
 10
-398.2863767109422
 20
-63.45655950999164
 30
0.0
 10
-397.8299115297937
 20
-61.42608198957294
 30
0.0
 10
-397.2636168862555
 20
-59.3388961512118
 30
0.0
 10
-396.6251824225268
 20
-57.26385362131661
 30
0.0
 10
-395.9645272876018
 20
-55.25447219191525
 30
0.0
 10
-395.3536215949089
 20
-53.4128459666662
 30
0.0
 10
-394.8474238506327
 20
-51.8095602174136
 30
0.0
 10
-394.4934866138196
 20
-50.55697860507654
 30
0.0
 10
-394.2776016048364
 20
-49.56193263935024
 30
0.0
 10
-394.1865156744659
 20
-48.78865658586541
 30
0.0
 10
-394.1899888081119
 20
-48.03923121310731
 30
0.0
 10
-394.434233153787
 20
-47.07723192579542
 30
0.0
 10
-394.9088787718859
 20
-46.38944955742056
 30
0.0
 10
-395.5092023541174
 20
-46.02819911353551
 30
0.0
 10
-396.1786448700066
 20
-46.02291436309361
 30
0.0
 10
-396.9206099723152
 20
-46.29569241499608
 30
0.0
 10
-397.6175542818967
 20
-46.62518851808142
 30
0.0
 10
-398.2536579806809
 20
-46.49800064406649
 30
0.0
 10
-398.8350243340956
 20
-45.63210312963354
 30
0.0
 10
-399.3020907258722
 20
-44.05337357762867
 30
0.0
 10
-399.6343049559126
 20
-42.2607066208437
 30
0.0
 10
-399.8530183879568
 20
-40.67113192082026
 30
0.0
 10
-400.0414572947512
 20
-38.87289447747585
 30
0.0
 10
-400.2049604417859
 20
-36.85823317436232
 30
0.0
 10
-400.341791323235
 20
-34.55838803208102
 30
0.0
 10
-400.4508541130127
 20
-31.98309709790063
 30
0.0
 10
-400.5307559507832
 20
-29.28846991758151
 30
0.0
 10
-400.5580246312184
 20
-27.37118754286429
 30
0.0
 10
-400.5718374128401
 20
-26.40000000000004
 30
0.0
  0
SPLINE
  5
11E
330
1F
100
AcDbEntity
  8
0
  6
Continuous
 62
     7
370
    15
100
AcDbSpline
210
0.0
220
0.0
230
1.0
 70
     8
 71
     3
 72
    97
 73
    93
 74
     0
 42
0.000000001
 43
0.00000001
 40
0.0
 40
0.0
 40
0.0
 40
0.0
 40
0.0052658709604796
 40
0.0103227800345613
 40
0.0145150086352192
 40
0.0182667411585607
 40
0.0223496277417587
 40
0.0289273501508284
 40
0.0323794439507205
 40
0.0357209325662195
 40
0.0392572897309519
 40
0.0418335944506198
 40
0.0435052232817401
 40
0.0469840984808154
 40
0.0518852124536774
 40
0.0583787795472936
 40
0.0662241054097431
 40
0.0756215314128497
 40
0.0859562638574442
 40
0.0953314773448618
 40
0.1035394754109206
 40
0.1125649350330409
 40
0.1196816456951928
 40
0.1249366068045105
 40
0.1282505833331038
 40
0.1334087058895014
 40
0.1399779888849536
 40
0.146448630835602
 40
0.1526947407252401
 40
0.1643639478045973
 40
0.1753139058520905
 40
0.1962984461833724
 40
0.216005239380012
 40
0.2350700522614411
 40
0.2551804572294201
 40
0.2712417835867816
 40
0.2891299158436301
 40
0.3091093521788426
 40
0.3213424945222005
 40
0.332293806615501
 40
0.3418340696669858
 40
0.3498969202909248
 40
0.3617069088547904
 40
0.373593017596948
 40
0.38634992017532
 40
0.4009494943198354
 40
0.4176887819306519
 40
0.4358075277967039
 40
0.4552081698990678
 40
0.4758554459466448
 40
0.4973031688725012
 40
0.5169732427835889
 40
0.5348626187583925
 40
0.5509288973131523
 40
0.5658182730656826
 40
0.5858769822707532
 40
0.6068286675395296
 40
0.6300670582423308
 40
0.641595349272611
 40
0.6532360979357847
 40
0.6649590228168818
 40
0.6758696823618024
 40
0.6849665342403319
 40
0.6903745141680966
 40
0.6969803410898139
 40
0.7050403888450167
 40
0.7144098091596071
 40
0.7237161056133543
 40
0.7323727680369571
 40
0.74420831805885
 40
0.7548797826905382
 40
0.7651347020275568
 40
0.7751074388818326
 40
0.7848291112644399
 40
0.794170719882039
 40
0.8023634257301051
 40
0.8094100438034695
 40
0.8157072240490676
 40
0.8228417991761541
 40
0.8311051976567004
 40
0.8406637774735867
 40
0.8514131149783358
 40
0.8626866174661445
 40
0.8744474414686693
 40
0.8865942669616201
 40
0.9031830021765297
 40
0.9199538576739643
 40
0.9366700567358505
 40
0.9533144094664402
 40
0.9696663486285706
 40
0.9854820731257068
 40
1.0
 40
1.0
 40
1.0
 40
1.0
 10
395.5718492539422
 20
-26.39999999999998
 30
0.0
 10
395.5585621079602
 20
-27.34135844093121
 30
0.0
 10
395.5325150805475
 20
-29.18672005201891
 30
0.0
 10
395.4579808881044
 20
-31.75803738930608
 30
0.0
 10
395.365520422288
 20
-34.03051710842521
 30
0.0
 10
395.2531075476781
 20
-36.09060454446939
 30
0.0
 10
395.0834630548625
 20
-38.47589219507949
 30
0.0
 10
394.8625641443105
 20
-40.65223883882089
 30
0.0
 10
394.6036918222311
 20
-42.43097135233467
 30
0.0
 10
394.3803353672902
 20
-43.62272588924566
 30
0.0
 10
394.163271795052
 20
-44.50858480847258
 30
0.0
 10
393.9797917950552
 20
-45.08525942317432
 30
0.0
 10
393.8216428154193
 20
-45.50034606515576
 30
0.0
 10
393.623122700918
 20
-45.91218088461525
 30
0.0
 10
393.3099508449518
 20
-46.30738230445564
 30
0.0
 10
392.8970776475413
 20
-46.47787675787021
 30
0.0
 10
392.3887787992135
 20
-46.38006743945311
 30
0.0
 10
391.8251608450697
 20
-46.09950530990718
 30
0.0
 10
391.2949217815403
 20
-45.93672171541891
 30
0.0
 10
390.8370481525148
 20
-45.91787034258583
 30
0.0
 10
390.4345080688706
 20
-46.02076356251571
 30
0.0
 10
390.0835514189807
 20
-46.24329630733202
 30
0.0
 10
389.7870317655668
 20
-46.56014038653188
 30
0.0
 10
389.5452637794157
 20
-46.94964525097627
 30
0.0
 10
389.3723040583252
 20
-47.3549997842255
 30
0.0
 10
389.2707429234214
 20
-47.71570626395298
 30
0.0
 10
389.2038352698174
 20
-48.16364493829077
 30
0.0
 10
389.1935418283668
 20
-48.67274802128253
 30
0.0
 10
389.2457532754577
 20
-49.33966028210729
 30
0.0
 10
389.3989801646727
 20
-50.15842192144473
 30
0.0
 10
389.7030186476745
 20
-51.32622486548884
 30
0.0
 10
390.1775356911802
 20
-52.87649844576448
 30
0.0
 10
390.8682428701456
 20
-54.9696365957922
 30
0.0
 10
391.6067510862161
 20
-57.20328894962783
 30
0.0
 10
392.2927544034553
 20
-59.43254988779617
 30
0.0
 10
392.8963738796219
 20
-61.68717716887557
 30
0.0
 10
393.3926675463892
 20
-63.96003924727456
 30
0.0
 10
393.7085967724187
 20
-66.08311362390562
 30
0.0
 10
393.8484665775327
 20
-67.90415350176416
 30
0.0
 10
393.8750274811359
 20
-69.27843010236938
 30
0.0
 10
393.8328713996446
 20
-70.46314835611938
 30
0.0
 10
393.7297465358852
 20
-71.66424793502702
 30
0.0
 10
393.5464644195691
 20
-72.92489821819377
 30
0.0
 10
393.2362912540826
 20
-74.33124059076825
 30
0.0
 10
392.8043573127878
 20
-75.82065587586558
 30
0.0
 10
392.2023605817394
 20
-77.49774926365505
 30
0.0
 10
391.4106389207453
 20
-79.34709286105253
 30
0.0
 10
390.4277109867448
 20
-81.34379286748852
 30
0.0
 10
389.2823622754453
 20
-83.43114460774679
 30
0.0
 10
388.0045454763818
 20
-85.57848222001171
 30
0.0
 10
386.6906704325532
 20
-87.66499512986948
 30
0.0
 10
385.4403199571589
 20
-89.58938033284448
 30
0.0
 10
384.3309456233347
 20
-91.27900385277621
 30
0.0
 10
383.3523620879292
 20
-92.77230353149993
 30
0.0
 10
382.3603316129489
 20
-94.29946975247243
 30
0.0
 10
381.3311344514549
 20
-95.91498082241817
 30
0.0
 10
380.2436541420759
 20
-97.7058894688299
 30
0.0
 10
379.4374947712166
 20
-99.179768600197
 30
0.0
 10
378.8851355089811
 20
-100.3899170723039
 30
0.0
 10
378.539563766606
 20
-101.3218621970689
 30
0.0
 10
378.3021440245001
 20
-102.2630964927664
 30
0.0
 10
378.2135152667322
 20
-103.1763386222425
 30
0.0
 10
378.278835305044
 20
-103.9658113845148
 30
0.0
 10
378.4733805500437
 20
-104.6785862308349
 30
0.0
 10
378.750633533019
 20
-105.2885487551338
 30
0.0
 10
379.2120286127123
 20
-105.9423285064292
 30
0.0
 10
379.8956917823416
 20
-106.5564384028358
 30
0.0
 10
380.7447712181001
 20
-107.0378557309716
 30
0.0
 10
381.8020691516455
 20
-107.4200581228703
 30
0.0
 10
383.0741626609031
 20
-107.6724723352868
 30
0.0
 10
384.6320133412312
 20
-107.7885266420822
 30
0.0
 10
386.3991039943911
 20
-107.7704950652548
 30
0.0
 10
388.4339987936043
 20
-107.6208842607943
 30
0.0
 10
390.7586648381226
 20
-107.338291773699
 30
0.0
 10
393.2989264357823
 20
-106.9347628195797
 30
0.0
 10
395.917989900304
 20
-106.4453182855372
 30
0.0
 10
398.462924530788
 20
-105.9179293804684
 30
0.0
 10
401.0824531500357
 20
-105.3353882952404
 30
0.0
 10
404.0641459681866
 20
-104.6331108903617
 30
0.0
 10
407.7369853924342
 20
-103.7207463289513
 30
0.0
 10
412.2046188066646
 20
-102.5555333554078
 30
0.0
 10
417.3802365742217
 20
-101.1467176324812
 30
0.0
 10
423.0830409610965
 20
-99.53842497513914
 30
0.0
 10
429.1043696666819
 20
-97.79505252687984
 30
0.0
 10
436.0668531493932
 20
-95.73889393444207
 30
0.0
 10
443.8828307708782
 20
-93.38821779346868
 30
0.0
 10
452.4170465751192
 20
-90.78074005060203
 30
0.0
 10
460.8578015227693
 20
-88.16911934803201
 30
0.0
 10
469.0955507134616
 20
-85.59343676941604
 30
0.0
 10
477.0033162131089
 20
-83.09775340590136
 30
0.0
 10
484.3837247638627
 20
-80.7504409236665
 30
0.0
 10
488.9171859858632
 20
-79.29410031104862
 30
0.0
 10
491.0869365939433
 20
-78.59708410752084
 30
0.0
  0
SPLINE
  5
11F
330
1F
100
AcDbEntity
  8
0
  6
Continuous
 62
     7
370
    15
100
AcDbSpline
210
0.0
220
0.0
230
1.0
 70
     8
 71
     3
 72
    86
 73
    82
 74
     0
 42
0.000000001
 43
0.00000001
 40
0.0
 40
0.0
 40
0.0
 40
0.0
 40
0.0101164377451375
 40
0.0284436138235943
 40
0.0477539906555322
 40
0.0680240927933853
 40
0.0889400270049234
 40
0.1101279008136192
 40
0.1259478431367155
 40
0.141496867613149
 40
0.1561911090558872
 40
0.1692283473192812
 40
0.1807121033806619
 40
0.1908848902892535
 40
0.1999623407077455
 40
0.20861446728048
 40
0.2186484176983336
 40
0.2302979912999778
 40
0.2434924156529914
 40
0.2570983868702356
 40
0.2710676854442041
 40
0.285470057815812
 40
0.2992316649606196
 40
0.3114358623396476
 40
0.3199841862280548
 40
0.3280428766757591
 40
0.335785940255015
 40
0.3431852800357717
 40
0.3508207006690366
 40
0.3590059418330091
 40
0.3694713795815826
 40
0.3822911493415561
 40
0.3950900557730297
 40
0.4064230425796912
 40
0.4160314465767593
 40
0.4240933528672268
 40
0.4316006354694558
 40
0.4390126648453061
 40
0.4562345314325069
 40
0.4727817720797193
 40
0.4880301680079919
 40
0.4985155386599961
 40
0.5085881437499117
 40
0.5203669502897112
 40
0.5340327465491491
 40
0.5495929794929049
 40
0.5665801256578877
 40
0.5835523546578777
 40
0.6031621744729654
 40
0.6225155891135024
 40
0.641562806759045
 40
0.6599445586292345
 40
0.6762737212070746
 40
0.6904234371971648
 40
0.6970315383842824
 40
0.7030534243837103
 40
0.7091548906113606
 40
0.7172005585424492
 40
0.727246362393565
 40
0.736488088275688
 40
0.7468593205206908
 40
0.7570961825708867
 40
0.7659887517323812
 40
0.7735901839876262
 40
0.7816902054914284
 40
0.7879128955017665
 40
0.794349314238599
 40
0.8015116564352369
 40
0.8093811653980337
 40
0.8179388957093073
 40
0.8271662237702384
 40
0.8453336612156412
 40
0.8641277677365233
 40
0.8835031526945784
 40
0.9048213995154779
 40
0.9254973168810342
 40
0.9452730256632063
 40
0.9642567580045864
 40
0.9818716878082646
 40
0.9930638028475414
 40
1.0
 40
1.0
 40
1.0
 40
1.0
 10
489.2514958506988
 20
-75.19437380683557
 30
0.0
 10
487.9889738663793
 20
-75.60078144902877
 30
0.0
 10
484.4392374205593
 20
-76.74344671527405
 30
0.0
 10
478.0936638986503
 20
-78.76521433546885
 30
0.0
 10
470.222099182256
 20
-81.25592073177839
 30
0.0
 10
461.7775052150973
 20
-83.90300473175778
 30
0.0
 10
452.9144932392115
 20
-86.65223850404897
 30
0.0
 10
444.5670404894649
 20
-89.20831050136646
 30
0.0
 10
436.9355980244856
 20
-91.5116958450392
 30
0.0
 10
430.2266672207472
 20
-93.50586589116918
 30
0.0
 10
423.9390743213789
 20
-95.33904006113467
 30
0.0
 10
418.3032872901741
 20
-96.94292166767609
 30
0.0
 10
413.4298734868672
 20
-98.28839962548962
 30
0.0
 10
409.2614549195239
 20
-99.40019102133566
 30
0.0
 10
405.647398033384
 20
-100.3275793955593
 30
0.0
 10
402.2507201799736
 20
-101.1614303574581
 30
0.0
 10
398.8170262541001
 20
-101.9564773250416
 30
0.0
 10
395.2864428399377
 20
-102.7044725439587
 30
0.0
 10
391.9502790942263
 20
-103.3169505764565
 30
0.0
 10
389.0534071881645
 20
-103.7362669368231
 30
0.0
 10
386.6891502857912
 20
-103.9560610582909
 30
0.0
 10
384.8711358774794
 20
-103.9955110813997
 30
0.0
 10
383.5936917256925
 20
-103.9004659049212
 30
0.0
 10
382.8384948344435
 20
-103.7456810812148
 30
0.0
 10
382.4515333542907
 20
-103.6126517948368
 30
0.0
 10
382.2341598283433
 20
-103.5069019710063
 30
0.0
 10
382.1005859832216
 20
-103.4150888329193
 30
0.0
 10
382.0238937606463
 20
-103.3376653895478
 30
0.0
 10
381.9835419250891
 20
-103.271731894898
 30
0.0
 10
381.9561888943899
 20
-103.1891445852757
 30
0.0
 10
381.9449442030228
 20
-103.0690909980295
 30
0.0
 10
381.9537337250611
 20
-102.8783017480214
 30
0.0
 10
381.9939386071122
 20
-102.5803280915895
 30
0.0
 10
382.0800591038899
 20
-102.2032858563847
 30
0.0
 10
382.2033267978594
 20
-101.8043096558199
 30
0.0
 10
382.3576062954618
 20
-101.393831596776
 30
0.0
 10
382.5311315886312
 20
-100.9896129182976
 30
0.0
 10
382.8110247127624
 20
-100.3982501156228
 30
0.0
 10
383.2471903097415
 20
-99.5852041635061
 30
0.0
 10
383.8741578357071
 20
-98.54718345404119
 30
0.0
 10
384.4898081462502
 20
-97.60155114586381
 30
0.0
 10
385.0541459949744
 20
-96.76969088462695
 30
0.0
 10
385.5929268408483
 20
-95.99400927101992
 30
0.0
 10
386.2222286790559
 20
-95.10286291366447
 30
0.0
 10
386.9792210705423
 20
-94.04050090505376
 30
0.0
 10
387.8566213865314
 20
-92.8078330005918
 30
0.0
 10
388.807844779863
 20
-91.45289923136615
 30
0.0
 10
389.8386208594816
 20
-89.94615299499175
 30
0.0
 10
390.9062990397823
 20
-88.32386655509119
 30
0.0
 10
391.9899778753775
 20
-86.58447667766664
 30
0.0
 10
393.0137852693492
 20
-84.82509997392282
 30
0.0
 10
393.9350172621583
 20
-83.10525621395203
 30
0.0
 10
394.7154079246088
 20
-81.50415366289836
 30
0.0
 10
395.2646286546844
 20
-80.25656894124366
 30
0.0
 10
395.6373363434549
 20
-79.33577373697219
 30
0.0
 10
395.8873763330445
 20
-78.68188403651939
 30
0.0
 10
396.1453488485572
 20
-77.96527846096538
 30
0.0
 10
396.4355415303075
 20
-77.09319343186927
 30
0.0
 10
396.7321166982583
 20
-76.091502786153
 30
0.0
 10
397.013148020888
 20
-74.98576588672582
 30
0.0
 10
397.2499671937432
 20
-73.85271016895221
 30
0.0
 10
397.4296918556549
 20
-72.71203340791736
 30
0.0
 10
397.5467801536032
 20
-71.6636024504338
 30
0.0
 10
397.619070417168
 20
-70.68873930596817
 30
0.0
 10
397.6538559440948
 20
-69.81264158738777
 30
0.0
 10
397.6617229313422
 20
-68.98137974565854
 30
0.0
 10
397.6488682303285
 20
-68.19146176174759
 30
0.0
 10
397.6123411434774
 20
-67.3372979974063
 30
0.0
 10
397.545898723445
 20
-66.39985585644264
 30
0.0
 10
397.4438265708401
 20
-65.38148717157016
 30
0.0
 10
397.257928627582
 20
-63.95632217143518
 30
0.0
 10
396.9397203232152
 20
-62.13619457680031
 30
0.0
 10
396.4478145602639
 20
-59.98090875608035
 30
0.0
 10
395.8445351013202
 20
-57.7923555547283
 30
0.0
 10
395.1654338849851
 20
-55.65180940925565
 30
0.0
 10
394.4800836327581
 20
-53.6806285103489
 30
0.0
 10
393.8723458793239
 20
-51.99051840467791
 30
0.0
 10
393.3955210214878
 20
-50.59414016455732
 30
0.0
 10
393.131575959765
 20
-49.64642918129331
 30
0.0
 10
393.0224995461942
 20
-49.09757542736936
 30
0.0
 10
393.0057216914335
 20
-48.91874402156696
 30
0.0
 10
392.999302202008
 20
-48.85032011786442
 30
0.0
  0
SPLINE
  5
120
330
1F
100
AcDbEntity
  8
0
  6
Continuous
 62
     7
370
    15
100
AcDbSpline
210
0.0
220
0.0
230
1.0
 70
     8
 71
     3
 72
    23
 73
    19
 74
     0
 42
0.000000001
 43
0.00000001
 40
0.0
 40
0.0
 40
0.0
 40
0.0
 40
0.0806390351301998
 40
0.1861715718574698
 40
0.2916756035270134
 40
0.3923292116316504
 40
0.4851069922313547
 40
0.5666693729027931
 40
0.6371550329677853
 40
0.6992541521488517
 40
0.7318294468234893
 40
0.7692301583385893
 40
0.7979998231632761
 40
0.8324608469018882
 40
0.874319476732951
 40
0.9255757538417922
 40
0.9887431747206589
 40
1.0
 40
1.0
 40
1.0
 40
1.0
 10
392.9687859544543
 20
-48.69936439325924
 30
0.0
 10
392.9920599261877
 20
-48.70649571066824
 30
0.0
 10
393.0457926115299
 20
-48.72295980363889
 30
0.0
 10
393.4436487228068
 20
-48.70363001162696
 30
0.0
 10
394.0667284159881
 20
-48.77326738087692
 30
0.0
 10
394.8847805228007
 20
-48.95228443013346
 30
0.0
 10
395.797464353516
 20
-48.92347496661031
 30
0.0
 10
396.7221973576292
 20
-48.19705828305186
 30
0.0
 10
397.5250291682917
 20
-46.6541643259571
 30
0.0
 10
398.0680513556438
 20
-44.63752211023363
 30
0.0
 10
398.429014763279
 20
-42.59245163865987
 30
0.0
 10
398.6562901158746
 20
-40.86717939634138
 30
0.0
 10
398.8482598753484
 20
-38.96790549677726
 30
0.0
 10
399.0121947112812
 20
-36.8777912492908
 30
0.0
 10
399.164970527945
 20
-34.23862132112249
 30
0.0
 10
399.2894989611646
 20
-30.91762595162748
 30
0.0
 10
399.3592381105886
 20
-28.21030667825174
 30
0.0
 10
399.3686978692413
 20
-26.59726533854691
 30
0.0
 10
399.3701286778263
 20
-26.35328941044933
 30
0.0
  0
CIRCLE
  5
143
330
1F
100
AcDbEntity
  8
0
  6
Continuous
 62
     7
370
    15
100
AcDbCircle
 10
525.0
 20
0.0
 30
0.0
 40
28.50249999999936
  0
CIRCLE
  5
1B7
330
1F
100
AcDbEntity
  8
0
  6
Continuous
 62
     7
370
    15
100
AcDbCircle
 10
-525.0
 20
0.0
 30
0.0
 40
28.50249999999994
  0
SPLINE
  5
1C5
330
1F
100
AcDbEntity
  8
0
  6
Continuous
 62
     7
370
    15
100
AcDbSpline
210
0.0
220
0.0
230
1.0
 70
     8
 71
     3
 72
    29
 73
    25
 74
     0
 42
0.000000001
 43
0.00000001
 40
0.0
 40
0.0
 40
0.0
 40
0.0
 40
0.1249999999999878
 40
0.1249999999999878
 40
0.1874999999999874
 40
0.1874999999999874
 40
0.249999999999987
 40
0.249999999999987
 40
0.3749999999999862
 40
0.3749999999999862
 40
0.4999999999999853
 40
0.4999999999999853
 40
0.6249999999999845
 40
0.6249999999999845
 40
0.6874999999999871
 40
0.6874999999999871
 40
0.7499999999999897
 40
0.8124999999999922
 40
0.8124999999999922
 40
0.8749999999999948
 40
0.8749999999999948
 40
0.9374999999999974
 40
0.9374999999999974
 40
1.0
 40
1.0
 40
1.0
 40
1.0
 10
537.9409522551251
 20
48.29629131446538
 30
0.0
 10
537.9409522551251
 20
48.29629131446537
 30
0.0
 10
537.9266681032631
 20
48.24647898087405
 30
0.0
 10
537.8846982199846
 20
48.10009778498069
 30
0.0
 10
537.867258985133
 20
48.03927149711804
 30
0.0
 10
537.8253273718038
 20
47.89300532286165
 30
0.0
 10
537.8007160921901
 20
47.80715054470251
 30
0.0
 10
537.7177999562156
 20
47.51787047604407
 30
0.0
 10
537.6501566973486
 20
47.28183800642346
 30
0.0
 10
537.490399167332
 20
46.72419296305929
 30
0.0
 10
537.3974313756164
 20
46.39959749704764
 30
0.0
 10
537.1944285578604
 20
45.69050891737035
 30
0.0
 10
537.0837002839253
 20
45.30359816413315
 30
0.0
 10
536.9034770184095
 20
44.67352856871162
 30
0.0
 10
536.8410400332823
 20
44.45519429347505
 30
0.0
 10
536.7141703496932
 20
44.01142783173081
 30
0.0
 10
536.5846394365603
 20
43.55823714619442
 30
0.0
 10
536.4498777352987
 20
43.0864829539664
 30
0.0
 10
536.312470233207
 20
42.60532111258728
 30
0.0
 10
536.2421404642283
 20
42.35897419040983
 30
0.0
 10
536.1002907903534
 20
41.86195223977175
 30
0.0
 10
536.0289711887857
 20
41.6119797558913
 30
0.0
 10
535.8855527824073
 20
41.10913802199704
 30
0.0
 10
535.8127145261892
 20
40.85366428748276
 30
0.0
 10
535.7413365000384
 20
40.60324728631804
 30
0.0
  0
SPLINE
  5
1C7
330
1F
100
AcDbEntity
  8
0
  6
Continuous
 62
     7
370
    15
100
AcDbSpline
210
0.0
220
0.0
230
1.0
 70
     8
 71
     3
 72
    31
 73
    27
 74
     0
 42
0.000000001
 43
0.00000001
 40
0.0
 40
0.0
 40
0.0
 40
0.0
 40
0.1250000000000001
 40
0.1250000000000001
 40
0.1875000000000008
 40
0.1875000000000008
 40
0.2500000000000016
 40
0.2500000000000016
 40
0.3749999999999937
 40
0.3749999999999937
 40
0.4999999999999859
 40
0.4999999999999859
 40
0.624999999999978
 40
0.624999999999978
 40
0.6874999999999817
 40
0.6874999999999817
 40
0.7499999999999852
 40
0.8124999999999888
 40
0.8124999999999888
 40
0.8749999999999923
 40
0.8749999999999923
 40
0.937499999999996
 40
0.937499999999996
 40
0.968749999999998
 40
0.968749999999998
 40
1.0
 40
1.0
 40
1.0
 40
1.0
 10
573.2249469215678
 20
37.50889158051007
 30
0.0
 10
573.224946921568
 20
37.50889158051005
 30
0.0
 10
573.2071235585148
 20
37.46007995322431
 30
0.0
 10
573.1547222228003
 20
37.31665971037639
 30
0.0
 10
573.1329450227893
 20
37.25706558401493
 30
0.0
 10
573.0805621810313
 20
37.11376989076172
 30
0.0
 10
573.0498114913378
 20
37.02967209202403
 30
0.0
 10
572.9461718858917
 20
36.74636761729534
 30
0.0
 10
572.8615686345585
 20
36.5152476798638
 30
0.0
 10
572.6614526748918
 20
35.9693493696838
 30
0.0
 10
572.5448957088091
 20
35.651736645939
 30
0.0
 10
572.2899262930554
 20
34.95822901331711
 30
0.0
 10
572.1506319321877
 20
34.57991875079161
 30
0.0
 10
571.9233680764974
 20
33.96407499327504
 30
0.0
 10
571.8445944832449
 20
33.75083025106283
 30
0.0
 10
571.6843171953035
 20
33.31746048685642
 30
0.0
 10
571.5204782551532
 20
32.87495568618913
 30
0.0
 10
571.3495633789574
 20
32.41448059059099
 30
0.0
 10
571.1750339981444
 20
31.94491009754997
 30
0.0
 10
571.08556257526
 20
31.70450582878823
 30
0.0
 10
570.9049367789829
 20
31.21988993000542
 30
0.0
 10
570.8139906326844
 20
30.97623367001281
 30
0.0
 10
570.6766146542911
 20
30.60875324677498
 30
0.0
 10
570.6306629540562
 20
30.48592647552163
 30
0.0
 10
570.5384359945624
 20
30.23960326530321
 30
0.0
 10
570.4917291519852
 20
30.11496906250976
 30
0.0
 10
570.4459832913534
 20
29.99297197302716
 30
0.0
  0
SPLINE
  5
1C9
330
1F
100
AcDbEntity
  8
0
  6
Continuous
 62
     7
370
    15
100
AcDbSpline
210
0.0
220
0.0
230
1.0
 70
     8
 71
     3
 72
    31
 73
    27
 74
     0
 42
0.000000001
 43
0.00000001
 40
0.0
 40
0.0
 40
0.0
 40
0.0
 40
0.1249999999999828
 40
0.1249999999999828
 40
0.1874999999999833
 40
0.1874999999999833
 40
0.2499999999999839
 40
0.2499999999999839
 40
0.3749999999999828
 40
0.3749999999999828
 40
0.4999999999999819
 40
0.4999999999999819
 40
0.6249999999999809
 40
0.6249999999999809
 40
0.6874999999999841
 40
0.6874999999999841
 40
0.7499999999999872
 40
0.8124999999999905
 40
0.8124999999999905
 40
0.8749999999999937
 40
0.8749999999999937
 40
0.9374999999999968
 40
0.9374999999999968
 40
0.9687499999999984
 40
0.9687499999999984
 40
1.0
 40
1.0
 40
1.0
 40
1.0
 10
591.9999999999994
 20
10.75000000001188
 30
0.0
 10
591.9999999999994
 20
10.75000000001188
 30
0.0
 10
591.9481728299438
 20
10.74853772009354
 30
0.0
 10
591.7958745425989
 20
10.74422485806388
 30
0.0
 10
591.7325898369611
 20
10.74243107611099
 30
0.0
 10
591.5804133710177
 20
10.7381083097822
 30
0.0
 10
591.4910920368585
 20
10.73556702307168
 30
0.0
 10
591.1901427553498
 20
10.72698085246754
 30
0.0
 10
590.9445960505024
 20
10.71994862839188
 30
0.0
 10
590.3644987563594
 20
10.7031939277526
 30
0.0
 10
590.0268626205293
 20
10.69337974481019
 30
0.0
 10
589.2893491840712
 20
10.67171098893487
 30
0.0
 10
588.8869466856023
 20
10.65978523816955
 30
0.0
 10
588.2316889350805
 20
10.64011379751564
 30
0.0
 10
588.0046581420064
 20
10.63325843537509
 30
0.0
 10
587.5432253751738
 20
10.61923180841664
 30
0.0
 10
587.0720050718853
 20
10.60481704419915
 30
0.0
 10
586.5815096362397
 20
10.58960358253973
 30
0.0
 10
586.0812476753948
 20
10.57396920958468
 30
0.0
 10
585.8251179691355
 20
10.56590607865439
 30
0.0
 10
585.308460215428
 20
10.54950970700184
 30
0.0
 10
585.0486372714374
 20
10.54119942551077
 30
0.0
 10
584.6566837562842
 20
10.52855823905077
 30
0.0
 10
584.5256620566654
 20
10.52431518729093
 30
0.0
 10
584.2628731325913
 20
10.51576880544897
 30
0.0
 10
584.1301437703316
 20
10.51143058112997
 30
0.0
 10
583.9999999999995
 20
10.50716514262908
 30
0.0
  0
SPLINE
  5
1DE
330
1F
100
AcDbEntity
  8
0
  6
Continuous
 62
     7
370
    15
100
AcDbSpline
210
0.0
220
0.0
230
1.0
 70
     8
 71
     3
 72
    29
 73
    25
 74
     0
 42
0.000000001
 43
0.00000001
 40
0.0
 40
0.0
 40
0.0
 40
0.0
 40
0.1249999999999787
 40
0.1249999999999787
 40
0.1874999999999737
 40
0.1874999999999737
 40
0.2499999999999687
 40
0.2499999999999687
 40
0.3749999999999709
 40
0.3749999999999709
 40
0.4999999999999731
 40
0.4999999999999731
 40
0.6249999999999754
 40
0.6249999999999754
 40
0.6874999999999795
 40
0.6874999999999795
 40
0.7499999999999836
 40
0.8124999999999877
 40
0.8124999999999877
 40
0.8749999999999918
 40
0.8749999999999918
 40
0.9374999999999959
 40
0.9374999999999959
 40
1.0
 40
1.0
 40
1.0
 40
1.0
 10
537.9409522551251
 20
-48.29629131444163
 30
0.0
 10
537.9409522551251
 20
-48.29629131444162
 30
0.0
 10
537.9266681032633
 20
-48.24647898085024
 30
0.0
 10
537.8846982199849
 20
-48.10009778495691
 30
0.0
 10
537.8672589851333
 20
-48.03927149709418
 30
0.0
 10
537.8253273718041
 20
-47.89300532283781
 30
0.0
 10
537.8007160921901
 20
-47.80715054467876
 30
0.0
 10
537.7177999562153
 20
-47.51787047602032
 30
0.0
 10
537.6501566973486
 20
-47.28183800639966
 30
0.0
 10
537.490399167332
 20
-46.72419296303548
 30
0.0
 10
537.3974313756164
 20
-46.39959749702388
 30
0.0
 10
537.1944285578606
 20
-45.69050891734658
 30
0.0
 10
537.0837002839254
 20
-45.30359816410935
 30
0.0
 10
536.9034770184095
 20
-44.67352856868781
 30
0.0
 10
536.8410400332823
 20
-44.45519429345128
 30
0.0
 10
536.7141703496933
 20
-44.01142783170707
 30
0.0
 10
536.5846394365599
 20
-43.55823714617081
 30
0.0
 10
536.4498777352989
 20
-43.08648295394261
 30
0.0
 10
536.3124702332073
 20
-42.6053211125635
 30
0.0
 10
536.2421404642283
 20
-42.35897419038606
 30
0.0
 10
536.1002907903534
 20
-41.861952239748
 30
0.0
 10
536.028971188786
 20
-41.61197975586752
 30
0.0
 10
535.8855527824073
 20
-41.10913802197324
 30
0.0
 10
535.8127145261892
 20
-40.85366428745907
 30
0.0
 10
535.7413365000385
 20
-40.60324728629424
 30
0.0
  0
SPLINE
  5
1E0
330
1F
100
AcDbEntity
  8
0
  6
Continuous
 62
     7
370
    15
100
AcDbSpline
210
0.0
220
0.0
230
1.0
 70
     8
 71
     3
 72
    31
 73
    27
 74
     0
 42
0.000000001
 43
0.00000001
 40
0.0
 40
0.0
 40
0.0
 40
0.0
 40
0.1250000000000107
 40
0.1250000000000107
 40
0.187500000000015
 40
0.187500000000015
 40
0.2500000000000193
 40
0.2500000000000193
 40
0.3750000000000151
 40
0.3750000000000151
 40
0.5000000000000109
 40
0.5000000000000109
 40
0.6250000000000067
 40
0.6250000000000067
 40
0.6875000000000039
 40
0.6875000000000039
 40
0.750000000000001
 40
0.8124999999999981
 40
0.8124999999999981
 40
0.8749999999999952
 40
0.8749999999999952
 40
0.9374999999999925
 40
0.9374999999999925
 40
0.9687499999999962
 40
0.9687499999999962
 40
1.0
 40
1.0
 40
1.0
 40
1.0
 10
573.2249469215678
 20
-37.5088915804863
 30
0.0
 10
573.224946921568
 20
-37.50889158048631
 30
0.0
 10
573.2071235585146
 20
-37.46007995320058
 30
0.0
 10
573.1547222228
 20
-37.31665971035265
 30
0.0
 10
573.1329450227892
 20
-37.25706558399117
 30
0.0
 10
573.0805621810314
 20
-37.11376989073798
 30
0.0
 10
573.0498114913377
 20
-37.02967209200027
 30
0.0
 10
572.9461718858914
 20
-36.74636761727158
 30
0.0
 10
572.8615686345586
 20
-36.51524767984006
 30
0.0
 10
572.6614526748918
 20
-35.96934936966006
 30
0.0
 10
572.544895708809
 20
-35.6517366459153
 30
0.0
 10
572.2899262930555
 20
-34.95822901329342
 30
0.0
 10
572.1506319321874
 20
-34.5799187507679
 30
0.0
 10
571.9233680764974
 20
-33.96407499325136
 30
0.0
 10
571.8445944832447
 20
-33.75083025103912
 30
0.0
 10
571.6843171953034
 20
-33.31746048683272
 30
0.0
 10
571.5204782894641
 20
-32.87495562556209
 30
0.0
 10
571.3495633789574
 20
-32.41448059056728
 30
0.0
 10
571.1750339981444
 20
-31.94491009752628
 30
0.0
 10
571.0855625752602
 20
-31.70450582876452
 30
0.0
 10
570.9049367789826
 20
-31.21988992998171
 30
0.0
 10
570.8139906326846
 20
-30.9762336699891
 30
0.0
 10
570.6766146542914
 20
-30.60875324675119
 30
0.0
 10
570.6306629540561
 20
-30.48592647549793
 30
0.0
 10
570.5384359945623
 20
-30.23960326527952
 30
0.0
 10
570.4917291519816
 20
-30.11496906248731
 30
0.0
 10
570.4459832913534
 20
-29.99297197300345
 30
0.0
  0
SPLINE
  5
1E2
330
1F
100
AcDbEntity
  8
0
  6
Continuous
 62
     7
370
    15
100
AcDbSpline
210
0.0
220
0.0
230
1.0
 70
     8
 71
     3
 72
    31
 73
    27
 74
     0
 42
0.000000001
 43
0.00000001
 40
0.0
 40
0.0
 40
0.0
 40
0.0
 40
0.1249999999999829
 40
0.1249999999999829
 40
0.1874999999999834
 40
0.1874999999999834
 40
0.249999999999984
 40
0.249999999999984
 40
0.3749999999999829
 40
0.3749999999999829
 40
0.4999999999999819
 40
0.4999999999999819
 40
0.6249999999999809
 40
0.6249999999999809
 40
0.6874999999999841
 40
0.6874999999999841
 40
0.7499999999999872
 40
0.8124999999999905
 40
0.8124999999999905
 40
0.8749999999999937
 40
0.8749999999999937
 40
0.9374999999999969
 40
0.9374999999999969
 40
0.9687499999999986
 40
0.9687499999999986
 40
1.0
 40
1.0
 40
1.0
 40
1.0
 10
591.9999999999995
 20
-10.74999999998811
 30
0.0
 10
591.9999999999998
 20
-10.74999999998811
 30
0.0
 10
591.9481728299437
 20
-10.74853772006968
 30
0.0
 10
591.7958745425988
 20
-10.74422485804002
 30
0.0
 10
591.732589836961
 20
-10.74243107608719
 30
0.0
 10
591.5804133710177
 20
-10.7381083097584
 30
0.0
 10
591.4910920368585
 20
-10.73556702304788
 30
0.0
 10
591.1901427553497
 20
-10.72698085244374
 30
0.0
 10
590.9445960505024
 20
-10.71994862836807
 30
0.0
 10
590.3644987563591
 20
-10.7031939277288
 30
0.0
 10
590.0268626205292
 20
-10.69337974478638
 30
0.0
 10
589.2893491840712
 20
-10.67171098891107
 30
0.0
 10
588.8869466856023
 20
-10.65978523814578
 30
0.0
 10
588.2316889350805
 20
-10.64011379749188
 30
0.0
 10
588.0046581420064
 20
-10.63325843535127
 30
0.0
 10
587.5432253751738
 20
-10.61923180839282
 30
0.0
 10
587.0720050718853
 20
-10.60481704417532
 30
0.0
 10
586.5815096362397
 20
-10.58960358251586
 30
0.0
 10
586.0812476753949
 20
-10.5739692095608
 30
0.0
 10
585.8251179691355
 20
-10.5659060786305
 30
0.0
 10
585.3084602154279
 20
-10.54950970697793
 30
0.0
 10
585.0486372714373
 20
-10.54119942548685
 30
0.0
 10
584.6566837562841
 20
-10.52855823902679
 30
0.0
 10
584.5256620566654
 20
-10.52431518726704
 30
0.0
 10
584.2628731325912
 20
-10.51576880542492
 30
0.0
 10
584.1301437703315
 20
-10.5114305811062
 30
0.0
 10
583.9999999999995
 20
-10.50716514260531
 30
0.0
  0
SPLINE
  5
1F0
330
1F
100
AcDbEntity
  8
0
  6
Continuous
 62
     7
370
    15
100
AcDbSpline
210
0.0
220
0.0
230
1.0
 70
     8
 71
     3
 72
    29
 73
    25
 74
     0
 42
0.000000001
 43
0.00000001
 40
0.0
 40
0.0
 40
0.0
 40
0.0
 40
0.1249999999999779
 40
0.1249999999999779
 40
0.1874999999999742
 40
0.1874999999999742
 40
0.2499999999999705
 40
0.2499999999999705
 40
0.3749999999999754
 40
0.3749999999999754
 40
0.4999999999999802
 40
0.4999999999999802
 40
0.6249999999999851
 40
0.6249999999999851
 40
0.6874999999999877
 40
0.6874999999999877
 40
0.7499999999999901
 40
0.8124999999999926
 40
0.8124999999999926
 40
0.874999999999995
 40
0.874999999999995
 40
0.9374999999999976
 40
0.9374999999999976
 40
1.0
 40
1.0
 40
1.0
 40
1.0
 10
-537.9409522551251
 20
48.29629131446538
 30
0.0
 10
-537.9409522551252
 20
48.29629131446539
 30
0.0
 10
-537.926668103263
 20
48.24647898087409
 30
0.0
 10
-537.8846982199844
 20
48.10009778498076
 30
0.0
 10
-537.8672589851333
 20
48.03927149711799
 30
0.0
 10
-537.825327371804
 20
47.89300532286157
 30
0.0
 10
-537.8007160921901
 20
47.80715054470254
 30
0.0
 10
-537.7177999562156
 20
47.51787047604408
 30
0.0
 10
-537.6501566973484
 20
47.28183800642343
 30
0.0
 10
-537.490399167332
 20
46.72419296305925
 30
0.0
 10
-537.3974313756163
 20
46.39959749704763
 30
0.0
 10
-537.1944285578606
 20
45.69050891737039
 30
0.0
 10
-537.0837002839255
 20
45.30359816413315
 30
0.0
 10
-536.9034770184094
 20
44.67352856871162
 30
0.0
 10
-536.8410400332821
 20
44.45519429347507
 30
0.0
 10
-536.7141703496931
 20
44.01142783173085
 30
0.0
 10
-536.5846394156172
 20
43.55823710211717
 30
0.0
 10
-536.4498777352989
 20
43.0864829539664
 30
0.0
 10
-536.312470233207
 20
42.60532111258729
 30
0.0
 10
-536.2421404642284
 20
42.35897419040986
 30
0.0
 10
-536.1002907903531
 20
41.86195223977177
 30
0.0
 10
-536.0289711887857
 20
41.61197975589129
 30
0.0
 10
-535.8855527824072
 20
41.10913802199703
 30
0.0
 10
-535.8127145261893
 20
40.85366428748283
 30
0.0
 10
-535.7413365000385
 20
40.60324728631799
 30
0.0
  0
SPLINE
  5
1F1
330
1F
100
AcDbEntity
  8
0
  6
Continuous
 62
     7
370
    15
100
AcDbSpline
210
0.0
220
0.0
230
1.0
 70
     8
 71
     3
 72
    31
 73
    27
 74
     0
 42
0.000000001
 43
0.00000001
 40
0.0
 40
0.0
 40
0.0
 40
0.0
 40
0.1250000000000013
 40
0.1250000000000013
 40
0.1875000000000031
 40
0.1875000000000031
 40
0.2500000000000048
 40
0.2500000000000048
 40
0.3749999999999988
 40
0.3749999999999988
 40
0.4999999999999929
 40
0.4999999999999929
 40
0.624999999999987
 40
0.624999999999987
 40
0.6874999999999909
 40
0.6874999999999909
 40
0.7499999999999948
 40
0.8124999999999987
 40
0.8124999999999987
 40
0.8750000000000026
 40
0.8750000000000026
 40
0.9375000000000057
 40
0.9375000000000057
 40
0.9687500000000029
 40
0.9687500000000029
 40
1.0
 40
1.0
 40
1.0
 40
1.0
 10
-573.2249469215678
 20
37.50889158051007
 30
0.0
 10
-573.2249469215678
 20
37.50889158051007
 30
0.0
 10
-573.2071235585148
 20
37.46007995322432
 30
0.0
 10
-573.1547222228
 20
37.31665971037637
 30
0.0
 10
-573.1329450227892
 20
37.25706558401493
 30
0.0
 10
-573.0805621810313
 20
37.11376989076173
 30
0.0
 10
-573.0498114913378
 20
37.02967209202402
 30
0.0
 10
-572.9461718858917
 20
36.74636761729534
 30
0.0
 10
-572.8615686345586
 20
36.51524767986381
 30
0.0
 10
-572.661452674892
 20
35.9693493696838
 30
0.0
 10
-572.5448957088092
 20
35.65173664593904
 30
0.0
 10
-572.2899262930555
 20
34.95822901331717
 30
0.0
 10
-572.1506319321877
 20
34.57991875079164
 30
0.0
 10
-571.9233680764975
 20
33.9640749932751
 30
0.0
 10
-571.8445944832449
 20
33.75083025106286
 30
0.0
 10
-571.6843171953034
 20
33.31746048685644
 30
0.0
 10
-571.5204782551532
 20
32.87495568618916
 30
0.0
 10
-571.3495633789573
 20
32.41448059059102
 30
0.0
 10
-571.1750339981446
 20
31.94491009755003
 30
0.0
 10
-571.08556257526
 20
31.7045058287883
 30
0.0
 10
-570.9049367789828
 20
31.2198899300055
 30
0.0
 10
-570.8139906326849
 20
30.97623367001282
 30
0.0
 10
-570.6766146542915
 20
30.60875324677492
 30
0.0
 10
-570.6306629540566
 20
30.48592647552167
 30
0.0
 10
-570.5384359945623
 20
30.23960326530326
 30
0.0
 10
-570.4917291519816
 20
30.11496906251107
 30
0.0
 10
-570.4459832913534
 20
29.99297197302721
 30
0.0
  0
SPLINE
  5
1F4
330
1F
100
AcDbEntity
  8
0
  6
Continuous
 62
     7
370
    15
100
AcDbSpline
210
0.0
220
0.0
230
1.0
 70
     8
 71
     3
 72
    31
 73
    27
 74
     0
 42
0.000000001
 43
0.00000001
 40
0.0
 40
0.0
 40
0.0
 40
0.0
 40
0.1249999999999828
 40
0.1249999999999828
 40
0.1874999999999833
 40
0.1874999999999833
 40
0.2499999999999839
 40
0.2499999999999839
 40
0.3749999999999828
 40
0.3749999999999828
 40
0.4999999999999819
 40
0.4999999999999819
 40
0.6249999999999809
 40
0.6249999999999809
 40
0.6874999999999841
 40
0.6874999999999841
 40
0.7499999999999872
 40
0.8124999999999905
 40
0.8124999999999905
 40
0.8749999999999937
 40
0.8749999999999937
 40
0.9374999999999968
 40
0.9374999999999968
 40
0.9687499999999984
 40
0.9687499999999984
 40
1.0
 40
1.0
 40
1.0
 40
1.0
 10
-591.9999999999994
 20
10.75000000001188
 30
0.0
 10
-591.9999999999994
 20
10.75000000001188
 30
0.0
 10
-591.9481728299438
 20
10.74853772009354
 30
0.0
 10
-591.7958745425989
 20
10.74422485806388
 30
0.0
 10
-591.7325898369611
 20
10.74243107611099
 30
0.0
 10
-591.5804133710177
 20
10.7381083097822
 30
0.0
 10
-591.4910920368585
 20
10.73556702307168
 30
0.0
 10
-591.1901427553498
 20
10.72698085246754
 30
0.0
 10
-590.9445960505024
 20
10.71994862839188
 30
0.0
 10
-590.3644987563594
 20
10.7031939277526
 30
0.0
 10
-590.0268626205293
 20
10.69337974481019
 30
0.0
 10
-589.2893491840712
 20
10.67171098893487
 30
0.0
 10
-588.8869466856023
 20
10.65978523816955
 30
0.0
 10
-588.2316889350805
 20
10.64011379751564
 30
0.0
 10
-588.0046581420064
 20
10.63325843537509
 30
0.0
 10
-587.5432253751738
 20
10.61923180841664
 30
0.0
 10
-587.0720050718853
 20
10.60481704419915
 30
0.0
 10
-586.5815096362397
 20
10.58960358253973
 30
0.0
 10
-586.0812476753948
 20
10.57396920958468
 30
0.0
 10
-585.8251179691355
 20
10.56590607865439
 30
0.0
 10
-585.308460215428
 20
10.54950970700184
 30
0.0
 10
-585.0486372714374
 20
10.54119942551077
 30
0.0
 10
-584.6566837562842
 20
10.52855823905077
 30
0.0
 10
-584.5256620566654
 20
10.52431518729093
 30
0.0
 10
-584.2628731325913
 20
10.51576880544897
 30
0.0
 10
-584.1301437703316
 20
10.51143058112997
 30
0.0
 10
-583.9999999999995
 20
10.50716514262908
 30
0.0
  0
SPLINE
  5
202
330
1F
100
AcDbEntity
  8
0
  6
Continuous
 62
     7
370
    15
100
AcDbSpline
210
0.0
220
0.0
230
1.0
 70
     8
 71
     3
 72
    29
 73
    25
 74
     0
 42
0.000000001
 43
0.00000001
 40
0.0
 40
0.0
 40
0.0
 40
0.0
 40
0.1249999999999765
 40
0.1249999999999765
 40
0.1874999999999707
 40
0.1874999999999707
 40
0.249999999999965
 40
0.249999999999965
 40
0.3749999999999684
 40
0.3749999999999684
 40
0.4999999999999719
 40
0.4999999999999719
 40
0.6249999999999754
 40
0.6249999999999754
 40
0.6874999999999795
 40
0.6874999999999795
 40
0.7499999999999836
 40
0.8124999999999878
 40
0.8124999999999878
 40
0.8749999999999919
 40
0.8749999999999919
 40
0.937499999999996
 40
0.937499999999996
 40
1.0
 40
1.0
 40
1.0
 40
1.0
 10
-537.9409522551251
 20
-48.29629131444163
 30
0.0
 10
-537.9409522551254
 20
-48.29629131444166
 30
0.0
 10
-537.9266681032633
 20
-48.24647898085022
 30
0.0
 10
-537.8846982199846
 20
-48.10009778495687
 30
0.0
 10
-537.8672589851333
 20
-48.03927149709422
 30
0.0
 10
-537.8253273718041
 20
-47.89300532283782
 30
0.0
 10
-537.8007160921901
 20
-47.80715054467874
 30
0.0
 10
-537.7177999562156
 20
-47.51787047602028
 30
0.0
 10
-537.6501566973484
 20
-47.28183800639961
 30
0.0
 10
-537.490399167332
 20
-46.72419296303544
 30
0.0
 10
-537.3974313756164
 20
-46.39959749702393
 30
0.0
 10
-537.1944285578603
 20
-45.69050891734666
 30
0.0
 10
-537.0837002839256
 20
-45.30359816410933
 30
0.0
 10
-536.9034770184098
 20
-44.67352856868779
 30
0.0
 10
-536.8410400332825
 20
-44.45519429345124
 30
0.0
 10
-536.7141703496935
 20
-44.01142783170702
 30
0.0
 10
-536.5846394365611
 20
-43.55823714617051
 30
0.0
 10
-536.4498777352987
 20
-43.08648295394266
 30
0.0
 10
-536.312470233207
 20
-42.60532111256354
 30
0.0
 10
-536.2421404642287
 20
-42.35897419038604
 30
0.0
 10
-536.1002907903538
 20
-41.86195223974795
 30
0.0
 10
-536.0289711887863
 20
-41.61197975586748
 30
0.0
 10
-535.8855527824079
 20
-41.10913802197314
 30
0.0
 10
-535.8127145261896
 20
-40.85366428745893
 30
0.0
 10
-535.7413365000384
 20
-40.6032472862943
 30
0.0
  0
SPLINE
  5
204
330
1F
100
AcDbEntity
  8
0
  6
Continuous
 62
     7
370
    15
100
AcDbSpline
210
0.0
220
0.0
230
1.0
 70
     8
 71
     3
 72
    31
 73
    27
 74
     0
 42
0.000000001
 43
0.00000001
 40
0.0
 40
0.0
 40
0.0
 40
0.0
 40
0.1250000000000053
 40
0.1250000000000053
 40
0.1875000000000069
 40
0.1875000000000069
 40
0.2500000000000084
 40
0.2500000000000084
 40
0.3749999999999994
 40
0.3749999999999994
 40
0.4999999999999903
 40
0.4999999999999903
 40
0.6249999999999812
 40
0.6249999999999812
 40
0.6874999999999848
 40
0.6874999999999848
 40
0.7499999999999883
 40
0.8124999999999919
 40
0.8124999999999919
 40
0.8749999999999953
 40
0.8749999999999953
 40
0.9374999999999974
 40
0.9374999999999974
 40
0.9687499999999988
 40
0.9687499999999988
 40
1.0
 40
1.0
 40
1.0
 40
1.0
 10
-573.2249469215678
 20
-37.5088915804863
 30
0.0
 10
-573.2249469215681
 20
-37.50889158048631
 30
0.0
 10
-573.2071235585145
 20
-37.46007995320058
 30
0.0
 10
-573.1547222228004
 20
-37.31665971035265
 30
0.0
 10
-573.1329450227893
 20
-37.2570655839912
 30
0.0
 10
-573.0805621810312
 20
-37.11376989073798
 30
0.0
 10
-573.0498114913377
 20
-37.02967209200027
 30
0.0
 10
-572.9461718858913
 20
-36.74636761727157
 30
0.0
 10
-572.8615686345584
 20
-36.51524767984007
 30
0.0
 10
-572.6614526748915
 20
-35.96934936966007
 30
0.0
 10
-572.544895708809
 20
-35.65173664591526
 30
0.0
 10
-572.2899262930555
 20
-34.95822901329342
 30
0.0
 10
-572.1506319321877
 20
-34.57991875076788
 30
0.0
 10
-571.9233680764975
 20
-33.96407499325134
 30
0.0
 10
-571.8445944832447
 20
-33.7508302510391
 30
0.0
 10
-571.6843171953034
 20
-33.31746048683269
 30
0.0
 10
-571.5204782551533
 20
-32.8749556861654
 30
0.0
 10
-571.3495633789572
 20
-32.41448059056727
 30
0.0
 10
-571.1750339981444
 20
-31.94491009752627
 30
0.0
 10
-571.0855625752598
 20
-31.70450582876453
 30
0.0
 10
-570.9049367789828
 20
-31.21988992998174
 30
0.0
 10
-570.8139906326849
 20
-30.97623366998908
 30
0.0
 10
-570.6766146542913
 20
-30.60875324675119
 30
0.0
 10
-570.6306629540561
 20
-30.48592647549792
 30
0.0
 10
-570.5384359945624
 20
-30.23960326527953
 30
0.0
 10
-570.4917291519849
 20
-30.11496906248609
 30
0.0
 10
-570.4459832913535
 20
-29.9929719730034
 30
0.0
  0
SPLINE
  5
206
330
1F
100
AcDbEntity
  8
0
  6
Continuous
 62
     7
370
    15
100
AcDbSpline
210
0.0
220
0.0
230
1.0
 70
     8
 71
     3
 72
    31
 73
    27
 74
     0
 42
0.000000001
 43
0.00000001
 40
0.0
 40
0.0
 40
0.0
 40
0.0
 40
0.1249999999999829
 40
0.1249999999999829
 40
0.1874999999999834
 40
0.1874999999999834
 40
0.249999999999984
 40
0.249999999999984
 40
0.3749999999999829
 40
0.3749999999999829
 40
0.4999999999999819
 40
0.4999999999999819
 40
0.6249999999999809
 40
0.6249999999999809
 40
0.6874999999999841
 40
0.6874999999999841
 40
0.7499999999999872
 40
0.8124999999999905
 40
0.8124999999999905
 40
0.8749999999999937
 40
0.8749999999999937
 40
0.9374999999999969
 40
0.9374999999999969
 40
0.9687499999999986
 40
0.9687499999999986
 40
1.0
 40
1.0
 40
1.0
 40
1.0
 10
-591.9999999999995
 20
-10.74999999998811
 30
0.0
 10
-591.9999999999998
 20
-10.74999999998811
 30
0.0
 10
-591.9481728299437
 20
-10.74853772006968
 30
0.0
 10
-591.7958745425988
 20
-10.74422485804002
 30
0.0
 10
-591.732589836961
 20
-10.74243107608719
 30
0.0
 10
-591.5804133710177
 20
-10.7381083097584
 30
0.0
 10
-591.4910920368585
 20
-10.73556702304788
 30
0.0
 10
-591.1901427553497
 20
-10.72698085244374
 30
0.0
 10
-590.9445960505024
 20
-10.71994862836807
 30
0.0
 10
-590.3644987563591
 20
-10.7031939277288
 30
0.0
 10
-590.0268626205292
 20
-10.69337974478638
 30
0.0
 10
-589.2893491840712
 20
-10.67171098891107
 30
0.0
 10
-588.8869466856023
 20
-10.65978523814578
 30
0.0
 10
-588.2316889350805
 20
-10.64011379749188
 30
0.0
 10
-588.0046581420064
 20
-10.63325843535127
 30
0.0
 10
-587.5432253751738
 20
-10.61923180839282
 30
0.0
 10
-587.0720050718853
 20
-10.60481704417532
 30
0.0
 10
-586.5815096362397
 20
-10.58960358251586
 30
0.0
 10
-586.0812476753949
 20
-10.5739692095608
 30
0.0
 10
-585.8251179691355
 20
-10.5659060786305
 30
0.0
 10
-585.3084602154279
 20
-10.54950970697793
 30
0.0
 10
-585.0486372714373
 20
-10.54119942548685
 30
0.0
 10
-584.6566837562841
 20
-10.52855823902679
 30
0.0
 10
-584.5256620566654
 20
-10.52431518726704
 30
0.0
 10
-584.2628731325912
 20
-10.51576880542492
 30
0.0
 10
-584.1301437703315
 20
-10.5114305811062
 30
0.0
 10
-583.9999999999995
 20
-10.50716514260531
 30
0.0
  0
LWPOLYLINE
  5
21B
330
1F
100
AcDbEntity
  8
0
  6
Continuous
 62
     7
370
    15
100
AcDbPolyline
 90
        3
 70
   128
 43
0.0
 10
553.7400023067
 20
-0.7581341646
 10
553.749873529
 20
-0.0852764229
 10
553.7402608447
 20
0.7482690564
  0
LWPOLYLINE
  5
22A
330
1F
100
AcDbEntity
  8
0
  6
Continuous
 62
     7
370
    15
100
AcDbPolyline
 90
        3
 70
   128
 43
0.0
 10
476.7884664654
 20
-11.0
 10
476.7404445571
 20
-10.3059357269
 10
476.7197905218
 20
-10.0
  0
LWPOLYLINE
  5
22D
330
1F
100
AcDbEntity
  8
0
  6
Continuous
 62
     7
370
    15
100
AcDbPolyline
 90
        3
 70
   128
 43
0.0
 10
477.28666329
 20
10.0
 10
477.3841891426
 20
10.4545232504
 10
477.5072373935
 20
11.0
  0
LWPOLYLINE
  5
232
330
1F
100
AcDbEntity
  8
0
  6
Continuous
 62
     7
370
    15
100
AcDbPolyline
 90
        3
 70
   128
 43
0.0
 10
-553.7401219956
 20
0.753583225
 10
-553.749873529
 20
-0.0852764229
 10
-553.7402278776
 20
-0.7495342192
  0
LWPOLYLINE
  5
238
330
1F
100
AcDbEntity
  8
0
  6
Continuous
 62
     7
370
    15
100
AcDbPolyline
 90
        3
 70
   128
 43
0.0
 10
-477.5072373935
 20
11.0
 10
-477.3841891426
 20
10.4545232504
 10
-477.28666329
 20
10.0
  0
LWPOLYLINE
  5
23B
330
1F
100
AcDbEntity
  8
0
  6
Continuous
 62
     7
370
    15
100
AcDbPolyline
 90
        3
 70
   128
 43
0.0
 10
-476.7197905218
 20
-10.0
 10
-476.7404445571
 20
-10.3059357269
 10
-476.7884664654
 20
-11.0
  0
SPLINE
  5
24C
330
1F
100
AcDbEntity
  8
0
  6
Continuous
 62
     7
370
    15
100
AcDbSpline
210
0.0
220
0.0
230
1.0
 70
     8
 71
     3
 72
    13
 73
     9
 74
     0
 42
0.000000001
 43
0.00000001
 40
0.0
 40
0.0
 40
0.0
 40
0.0
 40
0.25
 40
0.25
 40
0.5
 40
0.75
 40
0.75
 40
1.0
 40
1.0
 40
1.0
 40
1.0
 10
494.4248523570786
 20
53.44192987612992
 30
0.0
 10
494.3087055084757
 20
52.90026320946325
 30
0.0
 10
494.2143951790477
 20
52.35859654279659
 30
0.0
 10
494.0855418196257
 20
51.27526320946324
 30
0.0
 10
494.0172479916534
 20
50.19192987612991
 30
0.0
 10
494.0855418196256
 20
49.1085965427966
 30
0.0
 10
494.2143951790478
 20
48.02526320946326
 30
0.0
 10
494.3087055084757
 20
47.48359654279659
 30
0.0
 10
494.4248523570786
 20
46.94192987612992
 30
0.0
  0
SPLINE
  5
24E
330
1F
100
AcDbEntity
  8
0
  6
Continuous
 62
     7
370
    15
100
AcDbSpline
210
0.0
220
0.0
230
1.0
 70
     8
 71
     3
 72
    13
 73
     9
 74
     0
 42
0.000000001
 43
0.00000001
 40
0.0
 40
0.0
 40
0.0
 40
0.0
 40
0.25
 40
0.25
 40
0.5
 40
0.75
 40
0.75
 40
1.0
 40
1.0
 40
1.0
 40
1.0
 10
500.1551476385558
 20
46.94192987612992
 30
0.0
 10
500.2712944871587
 20
47.48359654279658
 30
0.0
 10
500.3656048165867
 20
48.02526320946325
 30
0.0
 10
500.4944581760087
 20
49.10859654279658
 30
0.0
 10
500.5627520039809
 20
50.19192987612991
 30
0.0
 10
500.4944581760087
 20
51.27526320946327
 30
0.0
 10
500.3656048165868
 20
52.35859654279659
 30
0.0
 10
500.2712944871588
 20
52.90026320946325
 30
0.0
 10
500.1551476385558
 20
53.44192987612992
 30
0.0
  0
SPLINE
  5
24F
330
1F
100
AcDbEntity
  8
0
  6
Continuous
 62
     7
370
    15
100
AcDbSpline
210
0.0
220
0.0
230
1.0
 70
     8
 71
     3
 72
    13
 73
     9
 74
     0
 42
0.000000001
 43
0.00000001
 40
0.0
 40
0.0
 40
0.0
 40
0.0
 40
0.25
 40
0.25
 40
0.5
 40
0.75
 40
0.75
 40
1.0
 40
1.0
 40
1.0
 40
1.0
 10
494.4248523570786
 20
59.94192987612991
 30
0.0
 10
494.3087055084757
 20
59.40026320946326
 30
0.0
 10
494.2143951790477
 20
58.85859654279657
 30
0.0
 10
494.0855418196257
 20
57.77526320946325
 30
0.0
 10
494.0172479916534
 20
56.69192987612992
 30
0.0
 10
494.0855418196256
 20
55.60859654279658
 30
0.0
 10
494.2143951790478
 20
54.52526320946324
 30
0.0
 10
494.3087055084757
 20
53.98359654279658
 30
0.0
 10
494.4248523570786
 20
53.44192987612992
 30
0.0
  0
SPLINE
  5
251
330
1F
100
AcDbEntity
  8
0
  6
Continuous
 62
     7
370
    15
100
AcDbSpline
210
0.0
220
0.0
230
1.0
 70
     8
 71
     3
 72
    13
 73
     9
 74
     0
 42
0.000000001
 43
0.00000001
 40
0.0
 40
0.0
 40
0.0
 40
0.0
 40
0.25
 40
0.25
 40
0.5
 40
0.75
 40
0.75
 40
1.0
 40
1.0
 40
1.0
 40
1.0
 10
500.1551476385558
 20
53.44192987612992
 30
0.0
 10
500.2712944871587
 20
53.98359654279658
 30
0.0
 10
500.3656048165867
 20
54.52526320946327
 30
0.0
 10
500.4944581760087
 20
55.60859654279658
 30
0.0
 10
500.5627520039809
 20
56.69192987612989
 30
0.0
 10
500.4944581760087
 20
57.77526320946323
 30
0.0
 10
500.3656048165868
 20
58.8585965427966
 30
0.0
 10
500.2712944871588
 20
59.40026320946325
 30
0.0
 10
500.1551476385558
 20
59.94192987612991
 30
0.0
  0
SPLINE
  5
252
330
1F
100
AcDbEntity
  8
0
  6
Continuous
 62
     7
370
    15
100
AcDbSpline
210
0.0
220
0.0
230
1.0
 70
    24
 71
     3
 72
    10
 73
     6
 74
     0
 42
0.000000001
 43
0.00000001
 40
0.0
 40
0.0
 40
0.0
 40
0.0
 40
0.0887545473162112
 40
0.9427047962369526
 40
1.0
 40
1.0
 40
1.0
 40
1.0
 10
500.5029944422538
 20
46.94192987612993
 30
0.0
 10
500.5113422177988
 20
46.94192987612993
 30
0.0
 10
500.600007962623
 20
46.94192987612994
 30
0.0
 10
500.3727090753751
 20
46.94192987612993
 30
0.0
 10
500.1680177506885
 20
46.94192987612991
 30
0.0
 10
500.1551476385558
 20
46.94192987612992
 30
0.0
  0
SPLINE
  5
253
330
1F
100
AcDbEntity
  8
0
  6
Continuous
 62
     7
370
    15
100
AcDbSpline
210
0.0
220
0.0
230
1.0
 70
    24
 71
     3
 72
    10
 73
     6
 74
     0
 42
0.000000001
 43
0.00000001
 40
0.0
 40
0.0
 40
0.0
 40
0.0
 40
0.0572930761751683
 40
0.8881453936702504
 40
1.0
 40
1.0
 40
1.0
 40
1.0
 10
500.1551476385559
 20
59.94192987612993
 30
0.0
 10
500.1680173679504
 20
59.94192987612993
 30
0.0
 10
500.3675212459491
 20
59.9419298761299
 30
0.0
 10
500.5950649556709
 20
59.94192987613
 30
0.0
 10
500.5067645132134
 20
59.9419298761299
 30
0.0
 10
500.4962874381225
 20
59.94192987612991
 30
0.0
  0
SPLINE
  5
254
330
1F
100
AcDbEntity
  8
0
  6
Continuous
 62
     7
370
    15
100
AcDbSpline
210
0.0
220
0.0
230
1.0
 70
    24
 71
     3
 72
    10
 73
     6
 74
     0
 42
0.000000001
 43
0.00000001
 40
0.0
 40
0.0
 40
0.0
 40
0.0
 40
0.0887545473162101
 40
0.9427047962369435
 40
1.0
 40
1.0
 40
1.0
 40
1.0
 10
494.0770055533807
 20
59.94192987612993
 30
0.0
 10
494.0686577778357
 20
59.94192987612993
 30
0.0
 10
493.979992033012
 20
59.94192987612995
 30
0.0
 10
494.2072909202579
 20
59.94192987612988
 30
0.0
 10
494.411982244946
 20
59.94192987612993
 30
0.0
 10
494.4248523570787
 20
59.94192987612993
 30
0.0
  0
SPLINE
  5
255
330
1F
100
AcDbEntity
  8
0
  6
Continuous
 62
     7
370
    15
100
AcDbSpline
210
0.0
220
0.0
230
1.0
 70
    24
 71
     3
 72
    10
 73
     6
 74
     0
 42
0.000000001
 43
0.00000001
 40
0.0
 40
0.0
 40
0.0
 40
0.0
 40
0.057293076175173
 40
0.8881453936702476
 40
1.0
 40
1.0
 40
1.0
 40
1.0
 10
494.4248523570786
 20
46.94192987612992
 30
0.0
 10
494.4119826276842
 20
46.94192987612993
 30
0.0
 10
494.2124787496854
 20
46.94192987612993
 30
0.0
 10
493.9849350399641
 20
46.9419298761299
 30
0.0
 10
494.0732354824209
 20
46.94192987612991
 30
0.0
 10
494.083712557512
 20
46.94192987612992
 30
0.0
  0
SPLINE
  5
257
330
1F
100
AcDbEntity
  8
0
  6
Continuous
 62
     7
370
    15
100
AcDbSpline
210
0.0
220
0.0
230
1.0
 70
    24
 71
     3
 72
    10
 73
     6
 74
     0
 42
0.000000001
 43
0.00000001
 40
0.0
 40
0.0
 40
0.0
 40
0.0
 40
0.0887545473162101
 40
0.9427047962369435
 40
1.0
 40
1.0
 40
1.0
 40
1.0
 10
-494.0770055533807
 20
46.94192987612993
 30
0.0
 10
-494.0686577778357
 20
46.94192987612993
 30
0.0
 10
-493.979992033012
 20
46.94192987612993
 30
0.0
 10
-494.2072909202579
 20
46.94192987612982
 30
0.0
 10
-494.411982244946
 20
46.94192987612993
 30
0.0
 10
-494.4248523570787
 20
46.94192987612993
 30
0.0
  0
SPLINE
  5
258
330
1F
100
AcDbEntity
  8
0
  6
Continuous
 62
     7
370
    15
100
AcDbSpline
210
0.0
220
0.0
230
1.0
 70
     8
 71
     3
 72
    13
 73
     9
 74
     0
 42
0.000000001
 43
0.00000001
 40
0.0
 40
0.0
 40
0.0
 40
0.0
 40
0.25
 40
0.25
 40
0.5
 40
0.75
 40
0.75
 40
1.0
 40
1.0
 40
1.0
 40
1.0
 10
-494.4248523570786
 20
46.94192987612993
 30
0.0
 10
-494.3087055084757
 20
47.48359654279659
 30
0.0
 10
-494.2143951790477
 20
48.02526320946325
 30
0.0
 10
-494.0855418196257
 20
49.10859654279657
 30
0.0
 10
-494.0172479916534
 20
50.19192987612991
 30
0.0
 10
-494.0855418196256
 20
51.27526320946325
 30
0.0
 10
-494.2143951790478
 20
52.35859654279659
 30
0.0
 10
-494.3087055084757
 20
52.90026320946325
 30
0.0
 10
-494.4248523570786
 20
53.44192987612992
 30
0.0
  0
SPLINE
  5
259
330
1F
100
AcDbEntity
  8
0
  6
Continuous
 62
     7
370
    15
100
AcDbSpline
210
0.0
220
0.0
230
1.0
 70
     8
 71
     3
 72
    13
 73
     9
 74
     0
 42
0.000000001
 43
0.00000001
 40
0.0
 40
0.0
 40
0.0
 40
0.0
 40
0.25
 40
0.25
 40
0.5
 40
0.75
 40
0.75
 40
1.0
 40
1.0
 40
1.0
 40
1.0
 10
-494.4248523570786
 20
53.44192987612992
 30
0.0
 10
-494.3087055084757
 20
53.98359654279657
 30
0.0
 10
-494.2143951790477
 20
54.52526320946324
 30
0.0
 10
-494.0855418196257
 20
55.60859654279658
 30
0.0
 10
-494.0172479916534
 20
56.69192987612992
 30
0.0
 10
-494.0855418196256
 20
57.77526320946326
 30
0.0
 10
-494.2143951790478
 20
58.8585965427966
 30
0.0
 10
-494.3087055084757
 20
59.40026320946325
 30
0.0
 10
-494.4248523570786
 20
59.94192987612993
 30
0.0
  0
SPLINE
  5
25A
330
1F
100
AcDbEntity
  8
0
  6
Continuous
 62
     7
370
    15
100
AcDbSpline
210
0.0
220
0.0
230
1.0
 70
    24
 71
     3
 72
    10
 73
     6
 74
     0
 42
0.000000001
 43
0.00000001
 40
0.0
 40
0.0
 40
0.0
 40
0.0
 40
0.057293076175173
 40
0.8881453936702476
 40
1.0
 40
1.0
 40
1.0
 40
1.0
 10
-494.4248523570786
 20
59.94192987612993
 30
0.0
 10
-494.4119826276842
 20
59.94192987612993
 30
0.0
 10
-494.2124787496854
 20
59.94192987612998
 30
0.0
 10
-493.9849350399641
 20
59.9419298761299
 30
0.0
 10
-494.0732354824209
 20
59.94192987612991
 30
0.0
 10
-494.083712557512
 20
59.94192987612993
 30
0.0
  0
SPLINE
  5
25E
330
1F
100
AcDbEntity
  8
0
  6
Continuous
 62
     7
370
    15
100
AcDbSpline
210
0.0
220
0.0
230
1.0
 70
     8
 71
     3
 72
    13
 73
     9
 74
     0
 42
0.000000001
 43
0.00000001
 40
0.0
 40
0.0
 40
0.0
 40
0.0
 40
0.25
 40
0.25
 40
0.5
 40
0.75
 40
0.75
 40
1.0
 40
1.0
 40
1.0
 40
1.0
 10
-500.1551476385558
 20
59.94192987612993
 30
0.0
 10
-500.2712944871587
 20
59.40026320946326
 30
0.0
 10
-500.3656048165867
 20
58.8585965427966
 30
0.0
 10
-500.4944581760087
 20
57.77526320946325
 30
0.0
 10
-500.5627520039809
 20
56.69192987612992
 30
0.0
 10
-500.4944581760087
 20
55.60859654279658
 30
0.0
 10
-500.3656048165868
 20
54.52526320946324
 30
0.0
 10
-500.2712944871588
 20
53.98359654279658
 30
0.0
 10
-500.1551476385558
 20
53.44192987612992
 30
0.0
  0
SPLINE
  5
260
330
1F
100
AcDbEntity
  8
0
  6
Continuous
 62
     7
370
    15
100
AcDbSpline
210
0.0
220
0.0
230
1.0
 70
     8
 71
     3
 72
    13
 73
     9
 74
     0
 42
0.000000001
 43
0.00000001
 40
0.0
 40
0.0
 40
0.0
 40
0.0
 40
0.25
 40
0.25
 40
0.5
 40
0.75
 40
0.75
 40
1.0
 40
1.0
 40
1.0
 40
1.0
 10
-500.1551476385558
 20
53.44192987612992
 30
0.0
 10
-500.2712944871587
 20
52.90026320946325
 30
0.0
 10
-500.3656048165867
 20
52.35859654279659
 30
0.0
 10
-500.4944581760087
 20
51.27526320946324
 30
0.0
 10
-500.5627520039809
 20
50.19192987612994
 30
0.0
 10
-500.4944581760087
 20
49.1085965427966
 30
0.0
 10
-500.3656048165868
 20
48.02526320946327
 30
0.0
 10
-500.2712944871588
 20
47.4835965427966
 30
0.0
 10
-500.1551476385558
 20
46.94192987612993
 30
0.0
  0
SPLINE
  5
261
330
1F
100
AcDbEntity
  8
0
  6
Continuous
 62
     7
370
    15
100
AcDbSpline
210
0.0
220
0.0
230
1.0
 70
    24
 71
     3
 72
    10
 73
     6
 74
     0
 42
0.000000001
 43
0.00000001
 40
0.0
 40
0.0
 40
0.0
 40
0.0
 40
0.0887545473162112
 40
0.9427047962369526
 40
1.0
 40
1.0
 40
1.0
 40
1.0
 10
-500.5029944422538
 20
59.94192987612993
 30
0.0
 10
-500.5113422177988
 20
59.94192987612993
 30
0.0
 10
-500.600007962623
 20
59.94192987612995
 30
0.0
 10
-500.3727090753751
 20
59.9419298761299
 30
0.0
 10
-500.1680177506885
 20
59.94192987612991
 30
0.0
 10
-500.1551476385558
 20
59.94192987612993
 30
0.0
  0
SPLINE
  5
262
330
1F
100
AcDbEntity
  8
0
  6
Continuous
 62
     7
370
    15
100
AcDbSpline
210
0.0
220
0.0
230
1.0
 70
    24
 71
     3
 72
    10
 73
     6
 74
     0
 42
0.000000001
 43
0.00000001
 40
0.0
 40
0.0
 40
0.0
 40
0.0
 40
0.0572930761751683
 40
0.8881453936702504
 40
1.0
 40
1.0
 40
1.0
 40
1.0
 10
-500.1551476385559
 20
46.94192987612993
 30
0.0
 10
-500.1680173679504
 20
46.94192987612993
 30
0.0
 10
-500.3675212459491
 20
46.94192987612993
 30
0.0
 10
-500.5950649556709
 20
46.94192987612993
 30
0.0
 10
-500.5067645132134
 20
46.94192987612991
 30
0.0
 10
-500.4962874381225
 20
46.94192987612992
 30
0.0
  0
CIRCLE
  5
26C
330
1F
100
AcDbEntity
  8
0
  6
Continuous
 62
     7
370
    15
100
AcDbCircle
 10
-525.0
 20
-65.0
 30
0.0
 40
13.25
  0
CIRCLE
  5
26D
330
1F
100
AcDbEntity
  8
0
  6
Continuous
 62
     7
370
    15
100
AcDbCircle
 10
520.0
 20
-65.0
 30
0.0
 40
13.24999999999994
  0
CIRCLE
  5
26E
330
1F
100
AcDbEntity
  8
0
  6
Continuous
 62
     7
370
    15
100
AcDbCircle
 10
-525.0
 20
-65.0
 30
0.0
 40
1.000000000000078
  0
CIRCLE
  5
26F
330
1F
100
AcDbEntity
  8
0
  6
Continuous
 62
     7
370
    15
100
AcDbCircle
 10
520.0
 20
-65.0
 30
0.0
 40
0.9999999999999535
  0
CIRCLE
  5
273
330
1F
100
AcDbEntity
  8
0
  6
PHANTOM
 62
     8
370
     0
100
AcDbCircle
 10
525.0
 20
0.0
 30
0.0
 40
27.62549999999986
  0
CIRCLE
  5
290
330
1F
100
AcDbEntity
  8
0
  6
PHANTOM
 62
     8
370
     0
100
AcDbCircle
 10
-525.0
 20
0.0
 30
0.0
 40
27.62550000000012
  0
LWPOLYLINE
  5
2C1
330
1F
100
AcDbEntity
  8
0
  6
PHANTOM
 62
     8
370
     0
100
AcDbPolyline
 90
        3
 70
   128
 43
0.0
 10
556.7411404962
 20
0.75
 10
556.7443124501
 20
0.6009384923
 10
556.7411404962
 20
-0.75
  0
LWPOLYLINE
  5
2C3
330
1F
100
AcDbEntity
  8
0
  6
PHANTOM
 62
     8
370
     0
100
AcDbPolyline
 90
        3
 70
   128
 43
0.0
 10
495.2164055225
 20
-11.0
 10
494.6588541619
 20
-9.3529337233
 10
494.5
 20
-8.8211393822
  0
LWPOLYLINE
  5
2C4
330
1F
100
AcDbEntity
  8
0
  6
PHANTOM
 62
     8
370
     0
100
AcDbPolyline
 90
        3
 70
   128
 43
0.0
 10
494.5
 20
8.8211393822
 10
495.0345791196
 20
10.4945724762
 10
495.2164055225
 20
11.0
  0
LWPOLYLINE
  5
2C8
330
1F
100
AcDbEntity
  8
0
  6
PHANTOM
 62
     8
370
     0
100
AcDbPolyline
 90
        3
 70
   128
 43
0.0
 10
505.5
 20
48.9419298761
 10
505.4016645877
 20
47.3459816104
 10
505.2638902005
 20
46.475534338
  0
LWPOLYLINE
  5
2D1
330
1F
100
AcDbEntity
  8
0
  6
PHANTOM
 62
     8
370
     0
100
AcDbPolyline
 90
        3
 70
   128
 43
0.0
 10
544.7920858066
 20
46.201689585
 10
544.5983354123
 20
47.3459816104
 10
544.5
 20
48.9419298761
  0
LWPOLYLINE
  5
2EE
330
1F
100
AcDbEntity
  8
0
  6
PHANTOM
 62
     8
370
     0
100
AcDbPolyline
 90
        3
 70
   128
 43
0.0
 10
-495.2164055225
 20
11.0
 10
-495.0345791196
 20
10.4945724762
 10
-494.5
 20
8.8211393822
  0
LWPOLYLINE
  5
2EF
330
1F
100
AcDbEntity
  8
0
  6
PHANTOM
 62
     8
370
     0
100
AcDbPolyline
 90
        3
 70
   128
 43
0.0
 10
-494.5
 20
-8.8211393822
 10
-494.6588541619
 20
-9.3529337233
 10
-495.2164055225
 20
-11.0
  0
LWPOLYLINE
  5
2F1
330
1F
100
AcDbEntity
  8
0
  6
PHANTOM
 62
     8
370
     0
100
AcDbPolyline
 90
        3
 70
   128
 43
0.0
 10
-556.7411404962
 20
-0.75
 10
-556.7443124501
 20
0.6009384923
 10
-556.7411404962
 20
0.75
  0
LWPOLYLINE
  5
2F7
330
1F
100
AcDbEntity
  8
0
  6
PHANTOM
 62
     8
370
     0
100
AcDbPolyline
 90
        3
 70
   128
 43
0.0
 10
-505.2638902005
 20
46.475534338
 10
-505.4016645877
 20
47.3459816104
 10
-505.5
 20
48.9419298761
  0
LWPOLYLINE
  5
2FD
330
1F
100
AcDbEntity
  8
0
  6
PHANTOM
 62
     8
370
     0
100
AcDbPolyline
 90
        3
 70
   128
 43
0.0
 10
-544.5
 20
48.9419298761
 10
-544.5983354123
 20
47.3459816104
 10
-544.7920858066
 20
46.201689585
  0
CIRCLE
  5
31D
330
1F
100
AcDbEntity
  8
0
  6
PHANTOM
 62
     8
370
     0
100
AcDbCircle
 10
-525.0
 20
-65.0
 30
0.0
 40
13.40585774058593
  0
CIRCLE
  5
31E
330
1F
100
AcDbEntity
  8
0
  6
PHANTOM
 62
     8
370
     0
100
AcDbCircle
 10
520.0
 20
-65.0
 30
0.0
 40
13.40585774058576
  0
CIRCLE
  5
31F
330
1F
100
AcDbEntity
  8
0
  6
PHANTOM
 62
     8
370
     0
100
AcDbCircle
 10
-525.0
 20
-65.0
 30
0.0
 40
12.7551020394276
  0
CIRCLE
  5
320
330
1F
100
AcDbEntity
  8
0
  6
PHANTOM
 62
     8
370
     0
100
AcDbCircle
 10
520.0
 20
-65.0
 30
0.0
 40
12.75510203942809
  0
LINE
  5
321
330
1F
100
AcDbEntity
  8
0
  6
Continuous
 62
     7
370
    15
100
AcDbLine
 10
53.0259676881
 20
36.55
 30
0.0
 11
53.0259676881
 21
35.9867861996
 31
0.0
  0
LINE
  5
322
330
1F
100
AcDbEntity
  8
0
  6
Continuous
 62
     7
370
    15
100
AcDbLine
 10
-323.2970858584
 20
22.0
 30
0.0
 11
-323.2970858584
 21
26.3
 31
0.0
  0
LINE
  5
323
330
1F
100
AcDbEntity
  8
0
  6
Continuous
 62
     7
370
    15
100
AcDbLine
 10
-357.2970858584
 20
26.3
 30
0.0
 11
-357.2970858584
 21
22.0
 31
0.0
  0
LINE
  5
324
330
1F
100
AcDbEntity
  8
0
  6
Continuous
 62
     7
370
    15
100
AcDbLine
 10
-353.2970858584
 20
36.55
 30
0.0
 11
-353.2970858584
 21
35.9867861996
 31
0.0
  0
LINE
  5
325
330
1F
100
AcDbEntity
  8
0
  6
Continuous
 62
     7
370
    15
100
AcDbLine
 10
-327.2970858584
 20
35.9867861996
 30
0.0
 11
-327.2970858584
 21
36.55
 31
0.0
  0
LINE
  5
326
330
1F
100
AcDbEntity
  8
0
  6
Continuous
 62
     7
370
    15
100
AcDbLine
 10
-385.5
 20
22.0
 30
0.0
 11
-385.5
 21
26.3
 31
0.0
  0
LINE
  5
327
330
1F
100
AcDbEntity
  8
0
  6
Continuous
 62
     7
370
    15
100
AcDbLine
 10
-419.5
 20
26.3
 30
0.0
 11
-419.5
 21
22.0
 31
0.0
  0
LINE
  5
328
330
1F
100
AcDbEntity
  8
0
  6
Continuous
 62
     7
370
    15
100
AcDbLine
 10
-142.5
 20
22.0
 30
0.0
 11
-142.5
 21
26.3
 31
0.0
  0
LINE
  5
329
330
1F
100
AcDbEntity
  8
0
  6
Continuous
 62
     7
370
    15
100
AcDbLine
 10
49.0259676881
 20
26.3
 30
0.0
 11
49.0259676881
 21
22.0
 31
0.0
  0
LINE
  5
32A
330
1F
100
AcDbEntity
  8
0
  6
Continuous
 62
     7
370
    15
100
AcDbLine
 10
416.5
 20
22.0
 30
0.0
 11
416.5
 21
26.3
 31
0.0
  0
LINE
  5
32B
330
1F
100
AcDbEntity
  8
0
  6
Continuous
 62
     7
370
    15
100
AcDbLine
 10
382.5
 20
26.3
 30
0.0
 11
382.5
 21
22.0
 31
0.0
  0
LINE
  5
32C
330
1F
100
AcDbEntity
  8
0
  6
Continuous
 62
     7
370
    15
100
AcDbLine
 10
322.2153519439
 20
22.0
 30
0.0
 11
322.2153519439
 21
26.3
 31
0.0
  0
LINE
  5
32D
330
1F
100
AcDbEntity
  8
0
  6
Continuous
 62
     7
370
    15
100
AcDbLine
 10
288.2153519439
 20
26.3
 30
0.0
 11
288.2153519439
 21
22.0
 31
0.0
  0
LINE
  5
32E
330
1F
100
AcDbEntity
  8
0
  6
Continuous
 62
     7
370
    15
100
AcDbLine
 10
-415.5
 20
36.55
 30
0.0
 11
-415.5
 21
35.9867861996
 31
0.0
  0
LINE
  5
32F
330
1F
100
AcDbEntity
  8
0
  6
Continuous
 62
     7
370
    15
100
AcDbLine
 10
-389.5
 20
35.9867861996
 30
0.0
 11
-389.5
 21
36.55
 31
0.0
  0
LINE
  5
330
330
1F
100
AcDbEntity
  8
0
  6
Continuous
 62
     7
370
    15
100
AcDbLine
 10
-7.5943891013
 20
36.55
 30
0.0
 11
-7.5943891013
 21
35.9867861996
 31
0.0
  0
LINE
  5
331
330
1F
100
AcDbEntity
  8
0
  6
Continuous
 62
     7
370
    15
100
AcDbLine
 10
18.4056108987
 20
35.9867861996
 30
0.0
 11
18.4056108987
 21
36.55
 31
0.0
  0
LINE
  5
332
330
1F
100
AcDbEntity
  8
0
  6
Continuous
 62
     7
370
    15
100
AcDbLine
 10
157.3112217975
 20
36.55
 30
0.0
 11
157.3112217975
 21
35.9867861996
 31
0.0
  0
LINE
  5
333
330
1F
100
AcDbEntity
  8
0
  6
Continuous
 62
     7
370
    15
100
AcDbLine
 10
183.3112217975
 20
35.9867861996
 30
0.0
 11
183.3112217975
 21
36.55
 31
0.0
  0
LINE
  5
334
330
1F
100
AcDbEntity
  8
0
  6
Continuous
 62
     7
370
    15
100
AcDbLine
 10
-177.5
 20
36.55
 30
0.0
 11
-177.5
 21
35.9867861996
 31
0.0
  0
LINE
  5
335
330
1F
100
AcDbEntity
  8
0
  6
Continuous
 62
     7
370
    15
100
AcDbLine
 10
-151.5
 20
35.9867861996
 30
0.0
 11
-151.5
 21
36.55
 31
0.0
  0
LINE
  5
336
330
1F
100
AcDbEntity
  8
0
  6
Continuous
 62
     7
370
    15
100
AcDbLine
 10
71.5
 20
36.55
 30
0.0
 11
71.5
 21
35.9867861996
 31
0.0
  0
LINE
  5
337
330
1F
100
AcDbEntity
  8
0
  6
Continuous
 62
     7
370
    15
100
AcDbLine
 10
97.5
 20
35.9867861996
 30
0.0
 11
97.5
 21
36.55
 31
0.0
  0
LINE
  5
338
330
1F
100
AcDbEntity
  8
0
  6
Continuous
 62
     7
370
    15
100
AcDbLine
 10
502.5
 20
61.9419298761
 30
0.0
 11
500.9
 21
61.9419298761
 31
0.0
  0
LINE
  5
339
330
1F
100
AcDbEntity
  8
0
  6
Continuous
 62
     7
370
    15
100
AcDbLine
 10
-500.9
 20
61.9419298761
 30
0.0
 11
-502.5
 21
61.9419298761
 31
0.0
  0
LINE
  5
33A
330
1F
100
AcDbEntity
  8
0
  6
Continuous
 62
     7
370
    15
100
AcDbLine
 10
-146.5
 20
35.9867861996
 30
0.0
 11
-146.5
 21
36.55
 31
0.0
  0
LINE
  5
33B
330
1F
100
AcDbEntity
  8
0
  6
Continuous
 62
     7
370
    15
100
AcDbLine
 10
-161.0
 20
41.9798234156
 30
0.0
 11
-162.0
 21
41.8360081411
 31
0.0
  0
LINE
  5
33C
330
1F
100
AcDbEntity
  8
0
  6
Continuous
 62
     7
370
    15
100
AcDbLine
 10
22.4056108987
 20
22.0
 30
0.0
 11
22.4056108987
 21
26.3
 31
0.0
  0
LINE
  5
33D
330
1F
100
AcDbEntity
  8
0
  6
Continuous
 62
     7
370
    15
100
AcDbLine
 10
-11.5943891013
 20
26.3
 30
0.0
 11
-11.5943891013
 21
22.0
 31
0.0
  0
LINE
  5
33E
330
1F
100
AcDbEntity
  8
0
  6
Continuous
 62
     7
370
    15
100
AcDbLine
 10
187.3112217975
 20
22.0
 30
0.0
 11
187.3112217975
 21
26.3
 31
0.0
  0
LINE
  5
33F
330
1F
100
AcDbEntity
  8
0
  6
Continuous
 62
     7
370
    15
100
AcDbLine
 10
153.3112217975
 20
26.3
 30
0.0
 11
153.3112217975
 21
22.0
 31
0.0
  0
LINE
  5
340
330
1F
100
AcDbEntity
  8
0
  6
Continuous
 62
     7
370
    15
100
AcDbLine
 10
-147.5
 20
22.0
 30
0.0
 11
-147.5
 21
26.3
 31
0.0
  0
LINE
  5
341
330
1F
100
AcDbEntity
  8
0
  6
Continuous
 62
     7
370
    15
100
AcDbLine
 10
-181.5
 20
26.3
 30
0.0
 11
-181.5
 21
22.0
 31
0.0
  0
LINE
  5
342
330
1F
100
AcDbEntity
  8
0
  6
Continuous
 62
     7
370
    15
100
AcDbLine
 10
101.5
 20
22.0
 30
0.0
 11
101.5
 21
26.3
 31
0.0
  0
LINE
  5
343
330
1F
100
AcDbEntity
  8
0
  6
Continuous
 62
     7
370
    15
100
AcDbLine
 10
67.5
 20
26.3
 30
0.0
 11
67.5
 21
22.0
 31
0.0
  0
LINE
  5
344
330
1F
100
AcDbEntity
  8
0
  6
Continuous
 62
     7
370
    15
100
AcDbLine
 10
386.5
 20
36.55
 30
0.0
 11
386.5
 21
35.9867861996
 31
0.0
  0
LINE
  5
345
330
1F
100
AcDbEntity
  8
0
  6
Continuous
 62
     7
370
    15
100
AcDbLine
 10
412.5
 20
35.9867861996
 30
0.0
 11
412.5
 21
36.55
 31
0.0
  0
LINE
  5
346
330
1F
100
AcDbEntity
  8
0
  6
Continuous
 62
     7
370
    15
100
AcDbLine
 10
-382.5
 20
36.55
 30
0.0
 11
-382.5
 21
35.9867861996
 31
0.0
  0
LINE
  5
347
330
1F
100
AcDbEntity
  8
0
  6
Continuous
 62
     7
370
    15
100
AcDbLine
 10
-356.5
 20
35.9867861996
 30
0.0
 11
-356.5
 21
36.55
 31
0.0
  0
LINE
  5
348
330
1F
100
AcDbEntity
  8
0
  6
Continuous
 62
     7
370
    15
100
AcDbLine
 10
527.5
 20
57.4419298761
 30
0.0
 11
522.5
 21
57.4419298761
 31
0.0
  0
LINE
  5
349
330
1F
100
AcDbEntity
  8
0
  6
Continuous
 62
     7
370
    15
100
AcDbLine
 10
-522.5
 20
57.4419298761
 30
0.0
 11
-527.5
 21
57.4419298761
 31
0.0
  0
LINE
  5
34A
330
1F
100
AcDbEntity
  8
0
  6
Continuous
 62
     7
370
    15
100
AcDbLine
 10
454.8333261701
 20
33.2732882864
 30
0.0
 11
454.8333261701
 21
32.9627054322
 31
0.0
  0
LINE
  5
34B
330
1F
100
AcDbEntity
  8
0
  6
Continuous
 62
     7
370
    15
100
AcDbLine
 10
438.75
 20
11.0
 30
0.0
 11
438.75
 21
10.0
 31
0.0
  0
LINE
  5
34C
330
1F
100
AcDbEntity
  8
0
  6
Continuous
 62
     7
370
    15
100
AcDbLine
 10
447.25
 20
10.0
 30
0.0
 11
447.25
 21
11.0
 31
0.0
  0
LINE
  5
34D
330
1F
100
AcDbEntity
  8
0
  6
Continuous
 62
     7
370
    15
100
AcDbLine
 10
448.8140102365
 20
31.6604174429
 30
0.0
 11
448.8140102365
 21
31.3498345888
 31
0.0
  0
LINE
  5
34E
330
1F
100
AcDbEntity
  8
0
  6
Continuous
 62
     7
370
    15
100
AcDbLine
 10
456.2182524503
 20
-33.6443781647
 30
0.0
 11
456.2182524503
 21
-33.3337953106
 31
0.0
  0
LINE
  5
34F
330
1F
100
AcDbEntity
  8
0
  6
Continuous
 62
     7
370
    15
100
AcDbLine
 10
448.9036696707
 20
-31.3738587618
 30
0.0
 11
448.9036696707
 21
-31.6844416159
 31
0.0
  0
LINE
  5
350
330
1F
100
AcDbEntity
  8
0
  6
Continuous
 62
     7
370
    15
100
AcDbLine
 10
447.25
 20
-11.0
 30
0.0
 11
447.25
 21
-10.0
 31
0.0
  0
LINE
  5
351
330
1F
100
AcDbEntity
  8
0
  6
Continuous
 62
     7
370
    15
100
AcDbLine
 10
438.75
 20
-10.0
 30
0.0
 11
438.75
 21
-11.0
 31
0.0
  0
LINE
  5
352
330
1F
100
AcDbEntity
  8
0
  6
Continuous
 62
     7
370
    15
100
AcDbLine
 10
448.8140102365
 20
-31.3498345888
 30
0.0
 11
448.8140102365
 21
-31.6604174429
 31
0.0
  0
LINE
  5
353
330
1F
100
AcDbEntity
  8
0
  6
Continuous
 62
     7
370
    15
100
AcDbLine
 10
-456.2182524503
 20
33.6443781647
 30
0.0
 11
-456.2182524503
 21
33.3337953106
 31
0.0
  0
LINE
  5
354
330
1F
100
AcDbEntity
  8
0
  6
Continuous
 62
     7
370
    15
100
AcDbLine
 10
-448.9036696707
 20
31.3738587618
 30
0.0
 11
-448.9036696707
 21
31.6844416159
 31
0.0
  0
LINE
  5
355
330
1F
100
AcDbEntity
  8
0
  6
Continuous
 62
     7
370
    15
100
AcDbLine
 10
-447.25
 20
11.0
 30
0.0
 11
-447.25
 21
10.0
 31
0.0
  0
LINE
  5
356
330
1F
100
AcDbEntity
  8
0
  6
Continuous
 62
     7
370
    15
100
AcDbLine
 10
-438.75
 20
10.0
 30
0.0
 11
-438.75
 21
11.0
 31
0.0
  0
LINE
  5
357
330
1F
100
AcDbEntity
  8
0
  6
Continuous
 62
     7
370
    15
100
AcDbLine
 10
-448.8140102365
 20
31.3498345888
 30
0.0
 11
-448.8140102365
 21
31.6604174429
 31
0.0
  0
LINE
  5
358
330
1F
100
AcDbEntity
  8
0
  6
Continuous
 62
     7
370
    15
100
AcDbLine
 10
-454.8333261701
 20
-33.2732882863
 30
0.0
 11
-454.8333261701
 21
-32.9627054322
 31
0.0
  0
LINE
  5
359
330
1F
100
AcDbEntity
  8
0
  6
Continuous
 62
     7
370
    15
100
AcDbLine
 10
-438.75
 20
-11.0
 30
0.0
 11
-438.75
 21
-10.0
 31
0.0
  0
LINE
  5
35A
330
1F
100
AcDbEntity
  8
0
  6
Continuous
 62
     7
370
    15
100
AcDbLine
 10
-447.25
 20
-10.0
 30
0.0
 11
-447.25
 21
-11.0
 31
0.0
  0
LINE
  5
35B
330
1F
100
AcDbEntity
  8
0
  6
Continuous
 62
     7
370
    15
100
AcDbLine
 10
-448.8140102365
 20
-31.6604174429
 30
0.0
 11
-448.8140102365
 21
-31.3498345888
 31
0.0
  0
LINE
  5
35C
330
1F
100
AcDbEntity
  8
0
  6
Continuous
 62
     7
370
    15
100
AcDbLine
 10
500.52860509
 20
46.9419298761
 30
0.0
 11
500.9
 21
47.9419298761
 31
0.0
  0
LINE
  5
35D
330
1F
100
AcDbEntity
  8
0
  6
Continuous
 62
     7
370
    15
100
AcDbLine
 10
500.9
 20
58.9419298761
 30
0.0
 11
500.52860509
 21
59.9419298761
 31
0.0
  0
LINE
  5
35E
330
1F
100
AcDbEntity
  8
0
  6
Continuous
 62
     7
370
    15
100
AcDbLine
 10
494.0513949056
 20
59.9419298761
 30
0.0
 11
493.6799999956
 21
58.9419298761
 31
0.0
  0
LINE
  5
35F
330
1F
100
AcDbEntity
  8
0
  6
Continuous
 62
     7
370
    15
100
AcDbLine
 10
493.6799999956
 20
47.9419298761
 30
0.0
 11
494.0513949056
 21
46.9419298761
 31
0.0
  0
LINE
  5
360
330
1F
100
AcDbEntity
  8
0
  6
Continuous
 62
     7
370
    15
100
AcDbLine
 10
492.4
 20
47.9419298761
 30
0.0
 11
493.6799999956
 21
47.9419298761
 31
0.0
  0
LINE
  5
361
330
1F
100
AcDbEntity
  8
0
  6
Continuous
 62
     7
370
    15
100
AcDbLine
 10
493.6799999956
 20
58.9419298761
 30
0.0
 11
492.4
 21
58.9419298761
 31
0.0
  0
LINE
  5
362
330
1F
100
AcDbEntity
  8
0
  6
Continuous
 62
     7
370
    15
100
AcDbLine
 10
-494.0513949056
 20
46.9419298761
 30
0.0
 11
-493.6799999956
 21
47.9419298761
 31
0.0
  0
LINE
  5
363
330
1F
100
AcDbEntity
  8
0
  6
Continuous
 62
     7
370
    15
100
AcDbLine
 10
-493.6799999956
 20
58.9419298761
 30
0.0
 11
-494.0513949056
 21
59.9419298761
 31
0.0
  0
LINE
  5
364
330
1F
100
AcDbEntity
  8
0
  6
Continuous
 62
     7
370
    15
100
AcDbLine
 10
-500.52860509
 20
59.9419298761
 30
0.0
 11
-500.9
 21
58.9419298761
 31
0.0
  0
LINE
  5
365
330
1F
100
AcDbEntity
  8
0
  6
Continuous
 62
     7
370
    15
100
AcDbLine
 10
-500.9
 20
47.9419298761
 30
0.0
 11
-500.52860509
 21
46.9419298761
 31
0.0
  0
LINE
  5
366
330
1F
100
AcDbEntity
  8
0
  6
Continuous
 62
     7
370
    15
100
AcDbLine
 10
-492.4
 20
58.9419298761
 30
0.0
 11
-493.6799999956
 21
58.9419298761
 31
0.0
  0
LINE
  5
367
330
1F
100
AcDbEntity
  8
0
  6
Continuous
 62
     7
370
    15
100
AcDbLine
 10
-493.6799999956
 20
47.9419298761
 30
0.0
 11
-492.4
 21
47.9419298761
 31
0.0
  0
LINE
  5
368
330
1F
100
AcDbEntity
  8
0
  6
Continuous
 62
     7
370
    15
100
AcDbLine
 10
478.0
 20
11.0
 30
0.0
 11
478.0
 21
10.0
 31
0.0
  0
LINE
  5
369
330
1F
100
AcDbEntity
  8
0
  6
Continuous
 62
     7
370
    15
100
AcDbLine
 10
478.0
 20
-10.0
 30
0.0
 11
478.0
 21
-11.0
 31
0.0
  0
LINE
  5
36A
330
1F
100
AcDbEntity
  8
0
  6
Continuous
 62
     7
370
    15
100
AcDbLine
 10
486.0
 20
-11.0
 30
0.0
 11
486.0
 21
-10.0
 31
0.0
  0
LINE
  5
36B
330
1F
100
AcDbEntity
  8
0
  6
Continuous
 62
     7
370
    15
100
AcDbLine
 10
486.0
 20
10.0
 30
0.0
 11
486.0
 21
11.0
 31
0.0
  0
LINE
  5
36C
330
1F
100
AcDbEntity
  8
0
  6
Continuous
 62
     7
370
    15
100
AcDbLine
 10
560.5
 20
0.75
 30
0.0
 11
560.5
 21
-0.75
 31
0.0
  0
LINE
  5
36D
330
1F
100
AcDbEntity
  8
0
  6
Continuous
 62
     7
370
    15
100
AcDbLine
 10
568.5
 20
-0.75
 30
0.0
 11
568.5
 21
0.75
 31
0.0
  0
LINE
  5
36E
330
1F
100
AcDbEntity
  8
0
  6
Continuous
 62
     7
370
    15
100
AcDbLine
 10
-486.0
 20
11.0
 30
0.0
 11
-486.0
 21
10.0
 31
0.0
  0
LINE
  5
36F
330
1F
100
AcDbEntity
  8
0
  6
Continuous
 62
     7
370
    15
100
AcDbLine
 10
-486.0
 20
-10.0
 30
0.0
 11
-486.0
 21
-11.0
 31
0.0
  0
LINE
  5
370
330
1F
100
AcDbEntity
  8
0
  6
Continuous
 62
     7
370
    15
100
AcDbLine
 10
-478.0
 20
-11.0
 30
0.0
 11
-478.0
 21
-10.0
 31
0.0
  0
LINE
  5
371
330
1F
100
AcDbEntity
  8
0
  6
Continuous
 62
     7
370
    15
100
AcDbLine
 10
-478.0
 20
10.0
 30
0.0
 11
-478.0
 21
11.0
 31
0.0
  0
LINE
  5
372
330
1F
100
AcDbEntity
  8
0
  6
Continuous
 62
     7
370
    15
100
AcDbLine
 10
-568.5
 20
0.75
 30
0.0
 11
-568.5
 21
-0.75
 31
0.0
  0
LINE
  5
373
330
1F
100
AcDbEntity
  8
0
  6
Continuous
 62
     7
370
    15
100
AcDbLine
 10
-560.5
 20
-0.75
 30
0.0
 11
-560.5
 21
0.75
 31
0.0
  0
LINE
  5
374
330
1F
100
AcDbEntity
  8
0
  6
Continuous
 62
     7
370
    15
100
AcDbLine
 10
292.2153519439
 20
36.55
 30
0.0
 11
292.2153519439
 21
35.9867861996
 31
0.0
  0
LINE
  5
375
330
1F
100
AcDbEntity
  8
0
  6
Continuous
 62
     7
370
    15
100
AcDbLine
 10
318.2153519439
 20
35.9867861996
 30
0.0
 11
318.2153519439
 21
36.55
 31
0.0
  0
LINE
  5
376
330
1F
100
AcDbEntity
  8
0
  6
Continuous
 62
     7
370
    15
100
AcDbLine
 10
97.5
 20
36.55
 30
0.0
 11
53.0259676881
 21
36.55
 31
0.0
  0
LINE
  5
377
330
1F
100
AcDbEntity
  8
0
  6
Continuous
 62
     7
370
    15
100
AcDbLine
 10
67.5259676881
 20
41.9798234156
 30
0.0
 11
64.5259676881
 21
41.9798234156
 31
0.0
  0
LINE
  5
378
330
1F
100
AcDbEntity
  8
0
  6
Continuous
 62
     7
370
    15
100
AcDbLine
 10
-327.2970858584
 20
36.55
 30
0.0
 11
-353.2970858584
 21
36.55
 31
0.0
  0
LINE
  5
379
330
1F
100
AcDbEntity
  8
0
  6
Continuous
 62
     7
370
    15
100
AcDbLine
 10
-338.7970858584
 20
41.9798234156
 30
0.0
 11
-341.7970858584
 21
41.9798234156
 31
0.0
  0
LINE
  5
37A
330
1F
100
AcDbEntity
  8
0
  6
Continuous
 62
     7
370
    15
100
AcDbLine
 10
-419.5
 20
26.3
 30
0.0
 11
-323.2970858584
 21
26.3
 31
0.0
  0
LINE
  5
37B
330
1F
100
AcDbEntity
  8
0
  6
Continuous
 62
     7
370
    15
100
AcDbLine
 10
-181.5
 20
26.3
 30
0.0
 11
-142.5
 21
26.3
 31
0.0
  0
LINE
  5
37C
330
1F
100
AcDbEntity
  8
0
  6
Continuous
 62
     7
370
    15
100
AcDbLine
 10
382.5
 20
26.3
 30
0.0
 11
416.5
 21
26.3
 31
0.0
  0
LINE
  5
37D
330
1F
100
AcDbEntity
  8
0
  6
Continuous
 62
     7
370
    15
100
AcDbLine
 10
288.2153519439
 20
26.3
 30
0.0
 11
322.2153519439
 21
26.3
 31
0.0
  0
LINE
  5
37E
330
1F
100
AcDbEntity
  8
0
  6
Continuous
 62
     7
370
    15
100
AcDbLine
 10
-389.5
 20
36.55
 30
0.0
 11
-415.5
 21
36.55
 31
0.0
  0
LINE
  5
37F
330
1F
100
AcDbEntity
  8
0
  6
Continuous
 62
     7
370
    15
100
AcDbLine
 10
-401.0
 20
41.9798234156
 30
0.0
 11
-404.0
 21
41.9798234156
 31
0.0
  0
LINE
  5
380
330
1F
100
AcDbEntity
  8
0
  6
Continuous
 62
     7
370
    15
100
AcDbLine
 10
18.4056108987
 20
36.55
 30
0.0
 11
-7.5943891013
 21
36.55
 31
0.0
  0
LINE
  5
381
330
1F
100
AcDbEntity
  8
0
  6
Continuous
 62
     7
370
    15
100
AcDbLine
 10
6.9056108987
 20
41.9798234156
 30
0.0
 11
3.9056108987
 21
41.9798234156
 31
0.0
  0
LINE
  5
382
330
1F
100
AcDbEntity
  8
0
  6
Continuous
 62
     7
370
    15
100
AcDbLine
 10
183.3112217975
 20
36.55
 30
0.0
 11
157.3112217975
 21
36.55
 31
0.0
  0
LINE
  5
383
330
1F
100
AcDbEntity
  8
0
  6
Continuous
 62
     7
370
    15
100
AcDbLine
 10
171.8112217975
 20
41.9798234156
 30
0.0
 11
168.8112217975
 21
41.9798234156
 31
0.0
  0
LINE
  5
384
330
1F
100
AcDbEntity
  8
0
  6
Continuous
 62
     7
370
    15
100
AcDbLine
 10
-146.5
 20
36.55
 30
0.0
 11
-177.5
 21
36.55
 31
0.0
  0
LINE
  5
385
330
1F
100
AcDbEntity
  8
0
  6
Continuous
 62
     7
370
    15
100
AcDbLine
 10
-163.0
 20
41.9798234156
 30
0.0
 11
-166.0
 21
41.9798234156
 31
0.0
  0
LINE
  5
386
330
1F
100
AcDbEntity
  8
0
  6
Continuous
 62
     7
370
    15
100
AcDbLine
 10
86.0
 20
41.9798234156
 30
0.0
 11
83.0
 21
41.9798234156
 31
0.0
  0
LINE
  5
387
330
1F
100
AcDbEntity
  8
0
  6
Continuous
 62
     7
370
    15
100
AcDbLine
 10
500.9
 20
61.9419298761
 30
0.0
 11
500.9
 21
45.3062334829
 31
0.0
  0
LINE
  5
388
330
1F
100
AcDbEntity
  8
0
  6
Continuous
 62
     7
370
    15
100
AcDbLine
 10
502.5
 20
61.9419298761
 30
0.0
 11
502.5
 21
48.764389772
 31
0.0
  0
LINE
  5
389
330
1F
100
AcDbEntity
  8
0
  6
Continuous
 62
     7
370
    15
100
AcDbLine
 10
-502.5
 20
61.9419298761
 30
0.0
 11
-502.5
 21
48.7643897719
 31
0.0
  0
LINE
  5
38A
330
1F
100
AcDbEntity
  8
0
  6
Continuous
 62
     7
370
    15
100
AcDbLine
 10
-500.9
 20
61.9419298761
 30
0.0
 11
-500.9
 21
45.3062334829
 31
0.0
  0
LINE
  5
38B
330
1F
100
AcDbEntity
  8
0
  6
Continuous
 62
     7
370
    15
100
AcDbLine
 10
-335.0970858584
 20
-26.4
 30
0.0
 11
-345.4970858584
 21
-26.4
 31
0.0
  0
LINE
  5
38C
330
1F
100
AcDbEntity
  8
0
  6
Continuous
 62
     7
370
    15
100
AcDbLine
 10
-397.3
 20
-26.4
 30
0.0
 11
-407.7
 21
-26.4
 31
0.0
  0
LINE
  5
38D
330
1F
100
AcDbEntity
  8
0
  6
Continuous
 62
     7
370
    15
100
AcDbLine
 10
-364.3
 20
-26.4
 30
0.0
 11
-374.7
 21
-26.4
 31
0.0
  0
LINE
  5
38E
330
1F
100
AcDbEntity
  8
0
  6
Continuous
 62
     7
370
    15
100
AcDbLine
 10
71.2259676881
 20
-26.4
 30
0.0
 11
60.8259676881
 21
-26.4
 31
0.0
  0
LINE
  5
38F
330
1F
100
AcDbEntity
  8
0
  6
Continuous
 62
     7
370
    15
100
AcDbLine
 10
404.7
 20
-26.4
 30
0.0
 11
394.3
 21
-26.4
 31
0.0
  0
LINE
  5
390
330
1F
100
AcDbEntity
  8
0
  6
Continuous
 62
     7
370
    15
100
AcDbLine
 10
310.4153519439
 20
-26.4
 30
0.0
 11
300.0153519439
 21
-26.4
 31
0.0
  0
LINE
  5
391
330
1F
100
AcDbEntity
  8
0
  6
Continuous
 62
     7
370
    15
100
AcDbLine
 10
10.6056108987
 20
-26.4
 30
0.0
 11
0.2056108987
 21
-26.4
 31
0.0
  0
LINE
  5
392
330
1F
100
AcDbEntity
  8
0
  6
Continuous
 62
     7
370
    15
100
AcDbLine
 10
-158.0
 20
41.9798234156
 30
0.0
 11
-161.0
 21
41.9798234156
 31
0.0
  0
LINE
  5
393
330
1F
100
AcDbEntity
  8
0
  6
Continuous
 62
     7
370
    15
100
AcDbLine
 10
429.5
 20
-22.0
 30
0.0
 11
-431.1539781263
 21
-22.0
 31
0.0
  0
LINE
  5
394
330
1F
100
AcDbEntity
  8
0
  6
Continuous
 62
     7
370
    15
100
AcDbLine
 10
-434.5
 20
-11.0
 30
0.0
 11
-434.5
 21
-10.0
 31
0.0
  0
LINE
  5
395
330
1F
100
AcDbEntity
  8
0
  6
Continuous
 62
     7
370
    15
100
AcDbLine
 10
429.5
 20
-22.0
 30
0.0
 11
429.5
 21
-10.0
 31
0.0
  0
LINE
  5
396
330
1F
100
AcDbEntity
  8
0
  6
Continuous
 62
     7
370
    15
100
AcDbLine
 10
-11.5943891013
 20
26.3
 30
0.0
 11
22.4056108987
 21
26.3
 31
0.0
  0
LINE
  5
397
330
1F
100
AcDbEntity
  8
0
  6
Continuous
 62
     7
370
    15
100
AcDbLine
 10
153.3112217975
 20
26.3
 30
0.0
 11
187.3112217975
 21
26.3
 31
0.0
  0
LINE
  5
398
330
1F
100
AcDbEntity
  8
0
  6
Continuous
 62
     7
370
    15
100
AcDbLine
 10
49.0259676881
 20
26.3
 30
0.0
 11
101.5
 21
26.3
 31
0.0
  0
LINE
  5
399
330
1F
100
AcDbEntity
  8
0
  6
Continuous
 62
     7
370
    15
100
AcDbLine
 10
496.0
 20
13.5
 30
0.0
 11
496.0
 21
11.0
 31
0.0
  0
LINE
  5
39A
330
1F
100
AcDbEntity
  8
0
  6
Continuous
 62
     7
370
    15
100
AcDbLine
 10
432.5
 20
11.0
 30
0.0
 11
496.0
 21
11.0
 31
0.0
  0
LINE
  5
39B
330
1F
100
AcDbEntity
  8
0
  6
Continuous
 62
     7
370
    15
100
AcDbLine
 10
499.897360572
 20
13.5
 30
0.0
 11
431.0
 21
13.5
 31
0.0
  0
LINE
  5
39C
330
1F
100
AcDbEntity
  8
0
  6
Continuous
 62
     7
370
    15
100
AcDbLine
 10
432.5
 20
11.0
 30
0.0
 11
432.5
 21
13.5
 31
0.0
  0
LINE
  5
39D
330
1F
100
AcDbEntity
  8
0
  6
Continuous
 62
     7
370
    15
100
AcDbLine
 10
432.5
 20
-13.5
 30
0.0
 11
432.5
 21
-11.0
 31
0.0
  0
LINE
  5
39E
330
1F
100
AcDbEntity
  8
0
  6
Continuous
 62
     7
370
    15
100
AcDbLine
 10
496.0
 20
-11.0
 30
0.0
 11
432.5
 21
-11.0
 31
0.0
  0
LINE
  5
39F
330
1F
100
AcDbEntity
  8
0
  6
Continuous
 62
     7
370
    15
100
AcDbLine
 10
496.0
 20
-13.5
 30
0.0
 11
496.0
 21
-11.0
 31
0.0
  0
LINE
  5
3A0
330
1F
100
AcDbEntity
  8
0
  6
Continuous
 62
     7
370
    15
100
AcDbLine
 10
-432.5
 20
13.5
 30
0.0
 11
-432.5
 21
11.0
 31
0.0
  0
LINE
  5
3A1
330
1F
100
AcDbEntity
  8
0
  6
Continuous
 62
     7
370
    15
100
AcDbLine
 10
-496.0
 20
11.0
 30
0.0
 11
-432.5
 21
11.0
 31
0.0
  0
LINE
  5
3A2
330
1F
100
AcDbEntity
  8
0
  6
Continuous
 62
     7
370
    15
100
AcDbLine
 10
-496.0
 20
13.5
 30
0.0
 11
-496.0
 21
11.0
 31
0.0
  0
LINE
  5
3A3
330
1F
100
AcDbEntity
  8
0
  6
Continuous
 62
     7
370
    15
100
AcDbLine
 10
-432.5
 20
-11.0
 30
0.0
 11
-432.5
 21
-13.5
 31
0.0
  0
LINE
  5
3A4
330
1F
100
AcDbEntity
  8
0
  6
Continuous
 62
     7
370
    15
100
AcDbLine
 10
-432.5
 20
-11.0
 30
0.0
 11
-496.0
 21
-11.0
 31
0.0
  0
LINE
  5
3A5
330
1F
100
AcDbEntity
  8
0
  6
Continuous
 62
     7
370
    15
100
AcDbLine
 10
-496.0
 20
-13.5
 30
0.0
 11
-496.0
 21
-11.0
 31
0.0
  0
LINE
  5
3A6
330
1F
100
AcDbEntity
  8
0
  6
Continuous
 62
     7
370
    15
100
AcDbLine
 10
-592.0
 20
-1591.5580701239
 30
0.0
 11
592.0
 21
-1591.5580701239
 31
0.0
  0
LINE
  5
3A7
330
1F
100
AcDbEntity
  8
0
  6
Continuous
 62
     7
370
    15
100
AcDbLine
 10
-2092.0
 20
66.4419298761
 30
0.0
 11
-2092.0
 21
-91.5580701239
 31
0.0
  0
LINE
  5
3A8
330
1F
100
AcDbEntity
  8
0
  6
Continuous
 62
     7
370
    15
100
AcDbLine
 10
592.0
 20
1566.4419298761
 30
0.0
 11
-592.0
 21
1566.4419298761
 31
0.0
  0
LINE
  5
3A9
330
1F
100
AcDbEntity
  8
0
  6
Continuous
 62
     7
370
    15
100
AcDbLine
 10
2092.0
 20
-91.5580701239
 30
0.0
 11
2092.0
 21
66.4419298761
 31
0.0
  0
LINE
  5
3AA
330
1F
100
AcDbEntity
  8
0
  6
Continuous
 62
     7
370
    15
100
AcDbLine
 10
494.5
 20
-10.0
 30
0.0
 11
-494.5
 21
-10.0
 31
0.0
  0
LINE
  5
3AB
330
1F
100
AcDbEntity
  8
0
  6
Continuous
 62
     7
370
    15
100
AcDbLine
 10
494.5
 20
10.0
 30
0.0
 11
-494.5
 21
10.0
 31
0.0
  0
LINE
  5
3AC
330
1F
100
AcDbEntity
  8
0
  6
Continuous
 62
     7
370
    15
100
AcDbLine
 10
494.5
 20
-10.0
 30
0.0
 11
494.5
 21
10.0
 31
0.0
  0
LINE
  5
3AD
330
1F
100
AcDbEntity
  8
0
  6
Continuous
 62
     7
370
    15
100
AcDbLine
 10
-494.5
 20
-10.0
 30
0.0
 11
-494.5
 21
10.0
 31
0.0
  0
LINE
  5
3AE
330
1F
100
AcDbEntity
  8
0
  6
Continuous
 62
     7
370
    15
100
AcDbLine
 10
412.5
 20
36.55
 30
0.0
 11
386.5
 21
36.55
 31
0.0
  0
LINE
  5
3AF
330
1F
100
AcDbEntity
  8
0
  6
Continuous
 62
     7
370
    15
100
AcDbLine
 10
401.0
 20
41.9798234156
 30
0.0
 11
398.0
 21
41.9798234156
 31
0.0
  0
LINE
  5
3B0
330
1F
100
AcDbEntity
  8
0
  6
Continuous
 62
     7
370
    15
100
AcDbLine
 10
-356.5
 20
36.55
 30
0.0
 11
-382.5
 21
36.55
 31
0.0
  0
LINE
  5
3B1
330
1F
100
AcDbEntity
  8
0
  6
Continuous
 62
     7
370
    15
100
AcDbLine
 10
-368.0
 20
41.9798234156
 30
0.0
 11
-371.0
 21
41.9798234156
 31
0.0
  0
LINE
  5
3B2
330
1F
100
AcDbEntity
  8
0
  6
Continuous
 62
     7
370
    15
100
AcDbLine
 10
175.5112217975
 20
-26.4
 30
0.0
 11
165.1112217975
 21
-26.4
 31
0.0
  0
LINE
  5
3B3
330
1F
100
AcDbEntity
  8
0
  6
Continuous
 62
     7
370
    15
100
AcDbLine
 10
-154.3
 20
-26.4
 30
0.0
 11
-169.7
 21
-26.4
 31
0.0
  0
LINE
  5
3B4
330
1F
100
AcDbEntity
  8
0
  6
Continuous
 62
     7
370
    15
100
AcDbLine
 10
89.7
 20
-26.4
 30
0.0
 11
79.3
 21
-26.4
 31
0.0
  0
LINE
  5
3B5
330
1F
100
AcDbEntity
  8
0
  6
Continuous
 62
     7
370
    15
100
AcDbLine
 10
551.9
 20
58.6419298761
 30
0.0
 11
551.9
 21
48.2419298761
 31
0.0
  0
LINE
  5
3B6
330
1F
100
AcDbEntity
  8
0
  6
Continuous
 62
     7
370
    15
100
AcDbLine
 10
-551.9
 20
48.2419298761
 30
0.0
 11
-551.9
 21
58.6419298761
 31
0.0
  0
LINE
  5
3B7
330
1F
100
AcDbEntity
  8
0
  6
Continuous
 62
     7
370
    15
100
AcDbLine
 10
537.9409522551
 20
48.2962913145
 30
0.0
 11
573.2249469216
 21
37.5088915805
 31
0.0
  0
LINE
  5
3B8
330
1F
100
AcDbEntity
  8
0
  6
Continuous
 62
     7
370
    15
100
AcDbLine
 10
592.0
 20
0.75
 30
0.0
 11
553.4926307359
 21
0.75
 31
0.0
  0
LINE
  5
3B9
330
1F
100
AcDbEntity
  8
0
  6
Continuous
 62
     7
370
    15
100
AcDbLine
 10
436.9294476392
 20
28.1653756385
 30
0.0
 11
512.0590477449
 21
48.2962913145
 31
0.0
  0
LINE
  5
3BA
330
1F
100
AcDbEntity
  8
0
  6
Continuous
 62
     7
370
    15
100
AcDbLine
 10
592.0
 20
10.75
 30
0.0
 11
592.0
 21
0.75
 31
0.0
  0
LINE
  5
3BB
330
1F
100
AcDbEntity
  8
0
  6
Continuous
 62
     7
370
    15
100
AcDbLine
 10
431.0
 20
13.5
 30
0.0
 11
431.0
 21
20.4379690282
 31
0.0
  0
LINE
  5
3BC
330
1F
100
AcDbEntity
  8
0
  6
Continuous
 62
     7
370
    15
100
AcDbLine
 10
456.0479925353
 20
33.2881743038
 30
0.0
 11
456.0479925353
 21
33.598757158
 31
0.0
  0
LINE
  5
3BD
330
1F
100
AcDbEntity
  8
0
  6
Continuous
 62
     7
370
    15
100
AcDbLine
 10
451.9244340784
 20
32.1832701454
 30
0.0
 11
451.9244340784
 21
32.4938529995
 31
0.0
  0
LINE
  5
3BE
330
1F
100
AcDbEntity
  8
0
  6
Continuous
 62
     7
370
    15
100
AcDbLine
 10
453.0939826008
 20
32.4966497275
 30
0.0
 11
453.0939826008
 21
32.8072325816
 31
0.0
  0
LINE
  5
3BF
330
1F
100
AcDbEntity
  8
0
  6
Continuous
 62
     7
370
    15
100
AcDbLine
 10
448.8140102365
 20
31.6604174429
 30
0.0
 11
459.327304302
 21
34.4774460976
 31
0.0
  0
LINE
  5
3C0
330
1F
100
AcDbEntity
  8
0
  6
Continuous
 62
     7
370
    15
100
AcDbLine
 10
449.0
 20
31.3996703958
 30
0.0
 11
449.0
 21
31.7102532499
 31
0.0
  0
LINE
  5
3C1
330
1F
100
AcDbEntity
  8
0
  6
Continuous
 62
     7
370
    15
100
AcDbLine
 10
459.327304302
 20
34.1668632435
 30
0.0
 11
459.327304302
 21
34.4774460976
 31
0.0
  0
LINE
  5
3C2
330
1F
100
AcDbEntity
  8
0
  6
Continuous
 62
     7
370
    15
100
AcDbLine
 10
573.2249469216
 20
-37.5088915805
 30
0.0
 11
537.9409522551
 21
-48.2962913144
 31
0.0
  0
LINE
  5
3C3
330
1F
100
AcDbEntity
  8
0
  6
Continuous
 62
     7
370
    15
100
AcDbLine
 10
512.0590477449
 20
-48.2962913144
 30
0.0
 11
436.9294476392
 21
-28.1653756384
 31
0.0
  0
LINE
  5
3C4
330
1F
100
AcDbEntity
  8
0
  6
Continuous
 62
     7
370
    15
100
AcDbLine
 10
431.0
 20
-20.4379690281
 30
0.0
 11
431.0
 21
-13.5
 31
0.0
  0
LINE
  5
3C5
330
1F
100
AcDbEntity
  8
0
  6
Continuous
 62
     7
370
    15
100
AcDbLine
 10
499.897360572
 20
-13.5
 30
0.0
 11
431.0
 21
-13.5
 31
0.0
  0
LINE
  5
3C6
330
1F
100
AcDbEntity
  8
0
  6
Continuous
 62
     7
370
    15
100
AcDbLine
 10
592.0
 20
-0.75
 30
0.0
 11
553.4926307359
 21
-0.75
 31
0.0
  0
LINE
  5
3C7
330
1F
100
AcDbEntity
  8
0
  6
Continuous
 62
     7
370
    15
100
AcDbLine
 10
592.0
 20
-0.75
 30
0.0
 11
592.0
 21
-10.75
 31
0.0
  0
LINE
  5
3C8
330
1F
100
AcDbEntity
  8
0
  6
Continuous
 62
     7
370
    15
100
AcDbLine
 10
459.327304302
 20
-34.4774460976
 30
0.0
 11
448.8140102365
 21
-31.6604174429
 31
0.0
  0
LINE
  5
3C9
330
1F
100
AcDbEntity
  8
0
  6
Continuous
 62
     7
370
    15
100
AcDbLine
 10
459.327304302
 20
-34.1668632434
 30
0.0
 11
459.327304302
 21
-34.4774460976
 31
0.0
  0
LINE
  5
3CA
330
1F
100
AcDbEntity
  8
0
  6
Continuous
 62
     7
370
    15
100
AcDbLine
 10
-573.2249469216
 20
37.5088915805
 30
0.0
 11
-537.9409522551
 21
48.2962913145
 31
0.0
  0
LINE
  5
3CB
330
1F
100
AcDbEntity
  8
0
  6
Continuous
 62
     7
370
    15
100
AcDbLine
 10
-431.0
 20
20.4379690282
 30
0.0
 11
-431.0
 21
13.5
 31
0.0
  0
LINE
  5
3CC
330
1F
100
AcDbEntity
  8
0
  6
Continuous
 62
     7
370
    15
100
AcDbLine
 10
-499.897360572
 20
13.5
 30
0.0
 11
-431.0
 21
13.5
 31
0.0
  0
LINE
  5
3CD
330
1F
100
AcDbEntity
  8
0
  6
Continuous
 62
     7
370
    15
100
AcDbLine
 10
-592.0
 20
0.75
 30
0.0
 11
-553.4926307359
 21
0.75
 31
0.0
  0
LINE
  5
3CE
330
1F
100
AcDbEntity
  8
0
  6
Continuous
 62
     7
370
    15
100
AcDbLine
 10
-512.0590477449
 20
48.2962913145
 30
0.0
 11
-436.9294476392
 21
28.1653756385
 31
0.0
  0
LINE
  5
3CF
330
1F
100
AcDbEntity
  8
0
  6
Continuous
 62
     7
370
    15
100
AcDbLine
 10
-592.0
 20
0.75
 30
0.0
 11
-592.0
 21
10.75
 31
0.0
  0
LINE
  5
3D0
330
1F
100
AcDbEntity
  8
0
  6
Continuous
 62
     7
370
    15
100
AcDbLine
 10
-459.327304302
 20
34.4774460976
 30
0.0
 11
-448.8140102365
 21
31.6604174429
 31
0.0
  0
LINE
  5
3D1
330
1F
100
AcDbEntity
  8
0
  6
Continuous
 62
     7
370
    15
100
AcDbLine
 10
-459.327304302
 20
34.1668632435
 30
0.0
 11
-459.327304302
 21
34.4774460976
 31
0.0
  0
LINE
  5
3D2
330
1F
100
AcDbEntity
  8
0
  6
Continuous
 62
     7
370
    15
100
AcDbLine
 10
-537.9409522551
 20
-48.2962913144
 30
0.0
 11
-573.2249469216
 21
-37.5088915805
 31
0.0
  0
LINE
  5
3D3
330
1F
100
AcDbEntity
  8
0
  6
Continuous
 62
     7
370
    15
100
AcDbLine
 10
-592.0
 20
-10.75
 30
0.0
 11
-592.0
 21
-0.75
 31
0.0
  0
LINE
  5
3D4
330
1F
100
AcDbEntity
  8
0
  6
Continuous
 62
     7
370
    15
100
AcDbLine
 10
-592.0
 20
-0.75
 30
0.0
 11
-553.4926307359
 21
-0.75
 31
0.0
  0
LINE
  5
3D5
330
1F
100
AcDbEntity
  8
0
  6
Continuous
 62
     7
370
    15
100
AcDbLine
 10
-431.0
 20
-13.5
 30
0.0
 11
-431.0
 21
-20.4379690281
 31
0.0
  0
LINE
  5
3D6
330
1F
100
AcDbEntity
  8
0
  6
Continuous
 62
     7
370
    15
100
AcDbLine
 10
-499.897360572
 20
-13.5
 30
0.0
 11
-431.0
 21
-13.5
 31
0.0
  0
LINE
  5
3D7
330
1F
100
AcDbEntity
  8
0
  6
Continuous
 62
     7
370
    15
100
AcDbLine
 10
-436.9294476392
 20
-28.1653756384
 30
0.0
 11
-512.0590477449
 21
-48.2962913144
 31
0.0
  0
LINE
  5
3D8
330
1F
100
AcDbEntity
  8
0
  6
Continuous
 62
     7
370
    15
100
AcDbLine
 10
-456.0479925353
 20
-33.2881743038
 30
0.0
 11
-456.0479925353
 21
-33.5987571579
 31
0.0
  0
LINE
  5
3D9
330
1F
100
AcDbEntity
  8
0
  6
Continuous
 62
     7
370
    15
100
AcDbLine
 10
-453.0939826008
 20
-32.4966497274
 30
0.0
 11
-453.0939826008
 21
-32.8072325816
 31
0.0
  0
LINE
  5
3DA
330
1F
100
AcDbEntity
  8
0
  6
Continuous
 62
     7
370
    15
100
AcDbLine
 10
-451.9244340784
 20
-32.1832701453
 30
0.0
 11
-451.9244340784
 21
-32.4938529995
 31
0.0
  0
LINE
  5
3DB
330
1F
100
AcDbEntity
  8
0
  6
Continuous
 62
     7
370
    15
100
AcDbLine
 10
-448.8140102365
 20
-31.6604174429
 30
0.0
 11
-459.327304302
 21
-34.4774460976
 31
0.0
  0
LINE
  5
3DC
330
1F
100
AcDbEntity
  8
0
  6
Continuous
 62
     7
370
    15
100
AcDbLine
 10
-449.0
 20
-31.3996703957
 30
0.0
 11
-449.0
 21
-31.7102532499
 31
0.0
  0
LINE
  5
3DD
330
1F
100
AcDbEntity
  8
0
  6
Continuous
 62
     7
370
    15
100
AcDbLine
 10
-459.327304302
 20
-34.1668632434
 30
0.0
 11
-459.327304302
 21
-34.4774460976
 31
0.0
  0
LINE
  5
3DE
330
1F
100
AcDbEntity
  8
0
  6
Continuous
 62
     7
370
    15
100
AcDbLine
 10
573.7442304278
 20
0.75
 30
0.0
 11
573.7442304278
 21
-0.75
 31
0.0
  0
LINE
  5
3DF
330
1F
100
AcDbEntity
  8
0
  6
Continuous
 62
     7
370
    15
100
AcDbLine
 10
540.0
 20
-86.3037245869
 30
0.0
 11
540.0
 21
-78.2664991614
 31
0.0
  0
LINE
  5
3E0
330
1F
100
AcDbEntity
  8
0
  6
Continuous
 62
     7
370
    15
100
AcDbLine
 10
547.5
 20
61.4419298761
 30
0.0
 11
547.5
 21
48.9419298761
 31
0.0
  0
LINE
  5
3E1
330
1F
100
AcDbEntity
  8
0
  6
Continuous
 62
     7
370
    15
100
AcDbLine
 10
528.5
 20
66.4419298761
 30
0.0
 11
542.5
 21
66.4419298761
 31
0.0
  0
LINE
  5
3E2
330
1F
100
AcDbEntity
  8
0
  6
Continuous
 62
     7
370
    15
100
AcDbLine
 10
527.5
 20
49.9374608886
 30
0.0
 11
527.5
 21
65.4419298761
 31
0.0
  0
LINE
  5
3E3
330
1F
100
AcDbEntity
  8
0
  6
Continuous
 62
     7
370
    15
100
AcDbLine
 10
507.5
 20
66.4419298761
 30
0.0
 11
521.5
 21
66.4419298761
 31
0.0
  0
LINE
  5
3E4
330
1F
100
AcDbEntity
  8
0
  6
Continuous
 62
     7
370
    15
100
AcDbLine
 10
522.5
 20
65.4419298761
 30
0.0
 11
522.5
 21
49.9374608886
 31
0.0
  0
LINE
  5
3E5
330
1F
100
AcDbEntity
  8
0
  6
Continuous
 62
     7
370
    15
100
AcDbLine
 10
-510.0
 20
-86.3037245869
 30
0.0
 11
-510.0
 21
-83.7349939952
 31
0.0
  0
LINE
  5
3E6
330
1F
100
AcDbEntity
  8
0
  6
Continuous
 62
     7
370
    15
100
AcDbLine
 10
-522.5
 20
49.9374608886
 30
0.0
 11
-522.5
 21
65.4419298761
 31
0.0
  0
LINE
  5
3E7
330
1F
100
AcDbEntity
  8
0
  6
Continuous
 62
     7
370
    15
100
AcDbLine
 10
-521.5
 20
66.4419298761
 30
0.0
 11
-507.5
 21
66.4419298761
 31
0.0
  0
LINE
  5
3E8
330
1F
100
AcDbEntity
  8
0
  6
Continuous
 62
     7
370
    15
100
AcDbLine
 10
-547.5
 20
48.9419298761
 30
0.0
 11
-547.5
 21
61.4419298761
 31
0.0
  0
LINE
  5
3E9
330
1F
100
AcDbEntity
  8
0
  6
Continuous
 62
     7
370
    15
100
AcDbLine
 10
-542.5
 20
66.4419298761
 30
0.0
 11
-528.5
 21
66.4419298761
 31
0.0
  0
LINE
  5
3EA
330
1F
100
AcDbEntity
  8
0
  6
Continuous
 62
     7
370
    15
100
AcDbLine
 10
-540.0
 20
-83.7349939952
 30
0.0
 11
-540.0
 21
-86.3037245869
 31
0.0
  0
LINE
  5
3EB
330
1F
100
AcDbEntity
  8
0
  6
Continuous
 62
     7
370
    15
100
AcDbLine
 10
-527.5
 20
65.4419298761
 30
0.0
 11
-527.5
 21
49.9374608886
 31
0.0
  0
LINE
  5
3EC
330
1F
100
AcDbEntity
  8
0
  6
Continuous
 62
     7
370
    15
100
AcDbLine
 10
-573.7442304278
 20
-0.75
 30
0.0
 11
-573.7442304278
 21
0.75
 31
0.0
  0
LINE
  5
3ED
330
1F
100
AcDbEntity
  8
0
  6
Continuous
 62
     7
370
    15
100
AcDbLine
 10
494.4248523571
 20
46.9419298761
 30
0.0
 11
500.1551476386
 21
46.9419298761
 31
0.0
  0
LINE
  5
3EE
330
1F
100
AcDbEntity
  8
0
  6
Continuous
 62
     7
370
    15
100
AcDbLine
 10
494.4248523571
 20
53.4419298761
 30
0.0
 11
500.1551476386
 21
53.4419298761
 31
0.0
  0
LINE
  5
3EF
330
1F
100
AcDbEntity
  8
0
  6
Continuous
 62
     7
370
    15
100
AcDbLine
 10
494.4248523571
 20
59.9419298761
 30
0.0
 11
500.1551476386
 21
59.9419298761
 31
0.0
  0
LINE
  5
3F0
330
1F
100
AcDbEntity
  8
0
  6
Continuous
 62
     7
370
    15
100
AcDbLine
 10
493.6799999956
 20
47.9419298761
 30
0.0
 11
493.6799999956
 21
58.9419298761
 31
0.0
  0
LINE
  5
3F1
330
1F
100
AcDbEntity
  8
0
  6
Continuous
 62
     7
370
    15
100
AcDbLine
 10
-493.6799999956
 20
58.9419298761
 30
0.0
 11
-493.6799999956
 21
47.9419298761
 31
0.0
  0
LINE
  5
3F2
330
1F
100
AcDbEntity
  8
0
  6
Continuous
 62
     7
370
    15
100
AcDbLine
 10
-494.4248523571
 20
59.9419298761
 30
0.0
 11
-500.1551476386
 21
59.9419298761
 31
0.0
  0
LINE
  5
3F3
330
1F
100
AcDbEntity
  8
0
  6
Continuous
 62
     7
370
    15
100
AcDbLine
 10
-494.4248523571
 20
53.4419298761
 30
0.0
 11
-500.1551476386
 21
53.4419298761
 31
0.0
  0
LINE
  5
3F4
330
1F
100
AcDbEntity
  8
0
  6
Continuous
 62
     7
370
    15
100
AcDbLine
 10
-494.4248523571
 20
46.9419298761
 30
0.0
 11
-500.1551476386
 21
46.9419298761
 31
0.0
  0
LINE
  5
3F5
330
1F
100
AcDbEntity
  8
0
  6
Continuous
 62
     7
370
    15
100
AcDbLine
 10
429.5
 20
22.0
 30
0.0
 11
-431.1539781263
 21
22.0
 31
0.0
  0
LINE
  5
3F6
330
1F
100
AcDbEntity
  8
0
  6
Continuous
 62
     7
370
    15
100
AcDbLine
 10
-434.5
 20
11.0
 30
0.0
 11
-434.5
 21
10.0
 31
0.0
  0
LINE
  5
3F7
330
1F
100
AcDbEntity
  8
0
  6
Continuous
 62
     7
370
    15
100
AcDbLine
 10
429.5
 20
22.0
 30
0.0
 11
429.5
 21
10.0
 31
0.0
  0
LINE
  5
3F8
330
1F
100
AcDbEntity
  8
0
  6
Continuous
 62
     7
370
    15
100
AcDbLine
 10
318.2153519439
 20
36.55
 30
0.0
 11
292.2153519439
 21
36.55
 31
0.0
  0
LINE
  5
3F9
330
1F
100
AcDbEntity
  8
0
  6
Continuous
 62
     7
370
    15
100
AcDbLine
 10
306.7153519439
 20
41.9798234156
 30
0.0
 11
303.7153519439
 21
41.9798234156
 31
0.0
  0
LINE
  5
3FA
330
1F
100
AcDbEntity
  8
0
  6
PHANTOM
 62
     8
370
     0
100
AcDbLine
 10
-333.3178266447
 20
-22.5384615385
 30
0.0
 11
-347.2763450721
 21
-22.5384615385
 31
0.0
  0
LINE
  5
3FB
330
1F
100
AcDbEntity
  8
0
  6
PHANTOM
 62
     8
370
     0
100
AcDbLine
 10
-345.8970858584
 20
-26.2
 30
0.0
 11
-334.6970858584
 21
-26.2
 31
0.0
  0
LINE
  5
3FC
330
1F
100
AcDbEntity
  8
0
  6
PHANTOM
 62
     8
370
     0
100
AcDbLine
 10
-395.5207407863
 20
-22.5384615385
 30
0.0
 11
-409.4792592137
 21
-22.5384615385
 31
0.0
  0
LINE
  5
3FD
330
1F
100
AcDbEntity
  8
0
  6
PHANTOM
 62
     8
370
     0
100
AcDbLine
 10
-408.1
 20
-26.2
 30
0.0
 11
-396.9
 21
-26.2
 31
0.0
  0
LINE
  5
3FE
330
1F
100
AcDbEntity
  8
0
  6
PHANTOM
 62
     8
370
     0
100
AcDbLine
 10
-362.5207407863
 20
-22.5384615385
 30
0.0
 11
-376.4792592137
 21
-22.5384615385
 31
0.0
  0
LINE
  5
3FF
330
1F
100
AcDbEntity
  8
0
  6
PHANTOM
 62
     8
370
     0
100
AcDbLine
 10
-375.1
 20
-26.2
 30
0.0
 11
-363.9
 21
-26.2
 31
0.0
  0
LINE
  5
400
330
1F
100
AcDbEntity
  8
0
  6
PHANTOM
 62
     8
370
     0
100
AcDbLine
 10
-152.5207407863
 20
-22.5384615385
 30
0.0
 11
-171.4792592137
 21
-22.5384615385
 31
0.0
  0
LINE
  5
401
330
1F
100
AcDbEntity
  8
0
  6
PHANTOM
 62
     8
370
     0
100
AcDbLine
 10
-170.1
 20
-26.2
 30
0.0
 11
-153.9
 21
-26.2
 31
0.0
  0
LINE
  5
402
330
1F
100
AcDbEntity
  8
0
  6
PHANTOM
 62
     8
370
     0
100
AcDbLine
 10
73.0052269018
 20
-22.5384615385
 30
0.0
 11
59.0467084744
 21
-22.5384615385
 31
0.0
  0
LINE
  5
403
330
1F
100
AcDbEntity
  8
0
  6
PHANTOM
 62
     8
370
     0
100
AcDbLine
 10
60.4259676881
 20
-26.2
 30
0.0
 11
71.6259676881
 21
-26.2
 31
0.0
  0
LINE
  5
404
330
1F
100
AcDbEntity
  8
0
  6
PHANTOM
 62
     8
370
     0
100
AcDbLine
 10
406.4792592137
 20
-22.5384615385
 30
0.0
 11
392.5207407863
 21
-22.5384615385
 31
0.0
  0
LINE
  5
405
330
1F
100
AcDbEntity
  8
0
  6
PHANTOM
 62
     8
370
     0
100
AcDbLine
 10
393.9
 20
-26.2
 30
0.0
 11
405.1
 21
-26.2
 31
0.0
  0
LINE
  5
406
330
1F
100
AcDbEntity
  8
0
  6
PHANTOM
 62
     8
370
     0
100
AcDbLine
 10
312.1946111576
 20
-22.5384615385
 30
0.0
 11
298.2360927303
 21
-22.5384615385
 31
0.0
  0
LINE
  5
407
330
1F
100
AcDbEntity
  8
0
  6
PHANTOM
 62
     8
370
     0
100
AcDbLine
 10
299.6153519439
 20
-26.2
 30
0.0
 11
310.8153519439
 21
-26.2
 31
0.0
  0
LINE
  5
408
330
1F
100
AcDbEntity
  8
0
  6
PHANTOM
 62
     8
370
     0
100
AcDbLine
 10
12.3848701124
 20
-22.5384615385
 30
0.0
 11
-1.5736483149
 21
-22.5384615385
 31
0.0
  0
LINE
  5
409
330
1F
100
AcDbEntity
  8
0
  6
PHANTOM
 62
     8
370
     0
100
AcDbLine
 10
-0.1943891013
 20
-26.2
 30
0.0
 11
11.0056108987
 21
-26.2
 31
0.0
  0
LINE
  5
40A
330
1F
100
AcDbEntity
  8
0
  6
PHANTOM
 62
     8
370
     0
100
AcDbLine
 10
335.6938523075
 20
-22.0
 30
0.0
 11
335.6938523075
 21
-10.0
 31
0.0
  0
LINE
  5
40B
330
1F
100
AcDbEntity
  8
0
  6
PHANTOM
 62
     8
370
     0
100
AcDbLine
 10
281.3153850853
 20
-22.0
 30
0.0
 11
281.3153850853
 21
-10.0
 31
0.0
  0
LINE
  5
40C
330
1F
100
AcDbEntity
  8
0
  6
PHANTOM
 62
     8
370
     0
100
AcDbLine
 10
-316.3971189998
 20
-22.0
 30
0.0
 11
-316.3971189998
 21
-10.0
 31
0.0
  0
LINE
  5
40D
330
1F
100
AcDbEntity
  8
0
  6
PHANTOM
 62
     8
370
     0
100
AcDbLine
 10
-370.775586222
 20
-22.0
 30
0.0
 11
-370.775586222
 21
-10.0
 31
0.0
  0
LINE
  5
40E
330
1F
100
AcDbEntity
  8
0
  6
PHANTOM
 62
     8
370
     0
100
AcDbLine
 10
423.8784672222
 20
-22.0
 30
0.0
 11
423.8784672222
 21
-10.0
 31
0.0
  0
LINE
  5
40F
330
1F
100
AcDbEntity
  8
0
  6
PHANTOM
 62
     8
370
     0
100
AcDbLine
 10
-428.8784672222
 20
-22.0
 30
0.0
 11
-428.8784672222
 21
-10.0
 31
0.0
  0
LINE
  5
410
330
1F
100
AcDbEntity
  8
0
  6
PHANTOM
 62
     8
370
     0
100
AcDbLine
 10
440.5
 20
13.5
 30
0.0
 11
440.5
 21
11.0
 31
0.0
  0
LINE
  5
411
330
1F
100
AcDbEntity
  8
0
  6
PHANTOM
 62
     8
370
     0
100
AcDbLine
 10
440.5
 20
-11.0
 30
0.0
 11
440.5
 21
-13.5
 31
0.0
  0
LINE
  5
412
330
1F
100
AcDbEntity
  8
0
  6
PHANTOM
 62
     8
370
     0
100
AcDbLine
 10
-440.5
 20
11.0
 30
0.0
 11
-440.5
 21
13.5
 31
0.0
  0
LINE
  5
413
330
1F
100
AcDbEntity
  8
0
  6
PHANTOM
 62
     8
370
     0
100
AcDbLine
 10
-440.5
 20
-13.5
 30
0.0
 11
-440.5
 21
-11.0
 31
0.0
  0
LINE
  5
414
330
1F
100
AcDbEntity
  8
0
  6
PHANTOM
 62
     8
370
     0
100
AcDbLine
 10
491.5
 20
-10.0
 30
0.0
 11
491.5
 21
10.0
 31
0.0
  0
LINE
  5
415
330
1F
100
AcDbEntity
  8
0
  6
PHANTOM
 62
     8
370
     0
100
AcDbLine
 10
-491.5
 20
-10.0
 30
0.0
 11
-491.5
 21
10.0
 31
0.0
  0
LINE
  5
416
330
1F
100
AcDbEntity
  8
0
  6
PHANTOM
 62
     8
370
     0
100
AcDbLine
 10
177.2904810111
 20
-22.5384615385
 30
0.0
 11
163.3319625838
 21
-22.5384615385
 31
0.0
  0
LINE
  5
417
330
1F
100
AcDbEntity
  8
0
  6
PHANTOM
 62
     8
370
     0
100
AcDbLine
 10
164.7112217975
 20
-26.2
 30
0.0
 11
175.9112217975
 21
-26.2
 31
0.0
  0
LINE
  5
418
330
1F
100
AcDbEntity
  8
0
  6
PHANTOM
 62
     8
370
     0
100
AcDbLine
 10
91.4792592137
 20
-22.5384615385
 30
0.0
 11
77.5207407863
 21
-22.5384615385
 31
0.0
  0
LINE
  5
419
330
1F
100
AcDbEntity
  8
0
  6
PHANTOM
 62
     8
370
     0
100
AcDbLine
 10
78.9
 20
-26.2
 30
0.0
 11
90.1
 21
-26.2
 31
0.0
  0
LINE
  5
41A
330
1F
100
AcDbEntity
  8
0
  6
PHANTOM
 62
     8
370
     0
100
AcDbLine
 10
548.0384615385
 20
60.4211890898
 30
0.0
 11
548.0384615385
 21
46.4626706625
 31
0.0
  0
LINE
  5
41B
330
1F
100
AcDbEntity
  8
0
  6
PHANTOM
 62
     8
370
     0
100
AcDbLine
 10
551.7
 20
47.8419298761
 30
0.0
 11
551.7
 21
59.0419298761
 31
0.0
  0
LINE
  5
41C
330
1F
100
AcDbEntity
  8
0
  6
PHANTOM
 62
     8
370
     0
100
AcDbLine
 10
-548.0384615385
 20
46.4626706625
 30
0.0
 11
-548.0384615385
 21
60.4211890898
 31
0.0
  0
LINE
  5
41D
330
1F
100
AcDbEntity
  8
0
  6
PHANTOM
 62
     8
370
     0
100
AcDbLine
 10
-551.7
 20
59.0419298761
 30
0.0
 11
-551.7
 21
47.8419298761
 31
0.0
  0
LINE
  5
41E
330
1F
100
AcDbEntity
  8
0
  6
PHANTOM
 62
     8
370
     0
100
AcDbLine
 10
512.0590477449
 20
48.2962913145
 30
0.0
 11
514.1296001057
 21
40.5688847042
 31
0.0
  0
LINE
  5
41F
330
1F
100
AcDbEntity
  8
0
  6
PHANTOM
 62
     8
370
     0
100
AcDbLine
 10
570.4459832914
 20
29.992971973
 30
0.0
 11
535.7413365
 21
40.6032472863
 31
0.0
  0
LINE
  5
420
330
1F
100
AcDbEntity
  8
0
  6
PHANTOM
 62
     8
370
     0
100
AcDbLine
 10
439.0
 20
20.4379690282
 30
0.0
 11
439.0
 21
13.5
 31
0.0
  0
LINE
  5
421
330
1F
100
AcDbEntity
  8
0
  6
PHANTOM
 62
     8
370
     0
100
AcDbLine
 10
514.1296001057
 20
40.5688847042
 30
0.0
 11
439.0
 21
20.4379690282
 31
0.0
  0
LINE
  5
422
330
1F
100
AcDbEntity
  8
0
  6
PHANTOM
 62
     8
370
     0
100
AcDbLine
 10
584.0
 20
0.75
 30
0.0
 11
584.0
 21
10.5071651426
 31
0.0
  0
LINE
  5
423
330
1F
100
AcDbEntity
  8
0
  6
PHANTOM
 62
     8
370
     0
100
AcDbLine
 10
436.9294476392
 20
28.1653756385
 30
0.0
 11
439.0
 21
20.4379690282
 31
0.0
  0
LINE
  5
424
330
1F
100
AcDbEntity
  8
0
  6
PHANTOM
 62
     8
370
     0
100
AcDbLine
 10
439.0
 20
20.4379690282
 30
0.0
 11
431.0
 21
20.4379690282
 31
0.0
  0
LINE
  5
425
330
1F
100
AcDbEntity
  8
0
  6
PHANTOM
 62
     8
370
     0
100
AcDbLine
 10
514.1296001057
 20
-40.5688847041
 30
0.0
 11
512.0590477449
 21
-48.2962913144
 31
0.0
  0
LINE
  5
426
330
1F
100
AcDbEntity
  8
0
  6
PHANTOM
 62
     8
370
     0
100
AcDbLine
 10
535.7413365
 20
-40.6032472863
 30
0.0
 11
570.4459832914
 21
-29.992971973
 31
0.0
  0
LINE
  5
427
330
1F
100
AcDbEntity
  8
0
  6
PHANTOM
 62
     8
370
     0
100
AcDbLine
 10
439.0
 20
-20.4379690281
 30
0.0
 11
436.9294476392
 21
-28.1653756384
 31
0.0
  0
LINE
  5
428
330
1F
100
AcDbEntity
  8
0
  6
PHANTOM
 62
     8
370
     0
100
AcDbLine
 10
439.0
 20
-20.4379690281
 30
0.0
 11
514.1296001057
 21
-40.5688847041
 31
0.0
  0
LINE
  5
429
330
1F
100
AcDbEntity
  8
0
  6
PHANTOM
 62
     8
370
     0
100
AcDbLine
 10
439.0
 20
-13.5
 30
0.0
 11
439.0
 21
-20.4379690281
 31
0.0
  0
LINE
  5
42A
330
1F
100
AcDbEntity
  8
0
  6
PHANTOM
 62
     8
370
     0
100
AcDbLine
 10
439.0
 20
-20.4379690281
 30
0.0
 11
431.0
 21
-20.4379690281
 31
0.0
  0
LINE
  5
42B
330
1F
100
AcDbEntity
  8
0
  6
PHANTOM
 62
     8
370
     0
100
AcDbLine
 10
584.0
 20
-10.5071651426
 30
0.0
 11
584.0
 21
-0.75
 31
0.0
  0
LINE
  5
42C
330
1F
100
AcDbEntity
  8
0
  6
PHANTOM
 62
     8
370
     0
100
AcDbLine
 10
-535.7413365
 20
40.6032472863
 30
0.0
 11
-570.4459832914
 21
29.992971973
 31
0.0
  0
LINE
  5
42D
330
1F
100
AcDbEntity
  8
0
  6
PHANTOM
 62
     8
370
     0
100
AcDbLine
 10
-514.1296001057
 20
40.5688847042
 30
0.0
 11
-512.0590477449
 21
48.2962913145
 31
0.0
  0
LINE
  5
42E
330
1F
100
AcDbEntity
  8
0
  6
PHANTOM
 62
     8
370
     0
100
AcDbLine
 10
-439.0
 20
13.5
 30
0.0
 11
-439.0
 21
20.4379690282
 31
0.0
  0
LINE
  5
42F
330
1F
100
AcDbEntity
  8
0
  6
PHANTOM
 62
     8
370
     0
100
AcDbLine
 10
-439.0
 20
20.4379690282
 30
0.0
 11
-431.0
 21
20.4379690282
 31
0.0
  0
LINE
  5
430
330
1F
100
AcDbEntity
  8
0
  6
PHANTOM
 62
     8
370
     0
100
AcDbLine
 10
-439.0
 20
20.4379690282
 30
0.0
 11
-436.9294476392
 21
28.1653756385
 31
0.0
  0
LINE
  5
431
330
1F
100
AcDbEntity
  8
0
  6
PHANTOM
 62
     8
370
     0
100
AcDbLine
 10
-584.0
 20
10.5071651426
 30
0.0
 11
-584.0
 21
0.75
 31
0.0
  0
LINE
  5
432
330
1F
100
AcDbEntity
  8
0
  6
PHANTOM
 62
     8
370
     0
100
AcDbLine
 10
-439.0
 20
20.4379690282
 30
0.0
 11
-514.1296001057
 21
40.5688847042
 31
0.0
  0
LINE
  5
433
330
1F
100
AcDbEntity
  8
0
  6
PHANTOM
 62
     8
370
     0
100
AcDbLine
 10
-512.0590477449
 20
-48.2962913144
 30
0.0
 11
-514.1296001057
 21
-40.5688847041
 31
0.0
  0
LINE
  5
434
330
1F
100
AcDbEntity
  8
0
  6
PHANTOM
 62
     8
370
     0
100
AcDbLine
 10
-570.4459832914
 20
-29.992971973
 30
0.0
 11
-535.7413365
 21
-40.6032472863
 31
0.0
  0
LINE
  5
435
330
1F
100
AcDbEntity
  8
0
  6
PHANTOM
 62
     8
370
     0
100
AcDbLine
 10
-584.0
 20
-0.75
 30
0.0
 11
-584.0
 21
-10.5071651426
 31
0.0
  0
LINE
  5
436
330
1F
100
AcDbEntity
  8
0
  6
PHANTOM
 62
     8
370
     0
100
AcDbLine
 10
-439.0
 20
-20.4379690281
 30
0.0
 11
-431.0
 21
-20.4379690281
 31
0.0
  0
LINE
  5
437
330
1F
100
AcDbEntity
  8
0
  6
PHANTOM
 62
     8
370
     0
100
AcDbLine
 10
-439.0
 20
-20.4379690281
 30
0.0
 11
-439.0
 21
-13.5
 31
0.0
  0
LINE
  5
438
330
1F
100
AcDbEntity
  8
0
  6
PHANTOM
 62
     8
370
     0
100
AcDbLine
 10
-514.1296001057
 20
-40.5688847041
 30
0.0
 11
-439.0
 21
-20.4379690281
 31
0.0
  0
LINE
  5
439
330
1F
100
AcDbEntity
  8
0
  6
PHANTOM
 62
     8
370
     0
100
AcDbLine
 10
-436.9294476392
 20
-28.1653756384
 30
0.0
 11
-439.0
 21
-20.4379690281
 31
0.0
  0
LINE
  5
43A
330
1F
100
AcDbEntity
  8
0
  6
PHANTOM
 62
     8
370
     0
100
AcDbLine
 10
496.2630464384
 20
-13.5
 30
0.0
 11
496.0
 21
-12.9252659547
 31
0.0
  0
LINE
  5
43B
330
1F
100
AcDbEntity
  8
0
  6
PHANTOM
 62
     8
370
     0
100
AcDbLine
 10
496.0
 20
12.9252659547
 30
0.0
 11
496.2630464384
 21
13.5
 31
0.0
  0
LINE
  5
43C
330
1F
100
AcDbEntity
  8
0
  6
PHANTOM
 62
     8
370
     0
100
AcDbLine
 10
505.5
 20
61.4419298761
 30
0.0
 11
505.5
 21
48.9419298761
 31
0.0
  0
LINE
  5
43D
330
1F
100
AcDbEntity
  8
0
  6
PHANTOM
 62
     8
370
     0
100
AcDbLine
 10
519.5
 20
63.4419298761
 30
0.0
 11
507.5
 21
63.4419298761
 31
0.0
  0
LINE
  5
43E
330
1F
100
AcDbEntity
  8
0
  6
PHANTOM
 62
     8
370
     0
100
AcDbLine
 10
519.5
 20
49.6965793592
 30
0.0
 11
519.5
 21
63.4419298761
 31
0.0
  0
LINE
  5
43F
330
1F
100
AcDbEntity
  8
0
  6
PHANTOM
 62
     8
370
     0
100
AcDbLine
 10
530.5
 20
63.4419298761
 30
0.0
 11
530.5
 21
49.6965793592
 31
0.0
  0
LINE
  5
440
330
1F
100
AcDbEntity
  8
0
  6
PHANTOM
 62
     8
370
     0
100
AcDbLine
 10
542.5
 20
63.4419298761
 30
0.0
 11
530.5
 21
63.4419298761
 31
0.0
  0
LINE
  5
441
330
1F
100
AcDbEntity
  8
0
  6
PHANTOM
 62
     8
370
     0
100
AcDbLine
 10
544.5
 20
48.9419298761
 30
0.0
 11
544.5
 21
61.4419298761
 31
0.0
  0
LINE
  5
442
330
1F
100
AcDbEntity
  8
0
  6
PHANTOM
 62
     8
370
     0
100
AcDbLine
 10
570.7438520459
 20
-0.75
 30
0.0
 11
570.7438520459
 21
0.75
 31
0.0
  0
LINE
  5
443
330
1F
100
AcDbEntity
  8
0
  6
PHANTOM
 62
     8
370
     0
100
AcDbLine
 10
543.0
 20
-78.2664991614
 30
0.0
 11
543.0
 21
-86.3037245869
 31
0.0
  0
LINE
  5
444
330
1F
100
AcDbEntity
  8
0
  6
PHANTOM
 62
     8
370
     0
100
AcDbLine
 10
507.0
 20
-86.3037245869
 30
0.0
 11
507.0
 21
-85.1742410018
 31
0.0
  0
LINE
  5
445
330
1F
100
AcDbEntity
  8
0
  6
PHANTOM
 62
     8
370
     0
100
AcDbLine
 10
560.7261676644
 20
-67.2059279266
 30
0.0
 11
563.6228839615
 21
-67.9863346757
 31
0.0
  0
LINE
  5
446
330
1F
100
AcDbEntity
  8
0
  6
PHANTOM
 62
     8
370
     0
100
AcDbLine
 10
544.5
 20
48.9419298761
 30
0.0
 11
547.5
 21
48.9419298761
 31
0.0
  0
LINE
  5
447
330
1F
100
AcDbEntity
  8
0
  6
PHANTOM
 62
     8
370
     0
100
AcDbLine
 10
541.39471554
 20
-75.8750239982
 30
0.0
 11
543.3333333333
 21
-77.1609575646
 31
0.0
  0
LINE
  5
448
330
1F
100
AcDbEntity
  8
0
  6
PHANTOM
 62
     8
370
     0
100
AcDbLine
 10
546.1428571429
 20
-87.9450282002
 30
0.0
 11
547.8571428571
 21
-90.4069836201
 31
0.0
  0
LINE
  5
449
330
1F
100
AcDbEntity
  8
0
  6
PHANTOM
 62
     8
370
     0
100
AcDbLine
 10
543.0
 20
-78.2664991614
 30
0.0
 11
540.0
 21
-78.2664991614
 31
0.0
  0
LINE
  5
44A
330
1F
100
AcDbEntity
  8
0
  6
PHANTOM
 62
     8
370
     0
100
AcDbLine
 10
540.0
 20
-86.3037245869
 30
0.0
 11
543.0
 21
-86.3037245869
 31
0.0
  0
LINE
  5
44B
330
1F
100
AcDbEntity
  8
0
  6
PHANTOM
 62
     8
370
     0
100
AcDbLine
 10
542.5
 20
66.4419298761
 30
0.0
 11
542.5
 21
63.4419298761
 31
0.0
  0
LINE
  5
44C
330
1F
100
AcDbEntity
  8
0
  6
PHANTOM
 62
     8
370
     0
100
AcDbLine
 10
544.5
 20
61.4419298761
 30
0.0
 11
547.5
 21
61.4419298761
 31
0.0
  0
LINE
  5
44D
330
1F
100
AcDbEntity
  8
0
  6
PHANTOM
 62
     8
370
     0
100
AcDbLine
 10
528.5
 20
66.4419298761
 30
0.0
 11
530.5
 21
63.4419298761
 31
0.0
  0
LINE
  5
44E
330
1F
100
AcDbEntity
  8
0
  6
PHANTOM
 62
     8
370
     0
100
AcDbLine
 10
530.5
 20
63.4419298761
 30
0.0
 11
527.5
 21
65.4419298761
 31
0.0
  0
LINE
  5
44F
330
1F
100
AcDbEntity
  8
0
  6
PHANTOM
 62
     8
370
     0
100
AcDbLine
 10
489.2738323356
 20
-67.2059279266
 30
0.0
 11
486.3771160385
 21
-67.9863346757
 31
0.0
  0
LINE
  5
450
330
1F
100
AcDbEntity
  8
0
  6
PHANTOM
 62
     8
370
     0
100
AcDbLine
 10
502.1428571429
 20
-90.4069836201
 30
0.0
 11
503.8571428571
 21
-87.9450282002
 31
0.0
  0
LINE
  5
451
330
1F
100
AcDbEntity
  8
0
  6
PHANTOM
 62
     8
370
     0
100
AcDbLine
 10
507.5
 20
66.4419298761
 30
0.0
 11
507.5
 21
63.4419298761
 31
0.0
  0
LINE
  5
452
330
1F
100
AcDbEntity
  8
0
  6
PHANTOM
 62
     8
370
     0
100
AcDbLine
 10
502.5
 20
61.4419298761
 30
0.0
 11
505.5
 21
61.4419298761
 31
0.0
  0
LINE
  5
453
330
1F
100
AcDbEntity
  8
0
  6
PHANTOM
 62
     8
370
     0
100
AcDbLine
 10
502.5
 20
48.9419298761
 30
0.0
 11
505.5
 21
48.9419298761
 31
0.0
  0
LINE
  5
454
330
1F
100
AcDbEntity
  8
0
  6
PHANTOM
 62
     8
370
     0
100
AcDbLine
 10
507.0
 20
-86.3037245869
 30
0.0
 11
508.9477912287
 21
-86.3037245869
 31
0.0
  0
LINE
  5
455
330
1F
100
AcDbEntity
  8
0
  6
PHANTOM
 62
     8
370
     0
100
AcDbLine
 10
519.5
 20
63.4419298761
 30
0.0
 11
521.5
 21
66.4419298761
 31
0.0
  0
LINE
  5
456
330
1F
100
AcDbEntity
  8
0
  6
PHANTOM
 62
     8
370
     0
100
AcDbLine
 10
522.5
 20
65.4419298761
 30
0.0
 11
519.5
 21
63.4419298761
 31
0.0
  0
LINE
  5
457
330
1F
100
AcDbEntity
  8
0
  6
PHANTOM
 62
     8
370
     0
100
AcDbLine
 10
-496.2630464384
 20
13.5
 30
0.0
 11
-496.0
 21
12.9252659547
 31
0.0
  0
LINE
  5
458
330
1F
100
AcDbEntity
  8
0
  6
PHANTOM
 62
     8
370
     0
100
AcDbLine
 10
-496.0
 20
-12.9252659547
 30
0.0
 11
-496.2630464384
 21
-13.5
 31
0.0
  0
LINE
  5
459
330
1F
100
AcDbEntity
  8
0
  6
PHANTOM
 62
     8
370
     0
100
AcDbLine
 10
-505.5
 20
48.9419298761
 30
0.0
 11
-505.5
 21
61.4419298761
 31
0.0
  0
LINE
  5
45A
330
1F
100
AcDbEntity
  8
0
  6
PHANTOM
 62
     8
370
     0
100
AcDbLine
 10
-505.5
 20
61.4419298761
 30
0.0
 11
-502.5
 21
61.4419298761
 31
0.0
  0
LINE
  5
45B
330
1F
100
AcDbEntity
  8
0
  6
PHANTOM
 62
     8
370
     0
100
AcDbLine
 10
-505.5
 20
48.9419298761
 30
0.0
 11
-502.5
 21
48.9419298761
 31
0.0
  0
LINE
  5
45C
330
1F
100
AcDbEntity
  8
0
  6
PHANTOM
 62
     8
370
     0
100
AcDbLine
 10
-507.0
 20
-80.8745078664
 30
0.0
 11
-507.0
 21
-86.3037245869
 31
0.0
  0
LINE
  5
45D
330
1F
100
AcDbEntity
  8
0
  6
PHANTOM
 62
     8
370
     0
100
AcDbLine
 10
-510.0
 20
-86.3037245869
 30
0.0
 11
-507.0
 21
-86.3037245869
 31
0.0
  0
LINE
  5
45E
330
1F
100
AcDbEntity
  8
0
  6
PHANTOM
 62
     8
370
     0
100
AcDbLine
 10
-507.5
 20
66.4419298761
 30
0.0
 11
-507.5
 21
63.4419298761
 31
0.0
  0
LINE
  5
45F
330
1F
100
AcDbEntity
  8
0
  6
PHANTOM
 62
     8
370
     0
100
AcDbLine
 10
-570.7438520459
 20
0.75
 30
0.0
 11
-570.7438520459
 21
-0.75
 31
0.0
  0
LINE
  5
460
330
1F
100
AcDbEntity
  8
0
  6
PHANTOM
 62
     8
370
     0
100
AcDbLine
 10
-544.5
 20
61.4419298761
 30
0.0
 11
-544.5
 21
48.9419298761
 31
0.0
  0
LINE
  5
461
330
1F
100
AcDbEntity
  8
0
  6
PHANTOM
 62
     8
370
     0
100
AcDbLine
 10
-530.5
 20
63.4419298761
 30
0.0
 11
-542.5
 21
63.4419298761
 31
0.0
  0
LINE
  5
462
330
1F
100
AcDbEntity
  8
0
  6
PHANTOM
 62
     8
370
     0
100
AcDbLine
 10
-530.5
 20
49.6965793592
 30
0.0
 11
-530.5
 21
63.4419298761
 31
0.0
  0
LINE
  5
463
330
1F
100
AcDbEntity
  8
0
  6
PHANTOM
 62
     8
370
     0
100
AcDbLine
 10
-519.5
 20
63.4419298761
 30
0.0
 11
-519.5
 21
49.6965793592
 31
0.0
  0
LINE
  5
464
330
1F
100
AcDbEntity
  8
0
  6
PHANTOM
 62
     8
370
     0
100
AcDbLine
 10
-507.5
 20
63.4419298761
 30
0.0
 11
-519.5
 21
63.4419298761
 31
0.0
  0
LINE
  5
465
330
1F
100
AcDbEntity
  8
0
  6
PHANTOM
 62
     8
370
     0
100
AcDbLine
 10
-543.0
 20
-86.3037245869
 30
0.0
 11
-543.0
 21
-80.8745078664
 31
0.0
  0
LINE
  5
466
330
1F
100
AcDbEntity
  8
0
  6
PHANTOM
 62
     8
370
     0
100
AcDbLine
 10
-519.5
 20
63.4419298761
 30
0.0
 11
-522.5
 21
65.4419298761
 31
0.0
  0
LINE
  5
467
330
1F
100
AcDbEntity
  8
0
  6
PHANTOM
 62
     8
370
     0
100
AcDbLine
 10
-521.5
 20
66.4419298761
 30
0.0
 11
-519.5
 21
63.4419298761
 31
0.0
  0
LINE
  5
468
330
1F
100
AcDbEntity
  8
0
  6
PHANTOM
 62
     8
370
     0
100
AcDbLine
 10
-489.2738323356
 20
-67.2059279266
 30
0.0
 11
-486.3771160385
 21
-67.9863346757
 31
0.0
  0
LINE
  5
469
330
1F
100
AcDbEntity
  8
0
  6
PHANTOM
 62
     8
370
     0
100
AcDbLine
 10
-503.8571428571
 20
-87.9450282002
 30
0.0
 11
-502.1428571429
 21
-90.4069836201
 31
0.0
  0
LINE
  5
46A
330
1F
100
AcDbEntity
  8
0
  6
PHANTOM
 62
     8
370
     0
100
AcDbLine
 10
-547.5
 20
61.4419298761
 30
0.0
 11
-544.5
 21
61.4419298761
 31
0.0
  0
LINE
  5
46B
330
1F
100
AcDbEntity
  8
0
  6
PHANTOM
 62
     8
370
     0
100
AcDbLine
 10
-547.5
 20
48.9419298761
 30
0.0
 11
-544.5
 21
48.9419298761
 31
0.0
  0
LINE
  5
46C
330
1F
100
AcDbEntity
  8
0
  6
PHANTOM
 62
     8
370
     0
100
AcDbLine
 10
-560.7261676644
 20
-67.2059279266
 30
0.0
 11
-563.6228839615
 21
-67.9863346757
 31
0.0
  0
LINE
  5
46D
330
1F
100
AcDbEntity
  8
0
  6
PHANTOM
 62
     8
370
     0
100
AcDbLine
 10
-547.8571428571
 20
-90.4069836201
 30
0.0
 11
-546.1428571429
 21
-87.9450282002
 31
0.0
  0
LINE
  5
46E
330
1F
100
AcDbEntity
  8
0
  6
PHANTOM
 62
     8
370
     0
100
AcDbLine
 10
-542.5
 20
66.4419298761
 30
0.0
 11
-542.5
 21
63.4419298761
 31
0.0
  0
LINE
  5
46F
330
1F
100
AcDbEntity
  8
0
  6
PHANTOM
 62
     8
370
     0
100
AcDbLine
 10
-530.5
 20
63.4419298761
 30
0.0
 11
-528.5
 21
66.4419298761
 31
0.0
  0
LINE
  5
470
330
1F
100
AcDbEntity
  8
0
  6
PHANTOM
 62
     8
370
     0
100
AcDbLine
 10
-543.0
 20
-86.3037245869
 30
0.0
 11
-540.0
 21
-86.3037245869
 31
0.0
  0
LINE
  5
471
330
1F
100
AcDbEntity
  8
0
  6
PHANTOM
 62
     8
370
     0
100
AcDbLine
 10
-527.5
 20
65.4419298761
 30
0.0
 11
-530.5
 21
63.4419298761
 31
0.0
  0
LINE
  5
472
330
1F
100
AcDbEntity
  8
0
  6
PHANTOM
 62
     8
370
     0
100
AcDbLine
 10
492.4
 20
47.9419298761
 30
0.0
 11
492.4
 21
58.9419298761
 31
0.0
  0
LINE
  5
473
330
1F
100
AcDbEntity
  8
0
  6
PHANTOM
 62
     8
370
     0
100
AcDbLine
 10
-492.4
 20
58.9419298761
 30
0.0
 11
-492.4
 21
47.9419298761
 31
0.0
  0
LINE
  5
474
330
1F
100
AcDbEntity
  8
0
  6
PHANTOM
 62
     8
370
     0
100
AcDbLine
 10
-316.3971189998
 20
22.0
 30
0.0
 11
-316.3971189998
 21
10.0
 31
0.0
  0
LINE
  5
475
330
1F
100
AcDbEntity
  8
0
  6
PHANTOM
 62
     8
370
     0
100
AcDbLine
 10
281.3153850853
 20
22.0
 30
0.0
 11
281.3153850853
 21
10.0
 31
0.0
  0
LINE
  5
476
330
1F
100
AcDbEntity
  8
0
  6
PHANTOM
 62
     8
370
     0
100
AcDbLine
 10
335.6938523075
 20
22.0
 30
0.0
 11
335.6938523075
 21
10.0
 31
0.0
  0
LINE
  5
477
330
1F
100
AcDbEntity
  8
0
  6
PHANTOM
 62
     8
370
     0
100
AcDbLine
 10
-370.775586222
 20
22.0
 30
0.0
 11
-370.775586222
 21
10.0
 31
0.0
  0
LINE
  5
478
330
1F
100
AcDbEntity
  8
0
  6
PHANTOM
 62
     8
370
     0
100
AcDbLine
 10
423.8784672222
 20
22.0
 30
0.0
 11
423.8784672222
 21
10.0
 31
0.0
  0
LINE
  5
479
330
1F
100
AcDbEntity
  8
0
  6
PHANTOM
 62
     8
370
     0
100
AcDbLine
 10
-428.8784672222
 20
22.0
 30
0.0
 11
-428.8784672222
 21
10.0
 31
0.0
  0
ARC
  5
47A
330
1F
100
AcDbEntity
  8
0
  6
Continuous
 62
     7
370
    15
100
AcDbCircle
 10
65.1798619357
 20
22.1179054603
 30
0.0
 40
19.99999992654675
100
AcDbArc
 50
59.7246517696
 51
83.2633915297
  0
ARC
  5
47B
330
1F
100
AcDbEntity
  8
0
  6
Continuous
 62
     7
370
    15
100
AcDbCircle
 10
66.8720734651
 20
22.1179053864
 30
0.0
 40
20.00000000290995
100
AcDbArc
 50
96.7366085157
 51
133.8128706151
  0
ARC
  5
47C
330
1F
100
AcDbEntity
  8
0
  6
Continuous
 62
     7
370
    15
100
AcDbCircle
 10
-338.2880348544
 20
25.77899309
 30
0.0
 40
15.00000000000027
100
AcDbArc
 50
1.9905001748
 51
42.8842551329
  0
ARC
  5
47D
330
1F
100
AcDbEntity
  8
0
  6
Continuous
 62
     7
370
    15
100
AcDbCircle
 10
-342.3061368624
 20
25.77899309
 30
0.0
 40
15.00000000000062
100
AcDbArc
 50
137.1157448671
 51
178.0094998252
  0
ARC
  5
47E
330
1F
100
AcDbEntity
  8
0
  6
Continuous
 62
     7
370
    15
100
AcDbCircle
 10
-341.143191633
 20
22.1179053917
 30
0.0
 40
19.99999999733922
100
AcDbArc
 50
46.1871293795
 51
83.2633914896
  0
ARC
  5
47F
330
1F
100
AcDbEntity
  8
0
  6
Continuous
 62
     7
370
    15
100
AcDbCircle
 10
-339.4509800814
 20
22.1179053864
 30
0.0
 40
20.0000000029107
100
AcDbArc
 50
96.7366085157
 51
133.8128706151
  0
ARC
  5
480
330
1F
100
AcDbEntity
  8
0
  6
Continuous
 62
     7
370
    15
100
AcDbCircle
 10
-400.490948996
 20
25.77899309
 30
0.0
 40
15.00000000000027
100
AcDbArc
 50
1.9905001748
 51
42.8842551329
  0
ARC
  5
481
330
1F
100
AcDbEntity
  8
0
  6
Continuous
 62
     7
370
    15
100
AcDbCircle
 10
-404.509051004
 20
25.77899309
 30
0.0
 40
15.00000000000057
100
AcDbArc
 50
137.1157448671
 51
178.0094998252
  0
ARC
  5
482
330
1F
100
AcDbEntity
  8
0
  6
Continuous
 62
     7
370
    15
100
AcDbCircle
 10
-367.490948996
 20
25.77899309
 30
0.0
 40
14.99999999999042
100
AcDbArc
 50
32.9133018666
 51
42.8842551329
  0
ARC
  5
483
330
1F
100
AcDbEntity
  8
0
  6
Continuous
 62
     7
370
    15
100
AcDbCircle
 10
-371.509051004
 20
25.77899309
 30
0.0
 40
14.99999999999992
100
AcDbArc
 50
137.1157448671
 51
165.0304558624
  0
ARC
  5
484
330
1F
100
AcDbEntity
  8
0
  6
Continuous
 62
     7
370
    15
100
AcDbCircle
 10
-157.490948996
 20
25.77899309
 30
0.0
 40
15.00000000000004
100
AcDbArc
 50
1.9905001748
 51
42.8842551329
  0
ARC
  5
485
330
1F
100
AcDbEntity
  8
0
  6
Continuous
 62
     7
370
    15
100
AcDbCircle
 10
64.0169166841
 20
25.77899309
 30
0.0
 40
15.00000000000001
100
AcDbArc
 50
137.1157448671
 51
178.0094998252
  0
ARC
  5
486
330
1F
100
AcDbEntity
  8
0
  6
Continuous
 62
     7
370
    15
100
AcDbCircle
 10
401.509051004
 20
25.77899309
 30
0.0
 40
14.99999999999986
100
AcDbArc
 50
1.9905001748
 51
42.8842551329
  0
ARC
  5
487
330
1F
100
AcDbEntity
  8
0
  6
Continuous
 62
     7
370
    15
100
AcDbCircle
 10
397.490948996
 20
25.77899309
 30
0.0
 40
15.00000000000033
100
AcDbArc
 50
137.1157448671
 51
178.0094998252
  0
ARC
  5
488
330
1F
100
AcDbEntity
  8
0
  6
Continuous
 62
     7
370
    15
100
AcDbCircle
 10
307.224402948
 20
25.77899309
 30
0.0
 40
14.99999999999975
100
AcDbArc
 50
1.9905001748
 51
42.8842551329
  0
ARC
  5
489
330
1F
100
AcDbEntity
  8
0
  6
Continuous
 62
     7
370
    15
100
AcDbCircle
 10
303.2063009399
 20
25.77899309
 30
0.0
 40
14.99999999999998
100
AcDbArc
 50
137.1157448671
 51
178.0094998252
  0
ARC
  5
48A
330
1F
100
AcDbEntity
  8
0
  6
Continuous
 62
     7
370
    15
100
AcDbCircle
 10
-403.3461057745
 20
22.1179053917
 30
0.0
 40
19.99999999733957
100
AcDbArc
 50
46.1871293795
 51
83.2633914896
  0
ARC
  5
48B
330
1F
100
AcDbEntity
  8
0
  6
Continuous
 62
     7
370
    15
100
AcDbCircle
 10
-401.6538942229
 20
22.1179053864
 30
0.0
 40
20.00000000291032
100
AcDbArc
 50
96.7366085157
 51
133.8128706151
  0
ARC
  5
48C
330
1F
100
AcDbEntity
  8
0
  6
Continuous
 62
     7
370
    15
100
AcDbCircle
 10
4.5595051242
 20
22.1179053917
 30
0.0
 40
19.99999999733903
100
AcDbArc
 50
46.1871293795
 51
83.2633914896
  0
ARC
  5
48D
330
1F
100
AcDbEntity
  8
0
  6
Continuous
 62
     7
370
    15
100
AcDbCircle
 10
6.2517166758
 20
22.1179053864
 30
0.0
 40
20.00000000290994
100
AcDbArc
 50
96.7366085157
 51
133.8128706151
  0
ARC
  5
48E
330
1F
100
AcDbEntity
  8
0
  6
Continuous
 62
     7
370
    15
100
AcDbCircle
 10
169.4651160229
 20
22.1179053917
 30
0.0
 40
19.9999999973391
100
AcDbArc
 50
46.1871293795
 51
83.2633914896
  0
ARC
  5
48F
330
1F
100
AcDbEntity
  8
0
  6
Continuous
 62
     7
370
    15
100
AcDbCircle
 10
171.1573275745
 20
22.1179053864
 30
0.0
 40
20.00000000290978
100
AcDbArc
 50
96.7366085157
 51
133.8128706151
  0
ARC
  5
490
330
1F
100
AcDbEntity
  8
0
  6
Continuous
 62
     7
370
    15
100
AcDbCircle
 10
-165.3461057745
 20
22.1179053917
 30
0.0
 40
19.99999999733907
100
AcDbArc
 50
46.1871293795
 51
83.2633914896
  0
ARC
  5
491
330
1F
100
AcDbEntity
  8
0
  6
Continuous
 62
     7
370
    15
100
AcDbCircle
 10
-163.6538942229
 20
22.1179053864
 30
0.0
 40
20.00000000290953
100
AcDbArc
 50
96.7366085157
 51
133.8128706151
  0
ARC
  5
492
330
1F
100
AcDbEntity
  8
0
  6
Continuous
 62
     7
370
    15
100
AcDbCircle
 10
83.6538942255
 20
22.1179053917
 30
0.0
 40
19.99999999733901
100
AcDbArc
 50
46.1871293795
 51
83.2633914896
  0
ARC
  5
493
330
1F
100
AcDbEntity
  8
0
  6
Continuous
 62
     7
370
    15
100
AcDbCircle
 10
85.3461057771
 20
22.1179053864
 30
0.0
 40
20.00000000291003
100
AcDbArc
 50
96.7366085157
 51
133.8128706151
  0
ARC
  5
494
330
1F
100
AcDbEntity
  8
0
  6
Continuous
 62
     7
370
    15
100
AcDbCircle
 10
-346.7778265568
 20
-22.5
 30
0.0
 40
0.5000000000000222
100
AcDbArc
 50
90.0
 51
184.4117257858
  0
ARC
  5
495
330
1F
100
AcDbEntity
  8
0
  6
Continuous
 62
     7
370
    15
100
AcDbCircle
 10
-333.81634516
 20
-22.5
 30
0.0
 40
0.4999999999999289
100
AcDbArc
 50
355.5882742142
 51
90.0
  0
ARC
  5
496
330
1F
100
AcDbEntity
  8
0
  6
Continuous
 62
     7
370
    15
100
AcDbCircle
 10
-340.2970858584
 20
-22.0
 30
0.0
 40
6.999999999999815
100
AcDbArc
 50
184.4117257858
 51
216.8698976458
  0
ARC
  5
497
330
1F
100
AcDbEntity
  8
0
  6
Continuous
 62
     7
370
    15
100
AcDbCircle
 10
-340.2970858584
 20
-22.0
 30
0.0
 40
6.999999999999104
100
AcDbArc
 50
323.1301023542
 51
355.5882742142
  0
ARC
  5
498
330
1F
100
AcDbEntity
  8
0
  6
Continuous
 62
     7
370
    15
100
AcDbCircle
 10
-335.0970858584
 20
-25.9
 30
0.0
 40
0.50000000000012
100
AcDbArc
 50
270.0
 51
323.1301023542
  0
ARC
  5
499
330
1F
100
AcDbEntity
  8
0
  6
Continuous
 62
     7
370
    15
100
AcDbCircle
 10
-345.4970858584
 20
-25.9
 30
0.0
 40
0.5000000000000149
100
AcDbArc
 50
216.8698976458
 51
270.0
  0
ARC
  5
49A
330
1F
100
AcDbEntity
  8
0
  6
Continuous
 62
     7
370
    15
100
AcDbCircle
 10
-408.9807406984
 20
-22.5
 30
0.0
 40
0.499999999999968
100
AcDbArc
 50
90.0
 51
184.4117257858
  0
ARC
  5
49B
330
1F
100
AcDbEntity
  8
0
  6
Continuous
 62
     7
370
    15
100
AcDbCircle
 10
-396.0192593016
 20
-22.5
 30
0.0
 40
0.4999999999999289
100
AcDbArc
 50
355.5882742142
 51
90.0
  0
ARC
  5
49C
330
1F
100
AcDbEntity
  8
0
  6
Continuous
 62
     7
370
    15
100
AcDbCircle
 10
-402.5
 20
-22.0
 30
0.0
 40
6.999999999999815
100
AcDbArc
 50
184.4117257858
 51
216.8698976458
  0
ARC
  5
49D
330
1F
100
AcDbEntity
  8
0
  6
Continuous
 62
     7
370
    15
100
AcDbCircle
 10
-402.5
 20
-22.0
 30
0.0
 40
6.99999999999916
100
AcDbArc
 50
323.1301023542
 51
355.5882742142
  0
ARC
  5
49E
330
1F
100
AcDbEntity
  8
0
  6
Continuous
 62
     7
370
    15
100
AcDbCircle
 10
-397.3
 20
-25.9
 30
0.0
 40
0.5000000000001655
100
AcDbArc
 50
270.0
 51
323.1301023542
  0
ARC
  5
49F
330
1F
100
AcDbEntity
  8
0
  6
Continuous
 62
     7
370
    15
100
AcDbCircle
 10
-407.7
 20
-25.9
 30
0.0
 40
0.4999999999999759
100
AcDbArc
 50
216.8698976458
 51
270.0
  0
ARC
  5
4A0
330
1F
100
AcDbEntity
  8
0
  6
Continuous
 62
     7
370
    15
100
AcDbCircle
 10
-375.9807406984
 20
-22.5
 30
0.0
 40
0.5000000000001279
100
AcDbArc
 50
90.0
 51
184.4117257858
  0
ARC
  5
4A1
330
1F
100
AcDbEntity
  8
0
  6
Continuous
 62
     7
370
    15
100
AcDbCircle
 10
-363.0192593016
 20
-22.5
 30
0.0
 40
0.5000000000000213
100
AcDbArc
 50
355.5882742142
 51
90.0
  0
ARC
  5
4A2
330
1F
100
AcDbEntity
  8
0
  6
Continuous
 62
     7
370
    15
100
AcDbCircle
 10
-369.5
 20
-22.0
 30
0.0
 40
6.999999999998762
100
AcDbArc
 50
184.4117257858
 51
216.8698976458
  0
ARC
  5
4A3
330
1F
100
AcDbEntity
  8
0
  6
Continuous
 62
     7
370
    15
100
AcDbCircle
 10
-369.5
 20
-22.0
 30
0.0
 40
7.000000000000508
100
AcDbArc
 50
323.1301023542
 51
355.5882742142
  0
ARC
  5
4A4
330
1F
100
AcDbEntity
  8
0
  6
Continuous
 62
     7
370
    15
100
AcDbCircle
 10
-364.3
 20
-25.9
 30
0.0
 40
0.5000000000001563
100
AcDbArc
 50
270.0
 51
323.1301023542
  0
ARC
  5
4A5
330
1F
100
AcDbEntity
  8
0
  6
Continuous
 62
     7
370
    15
100
AcDbCircle
 10
-374.7
 20
-25.9
 30
0.0
 40
0.4999999999996874
100
AcDbArc
 50
216.8698976458
 51
270.0
  0
ARC
  5
4A6
330
1F
100
AcDbEntity
  8
0
  6
Continuous
 62
     7
370
    15
100
AcDbCircle
 10
-153.0192593016
 20
-22.5
 30
0.0
 40
0.4999999999999929
100
AcDbArc
 50
355.5882742142
 51
90.0
  0
ARC
  5
4A7
330
1F
100
AcDbEntity
  8
0
  6
Continuous
 62
     7
370
    15
100
AcDbCircle
 10
-159.5
 20
-22.0
 30
0.0
 40
7.000000000000719
100
AcDbArc
 50
323.1301023542
 51
355.5882742142
  0
ARC
  5
4A8
330
1F
100
AcDbEntity
  8
0
  6
Continuous
 62
     7
370
    15
100
AcDbCircle
 10
-154.3
 20
-25.9
 30
0.0
 40
0.5000000000001165
100
AcDbArc
 50
270.0
 51
323.1301023542
  0
ARC
  5
4A9
330
1F
100
AcDbEntity
  8
0
  6
Continuous
 62
     7
370
    15
100
AcDbCircle
 10
59.5452269897
 20
-22.5
 30
0.0
 40
0.5000000000000391
100
AcDbArc
 50
90.0
 51
184.4117257858
  0
ARC
  5
4AA
330
1F
100
AcDbEntity
  8
0
  6
Continuous
 62
     7
370
    15
100
AcDbCircle
 10
72.5067083865
 20
-22.5
 30
0.0
 40
0.4999999999999786
100
AcDbArc
 50
355.5882742142
 51
90.0
  0
ARC
  5
4AB
330
1F
100
AcDbEntity
  8
0
  6
Continuous
 62
     7
370
    15
100
AcDbCircle
 10
66.0259676881
 20
-22.0
 30
0.0
 40
7.000000000000141
100
AcDbArc
 50
184.4117257858
 51
216.8698976458
  0
ARC
  5
4AC
330
1F
100
AcDbEntity
  8
0
  6
Continuous
 62
     7
370
    15
100
AcDbCircle
 10
66.0259676881
 20
-22.0
 30
0.0
 40
6.999999999999935
100
AcDbArc
 50
323.1301023542
 51
355.5882742142
  0
ARC
  5
4AD
330
1F
100
AcDbEntity
  8
0
  6
Continuous
 62
     7
370
    15
100
AcDbCircle
 10
71.2259676881
 20
-25.9
 30
0.0
 40
0.5000000000001755
100
AcDbArc
 50
270.0
 51
323.1301023541
  0
ARC
  5
4AE
330
1F
100
AcDbEntity
  8
0
  6
Continuous
 62
     7
370
    15
100
AcDbCircle
 10
60.8259676881
 20
-25.9
 30
0.0
 40
0.4999999999999787
100
AcDbArc
 50
216.8698976458
 51
270.0
  0
ARC
  5
4AF
330
1F
100
AcDbEntity
  8
0
  6
Continuous
 62
     7
370
    15
100
AcDbCircle
 10
393.0192593016
 20
-22.5
 30
0.0
 40
0.5000000000000746
100
AcDbArc
 50
90.0
 51
184.4117257858
  0
ARC
  5
4B0
330
1F
100
AcDbEntity
  8
0
  6
Continuous
 62
     7
370
    15
100
AcDbCircle
 10
405.9807406984
 20
-22.5
 30
0.0
 40
0.5000000000000213
100
AcDbArc
 50
355.5882742142
 51
90.0
  0
ARC
  5
4B1
330
1F
100
AcDbEntity
  8
0
  6
Continuous
 62
     7
370
    15
100
AcDbCircle
 10
399.5
 20
-22.0
 30
0.0
 40
7.000000000000173
100
AcDbArc
 50
184.4117257858
 51
216.8698976458
  0
ARC
  5
4B2
330
1F
100
AcDbEntity
  8
0
  6
Continuous
 62
     7
370
    15
100
AcDbCircle
 10
399.5
 20
-22.0
 30
0.0
 40
6.999999999999635
100
AcDbArc
 50
323.1301023542
 51
355.5882742142
  0
ARC
  5
4B3
330
1F
100
AcDbEntity
  8
0
  6
Continuous
 62
     7
370
    15
100
AcDbCircle
 10
404.7
 20
-25.9
 30
0.0
 40
0.4999999999999716
100
AcDbArc
 50
270.0
 51
323.1301023542
  0
ARC
  5
4B4
330
1F
100
AcDbEntity
  8
0
  6
Continuous
 62
     7
370
    15
100
AcDbCircle
 10
394.3
 20
-25.9
 30
0.0
 40
0.5000000000000618
100
AcDbArc
 50
216.8698976458
 51
270.0
  0
ARC
  5
4B5
330
1F
100
AcDbEntity
  8
0
  6
Continuous
 62
     7
370
    15
100
AcDbCircle
 10
298.7346112455
 20
-22.5
 30
0.0
 40
0.5000000000000817
100
AcDbArc
 50
90.0
 51
184.4117257858
  0
ARC
  5
4B6
330
1F
100
AcDbEntity
  8
0
  6
Continuous
 62
     7
370
    15
100
AcDbCircle
 10
311.6960926424
 20
-22.5
 30
0.0
 40
0.4999999999999822
100
AcDbArc
 50
355.5882742142
 51
90.0
  0
ARC
  5
4B7
330
1F
100
AcDbEntity
  8
0
  6
Continuous
 62
     7
370
    15
100
AcDbCircle
 10
305.2153519439
 20
-22.0
 30
0.0
 40
7.00000000000023
100
AcDbArc
 50
184.4117257858
 51
216.8698976458
  0
ARC
  5
4B8
330
1F
100
AcDbEntity
  8
0
  6
Continuous
 62
     7
370
    15
100
AcDbCircle
 10
305.2153519439
 20
-22.0
 30
0.0
 40
6.999999999999691
100
AcDbArc
 50
323.1301023542
 51
355.5882742142
  0
ARC
  5
4B9
330
1F
100
AcDbEntity
  8
0
  6
Continuous
 62
     7
370
    15
100
AcDbCircle
 10
310.4153519439
 20
-25.9
 30
0.0
 40
0.5000000000000853
100
AcDbArc
 50
270.0
 51
323.1301023542
  0
ARC
  5
4BA
330
1F
100
AcDbEntity
  8
0
  6
Continuous
 62
     7
370
    15
100
AcDbCircle
 10
300.0153519439
 20
-25.9
 30
0.0
 40
0.4999999999999609
100
AcDbArc
 50
216.8698976458
 51
270.0
  0
ARC
  5
4BB
330
1F
100
AcDbEntity
  8
0
  6
Continuous
 62
     7
370
    15
100
AcDbCircle
 10
-1.0751297997
 20
-22.5
 30
0.0
 40
0.5000000000000355
100
AcDbArc
 50
90.0
 51
184.4117257858
  0
ARC
  5
4BC
330
1F
100
AcDbEntity
  8
0
  6
Continuous
 62
     7
370
    15
100
AcDbCircle
 10
11.8863515971
 20
-22.5
 30
0.0
 40
0.4999999999999822
100
AcDbArc
 50
355.5882742142
 51
90.0
  0
ARC
  5
4BD
330
1F
100
AcDbEntity
  8
0
  6
Continuous
 62
     7
370
    15
100
AcDbCircle
 10
5.4056108987
 20
-22.0
 30
0.0
 40
6.999999999999971
100
AcDbArc
 50
184.4117257858
 51
216.8698976458
  0
ARC
  5
4BE
330
1F
100
AcDbEntity
  8
0
  6
Continuous
 62
     7
370
    15
100
AcDbCircle
 10
5.4056108987
 20
-22.0
 30
0.0
 40
7.000000000000166
100
AcDbArc
 50
323.1301023542
 51
355.5882742142
  0
ARC
  5
4BF
330
1F
100
AcDbEntity
  8
0
  6
Continuous
 62
     7
370
    15
100
AcDbCircle
 10
10.6056108987
 20
-25.9
 30
0.0
 40
0.5000000000001045
100
AcDbArc
 50
270.0
 51
323.1301023542
  0
ARC
  5
4C0
330
1F
100
AcDbEntity
  8
0
  6
Continuous
 62
     7
370
    15
100
AcDbCircle
 10
0.2056108987
 20
-25.9
 30
0.0
 40
0.4999999999999707
100
AcDbArc
 50
216.8698976458
 51
270.0
  0
ARC
  5
4C1
330
1F
100
AcDbEntity
  8
0
  6
Continuous
 62
     7
370
    15
100
AcDbCircle
 10
-160.3461057745
 20
22.1179053917
 30
0.0
 40
19.99999999733907
100
AcDbArc
 50
46.1871293795
 51
83.2633914896
  0
ARC
  5
4C2
330
1F
100
AcDbEntity
  8
0
  6
Continuous
 62
     7
370
    15
100
AcDbCircle
 10
7.4146619028
 20
25.77899309
 30
0.0
 40
15.00000000000003
100
AcDbArc
 50
1.9905001748
 51
42.8842551329
  0
ARC
  5
4C3
330
1F
100
AcDbEntity
  8
0
  6
Continuous
 62
     7
370
    15
100
AcDbCircle
 10
3.3965598947
 20
25.77899309
 30
0.0
 40
14.99999999999997
100
AcDbArc
 50
137.1157448671
 51
178.0094998252
  0
ARC
  5
4C4
330
1F
100
AcDbEntity
  8
0
  6
Continuous
 62
     7
370
    15
100
AcDbCircle
 10
172.3202728015
 20
25.77899309
 30
0.0
 40
15.0000000000001
100
AcDbArc
 50
1.9905001748
 51
42.8842551329
  0
ARC
  5
4C5
330
1F
100
AcDbEntity
  8
0
  6
Continuous
 62
     7
370
    15
100
AcDbCircle
 10
168.3021707934
 20
25.77899309
 30
0.0
 40
15.00000000000015
100
AcDbArc
 50
137.1157448671
 51
178.0094998252
  0
ARC
  5
4C6
330
1F
100
AcDbEntity
  8
0
  6
Continuous
 62
     7
370
    15
100
AcDbCircle
 10
-162.490948996
 20
25.77899309
 30
0.0
 40
15.00000000000004
100
AcDbArc
 50
1.9905001748
 51
42.8842551329
  0
ARC
  5
4C7
330
1F
100
AcDbEntity
  8
0
  6
Continuous
 62
     7
370
    15
100
AcDbCircle
 10
-166.509051004
 20
25.77899309
 30
0.0
 40
15.00000000000034
100
AcDbArc
 50
137.1157448671
 51
178.0094998252
  0
ARC
  5
4C8
330
1F
100
AcDbEntity
  8
0
  6
Continuous
 62
     7
370
    15
100
AcDbCircle
 10
86.509051004
 20
25.77899309
 30
0.0
 40
15.00000000000008
100
AcDbArc
 50
1.9905001748
 51
42.8842551329
  0
ARC
  5
4C9
330
1F
100
AcDbEntity
  8
0
  6
Continuous
 62
     7
370
    15
100
AcDbCircle
 10
82.490948996
 20
25.77899309
 30
0.0
 40
15.00000000000004
100
AcDbArc
 50
137.1157448671
 51
178.0094998252
  0
ARC
  5
4CA
330
1F
100
AcDbEntity
  8
0
  6
Continuous
 62
     7
370
    15
100
AcDbCircle
 10
398.6538942255
 20
22.1179053917
 30
0.0
 40
19.99999999733902
100
AcDbArc
 50
46.1871293795
 51
83.2633914896
  0
ARC
  5
4CB
330
1F
100
AcDbEntity
  8
0
  6
Continuous
 62
     7
370
    15
100
AcDbCircle
 10
400.3461057771
 20
22.1179053864
 30
0.0
 40
20.00000000291023
100
AcDbArc
 50
96.7366085157
 51
133.8128706151
  0
ARC
  5
4CC
330
1F
100
AcDbEntity
  8
0
  6
Continuous
 62
     7
370
    15
100
AcDbCircle
 10
-370.3461057745
 20
22.1179053917
 30
0.0
 40
19.99999999733922
100
AcDbArc
 50
46.1871293795
 51
83.2633914896
  0
ARC
  5
4CD
330
1F
100
AcDbEntity
  8
0
  6
Continuous
 62
     7
370
    15
100
AcDbCircle
 10
-368.6538942229
 20
22.1179053864
 30
0.0
 40
20.00000000291028
100
AcDbArc
 50
96.7366085157
 51
133.8128706151
  0
ARC
  5
4CE
330
1F
100
AcDbEntity
  8
0
  6
Continuous
 62
     7
370
    15
100
AcDbCircle
 10
163.8304810991
 20
-22.5
 30
0.0
 40
0.5000000000000249
100
AcDbArc
 50
90.0
 51
184.4117257858
  0
ARC
  5
4CF
330
1F
100
AcDbEntity
  8
0
  6
Continuous
 62
     7
370
    15
100
AcDbCircle
 10
176.7919624959
 20
-22.5
 30
0.0
 40
0.4999999999999658
100
AcDbArc
 50
355.5882742142
 51
90.0
  0
ARC
  5
4D0
330
1F
100
AcDbEntity
  8
0
  6
Continuous
 62
     7
370
    15
100
AcDbCircle
 10
170.3112217975
 20
-22.0
 30
0.0
 40
6.999999999998979
100
AcDbArc
 50
184.4117257858
 51
216.8698976458
  0
ARC
  5
4D1
330
1F
100
AcDbEntity
  8
0
  6
Continuous
 62
     7
370
    15
100
AcDbCircle
 10
170.3112217975
 20
-22.0
 30
0.0
 40
7.000000000000279
100
AcDbArc
 50
323.1301023542
 51
355.5882742142
  0
ARC
  5
4D2
330
1F
100
AcDbEntity
  8
0
  6
Continuous
 62
     7
370
    15
100
AcDbCircle
 10
175.5112217975
 20
-25.9
 30
0.0
 40
0.4999999999999822
100
AcDbArc
 50
270.0
 51
323.1301023542
  0
ARC
  5
4D3
330
1F
100
AcDbEntity
  8
0
  6
Continuous
 62
     7
370
    15
100
AcDbCircle
 10
165.1112217975
 20
-25.9
 30
0.0
 40
0.499999999999897
100
AcDbArc
 50
216.8698976458
 51
270.0
  0
ARC
  5
4D4
330
1F
100
AcDbEntity
  8
0
  6
Continuous
 62
     7
370
    15
100
AcDbCircle
 10
-170.9807406984
 20
-22.5
 30
0.0
 40
0.5000000000000746
100
AcDbArc
 50
90.0
 51
184.4117257858
  0
ARC
  5
4D5
330
1F
100
AcDbEntity
  8
0
  6
Continuous
 62
     7
370
    15
100
AcDbCircle
 10
-158.0192593016
 20
-22.5
 30
0.0
 40
0.4999999999999396
100
AcDbArc
 50
355.5882742142
 51
90.0
  0
ARC
  5
4D6
330
1F
100
AcDbEntity
  8
0
  6
Continuous
 62
     7
370
    15
100
AcDbCircle
 10
-164.5
 20
-22.0
 30
0.0
 40
6.999999999999272
100
AcDbArc
 50
184.4117257858
 51
216.8698976458
  0
ARC
  5
4D7
330
1F
100
AcDbEntity
  8
0
  6
Continuous
 62
     7
370
    15
100
AcDbCircle
 10
-164.5
 20
-22.0
 30
0.0
 40
7.000000000000279
100
AcDbArc
 50
323.1301023542
 51
355.5882742142
  0
ARC
  5
4D8
330
1F
100
AcDbEntity
  8
0
  6
Continuous
 62
     7
370
    15
100
AcDbCircle
 10
-159.3
 20
-25.9
 30
0.0
 40
0.5000000000001392
100
AcDbArc
 50
270.0
 51
323.1301023542
  0
ARC
  5
4D9
330
1F
100
AcDbEntity
  8
0
  6
Continuous
 62
     7
370
    15
100
AcDbCircle
 10
-169.7
 20
-25.9
 30
0.0
 40
0.4999999999999652
100
AcDbArc
 50
216.8698976458
 51
270.0
  0
ARC
  5
4DA
330
1F
100
AcDbEntity
  8
0
  6
Continuous
 62
     7
370
    15
100
AcDbCircle
 10
78.0192593016
 20
-22.5
 30
0.0
 40
0.5000000000000107
100
AcDbArc
 50
90.0
 51
184.4117257858
  0
ARC
  5
4DB
330
1F
100
AcDbEntity
  8
0
  6
Continuous
 62
     7
370
    15
100
AcDbCircle
 10
90.9807406984
 20
-22.5
 30
0.0
 40
0.4999999999999929
100
AcDbArc
 50
355.5882742142
 51
90.0
  0
ARC
  5
4DC
330
1F
100
AcDbEntity
  8
0
  6
Continuous
 62
     7
370
    15
100
AcDbCircle
 10
84.5
 20
-22.0
 30
0.0
 40
7.000000000000182
100
AcDbArc
 50
184.4117257858
 51
216.8698976458
  0
ARC
  5
4DD
330
1F
100
AcDbEntity
  8
0
  6
Continuous
 62
     7
370
    15
100
AcDbCircle
 10
84.5
 20
-22.0
 30
0.0
 40
6.999999999999877
100
AcDbArc
 50
323.1301023542
 51
355.5882742142
  0
ARC
  5
4DE
330
1F
100
AcDbEntity
  8
0
  6
Continuous
 62
     7
370
    15
100
AcDbCircle
 10
89.7
 20
-25.9
 30
0.0
 40
0.5000000000001243
100
AcDbArc
 50
270.0
 51
323.1301023542
  0
ARC
  5
4DF
330
1F
100
AcDbEntity
  8
0
  6
Continuous
 62
     7
370
    15
100
AcDbCircle
 10
79.3
 20
-25.9
 30
0.0
 40
0.4999999999999545
100
AcDbArc
 50
216.8698976458
 51
270.0
  0
ARC
  5
4E0
330
1F
100
AcDbEntity
  8
0
  6
Continuous
 62
     7
370
    15
100
AcDbCircle
 10
548.0
 20
46.9611891777
 30
0.0
 40
0.5000000000033156
100
AcDbArc
 50
246.7015880055
 51
274.4117257857
  0
ARC
  5
4E1
330
1F
100
AcDbEntity
  8
0
  6
Continuous
 62
     7
370
    15
100
AcDbCircle
 10
548.0
 20
59.9226705745
 30
0.0
 40
0.4999999999997737
100
AcDbArc
 50
85.5882742142
 51
180.0
  0
ARC
  5
4E2
330
1F
100
AcDbEntity
  8
0
  6
Continuous
 62
     7
370
    15
100
AcDbCircle
 10
547.5
 20
53.4419298761
 30
0.0
 40
6.999999999999381
100
AcDbArc
 50
53.1301023542
 51
85.5882742142
  0
ARC
  5
4E3
330
1F
100
AcDbEntity
  8
0
  6
Continuous
 62
     7
370
    15
100
AcDbCircle
 10
547.5
 20
53.4419298761
 30
0.0
 40
6.999999999999107
100
AcDbArc
 50
274.4117257858
 51
306.8698976458
  0
ARC
  5
4E4
330
1F
100
AcDbEntity
  8
0
  6
Continuous
 62
     7
370
    15
100
AcDbCircle
 10
551.4
 20
58.6419298761
 30
0.0
 40
0.5000000000001307
100
AcDbArc
 50
0.0
 51
53.1301023542
  0
ARC
  5
4E5
330
1F
100
AcDbEntity
  8
0
  6
Continuous
 62
     7
370
    15
100
AcDbCircle
 10
551.4
 20
48.2419298761
 30
0.0
 40
0.4999999999992383
100
AcDbArc
 50
306.8698976458
 51
0.0
  0
ARC
  5
4E6
330
1F
100
AcDbEntity
  8
0
  6
Continuous
 62
     7
370
    15
100
AcDbCircle
 10
-548.0
 20
59.9226705745
 30
0.0
 40
0.5
100
AcDbArc
 50
360.0
 51
94.4117257858
  0
ARC
  5
4E7
330
1F
100
AcDbEntity
  8
0
  6
Continuous
 62
     7
370
    15
100
AcDbCircle
 10
-548.0
 20
46.9611891777
 30
0.0
 40
0.4999999999996724
100
AcDbArc
 50
265.5882742142
 51
293.2984119943
  0
ARC
  5
4E8
330
1F
100
AcDbEntity
  8
0
  6
Continuous
 62
     7
370
    15
100
AcDbCircle
 10
-547.5
 20
53.4419298761
 30
0.0
 40
6.999999999999431
100
AcDbArc
 50
233.1301023542
 51
265.5882742142
  0
ARC
  5
4E9
330
1F
100
AcDbEntity
  8
0
  6
Continuous
 62
     7
370
    15
100
AcDbCircle
 10
-547.5
 20
53.4419298761
 30
0.0
 40
6.99999999999919
100
AcDbArc
 50
94.4117257858
 51
126.8698976458
  0
ARC
  5
4EA
330
1F
100
AcDbEntity
  8
0
  6
Continuous
 62
     7
370
    15
100
AcDbCircle
 10
-551.4
 20
48.2419298761
 30
0.0
 40
0.5000000000001193
100
AcDbArc
 50
180.0
 51
233.1301023542
  0
ARC
  5
4EB
330
1F
100
AcDbEntity
  8
0
  6
Continuous
 62
     7
370
    15
100
AcDbCircle
 10
-551.4
 20
58.6419298761
 30
0.0
 40
0.4999999999992383
100
AcDbArc
 50
126.8698976458
 51
180.0
  0
ARC
  5
4EC
330
1F
100
AcDbEntity
  8
0
  6
Continuous
 62
     7
370
    15
100
AcDbCircle
 10
492.4
 20
53.4419298761
 30
0.0
 40
5.500000000000007
100
AcDbArc
 50
90.0
 51
270.0
  0
ARC
  5
4ED
330
1F
100
AcDbEntity
  8
0
  6
Continuous
 62
     7
370
    15
100
AcDbCircle
 10
-492.4
 20
53.4419298761
 30
0.0
 40
5.500000000000007
100
AcDbArc
 50
270.0
 51
90.0
  0
ARC
  5
4EE
330
1F
100
AcDbEntity
  8
0
  6
Continuous
 62
     7
370
    15
100
AcDbCircle
 10
-525.0
 20
-65.0
 30
0.0
 40
24.0
100
AcDbArc
 50
132.4740985189
 51
47.1891334206
  0
ARC
  5
4EF
330
1F
100
AcDbEntity
  8
0
  6
Continuous
 62
     7
370
    15
100
AcDbCircle
 10
520.0
 20
-65.0
 30
0.0
 40
24.00000000000005
100
AcDbArc
 50
129.0813205301
 51
43.6160311541
  0
ARC
  5
4F0
330
1F
100
AcDbEntity
  8
0
  6
Continuous
 62
     7
370
    15
100
AcDbCircle
 10
304.3692461694
 20
22.1179053917
 30
0.0
 40
19.99999999733898
100
AcDbArc
 50
46.1871293795
 51
83.2633914896
  0
ARC
  5
4F1
330
1F
100
AcDbEntity
  8
0
  6
Continuous
 62
     7
370
    15
100
AcDbCircle
 10
306.061457721
 20
22.1179053864
 30
0.0
 40
20.00000000291028
100
AcDbArc
 50
96.7366085157
 51
133.8128706151
  0
ARC
  5
4F2
330
1F
100
AcDbEntity
  8
0
  6
Continuous
 62
     7
370
    15
100
AcDbCircle
 10
-592.0
 20
-91.5580701239
 30
0.0
 40
1500.000000000001
100
AcDbArc
 50
180.0
 51
270.0
  0
ARC
  5
4F3
330
1F
100
AcDbEntity
  8
0
  6
Continuous
 62
     7
370
    15
100
AcDbCircle
 10
-592.0
 20
66.4419298761
 30
0.0
 40
1500.000000000002
100
AcDbArc
 50
90.0
 51
180.0
  0
ARC
  5
4F4
330
1F
100
AcDbEntity
  8
0
  6
Continuous
 62
     7
370
    15
100
AcDbCircle
 10
592.0
 20
66.4419298761
 30
0.0
 40
1500.000000000003
100
AcDbArc
 50
0.0
 51
90.0
  0
ARC
  5
4F5
330
1F
100
AcDbEntity
  8
0
  6
Continuous
 62
     7
370
    15
100
AcDbCircle
 10
592.0
 20
-91.5580701239
 30
0.0
 40
1500.000000000002
100
AcDbArc
 50
270.0
 51
0.0
  0
ARC
  5
4F6
330
1F
100
AcDbEntity
  8
0
  6
Continuous
 62
     7
370
    15
100
AcDbCircle
 10
525.0
 20
0.0
 30
0.0
 40
50.00000000000011
100
AcDbArc
 50
75.0
 51
105.0
  0
ARC
  5
4F7
330
1F
100
AcDbEntity
  8
0
  6
Continuous
 62
     7
370
    15
100
AcDbCircle
 10
561.0494345771
 20
9.0
 30
0.0
 40
30.99999999999938
100
AcDbArc
 50
3.2361595445
 51
66.8737517395
  0
ARC
  5
4F8
330
1F
100
AcDbEntity
  8
0
  6
Continuous
 62
     7
370
    15
100
AcDbCircle
 10
439.0
 20
20.4379690282
 30
0.0
 40
8.000000000000057
100
AcDbArc
 50
105.0
 51
180.0
  0
ARC
  5
4F9
330
1F
100
AcDbEntity
  8
0
  6
Continuous
 62
     7
370
    15
100
AcDbCircle
 10
525.0
 20
0.0
 30
0.0
 40
50.00000000000012
100
AcDbArc
 50
255.0
 51
285.0
  0
ARC
  5
4FA
330
1F
100
AcDbEntity
  8
0
  6
Continuous
 62
     7
370
    15
100
AcDbCircle
 10
561.0494345771
 20
-9.0
 30
0.0
 40
30.99999999999972
100
AcDbArc
 50
293.1262482605
 51
356.7638404555
  0
ARC
  5
4FB
330
1F
100
AcDbEntity
  8
0
  6
Continuous
 62
     7
370
    15
100
AcDbCircle
 10
439.0
 20
-20.4379690281
 30
0.0
 40
8.00000000000017
100
AcDbArc
 50
180.0
 51
255.0
  0
ARC
  5
4FC
330
1F
100
AcDbEntity
  8
0
  6
Continuous
 62
     7
370
    15
100
AcDbCircle
 10
-525.0
 20
0.0
 30
0.0
 40
50.00000000000011
100
AcDbArc
 50
75.0
 51
105.0
  0
ARC
  5
4FD
330
1F
100
AcDbEntity
  8
0
  6
Continuous
 62
     7
370
    15
100
AcDbCircle
 10
-561.0494345771
 20
9.0
 30
0.0
 40
31.00000000000013
100
AcDbArc
 50
113.1262482605
 51
176.7638404555
  0
ARC
  5
4FE
330
1F
100
AcDbEntity
  8
0
  6
Continuous
 62
     7
370
    15
100
AcDbCircle
 10
-439.0
 20
20.4379690282
 30
0.0
 40
8.0
100
AcDbArc
 50
0.0
 51
75.0
  0
ARC
  5
4FF
330
1F
100
AcDbEntity
  8
0
  6
Continuous
 62
     7
370
    15
100
AcDbCircle
 10
-525.0
 20
0.0
 30
0.0
 40
50.00000000000016
100
AcDbArc
 50
255.0
 51
285.0
  0
ARC
  5
500
330
1F
100
AcDbEntity
  8
0
  6
Continuous
 62
     7
370
    15
100
AcDbCircle
 10
-561.0494345771
 20
-9.0
 30
0.0
 40
31.00000000000007
100
AcDbArc
 50
183.2361595445
 51
246.8737517395
  0
ARC
  5
501
330
1F
100
AcDbEntity
  8
0
  6
Continuous
 62
     7
370
    15
100
AcDbCircle
 10
-439.0
 20
-20.4379690281
 30
0.0
 40
8.000000000000071
100
AcDbArc
 50
285.0
 51
0.0
  0
ARC
  5
502
330
1F
100
AcDbEntity
  8
0
  6
Continuous
 62
     7
370
    15
100
AcDbCircle
 10
525.0
 20
0.0
 30
0.0
 40
28.74999999999699
100
AcDbArc
 50
151.8301847925
 51
208.1139487508
  0
ARC
  5
503
330
1F
100
AcDbEntity
  8
0
  6
Continuous
 62
     7
370
    15
100
AcDbCircle
 10
273.9512542502
 20
10.0543402353
 30
0.0
 40
300.0000000002013
100
AcDbArc
 50
344.9218926881
 51
350.6866316621
  0
ARC
  5
504
330
1F
100
AcDbEntity
  8
0
  6
Continuous
 62
     7
370
    15
100
AcDbCircle
 10
557.5
 20
48.9419298761
 30
0.0
 40
10.00000000001983
100
AcDbArc
 50
180.0
 51
202.3157771625
  0
ARC
  5
505
330
1F
100
AcDbEntity
  8
0
  6
Continuous
 62
     7
370
    15
100
AcDbCircle
 10
525.0
 20
-57.5809113542
 30
0.0
 40
39.99999999996218
100
AcDbArc
 50
304.849904579
 51
344.9218926881
  0
ARC
  5
506
330
1F
100
AcDbEntity
  8
0
  6
Continuous
 62
     7
370
    15
100
AcDbCircle
 10
542.5
 20
61.4419298761
 30
0.0
 40
4.999999999998863
100
AcDbArc
 50
360.0
 51
90.0
  0
ARC
  5
507
330
1F
100
AcDbEntity
  8
0
  6
Continuous
 62
     7
370
    15
100
AcDbCircle
 10
545.0
 20
-86.3037245869
 30
0.0
 40
4.999999999999927
100
AcDbArc
 50
180.0
 51
304.849904579
  0
ARC
  5
508
330
1F
100
AcDbEntity
  8
0
  6
Continuous
 62
     7
370
    15
100
AcDbCircle
 10
528.5
 20
65.4419298761
 30
0.0
 40
0.9999999999997726
100
AcDbArc
 50
90.0
 51
180.0
  0
ARC
  5
509
330
1F
100
AcDbEntity
  8
0
  6
Continuous
 62
     7
370
    15
100
AcDbCircle
 10
525.0
 20
-57.5809113542
 30
0.0
 40
39.99999999997183
100
AcDbArc
 50
195.0781073119
 51
235.150095421
  0
ARC
  5
50A
330
1F
100
AcDbEntity
  8
0
  6
Continuous
 62
     7
370
    15
100
AcDbCircle
 10
507.5
 20
61.4419298761
 30
0.0
 40
5.00000000000103
100
AcDbArc
 50
90.0
 51
180.0
  0
ARC
  5
50B
330
1F
100
AcDbEntity
  8
0
  6
Continuous
 62
     7
370
    15
100
AcDbCircle
 10
776.0487457495
 20
10.0543402352
 30
0.0
 40
299.9999999998896
100
AcDbArc
 50
189.5587750132
 51
195.078107312
  0
ARC
  5
50C
330
1F
100
AcDbEntity
  8
0
  6
Continuous
 62
     7
370
    15
100
AcDbCircle
 10
492.4999999997
 20
48.9419298762
 30
0.0
 40
10.00000000025062
100
AcDbArc
 50
340.3480880241
 51
359.9999999998
  0
ARC
  5
50D
330
1F
100
AcDbEntity
  8
0
  6
Continuous
 62
     7
370
    15
100
AcDbCircle
 10
505.0
 20
-86.3037245869
 30
0.0
 40
5.00000000000006
100
AcDbArc
 50
235.150095421
 51
354.2366715919
  0
ARC
  5
50E
330
1F
100
AcDbEntity
  8
0
  6
Continuous
 62
     7
370
    15
100
AcDbCircle
 10
521.5
 20
65.4419298761
 30
0.0
 40
0.9999999999997158
100
AcDbArc
 50
0.0
 51
90.0
  0
ARC
  5
50F
330
1F
100
AcDbEntity
  8
0
  6
Continuous
 62
     7
370
    15
100
AcDbCircle
 10
-525.0
 20
0.0
 30
0.0
 40
28.74999999999677
100
AcDbArc
 50
331.8080368831
 51
28.026863375
  0
ARC
  5
510
330
1F
100
AcDbEntity
  8
0
  6
Continuous
 62
     7
370
    15
100
AcDbCircle
 10
-492.5
 20
48.9419298761
 30
0.0
 40
10.00000000000965
100
AcDbArc
 50
180.0
 51
199.6519119761
  0
ARC
  5
511
330
1F
100
AcDbEntity
  8
0
  6
Continuous
 62
     7
370
    15
100
AcDbCircle
 10
-507.5
 20
61.4419298761
 30
0.0
 40
4.99999999999892
100
AcDbArc
 50
360.0
 51
90.0
  0
ARC
  5
512
330
1F
100
AcDbEntity
  8
0
  6
Continuous
 62
     7
370
    15
100
AcDbCircle
 10
-776.0487457498
 20
10.0543402353
 30
0.0
 40
300.0000000002432
100
AcDbArc
 50
344.9218926881
 51
350.4412249868
  0
ARC
  5
513
330
1F
100
AcDbEntity
  8
0
  6
Continuous
 62
     7
370
    15
100
AcDbCircle
 10
-505.0
 20
-86.3037245869
 30
0.0
 40
4.999999999999997
100
AcDbArc
 50
180.0
 51
304.849904579
  0
ARC
  5
514
330
1F
100
AcDbEntity
  8
0
  6
Continuous
 62
     7
370
    15
100
AcDbCircle
 10
-525.0
 20
-57.5809113542
 30
0.0
 40
39.99999999996149
100
AcDbArc
 50
304.849904579
 51
344.9218926881
  0
ARC
  5
515
330
1F
100
AcDbEntity
  8
0
  6
Continuous
 62
     7
370
    15
100
AcDbCircle
 10
-521.5
 20
65.4419298761
 30
0.0
 40
0.999999999999801
100
AcDbArc
 50
90.0
 51
180.0
  0
ARC
  5
516
330
1F
100
AcDbEntity
  8
0
  6
Continuous
 62
     7
370
    15
100
AcDbCircle
 10
-525.0
 20
-57.5809113542
 30
0.0
 40
39.99999999997168
100
AcDbArc
 50
195.0781073119
 51
235.150095421
  0
ARC
  5
517
330
1F
100
AcDbEntity
  8
0
  6
Continuous
 62
     7
370
    15
100
AcDbCircle
 10
-542.5
 20
61.4419298761
 30
0.0
 40
5.000000000001137
100
AcDbArc
 50
90.0
 51
180.0
  0
ARC
  5
518
330
1F
100
AcDbEntity
  8
0
  6
Continuous
 62
     7
370
    15
100
AcDbCircle
 10
-545.0
 20
-86.3037245869
 30
0.0
 40
4.999999999999892
100
AcDbArc
 50
235.150095421
 51
360.0
  0
ARC
  5
519
330
1F
100
AcDbEntity
  8
0
  6
Continuous
 62
     7
370
    15
100
AcDbCircle
 10
-557.5000000004
 20
48.9419298762
 30
0.0
 40
10.00000000043985
100
AcDbArc
 50
337.684222838
 51
359.9999999995
  0
ARC
  5
51A
330
1F
100
AcDbEntity
  8
0
  6
Continuous
 62
     7
370
    15
100
AcDbCircle
 10
-273.9512542505
 20
10.0543402352
 30
0.0
 40
299.9999999998926
100
AcDbArc
 50
189.3133683379
 51
195.078107312
  0
ARC
  5
51B
330
1F
100
AcDbEntity
  8
0
  6
Continuous
 62
     7
370
    15
100
AcDbCircle
 10
-528.5
 20
65.4419298761
 30
0.0
 40
0.9999999999995453
100
AcDbArc
 50
0.0
 51
90.0
  0
ARC
  5
51C
330
1F
100
AcDbEntity
  8
0
  6
PHANTOM
 62
     8
370
     0
100
AcDbCircle
 10
525.0
 20
0.0
 30
0.0
 40
42.00000000000021
100
AcDbArc
 50
75.182200008
 51
105.0
  0
ARC
  5
51D
330
1F
100
AcDbEntity
  8
0
  6
PHANTOM
 62
     8
370
     0
100
AcDbCircle
 10
561.0494345771
 20
9.0
 30
0.0
 40
23.00000000000049
100
AcDbArc
 50
3.7572227311
 51
65.8864958731
  0
ARC
  5
51E
330
1F
100
AcDbEntity
  8
0
  6
PHANTOM
 62
     8
370
     0
100
AcDbCircle
 10
525.0
 20
0.0
 30
0.0
 40
42.00000000000034
100
AcDbArc
 50
255.0
 51
284.817799992
  0
ARC
  5
51F
330
1F
100
AcDbEntity
  8
0
  6
PHANTOM
 62
     8
370
     0
100
AcDbCircle
 10
561.0494345771
 20
-9.0
 30
0.0
 40
23.00000000000063
100
AcDbArc
 50
294.1135041269
 51
356.2427772689
  0
ARC
  5
520
330
1F
100
AcDbEntity
  8
0
  6
PHANTOM
 62
     8
370
     0
100
AcDbCircle
 10
-525.0
 20
0.0
 30
0.0
 40
42.00000000000043
100
AcDbArc
 50
75.0
 51
104.817799992
  0
ARC
  5
521
330
1F
100
AcDbEntity
  8
0
  6
PHANTOM
 62
     8
370
     0
100
AcDbCircle
 10
-561.0494345771
 20
9.0
 30
0.0
 40
23.00000000000061
100
AcDbArc
 50
114.1135041269
 51
176.2427772689
  0
ARC
  5
522
330
1F
100
AcDbEntity
  8
0
  6
PHANTOM
 62
     8
370
     0
100
AcDbCircle
 10
-525.0
 20
0.0
 30
0.0
 40
42.00000000000005
100
AcDbArc
 50
255.182200008
 51
285.0
  0
ARC
  5
523
330
1F
100
AcDbEntity
  8
0
  6
PHANTOM
 62
     8
370
     0
100
AcDbCircle
 10
-561.0494345771
 20
-9.0
 30
0.0
 40
23.00000000000052
100
AcDbArc
 50
183.7572227311
 51
245.8864958731
  0
ARC
  5
524
330
1F
100
AcDbEntity
  8
0
  6
PHANTOM
 62
     8
370
     0
100
AcDbCircle
 10
525.0
 20
-57.5809113542
 30
0.0
 40
37.00000000002999
100
AcDbArc
 50
195.078107312
 51
235.1500954209
  0
ARC
  5
525
330
1F
100
AcDbEntity
  8
0
  6
PHANTOM
 62
     8
370
     0
100
AcDbCircle
 10
776.0487457496
 20
10.0543402352
 30
0.0
 40
297.0000000000371
100
AcDbArc
 50
189.8235221903
 51
195.0781073119
  0
ARC
  5
526
330
1F
100
AcDbEntity
  8
0
  6
PHANTOM
 62
     8
370
     0
100
AcDbCircle
 10
507.5
 20
61.4419298761
 30
0.0
 40
1.999999999999666
100
AcDbArc
 50
90.0
 51
180.0
  0
ARC
  5
527
330
1F
100
AcDbEntity
  8
0
  6
PHANTOM
 62
     8
370
     0
100
AcDbCircle
 10
542.5
 20
61.4419298761
 30
0.0
 40
2.000000000002501
100
AcDbArc
 50
0.0
 51
89.9999999999
  0
ARC
  5
528
330
1F
100
AcDbEntity
  8
0
  6
PHANTOM
 62
     8
370
     0
100
AcDbCircle
 10
273.9512542503
 20
10.0543402352
 30
0.0
 40
297.0000000000963
100
AcDbArc
 50
344.9218926881
 51
350.4000743455
  0
ARC
  5
529
330
1F
100
AcDbEntity
  8
0
  6
PHANTOM
 62
     8
370
     0
100
AcDbCircle
 10
525.0
 20
-57.5809113542
 30
0.0
 40
37.00000000003588
100
AcDbArc
 50
304.8499045791
 51
344.921892688
  0
ARC
  5
52A
330
1F
100
AcDbEntity
  8
0
  6
PHANTOM
 62
     8
370
     0
100
AcDbCircle
 10
545.0
 20
-86.3037245869
 30
0.0
 40
2.000000000000256
100
AcDbArc
 50
180.0
 51
304.8499045791
  0
ARC
  5
52B
330
1F
100
AcDbEntity
  8
0
  6
PHANTOM
 62
     8
370
     0
100
AcDbCircle
 10
545.0
 20
-78.2664991614
 30
0.0
 40
1.999999999999084
100
AcDbArc
 50
146.4426902381
 51
180.0
  0
ARC
  5
52C
330
1F
100
AcDbEntity
  8
0
  6
PHANTOM
 62
     8
370
     0
100
AcDbCircle
 10
525.0
 20
-65.0
 30
0.0
 40
21.99999999999487
100
AcDbArc
 50
326.4426902381
 51
50.6489594425
  0
ARC
  5
52D
330
1F
100
AcDbEntity
  8
0
  6
PHANTOM
 62
     8
370
     0
100
AcDbCircle
 10
505.0
 20
-86.3037245869
 30
0.0
 40
1.99999999999944
100
AcDbArc
 50
235.150095421
 51
0.0
  0
ARC
  5
52E
330
1F
100
AcDbEntity
  8
0
  6
PHANTOM
 62
     8
370
     0
100
AcDbCircle
 10
-507.5
 20
61.4419298761
 30
0.0
 40
2.000000000002444
100
AcDbArc
 50
0.0
 51
89.9999999999
  0
ARC
  5
52F
330
1F
100
AcDbEntity
  8
0
  6
PHANTOM
 62
     8
370
     0
100
AcDbCircle
 10
-525.0
 20
-57.5809113542
 30
0.0
 40
37.00000000003165
100
AcDbArc
 50
195.078107312
 51
235.1500954209
  0
ARC
  5
530
330
1F
100
AcDbEntity
  8
0
  6
PHANTOM
 62
     8
370
     0
100
AcDbCircle
 10
-273.9512542504
 20
10.0543402352
 30
0.0
 40
297.0000000000562
100
AcDbArc
 50
189.5999256545
 51
195.0781073119
  0
ARC
  5
531
330
1F
100
AcDbEntity
  8
0
  6
PHANTOM
 62
     8
370
     0
100
AcDbCircle
 10
-542.5
 20
61.4419298761
 30
0.0
 40
1.999999999999659
100
AcDbArc
 50
90.0
 51
180.0
  0
ARC
  5
532
330
1F
100
AcDbEntity
  8
0
  6
PHANTOM
 62
     8
370
     0
100
AcDbCircle
 10
-776.0487457496
 20
10.0543402352
 30
0.0
 40
297.0000000000344
100
AcDbArc
 50
344.9218926881
 51
350.1764778097
  0
ARC
  5
533
330
1F
100
AcDbEntity
  8
0
  6
PHANTOM
 62
     8
370
     0
100
AcDbCircle
 10
-525.0
 20
-57.5809113542
 30
0.0
 40
37.00000000003516
100
AcDbArc
 50
304.8499045791
 51
344.921892688
  0
ARC
  5
534
330
1F
100
AcDbEntity
  8
0
  6
PHANTOM
 62
     8
370
     0
100
AcDbCircle
 10
-505.0
 20
-86.3037245869
 30
0.0
 40
2.000000000000198
100
AcDbArc
 50
180.0
 51
304.8499045791
  0
ARC
  5
535
330
1F
100
AcDbEntity
  8
0
  6
PHANTOM
 62
     8
370
     0
100
AcDbCircle
 10
-545.0
 20
-86.3037245869
 30
0.0
 40
1.99999999999944
100
AcDbArc
 50
235.150095421
 51
0.0
  0
ENDSEC
  0
SECTION
  2
OBJECTS
  0
DICTIONARY
  5
C
330
0
100
AcDbDictionary
281
     1
  3
ACAD_GROUP
350
D
  3
ACAD_LAYOUT
350
1A
  3
ACAD_MLINESTYLE
350
17
  3
ACAD_PLOTSETTINGS
350
19
  3
ACAD_PLOTSTYLENAME
350
E
  3
ACAD_SCALELIST
350
47
  0
DICTIONARY
  5
D
102
{ACAD_REACTORS
330
C
102
}
330
C
100
AcDbDictionary
281
     1
  0
DICTIONARY
  5
1A
102
{ACAD_REACTORS
330
C
102
}
330
C
100
AcDbDictionary
281
     1
  3
Layout1
350
1E
  3
Layout2
350
26
  3
Model
350
22
  0
DICTIONARY
  5
17
102
{ACAD_REACTORS
330
C
102
}
330
C
100
AcDbDictionary
281
     1
  3
Standard
350
18
  0
DICTIONARY
  5
19
102
{ACAD_REACTORS
330
C
102
}
330
C
100
AcDbDictionary
281
     1
  0
ACDBDICTIONARYWDFLT
  5
E
102
{ACAD_REACTORS
330
C
102
}
330
C
100
AcDbDictionary
281
     1
  3
Normal
350
F
100
AcDbDictionaryWithDefault
340
F
  0
DICTIONARY
  5
47
102
{ACAD_REACTORS
330
C
102
}
330
C
100
AcDbDictionary
281
     1
  3
A0
350
48
  3
A1
350
49
  3
A2
350
4A
  3
A3
350
4B
  3
A4
350
4C
  3
A5
350
4D
  3
A6
350
4E
  3
A7
350
4F
  3
A8
350
50
  3
A9
350
51
  3
B0
350
52
  3
B1
350
53
  3
B2
350
54
  3
B3
350
55
  3
B4
350
56
  3
B5
350
57
  3
B6
350
58
  3
B7
350
59
  3
B8
350
5A
  3
B9
350
5B
  3
C0
350
5C
  3
C1
350
5D
  3
C2
350
5E
  3
C3
350
5F
  3
C4
350
60
  3
C5
350
61
  3
C6
350
62
  3
C7
350
63
  3
C8
350
64
  3
C9
350
65
  3
D0
350
66
  3
D1
350
67
  3
D2
350
68
  0
LAYOUT
  5
1E
102
{ACAD_REACTORS
330
1A
102
}
330
1A
100
AcDbPlotSettings
  1

  2
none_device
  4

  6

 40
0.0
 41
0.0
 42
0.0
 43
0.0
 44
0.0
 45
0.0
 46
0.0
 47
0.0
 48
0.0
 49
0.0
140
0.0
141
0.0
142
1.0
143
1.0
 70
   688
 72
     1
 73
     0
 74
     5
  7

 75
    16
147
1.0
148
0.0
149
0.0
100
AcDbLayout
  1
Layout1
 70
     1
 71
     1
 10
0.0
 20
0.0
 11
420.0
 21
297.0
 12
0.0
 22
0.0
 32
0.0
 14
1.0000000000E+20
 24
1.0000000000E+20
 34
1.0000000000E+20
 15
-1.0000000000E+20
 25
-1.0000000000E+20
 35
-1.0000000000E+20
146
0.0
 13
0.0
 23
0.0
 33
0.0
 16
1.0
 26
0.0
 36
0.0
 17
0.0
 27
1.0
 37
0.0
 76
     0
330
1B
  0
LAYOUT
  5
26
102
{ACAD_REACTORS
330
1A
102
}
330
1A
100
AcDbPlotSettings
  1

  2
none_device
  4

  6

 40
0.0
 41
0.0
 42
0.0
 43
0.0
 44
0.0
 45
0.0
 46
0.0
 47
0.0
 48
0.0
 49
0.0
140
0.0
141
0.0
142
1.0
143
1.0
 70
   688
 72
     1
 73
     0
 74
     5
  7

 75
    16
147
1.0
148
0.0
149
0.0
100
AcDbLayout
  1
Layout2
 70
     1
 71
     2
 10
0.0
 20
0.0
 11
0.0
 21
0.0
 12
0.0
 22
0.0
 32
0.0
 14
0.0
 24
0.0
 34
0.0
 15
0.0
 25
0.0
 35
0.0
146
0.0
 13
0.0
 23
0.0
 33
0.0
 16
1.0
 26
0.0
 36
0.0
 17
0.0
 27
1.0
 37
0.0
 76
     0
330
23
  0
LAYOUT
  5
22
102
{ACAD_REACTORS
330
1A
102
}
330
1A
100
AcDbPlotSettings
  1

  2
none_device
  4
ANSI_A_(11.00_x_8.50_Inches)
  6

 40
6.35
 41
19.05
 42
6.35000508
 43
19.05000254
 44
279.4
 45
215.9
 46
133.34999746
 47
89.7302180284
 48
0.0
 49
0.0
140
0.0
141
0.0
142
0.0026027725
143
1.0
 70
  1696
 72
     0
 73
     0
 74
     0
  7

 75
     0
147
0.0179189148
148
-1300.4909072572
149
0.0
100
AcDbLayout
  1
Model
 70
     1
 71
     0
 10
0.0
 20
0.0
 11
420.0
 21
297.0
 12
0.0
 22
0.0
 32
0.0
 14
-2092.0
 24
-1591.5580701239
 34
0.0
 15
2092.0
 25
1566.4419298761
 35
0.0
146
0.0
 13
0.0
 23
0.0
 33
0.0
 16
1.0
 26
0.0
 36
0.0
 17
0.0
 27
1.0
 37
0.0
 76
     0
330
1F
331
29
  0
MLINESTYLE
  5
18
102
{ACAD_REACTORS
330
17
102
}
330
17
100
AcDbMlineStyle
  2
Standard
 70
     0
  3

 62
   256
 51
90.0
 52
90.0
 71
     2
 49
0.5
 62
   256
  6
BYLAYER
 49
-0.5
 62
   256
  6
BYLAYER
  0
ACDBPLACEHOLDER
  5
F
102
{ACAD_REACTORS
330
E
102
}
330
E
  0
SCALE
  5
48
102
{ACAD_REACTORS
330
47
102
}
330
47
100
AcDbScale
 70
     0
300
1:1
140
1.0
141
1.0
290
     1
  0
SCALE
  5
49
102
{ACAD_REACTORS
330
47
102
}
330
47
100
AcDbScale
 70
     0
300
1:2
140
1.0
141
2.0
290
     0
  0
SCALE
  5
4A
102
{ACAD_REACTORS
330
47
102
}
330
47
100
AcDbScale
 70
     0
300
1:4
140
1.0
141
4.0
290
     0
  0
SCALE
  5
4B
102
{ACAD_REACTORS
330
47
102
}
330
47
100
AcDbScale
 70
     0
300
1:5
140
1.0
141
5.0
290
     0
  0
SCALE
  5
4C
102
{ACAD_REACTORS
330
47
102
}
330
47
100
AcDbScale
 70
     0
300
1:8
140
1.0
141
8.0
290
     0
  0
SCALE
  5
4D
102
{ACAD_REACTORS
330
47
102
}
330
47
100
AcDbScale
 70
     0
300
1:10
140
1.0
141
10.0
290
     0
  0
SCALE
  5
4E
102
{ACAD_REACTORS
330
47
102
}
330
47
100
AcDbScale
 70
     0
300
1:16
140
1.0
141
16.0
290
     0
  0
SCALE
  5
4F
102
{ACAD_REACTORS
330
47
102
}
330
47
100
AcDbScale
 70
     0
300
1:20
140
1.0
141
20.0
290
     0
  0
SCALE
  5
50
102
{ACAD_REACTORS
330
47
102
}
330
47
100
AcDbScale
 70
     0
300
1:30
140
1.0
141
30.0
290
     0
  0
SCALE
  5
51
102
{ACAD_REACTORS
330
47
102
}
330
47
100
AcDbScale
 70
     0
300
1:40
140
1.0
141
40.0
290
     0
  0
SCALE
  5
52
102
{ACAD_REACTORS
330
47
102
}
330
47
100
AcDbScale
 70
     0
300
1:50
140
1.0
141
50.0
290
     0
  0
SCALE
  5
53
102
{ACAD_REACTORS
330
47
102
}
330
47
100
AcDbScale
 70
     0
300
1:100
140
1.0
141
100.0
290
     0
  0
SCALE
  5
54
102
{ACAD_REACTORS
330
47
102
}
330
47
100
AcDbScale
 70
     0
300
2:1
140
2.0
141
1.0
290
     0
  0
SCALE
  5
55
102
{ACAD_REACTORS
330
47
102
}
330
47
100
AcDbScale
 70
     0
300
4:1
140
4.0
141
1.0
290
     0
  0
SCALE
  5
56
102
{ACAD_REACTORS
330
47
102
}
330
47
100
AcDbScale
 70
     0
300
8:1
140
8.0
141
1.0
290
     0
  0
SCALE
  5
57
102
{ACAD_REACTORS
330
47
102
}
330
47
100
AcDbScale
 70
     0
300
10:1
140
10.0
141
1.0
290
     0
  0
SCALE
  5
58
102
{ACAD_REACTORS
330
47
102
}
330
47
100
AcDbScale
 70
     0
300
100:1
140
100.0
141
1.0
290
     0
  0
SCALE
  5
59
102
{ACAD_REACTORS
330
47
102
}
330
47
100
AcDbScale
 70
     0
300
1/128" = 1'-0"
140
0.0078125
141
12.0
290
     0
  0
SCALE
  5
5A
102
{ACAD_REACTORS
330
47
102
}
330
47
100
AcDbScale
 70
     0
300
1/64" = 1'-0"
140
0.015625
141
12.0
290
     0
  0
SCALE
  5
5B
102
{ACAD_REACTORS
330
47
102
}
330
47
100
AcDbScale
 70
     0
300
1/32" = 1'-0"
140
0.03125
141
12.0
290
     0
  0
SCALE
  5
5C
102
{ACAD_REACTORS
330
47
102
}
330
47
100
AcDbScale
 70
     0
300
1/16" = 1'-0"
140
0.0625
141
12.0
290
     0
  0
SCALE
  5
5D
102
{ACAD_REACTORS
330
47
102
}
330
47
100
AcDbScale
 70
     0
300
3/32" = 1'-0"
140
0.09375
141
12.0
290
     0
  0
SCALE
  5
5E
102
{ACAD_REACTORS
330
47
102
}
330
47
100
AcDbScale
 70
     0
300
1/8" = 1'-0"
140
0.125
141
12.0
290
     0
  0
SCALE
  5
5F
102
{ACAD_REACTORS
330
47
102
}
330
47
100
AcDbScale
 70
     0
300
3/16" = 1'-0"
140
0.1875
141
12.0
290
     0
  0
SCALE
  5
60
102
{ACAD_REACTORS
330
47
102
}
330
47
100
AcDbScale
 70
     0
300
1/4" = 1'-0"
140
0.25
141
12.0
290
     0
  0
SCALE
  5
61
102
{ACAD_REACTORS
330
47
102
}
330
47
100
AcDbScale
 70
     0
300
3/8" = 1'-0"
140
0.375
141
12.0
290
     0
  0
SCALE
  5
62
102
{ACAD_REACTORS
330
47
102
}
330
47
100
AcDbScale
 70
     0
300
1/2" = 1'-0"
140
0.5
141
12.0
290
     0
  0
SCALE
  5
63
102
{ACAD_REACTORS
330
47
102
}
330
47
100
AcDbScale
 70
     0
300
3/4" = 1'-0"
140
0.75
141
12.0
290
     0
  0
SCALE
  5
64
102
{ACAD_REACTORS
330
47
102
}
330
47
100
AcDbScale
 70
     0
300
1" = 1'-0"
140
1.0
141
12.0
290
     0
  0
SCALE
  5
65
102
{ACAD_REACTORS
330
47
102
}
330
47
100
AcDbScale
 70
     0
300
1-1/2" = 1'-0"
140
1.5
141
12.0
290
     0
  0
SCALE
  5
66
102
{ACAD_REACTORS
330
47
102
}
330
47
100
AcDbScale
 70
     0
300
3" = 1'-0"
140
3.0
141
12.0
290
     0
  0
SCALE
  5
67
102
{ACAD_REACTORS
330
47
102
}
330
47
100
AcDbScale
 70
     0
300
6" = 1'-0"
140
6.0
141
12.0
290
     0
  0
SCALE
  5
68
102
{ACAD_REACTORS
330
47
102
}
330
47
100
AcDbScale
 70
     0
300
1'-0" = 1'-0"
140
12.0
141
12.0
290
     0
  0
ENDSEC
  0
EOF
