  0
SECTION
  2
HEADER
  9
$ACADVER
  1
AC1015
  9
$ACADMAINTVER
 70
     6
  9
$DWGCODEPAGE
  3
ANSI_1251
  9
$INSBASE
 10
0.0
 20
0.0
 30
0.0
  9
$EXTMIN
 10
-2092.0
 20
-1562.4
 30
0.0
  9
$EXTMAX
 10
2092.0
 20
1562.4
 30
0.0
  9
$LIMMIN
 10
0.0
 20
0.0
  9
$LIMMAX
 10
420.0
 20
297.0
  9
$ORTHOMODE
 70
     0
  9
$REGENMODE
 70
     1
  9
$FILLMODE
 70
     1
  9
$QTEXTMODE
 70
     0
  9
$MIRRTEXT
 70
     1
  9
$LTSCALE
 40
1.0
  9
$ATTMODE
 70
     1
  9
$TEXTSIZE
 40
3.0
  9
$TRACEWID
 40
1.0
  9
$TEXTSTYLE
  7
Standard
  9
$CLAYER
  8
0
  9
$CELTYPE
  6
ByLayer
  9
$CECOLOR
 62
   256
  9
$CELTSCALE
 40
1.0
  9
$DISPSILH
 70
     0
  9
$DIMSCALE
 40
1.0
  9
$DIMASZ
 40
3.0
  9
$DIMEXO
 40
0.0
  9
$DIMDLI
 40
3.75
  9
$DIMRND
 40
0.0
  9
$DIMDLE
 40
0.0
  9
$DIMEXE
 40
2.0
  9
$DIMTP
 40
0.0
  9
$DIMTM
 40
0.0
  9
$DIMTXT
 40
3.0
  9
$DIMCEN
 40
2.5
  9
$DIMTSZ
 40
0.0
  9
$DIMTOL
 70
     0
  9
$DIMLIM
 70
     0
  9
$DIMTIH
 70
     1
  9
$DIMTOH
 70
     1
  9
$DIMSE1
 70
     0
  9
$DIMSE2
 70
     0
  9
$DIMTAD
 70
     1
  9
$DIMZIN
 70
     0
  9
$DIMBLK
  1

  9
$DIMASO
 70
     1
  9
$DIMSHO
 70
     1
  9
$DIMPOST
  1

  9
$DIMAPOST
  1

  9
$DIMALT
 70
     0
  9
$DIMALTD
 70
     3
  9
$DIMALTF
 40
0.0393700787
  9
$DIMLFAC
 40
1.0
  9
$DIMTOFL
 70
     1
  9
$DIMTVP
 40
0.0
  9
$DIMTIX
 70
     0
  9
$DIMSOXD
 70
     0
  9
$DIMSAH
 70
     0
  9
$DIMBLK1
  1

  9
$DIMBLK2
  1

  9
$DIMSTYLE
  2
ISO-25
  9
$DIMCLRD
 70
     0
  9
$DIMCLRE
 70
     0
  9
$DIMCLRT
 70
     0
  9
$DIMTFAC
 40
1.0
  9
$DIMGAP
 40
2.0
  9
$DIMJUST
 70
     0
  9
$DIMSD1
 70
     0
  9
$DIMSD2
 70
     0
  9
$DIMTOLJ
 70
     0
  9
$DIMTZIN
 70
     0
  9
$DIMALTZ
 70
     0
  9
$DIMALTTZ
 70
     0
  9
$DIMUPT
 70
     0
  9
$DIMDEC
 70
     2
  9
$DIMTDEC
 70
     2
  9
$DIMALTU
 70
     2
  9
$DIMALTTD
 70
     3
  9
$DIMTXSTY
  7
Standard
  9
$DIMAUNIT
 70
     0
  9
$DIMADEC
 70
     2
  9
$DIMALTRND
 40
0.0
  9
$DIMAZIN
 70
     0
  9
$DIMDSEP
 70
    44
  9
$DIMATFIT
 70
     3
  9
$DIMFRAC
 70
     0
  9
$DIMLDRBLK
  1

  9
$DIMLUNIT
 70
     2
  9
$DIMLWD
 70
    -2
  9
$DIMLWE
 70
    -2
  9
$DIMTMOVE
 70
     0
  9
$LUNITS
 70
     2
  9
$LUPREC
 70
     2
  9
$SKETCHINC
 40
1.0
  9
$FILLETRAD
 40
10.0
  9
$AUNITS
 70
     1
  9
$AUPREC
 70
     2
  9
$MENU
  1
.
  9
$ELEVATION
 40
0.0
  9
$PELEVATION
 40
0.0
  9
$THICKNESS
 40
0.0
  9
$LIMCHECK
 70
     0
  9
$CHAMFERA
 40
0.0
  9
$CHAMFERB
 40
0.0
  9
$CHAMFERC
 40
0.0
  9
$CHAMFERD
 40
0.0
  9
$SKPOLY
 70
     0
  9
$TDCREATE
 40
2459296.627435497
  9
$TDUCREATE
 40
2459296.502435497
  9
$TDUPDATE
 40
2459296.627479248
  9
$TDUUPDATE
 40
2459296.502479248
  9
$TDINDWG
 40
0.0000000116
  9
$TDUSRTIMER
 40
0.0000000116
  9
$USRTIMER
 70
     1
  9
$ANGBASE
 50
0.0
  9
$ANGDIR
 70
     0
  9
$PDMODE
 70
     0
  9
$PDSIZE
 40
-1.0
  9
$PLINEWID
 40
0.0
  9
$SPLFRAME
 70
     0
  9
$SPLINETYPE
 70
     6
  9
$SPLINESEGS
 70
     8
  9
$HANDSEED
  5
357
  9
$SURFTAB1
 70
     6
  9
$SURFTAB2
 70
     6
  9
$SURFTYPE
 70
     6
  9
$SURFU
 70
     6
  9
$SURFV
 70
     6
  9
$UCSBASE
  2

  9
$UCSNAME
  2

  9
$UCSORG
 10
0.0
 20
0.0
 30
0.0
  9
$UCSXDIR
 10
1.0
 20
0.0
 30
0.0
  9
$UCSYDIR
 10
0.0
 20
1.0
 30
0.0
  9
$UCSORTHOREF
  2

  9
$UCSORTHOVIEW
 70
     0
  9
$UCSORGTOP
 10
0.0
 20
0.0
 30
0.0
  9
$UCSORGBOTTOM
 10
0.0
 20
0.0
 30
0.0
  9
$UCSORGLEFT
 10
0.0
 20
0.0
 30
0.0
  9
$UCSORGRIGHT
 10
0.0
 20
0.0
 30
0.0
  9
$UCSORGFRONT
 10
0.0
 20
0.0
 30
0.0
  9
$UCSORGBACK
 10
0.0
 20
0.0
 30
0.0
  9
$PUCSBASE
  2

  9
$PUCSNAME
  2

  9
$PUCSORG
 10
0.0
 20
0.0
 30
0.0
  9
$PUCSXDIR
 10
1.0
 20
0.0
 30
0.0
  9
$PUCSYDIR
 10
0.0
 20
1.0
 30
0.0
  9
$PUCSORTHOREF
  2

  9
$PUCSORTHOVIEW
 70
     0
  9
$PUCSORGTOP
 10
0.0
 20
0.0
 30
0.0
  9
$PUCSORGBOTTOM
 10
0.0
 20
0.0
 30
0.0
  9
$PUCSORGLEFT
 10
0.0
 20
0.0
 30
0.0
  9
$PUCSORGRIGHT
 10
0.0
 20
0.0
 30
0.0
  9
$PUCSORGFRONT
 10
0.0
 20
0.0
 30
0.0
  9
$PUCSORGBACK
 10
0.0
 20
0.0
 30
0.0
  9
$USERI1
 70
     0
  9
$USERI2
 70
     0
  9
$USERI3
 70
     0
  9
$USERI4
 70
     0
  9
$USERI5
 70
     0
  9
$USERR1
 40
0.0
  9
$USERR2
 40
0.0
  9
$USERR3
 40
0.0
  9
$USERR4
 40
0.0
  9
$USERR5
 40
0.0
  9
$WORLDVIEW
 70
     1
  9
$SHADEDGE
 70
     3
  9
$SHADEDIF
 70
    70
  9
$TILEMODE
 70
     1
  9
$MAXACTVP
 70
    64
  9
$PINSBASE
 10
0.0
 20
0.0
 30
0.0
  9
$PLIMCHECK
 70
     0
  9
$PEXTMIN
 10
1.0000000000E+20
 20
1.0000000000E+20
 30
1.0000000000E+20
  9
$PEXTMAX
 10
-1.0000000000E+20
 20
-1.0000000000E+20
 30
-1.0000000000E+20
  9
$PLIMMIN
 10
0.0
 20
0.0
  9
$PLIMMAX
 10
420.0
 20
297.0
  9
$UNITMODE
 70
     0
  9
$VISRETAIN
 70
     1
  9
$PLINEGEN
 70
     0
  9
$PSLTSCALE
 70
     1
  9
$TREEDEPTH
 70
  3020
  9
$CMLSTYLE
  2
Standard
  9
$CMLJUST
 70
     0
  9
$CMLSCALE
 40
20.0
  9
$PROXYGRAPHICS
 70
     1
  9
$MEASUREMENT
 70
     1
  9
$CELWEIGHT
370
    -1
  9
$ENDCAPS
280
     0
  9
$JOINSTYLE
280
     0
  9
$LWDISPLAY
290
     1
  9
$INSUNITS
 70
     4
  9
$HYPERLINKBASE
  1

  9
$STYLESHEET
  1

  9
$XEDIT
290
     1
  9
$CEPSNTYPE
380
     0
  9
$PSTYLEMODE
290
     1
  9
$FINGERPRINTGUID
  2
{4C3C3625-3535-4EF6-9850-206C9A9D7CB6}
  9
$VERSIONGUID
  2
{FAEB1C32-E019-11D5-929B-00C0DF256EC4}
  9
$EXTNAMES
290
     1
  9
$PSVPSCALE
 40
0.0
  9
$OLESTARTUP
290
     0
  0
ENDSEC
  0
SECTION
  2
CLASSES
  0
CLASS
  1
ACDBDICTIONARYWDFLT
  2
AcDbDictionaryWithDefault
  3
ObjectDBX Classes
 90
        0
280
     0
281
     0
  0
CLASS
  1
VISUALSTYLE
  2
AcDbVisualStyle
  3
ObjectDBX Classes
 90
     4095
280
     0
281
     0
  0
CLASS
  1
MATERIAL
  2
AcDbMaterial
  3
ObjectDBX Classes
 90
     1153
280
     0
281
     0
  0
CLASS
  1
SCALE
  2
AcDbScale
  3
ObjectDBX Classes
 90
     1153
280
     0
281
     0
  0
CLASS
  1
SUN
  2
AcDbSun
  3
SCENEOE
 90
     1153
280
     0
281
     0
  0
CLASS
  1
ACDBPLACEHOLDER
  2
AcDbPlaceHolder
  3
ObjectDBX Classes
 90
        0
280
     0
281
     0
  0
CLASS
  1
LAYOUT
  2
AcDbLayout
  3
ObjectDBX Classes
 90
        0
280
     0
281
     0
  0
ENDSEC
  0
SECTION
  2
TABLES
  0
TABLE
  2
VPORT
  5
8
330
0
100
AcDbSymbolTable
 70
     1
  0
VPORT
  5
29
330
8
100
AcDbSymbolTableRecord
100
AcDbViewportTableRecord
  2
*Active
 70
     0
 10
0.0
 20
0.0
 11
1.0
 21
1.0
 12
0.0
 22
0.0
 13
0.0
 23
0.0
 14
10.0
 24
10.0
 15
10.0
 25
10.0
 16
0.0
 26
0.0
 36
1.0
 17
0.0
 27
0.0
 37
0.0
 40
3187.296
 41
1.3389656938
 42
50.0
 43
0.0
 44
0.0
 50
0.0
 51
0.0
 71
     0
 72
   100
 73
     1
 74
     3
 75
     0
 76
     0
 77
     0
 78
     0
281
     0
 65
     1
110
0.0
120
0.0
130
0.0
111
1.0
121
0.0
131
0.0
112
0.0
122
1.0
132
0.0
 79
     0
146
0.0
  0
ENDTAB
  0
TABLE
  2
LTYPE
  5
5
330
0
100
AcDbSymbolTable
 70
     6
  0
LTYPE
  5
14
330
5
100
AcDbSymbolTableRecord
100
AcDbLinetypeTableRecord
  2
ByBlock
 70
     0
  3

 72
    65
 73
     0
 40
0.0
  0
LTYPE
  5
15
330
5
100
AcDbSymbolTableRecord
100
AcDbLinetypeTableRecord
  2
ByLayer
 70
     0
  3

 72
    65
 73
     0
 40
0.0
  0
LTYPE
  5
16
330
5
100
AcDbSymbolTableRecord
100
AcDbLinetypeTableRecord
  2
Continuous
 70
     0
  3
Solid line
 72
    65
 73
     0
 40
0.0
  0
LTYPE
  5
6A
330
5
100
AcDbSymbolTableRecord
100
AcDbLinetypeTableRecord
  2
HIDDEN
 70
     0
  3
Hidden __ __ __ __ __ __ __ __ __ __ __ __ __ __
 72
    65
 73
     2
 40
1.905
 49
1.27
 74
     0
 49
-0.635
 74
     0
  0
LTYPE
  5
6B
330
5
100
AcDbSymbolTableRecord
100
AcDbLinetypeTableRecord
  2
PHANTOM
 70
     0
  3
Phantom ______  __  __  ______  __  __  ______
 72
    65
 73
     6
 40
12.7
 49
6.35
 74
     0
 49
-1.27
 74
     0
 49
1.27
 74
     0
 49
-1.27
 74
     0
 49
1.27
 74
     0
 49
-1.27
 74
     0
  0
LTYPE
  5
6C
330
5
100
AcDbSymbolTableRecord
100
AcDbLinetypeTableRecord
  2
CENTER
 70
     0
  3
Center ____ _ ____ _ ____ _ ____ _ ____ _ ____
 72
    65
 73
     4
 40
10.16
 49
6.35
 74
     0
 49
-1.27
 74
     0
 49
1.27
 74
     0
 49
-1.27
 74
     0
  0
LTYPE
  5
6D
330
5
100
AcDbSymbolTableRecord
100
AcDbLinetypeTableRecord
  2
CENTERX2
 70
     0
  3
Center (2x) ________  __  ________  __  _____
 72
    65
 73
     4
 40
20.32
 49
12.7
 74
     0
 49
-2.54
 74
     0
 49
2.54
 74
     0
 49
-2.54
 74
     0
  0
LTYPE
  5
6E
330
5
100
AcDbSymbolTableRecord
100
AcDbLinetypeTableRecord
  2
DOT2
 70
     0
  3
Dot (.5x) ........................................
 72
    65
 73
     2
 40
0.635
 49
0.0
 74
     0
 49
-0.635
 74
     0
  0
ENDTAB
  0
TABLE
  2
LAYER
  5
2
330
0
100
AcDbSymbolTable
 70
     1
  0
LAYER
  5
10
330
2
100
AcDbSymbolTableRecord
100
AcDbLayerTableRecord
  2
0
 70
     0
 62
     7
  6
Continuous
370
    -3
390
F
  0
ENDTAB
  0
TABLE
  2
STYLE
  5
3
330
0
100
AcDbSymbolTable
 70
     1
  0
STYLE
  5
11
330
3
100
AcDbSymbolTableRecord
100
AcDbTextStyleTableRecord
  2
Standard
 70
     0
 40
0.0
 41
1.0
 50
0.0
 71
     0
 42
3.0
  3
txt
  4

  0
ENDTAB
  0
TABLE
  2
VIEW
  5
6
330
0
100
AcDbSymbolTable
 70
     0
  0
ENDTAB
  0
TABLE
  2
UCS
  5
7
330
0
100
AcDbSymbolTable
 70
     0
  0
ENDTAB
  0
TABLE
  2
APPID
  5
9
330
0
100
AcDbSymbolTable
 70
     1
  0
APPID
  5
12
330
9
100
AcDbSymbolTableRecord
100
AcDbRegAppTableRecord
  2
ACAD
 70
     0
  0
ENDTAB
  0
TABLE
  2
DIMSTYLE
  5
A
330
0
100
AcDbSymbolTable
 70
     1
100
AcDbDimStyleTable
  0
DIMSTYLE
105
27
330
A
100
AcDbSymbolTableRecord
100
AcDbDimStyleTableRecord
  2
ISO-25
 70
     0
 41
2.5
 42
0.625
 43
3.75
 44
1.25
 73
     0
 74
     0
 77
     1
 78
     8
140
2.5
141
2.5
143
0.0393700787
147
0.625
171
     3
172
     1
178
     0
271
     2
272
     2
274
     3
278
    44
283
     0
284
     8
340
11
  0
ENDTAB
  0
TABLE
  2
BLOCK_RECORD
  5
1
330
0
100
AcDbSymbolTable
 70
     1
  0
BLOCK_RECORD
  5
1F
330
1
100
AcDbSymbolTableRecord
100
AcDbBlockTableRecord
  2
*Model_Space
340
22
  0
BLOCK_RECORD
  5
1B
330
1
100
AcDbSymbolTableRecord
100
AcDbBlockTableRecord
  2
*Paper_Space
340
1E
  0
BLOCK_RECORD
  5
23
330
1
100
AcDbSymbolTableRecord
100
AcDbBlockTableRecord
  2
*Paper_Space0
340
26
  0
ENDTAB
  0
ENDSEC
  0
SECTION
  2
BLOCKS
  0
BLOCK
  5
20
330
1F
100
AcDbEntity
  8
0
100
AcDbBlockBegin
  2
*Model_Space
 70
     0
 10
0.0
 20
0.0
 30
0.0
  3
*Model_Space
  1
*Model_Space
  0
ENDBLK
  5
21
330
1F
100
AcDbEntity
  8
0
100
AcDbBlockEnd
  0
BLOCK
  5
1C
330
1B
100
AcDbEntity
 67
     1
  8
0
100
AcDbBlockBegin
  2
*Paper_Space
 70
     0
 10
0.0
 20
0.0
 30
0.0
  3
*Paper_Space
  1
*Paper_Space
  0
ENDBLK
  5
1D
330
1B
100
AcDbEntity
 67
     1
  8
0
100
AcDbBlockEnd
  0
BLOCK
  5
24
330
23
100
AcDbEntity
  8
0
100
AcDbBlockBegin
  2
*Paper_Space0
 70
     0
 10
0.0
 20
0.0
 30
0.0
  3
*Paper_Space0
  1
*Paper_Space0
  0
ENDBLK
  5
25
330
23
100
AcDbEntity
  8
0
100
AcDbBlockEnd
  0
ENDSEC
  0
SECTION
  2
ENTITIES
  0
CIRCLE
  5
DB
330
1F
100
AcDbEntity
  8
0
  6
Continuous
 62
     7
370
    15
100
AcDbCircle
 10
525.0
 20
0.0
 30
0.0
 40
28.50249999999954
  0
CIRCLE
  5
110
330
1F
100
AcDbEntity
  8
0
  6
Continuous
 62
     7
370
    15
100
AcDbCircle
 10
-525.0
 20
0.0
 30
0.0
 40
28.50249999999998
  0
SPLINE
  5
11D
330
1F
100
AcDbEntity
  8
0
  6
Continuous
 62
     7
370
    15
100
AcDbSpline
210
0.0
220
0.0
230
1.0
 70
     8
 71
     3
 72
    29
 73
    25
 74
     0
 42
0.000000001
 43
0.00000001
 40
0.0
 40
0.0
 40
0.0
 40
0.0
 40
0.1249999999999892
 40
0.1249999999999892
 40
0.1874999999999898
 40
0.1874999999999898
 40
0.2499999999999904
 40
0.2499999999999904
 40
0.3749999999999943
 40
0.3749999999999943
 40
0.4999999999999983
 40
0.4999999999999983
 40
0.6250000000000023
 40
0.6250000000000023
 40
0.6875000000000019
 40
0.6875000000000019
 40
0.7500000000000014
 40
0.8125000000000011
 40
0.8125000000000011
 40
0.8750000000000007
 40
0.8750000000000007
 40
0.9375000000000003
 40
0.9375000000000003
 40
1.0
 40
1.0
 40
1.0
 40
1.0
 10
537.9409522551247
 20
48.29629131446514
 30
0.0
 10
537.9409522551248
 20
48.29629131446514
 30
0.0
 10
537.9266681032624
 20
48.24647898087387
 30
0.0
 10
537.8846982199839
 20
48.10009778498053
 30
0.0
 10
537.8672589851326
 20
48.03927149711786
 30
0.0
 10
537.8253273718033
 20
47.89300532286147
 30
0.0
 10
537.8007160921892
 20
47.80715054470238
 30
0.0
 10
537.7177999562149
 20
47.51787047604395
 30
0.0
 10
537.6501566973477
 20
47.28183800642321
 30
0.0
 10
537.4903991673317
 20
46.72419296305907
 30
0.0
 10
537.3974313756157
 20
46.39959749704749
 30
0.0
 10
537.1944285578596
 20
45.69050891737022
 30
0.0
 10
537.0837002839247
 20
45.30359816413297
 30
0.0
 10
536.9034770184093
 20
44.67352856871143
 30
0.0
 10
536.8410400332815
 20
44.45519429347492
 30
0.0
 10
536.7141703496926
 20
44.0114278317307
 30
0.0
 10
536.5846394365601
 20
43.55823714619425
 30
0.0
 10
536.4498777352981
 20
43.08648295396626
 30
0.0
 10
536.3124702332061
 20
42.60532111258716
 30
0.0
 10
536.2421404642276
 20
42.35897419040965
 30
0.0
 10
536.1002907903528
 20
41.86195223977157
 30
0.0
 10
536.0289711887856
 20
41.6119797558911
 30
0.0
 10
535.8855527824071
 20
41.10913802199674
 30
0.0
 10
535.812714526189
 20
40.85366428748256
 30
0.0
 10
535.741336500038
 20
40.60324728631783
 30
0.0
  0
SPLINE
  5
11F
330
1F
100
AcDbEntity
  8
0
  6
Continuous
 62
     7
370
    15
100
AcDbSpline
210
0.0
220
0.0
230
1.0
 70
     8
 71
     3
 72
    31
 73
    27
 74
     0
 42
0.000000001
 43
0.00000001
 40
0.0
 40
0.0
 40
0.0
 40
0.0
 40
0.1250000000000085
 40
0.1250000000000085
 40
0.1875000000000117
 40
0.1875000000000117
 40
0.2500000000000149
 40
0.2500000000000149
 40
0.3750000000000119
 40
0.3750000000000119
 40
0.500000000000009
 40
0.500000000000009
 40
0.625000000000006
 40
0.625000000000006
 40
0.6875000000000051
 40
0.6875000000000051
 40
0.7500000000000041
 40
0.8125000000000031
 40
0.8125000000000031
 40
0.8750000000000021
 40
0.8750000000000021
 40
0.9375000000000004
 40
0.9375000000000004
 40
0.9687500000000002
 40
0.9687500000000002
 40
1.0
 40
1.0
 40
1.0
 40
1.0
 10
573.2249469215675
 20
37.50889158050986
 30
0.0
 10
573.2249469215674
 20
37.50889158050985
 30
0.0
 10
573.2071235585144
 20
37.46007995322405
 30
0.0
 10
573.1547222227999
 20
37.31665971037611
 30
0.0
 10
573.1329450227888
 20
37.25706558401468
 30
0.0
 10
573.080562181031
 20
37.11376989076147
 30
0.0
 10
573.0498114913374
 20
37.02967209202377
 30
0.0
 10
572.9461718858913
 20
36.74636761729509
 30
0.0
 10
572.8615686345582
 20
36.51524767986356
 30
0.0
 10
572.6614526748915
 20
35.96934936968354
 30
0.0
 10
572.5448957088089
 20
35.65173664593873
 30
0.0
 10
572.2899262930551
 20
34.95822901331686
 30
0.0
 10
572.1506319321873
 20
34.57991875079136
 30
0.0
 10
571.9233680764975
 20
33.96407499327482
 30
0.0
 10
571.8445944832445
 20
33.7508302510626
 30
0.0
 10
571.6843171953029
 20
33.31746048685618
 30
0.0
 10
571.5204782894635
 20
32.87495562558554
 30
0.0
 10
571.3495633789571
 20
32.41448059059074
 30
0.0
 10
571.1750339981443
 20
31.94491009754974
 30
0.0
 10
571.0855625752596
 20
31.70450582878798
 30
0.0
 10
570.9049367789826
 20
31.21988993000516
 30
0.0
 10
570.8139906326844
 20
30.97623367001255
 30
0.0
 10
570.6766146542909
 20
30.60875324677468
 30
0.0
 10
570.6306629540557
 20
30.48592647552143
 30
0.0
 10
570.5384359945617
 20
30.23960326530305
 30
0.0
 10
570.4917291519845
 20
30.11496906250953
 30
0.0
 10
570.445983291353
 20
29.99297197302694
 30
0.0
  0
SPLINE
  5
122
330
1F
100
AcDbEntity
  8
0
  6
Continuous
 62
     7
370
    15
100
AcDbSpline
210
0.0
220
0.0
230
1.0
 70
     8
 71
     3
 72
    31
 73
    27
 74
     0
 42
0.000000001
 43
0.00000001
 40
0.0
 40
0.0
 40
0.0
 40
0.0
 40
0.1249999999999829
 40
0.1249999999999829
 40
0.1874999999999834
 40
0.1874999999999834
 40
0.249999999999984
 40
0.249999999999984
 40
0.3749999999999829
 40
0.3749999999999829
 40
0.4999999999999819
 40
0.4999999999999819
 40
0.6249999999999809
 40
0.6249999999999809
 40
0.6874999999999841
 40
0.6874999999999841
 40
0.7499999999999872
 40
0.8124999999999905
 40
0.8124999999999905
 40
0.8749999999999937
 40
0.8749999999999937
 40
0.9374999999999969
 40
0.9374999999999969
 40
0.9687499999999986
 40
0.9687499999999986
 40
1.0
 40
1.0
 40
1.0
 40
1.0
 10
591.999999999999
 20
10.75000000001166
 30
0.0
 10
591.9999999999991
 20
10.75000000001166
 30
0.0
 10
591.9481728299432
 20
10.74853772009332
 30
0.0
 10
591.7958745425983
 20
10.74422485806365
 30
0.0
 10
591.7325898369605
 20
10.74243107611079
 30
0.0
 10
591.5804133710172
 20
10.73810830978201
 30
0.0
 10
591.491092036858
 20
10.73556702307146
 30
0.0
 10
591.1901427553493
 20
10.72698085246732
 30
0.0
 10
590.9445960505019
 20
10.71994862839165
 30
0.0
 10
590.3644987563587
 20
10.70319392775238
 30
0.0
 10
590.0268626205287
 20
10.69337974481001
 30
0.0
 10
589.2893491840707
 20
10.67171098893468
 30
0.0
 10
588.8869466856019
 20
10.65978523816933
 30
0.0
 10
588.23168893508
 20
10.64011379751542
 30
0.0
 10
588.004658142006
 20
10.63325843537487
 30
0.0
 10
587.5432253751735
 20
10.61923180841642
 30
0.0
 10
587.0720050718849
 20
10.60481704419893
 30
0.0
 10
586.5815096362394
 20
10.5896035825395
 30
0.0
 10
586.0812476753945
 20
10.57396920958446
 30
0.0
 10
585.825117969135
 20
10.56590607865417
 30
0.0
 10
585.3084602154274
 20
10.54950970700162
 30
0.0
 10
585.0486372714369
 20
10.54119942551055
 30
0.0
 10
584.6566837562837
 20
10.52855823905054
 30
0.0
 10
584.5256620566649
 20
10.52431518729072
 30
0.0
 10
584.2628731325907
 20
10.51576880544875
 30
0.0
 10
584.1301437703311
 20
10.51143058112976
 30
0.0
 10
583.9999999999991
 20
10.50716514262885
 30
0.0
  0
SPLINE
  5
137
330
1F
100
AcDbEntity
  8
0
  6
Continuous
 62
     7
370
    15
100
AcDbSpline
210
0.0
220
0.0
230
1.0
 70
     8
 71
     3
 72
    29
 73
    25
 74
     0
 42
0.000000001
 43
0.00000001
 40
0.0
 40
0.0
 40
0.0
 40
0.0
 40
0.1249999999999787
 40
0.1249999999999787
 40
0.1874999999999737
 40
0.1874999999999737
 40
0.2499999999999687
 40
0.2499999999999687
 40
0.3749999999999709
 40
0.3749999999999709
 40
0.4999999999999731
 40
0.4999999999999731
 40
0.6249999999999754
 40
0.6249999999999754
 40
0.6874999999999795
 40
0.6874999999999795
 40
0.7499999999999836
 40
0.8124999999999877
 40
0.8124999999999877
 40
0.8749999999999918
 40
0.8749999999999918
 40
0.9374999999999959
 40
0.9374999999999959
 40
1.0
 40
1.0
 40
1.0
 40
1.0
 10
537.9409522551247
 20
-48.29629131444184
 30
0.0
 10
537.9409522551247
 20
-48.29629131444184
 30
0.0
 10
537.9266681032628
 20
-48.24647898085047
 30
0.0
 10
537.8846982199844
 20
-48.10009778495713
 30
0.0
 10
537.8672589851329
 20
-48.03927149709441
 30
0.0
 10
537.8253273718036
 20
-47.89300532283803
 30
0.0
 10
537.8007160921896
 20
-47.80715054467898
 30
0.0
 10
537.7177999562149
 20
-47.51787047602053
 30
0.0
 10
537.6501566973482
 20
-47.28183800639984
 30
0.0
 10
537.490399167332
 20
-46.72419296303568
 30
0.0
 10
537.3974313756162
 20
-46.3995974970241
 30
0.0
 10
537.1944285578602
 20
-45.69050891734685
 30
0.0
 10
537.0837002839249
 20
-45.30359816410957
 30
0.0
 10
536.9034770184091
 20
-44.67352856868803
 30
0.0
 10
536.8410400332817
 20
-44.45519429345154
 30
0.0
 10
536.7141703496926
 20
-44.01142783170734
 30
0.0
 10
536.5846394365592
 20
-43.55823714617105
 30
0.0
 10
536.4498777352986
 20
-43.0864829539428
 30
0.0
 10
536.3124702332069
 20
-42.60532111256371
 30
0.0
 10
536.2421404642282
 20
-42.35897419038623
 30
0.0
 10
536.1002907903533
 20
-41.86195223974816
 30
0.0
 10
536.028971188786
 20
-41.61197975586761
 30
0.0
 10
535.8855527824078
 20
-41.10913802197323
 30
0.0
 10
535.8127145261886
 20
-40.8536642874593
 30
0.0
 10
535.7413365000381
 20
-40.60324728629447
 30
0.0
  0
SPLINE
  5
138
330
1F
100
AcDbEntity
  8
0
  6
Continuous
 62
     7
370
    15
100
AcDbSpline
210
0.0
220
0.0
230
1.0
 70
     8
 71
     3
 72
    31
 73
    27
 74
     0
 42
0.000000001
 43
0.00000001
 40
0.0
 40
0.0
 40
0.0
 40
0.0
 40
0.1250000000000046
 40
0.1250000000000046
 40
0.1875000000000058
 40
0.1875000000000058
 40
0.250000000000007
 40
0.250000000000007
 40
0.3749999999999973
 40
0.3749999999999973
 40
0.4999999999999876
 40
0.4999999999999876
 40
0.6249999999999778
 40
0.6249999999999778
 40
0.6874999999999798
 40
0.6874999999999798
 40
0.7499999999999817
 40
0.8124999999999837
 40
0.8124999999999837
 40
0.8749999999999857
 40
0.8749999999999857
 40
0.9374999999999876
 40
0.9374999999999876
 40
0.9687499999999939
 40
0.9687499999999939
 40
1.0
 40
1.0
 40
1.0
 40
1.0
 10
573.2249469215675
 20
-37.50889158048653
 30
0.0
 10
573.2249469215674
 20
-37.50889158048652
 30
0.0
 10
573.2071235585141
 20
-37.4600799532008
 30
0.0
 10
573.1547222227996
 20
-37.31665971035287
 30
0.0
 10
573.1329450227887
 20
-37.25706558399141
 30
0.0
 10
573.080562181031
 20
-37.11376989073824
 30
0.0
 10
573.0498114913374
 20
-37.02967209200052
 30
0.0
 10
572.9461718858912
 20
-36.74636761727182
 30
0.0
 10
572.8615686345581
 20
-36.51524767984029
 30
0.0
 10
572.6614526748912
 20
-35.96934936966027
 30
0.0
 10
572.5448957088086
 20
-35.65173664591552
 30
0.0
 10
572.2899262930549
 20
-34.95822901329367
 30
0.0
 10
572.1506319321874
 20
-34.57991875076812
 30
0.0
 10
571.9233680764971
 20
-33.96407499325158
 30
0.0
 10
571.8445944832444
 20
-33.75083025103934
 30
0.0
 10
571.6843171953028
 20
-33.31746048683293
 30
0.0
 10
571.5204782551524
 20
-32.87495568616565
 30
0.0
 10
571.349563378957
 20
-32.4144805905675
 30
0.0
 10
571.1750339981438
 20
-31.9449100975265
 30
0.0
 10
571.0855625752595
 20
-31.70450582876475
 30
0.0
 10
570.9049367789823
 20
-31.21988992998194
 30
0.0
 10
570.8139906326842
 20
-30.97623366998932
 30
0.0
 10
570.676614654291
 20
-30.60875324675142
 30
0.0
 10
570.6306629540558
 20
-30.48592647549817
 30
0.0
 10
570.5384359945618
 20
-30.23960326527978
 30
0.0
 10
570.4917291519812
 20
-30.11496906248754
 30
0.0
 10
570.445983291353
 20
-29.99297197300367
 30
0.0
  0
SPLINE
  5
13B
330
1F
100
AcDbEntity
  8
0
  6
Continuous
 62
     7
370
    15
100
AcDbSpline
210
0.0
220
0.0
230
1.0
 70
     8
 71
     3
 72
    31
 73
    27
 74
     0
 42
0.000000001
 43
0.00000001
 40
0.0
 40
0.0
 40
0.0
 40
0.0
 40
0.1249999999999829
 40
0.1249999999999829
 40
0.1874999999999834
 40
0.1874999999999834
 40
0.249999999999984
 40
0.249999999999984
 40
0.3749999999999829
 40
0.3749999999999829
 40
0.4999999999999819
 40
0.4999999999999819
 40
0.6249999999999809
 40
0.6249999999999809
 40
0.687499999999984
 40
0.687499999999984
 40
0.7499999999999871
 40
0.8124999999999903
 40
0.8124999999999903
 40
0.8749999999999936
 40
0.8749999999999936
 40
0.9374999999999968
 40
0.9374999999999968
 40
0.9687499999999984
 40
0.9687499999999984
 40
1.0
 40
1.0
 40
1.0
 40
1.0
 10
591.9999999999991
 20
-10.74999999998834
 30
0.0
 10
591.9999999999993
 20
-10.74999999998834
 30
0.0
 10
591.9481728299432
 20
-10.7485377200699
 30
0.0
 10
591.7958745425983
 20
-10.74422485804024
 30
0.0
 10
591.7325898369605
 20
-10.74243107608747
 30
0.0
 10
591.5804133710172
 20
-10.73810830975869
 30
0.0
 10
591.491092036858
 20
-10.73556702304811
 30
0.0
 10
591.1901427553493
 20
-10.72698085244396
 30
0.0
 10
590.9445960505019
 20
-10.71994862836829
 30
0.0
 10
590.3644987563587
 20
-10.70319392772901
 30
0.0
 10
590.0268626205287
 20
-10.6933797447866
 30
0.0
 10
589.2893491840707
 20
-10.67171098891128
 30
0.0
 10
588.8869466856019
 20
-10.659785238146
 30
0.0
 10
588.2316889350802
 20
-10.6401137974921
 30
0.0
 10
588.0046581420062
 20
-10.63325843535149
 30
0.0
 10
587.5432253751735
 20
-10.61923180839305
 30
0.0
 10
587.0720050718849
 20
-10.60481704417554
 30
0.0
 10
586.5815096362394
 20
-10.58960358251607
 30
0.0
 10
586.0812476753945
 20
-10.57396920956102
 30
0.0
 10
585.825117969135
 20
-10.56590607863072
 30
0.0
 10
585.3084602154274
 20
-10.54950970697815
 30
0.0
 10
585.0486372714369
 20
-10.54119942548708
 30
0.0
 10
584.6566837562838
 20
-10.52855823902702
 30
0.0
 10
584.5256620566649
 20
-10.52431518726726
 30
0.0
 10
584.2628731325909
 20
-10.51576880542515
 30
0.0
 10
584.1301437703312
 20
-10.51143058110643
 30
0.0
 10
583.9999999999991
 20
-10.50716514260553
 30
0.0
  0
SPLINE
  5
149
330
1F
100
AcDbEntity
  8
0
  6
Continuous
 62
     7
370
    15
100
AcDbSpline
210
0.0
220
0.0
230
1.0
 70
     8
 71
     3
 72
    29
 73
    25
 74
     0
 42
0.000000001
 43
0.00000001
 40
0.0
 40
0.0
 40
0.0
 40
0.0
 40
0.1249999999999779
 40
0.1249999999999779
 40
0.1874999999999742
 40
0.1874999999999742
 40
0.2499999999999705
 40
0.2499999999999705
 40
0.3749999999999754
 40
0.3749999999999754
 40
0.4999999999999802
 40
0.4999999999999802
 40
0.6249999999999851
 40
0.6249999999999851
 40
0.6874999999999877
 40
0.6874999999999877
 40
0.7499999999999901
 40
0.8124999999999926
 40
0.8124999999999926
 40
0.874999999999995
 40
0.874999999999995
 40
0.9374999999999976
 40
0.9374999999999976
 40
1.0
 40
1.0
 40
1.0
 40
1.0
 10
-537.9409522551256
 20
48.29629131446514
 30
0.0
 10
-537.9409522551257
 20
48.29629131446513
 30
0.0
 10
-537.9266681032634
 20
48.24647898087388
 30
0.0
 10
-537.8846982199849
 20
48.10009778498054
 30
0.0
 10
-537.8672589851337
 20
48.03927149711777
 30
0.0
 10
-537.8253273718044
 20
47.89300532286134
 30
0.0
 10
-537.8007160921904
 20
47.80715054470232
 30
0.0
 10
-537.717799956216
 20
47.51787047604387
 30
0.0
 10
-537.6501566973488
 20
47.28183800642324
 30
0.0
 10
-537.4903991673323
 20
46.72419296305906
 30
0.0
 10
-537.3974313756165
 20
46.39959749704749
 30
0.0
 10
-537.1944285578606
 20
45.69050891737023
 30
0.0
 10
-537.0837002839259
 20
45.30359816413294
 30
0.0
 10
-536.9034770184098
 20
44.6735285687114
 30
0.0
 10
-536.8410400332825
 20
44.45519429347485
 30
0.0
 10
-536.7141703496935
 20
44.01142783173065
 30
0.0
 10
-536.5846394156179
 20
43.55823710211687
 30
0.0
 10
-536.4498777352993
 20
43.08648295396617
 30
0.0
 10
-536.3124702332077
 20
42.60532111258705
 30
0.0
 10
-536.2421404642288
 20
42.35897419040967
 30
0.0
 10
-536.1002907903536
 20
41.86195223977159
 30
0.0
 10
-536.0289711887862
 20
41.61197975589105
 30
0.0
 10
-535.8855527824079
 20
41.10913802199676
 30
0.0
 10
-535.8127145261897
 20
40.8536642874826
 30
0.0
 10
-535.741336500039
 20
40.60324728631777
 30
0.0
  0
SPLINE
  5
14B
330
1F
100
AcDbEntity
  8
0
  6
Continuous
 62
     7
370
    15
100
AcDbSpline
210
0.0
220
0.0
230
1.0
 70
     8
 71
     3
 72
    31
 73
    27
 74
     0
 42
0.000000001
 43
0.00000001
 40
0.0
 40
0.0
 40
0.0
 40
0.0
 40
0.1250000000000002
 40
0.1250000000000002
 40
0.1875000000000014
 40
0.1875000000000014
 40
0.2500000000000026
 40
0.2500000000000026
 40
0.3749999999999955
 40
0.3749999999999955
 40
0.4999999999999885
 40
0.4999999999999885
 40
0.6249999999999815
 40
0.6249999999999815
 40
0.687499999999986
 40
0.687499999999986
 40
0.7499999999999906
 40
0.8124999999999951
 40
0.8124999999999951
 40
0.8749999999999997
 40
0.8749999999999997
 40
0.9375000000000042
 40
0.9375000000000042
 40
0.9687500000000022
 40
0.9687500000000022
 40
1.0
 40
1.0
 40
1.0
 40
1.0
 10
-573.2249469215683
 20
37.50889158050986
 30
0.0
 10
-573.2249469215684
 20
37.50889158050987
 30
0.0
 10
-573.2071235585154
 20
37.46007995322409
 30
0.0
 10
-573.1547222228005
 20
37.31665971037614
 30
0.0
 10
-573.1329450227895
 20
37.2570655840147
 30
0.0
 10
-573.0805621810321
 20
37.1137698907615
 30
0.0
 10
-573.0498114913383
 20
37.02967209202379
 30
0.0
 10
-572.946171885892
 20
36.74636761729509
 30
0.0
 10
-572.8615686345588
 20
36.51524767986357
 30
0.0
 10
-572.6614526748922
 20
35.96934936968356
 30
0.0
 10
-572.5448957088095
 20
35.6517366459388
 30
0.0
 10
-572.2899262930559
 20
34.95822901331693
 30
0.0
 10
-572.150631932188
 20
34.5799187507914
 30
0.0
 10
-571.923368076498
 20
33.96407499327486
 30
0.0
 10
-571.8445944832453
 20
33.75083025106262
 30
0.0
 10
-571.6843171953035
 20
33.31746048685621
 30
0.0
 10
-571.5204782551536
 20
32.87495568618893
 30
0.0
 10
-571.349563378958
 20
32.41448059059079
 30
0.0
 10
-571.1750339981448
 20
31.94491009754977
 30
0.0
 10
-571.0855625752605
 20
31.70450582878805
 30
0.0
 10
-570.9049367789831
 20
31.21988993000524
 30
0.0
 10
-570.8139906326852
 20
30.97623367001259
 30
0.0
 10
-570.6766146542919
 20
30.6087532467747
 30
0.0
 10
-570.6306629540564
 20
30.48592647552151
 30
0.0
 10
-570.5384359945622
 20
30.23960326530317
 30
0.0
 10
-570.4917291519822
 20
30.11496906251086
 30
0.0
 10
-570.4459832913539
 20
29.99297197302699
 30
0.0
  0
SPLINE
  5
14D
330
1F
100
AcDbEntity
  8
0
  6
Continuous
 62
     7
370
    15
100
AcDbSpline
210
0.0
220
0.0
230
1.0
 70
     8
 71
     3
 72
    31
 73
    27
 74
     0
 42
0.000000001
 43
0.00000001
 40
0.0
 40
0.0
 40
0.0
 40
0.0
 40
0.1249999999999829
 40
0.1249999999999829
 40
0.1874999999999834
 40
0.1874999999999834
 40
0.249999999999984
 40
0.249999999999984
 40
0.3749999999999829
 40
0.3749999999999829
 40
0.4999999999999819
 40
0.4999999999999819
 40
0.6249999999999809
 40
0.6249999999999809
 40
0.6874999999999841
 40
0.6874999999999841
 40
0.7499999999999872
 40
0.8124999999999905
 40
0.8124999999999905
 40
0.8749999999999937
 40
0.8749999999999937
 40
0.9374999999999969
 40
0.9374999999999969
 40
0.9687499999999986
 40
0.9687499999999986
 40
1.0
 40
1.0
 40
1.0
 40
1.0
 10
-591.9999999999999
 20
10.75000000001166
 30
0.0
 10
-592.0
 20
10.75000000001166
 30
0.0
 10
-591.9481728299442
 20
10.74853772009332
 30
0.0
 10
-591.7958745425992
 20
10.74422485806365
 30
0.0
 10
-591.7325898369614
 20
10.74243107611079
 30
0.0
 10
-591.5804133710182
 20
10.73810830978201
 30
0.0
 10
-591.4910920368588
 20
10.73556702307146
 30
0.0
 10
-591.1901427553502
 20
10.72698085246732
 30
0.0
 10
-590.9445960505028
 20
10.71994862839165
 30
0.0
 10
-590.3644987563596
 20
10.70319392775238
 30
0.0
 10
-590.0268626205296
 20
10.69337974481001
 30
0.0
 10
-589.2893491840716
 20
10.67171098893468
 30
0.0
 10
-588.8869466856027
 20
10.65978523816933
 30
0.0
 10
-588.2316889350809
 20
10.64011379751542
 30
0.0
 10
-588.0046581420069
 20
10.63325843537487
 30
0.0
 10
-587.5432253751743
 20
10.61923180841642
 30
0.0
 10
-587.0720050718858
 20
10.60481704419893
 30
0.0
 10
-586.5815096362402
 20
10.5896035825395
 30
0.0
 10
-586.0812476753954
 20
10.57396920958446
 30
0.0
 10
-585.8251179691359
 20
10.56590607865417
 30
0.0
 10
-585.3084602154283
 20
10.54950970700162
 30
0.0
 10
-585.0486372714378
 20
10.54119942551055
 30
0.0
 10
-584.6566837562846
 20
10.52855823905054
 30
0.0
 10
-584.5256620566657
 20
10.52431518729072
 30
0.0
 10
-584.2628731325916
 20
10.51576880544875
 30
0.0
 10
-584.130143770332
 20
10.51143058112976
 30
0.0
 10
-584.0
 20
10.50716514262885
 30
0.0
  0
SPLINE
  5
15B
330
1F
100
AcDbEntity
  8
0
  6
Continuous
 62
     7
370
    15
100
AcDbSpline
210
0.0
220
0.0
230
1.0
 70
     8
 71
     3
 72
    29
 73
    25
 74
     0
 42
0.000000001
 43
0.00000001
 40
0.0
 40
0.0
 40
0.0
 40
0.0
 40
0.1249999999999779
 40
0.1249999999999779
 40
0.1874999999999742
 40
0.1874999999999742
 40
0.2499999999999705
 40
0.2499999999999705
 40
0.3749999999999754
 40
0.3749999999999754
 40
0.4999999999999802
 40
0.4999999999999802
 40
0.6249999999999851
 40
0.6249999999999851
 40
0.6874999999999877
 40
0.6874999999999877
 40
0.7499999999999901
 40
0.8124999999999926
 40
0.8124999999999926
 40
0.874999999999995
 40
0.874999999999995
 40
0.9374999999999976
 40
0.9374999999999976
 40
1.0
 40
1.0
 40
1.0
 40
1.0
 10
-537.9409522551256
 20
-48.29629131444184
 30
0.0
 10
-537.9409522551256
 20
-48.29629131444184
 30
0.0
 10
-537.9266681032632
 20
-48.24647898085059
 30
0.0
 10
-537.8846982199847
 20
-48.10009778495726
 30
0.0
 10
-537.8672589851335
 20
-48.03927149709448
 30
0.0
 10
-537.8253273718044
 20
-47.89300532283807
 30
0.0
 10
-537.8007160921907
 20
-47.80715054467898
 30
0.0
 10
-537.717799956216
 20
-47.51787047602054
 30
0.0
 10
-537.6501566973488
 20
-47.28183800639987
 30
0.0
 10
-537.4903991673324
 20
-46.72419296303569
 30
0.0
 10
-537.3974313756166
 20
-46.39959749702412
 30
0.0
 10
-537.1944285578611
 20
-45.69050891734685
 30
0.0
 10
-537.0837002839257
 20
-45.30359816410969
 30
0.0
 10
-536.9034770184098
 20
-44.67352856868814
 30
0.0
 10
-536.8410400332823
 20
-44.45519429345162
 30
0.0
 10
-536.7141703496934
 20
-44.01142783170741
 30
0.0
 10
-536.5846394156176
 20
-43.55823710209363
 30
0.0
 10
-536.4498777352993
 20
-43.08648295394285
 30
0.0
 10
-536.3124702332077
 20
-42.60532111256374
 30
0.0
 10
-536.2421404642291
 20
-42.35897419038629
 30
0.0
 10
-536.100290790354
 20
-41.86195223974819
 30
0.0
 10
-536.0289711887863
 20
-41.61197975586776
 30
0.0
 10
-535.8855527824079
 20
-41.10913802197351
 30
0.0
 10
-535.81271452619
 20
-40.85366428745918
 30
0.0
 10
-535.7413365000389
 20
-40.60324728629453
 30
0.0
  0
SPLINE
  5
15D
330
1F
100
AcDbEntity
  8
0
  6
Continuous
 62
     7
370
    15
100
AcDbSpline
210
0.0
220
0.0
230
1.0
 70
     8
 71
     3
 72
    31
 73
    27
 74
     0
 42
0.000000001
 43
0.00000001
 40
0.0
 40
0.0
 40
0.0
 40
0.0
 40
0.1250000000000002
 40
0.1250000000000002
 40
0.187500000000001
 40
0.187500000000001
 40
0.2500000000000018
 40
0.2500000000000018
 40
0.3749999999999947
 40
0.3749999999999947
 40
0.4999999999999877
 40
0.4999999999999877
 40
0.6249999999999807
 40
0.6249999999999807
 40
0.6874999999999852
 40
0.6874999999999852
 40
0.7499999999999897
 40
0.8124999999999942
 40
0.8124999999999942
 40
0.8749999999999988
 40
0.8749999999999988
 40
0.9375000000000033
 40
0.9375000000000033
 40
0.9687500000000018
 40
0.9687500000000018
 40
1.0
 40
1.0
 40
1.0
 40
1.0
 10
-573.2249469215683
 20
-37.50889158048653
 30
0.0
 10
-573.2249469215683
 20
-37.50889158048654
 30
0.0
 10
-573.2071235585151
 20
-37.46007995320078
 30
0.0
 10
-573.1547222228008
 20
-37.31665971035287
 30
0.0
 10
-573.1329450227896
 20
-37.25706558399139
 30
0.0
 10
-573.080562181032
 20
-37.11376989073818
 30
0.0
 10
-573.0498114913381
 20
-37.02967209200048
 30
0.0
 10
-572.9461718858922
 20
-36.74636761727179
 30
0.0
 10
-572.861568634559
 20
-36.51524767984027
 30
0.0
 10
-572.6614526748921
 20
-35.96934936966025
 30
0.0
 10
-572.5448957088096
 20
-35.6517366459155
 30
0.0
 10
-572.2899262930559
 20
-34.95822901329363
 30
0.0
 10
-572.150631932188
 20
-34.57991875076809
 30
0.0
 10
-571.9233680764979
 20
-33.96407499325155
 30
0.0
 10
-571.8445944832454
 20
-33.75083025103932
 30
0.0
 10
-571.6843171953037
 20
-33.31746048683291
 30
0.0
 10
-571.5204782894644
 20
-32.87495562556227
 30
0.0
 10
-571.3495633789579
 20
-32.41448059056748
 30
0.0
 10
-571.1750339981448
 20
-31.94491009752646
 30
0.0
 10
-571.0855625752605
 20
-31.70450582876471
 30
0.0
 10
-570.9049367789831
 20
-31.21988992998191
 30
0.0
 10
-570.8139906326851
 20
-30.97623366998928
 30
0.0
 10
-570.6766146542918
 20
-30.60875324675138
 30
0.0
 10
-570.6306629540566
 20
-30.48592647549812
 30
0.0
 10
-570.538435994563
 20
-30.23960326527973
 30
0.0
 10
-570.4917291519855
 20
-30.11496906248632
 30
0.0
 10
-570.445983291354
 20
-29.99297197300363
 30
0.0
  0
SPLINE
  5
15F
330
1F
100
AcDbEntity
  8
0
  6
Continuous
 62
     7
370
    15
100
AcDbSpline
210
0.0
220
0.0
230
1.0
 70
     8
 71
     3
 72
    31
 73
    27
 74
     0
 42
0.000000001
 43
0.00000001
 40
0.0
 40
0.0
 40
0.0
 40
0.0
 40
0.1249999999999829
 40
0.1249999999999829
 40
0.1874999999999834
 40
0.1874999999999834
 40
0.249999999999984
 40
0.249999999999984
 40
0.3749999999999829
 40
0.3749999999999829
 40
0.4999999999999819
 40
0.4999999999999819
 40
0.6249999999999809
 40
0.6249999999999809
 40
0.687499999999984
 40
0.687499999999984
 40
0.7499999999999871
 40
0.8124999999999903
 40
0.8124999999999903
 40
0.8749999999999936
 40
0.8749999999999936
 40
0.9374999999999968
 40
0.9374999999999968
 40
0.9687499999999984
 40
0.9687499999999984
 40
1.0
 40
1.0
 40
1.0
 40
1.0
 10
-592.0
 20
-10.74999999998834
 30
0.0
 10
-592.0000000000002
 20
-10.74999999998834
 30
0.0
 10
-591.9481728299442
 20
-10.7485377200699
 30
0.0
 10
-591.7958745425992
 20
-10.74422485804024
 30
0.0
 10
-591.7325898369614
 20
-10.74243107608747
 30
0.0
 10
-591.5804133710182
 20
-10.73810830975869
 30
0.0
 10
-591.4910920368588
 20
-10.73556702304811
 30
0.0
 10
-591.1901427553502
 20
-10.72698085244396
 30
0.0
 10
-590.9445960505028
 20
-10.71994862836829
 30
0.0
 10
-590.3644987563596
 20
-10.70319392772901
 30
0.0
 10
-590.0268626205296
 20
-10.6933797447866
 30
0.0
 10
-589.2893491840716
 20
-10.67171098891128
 30
0.0
 10
-588.8869466856027
 20
-10.659785238146
 30
0.0
 10
-588.2316889350811
 20
-10.6401137974921
 30
0.0
 10
-588.0046581420071
 20
-10.63325843535149
 30
0.0
 10
-587.5432253751743
 20
-10.61923180839305
 30
0.0
 10
-587.0720050718858
 20
-10.60481704417554
 30
0.0
 10
-586.5815096362402
 20
-10.58960358251607
 30
0.0
 10
-586.0812476753954
 20
-10.57396920956102
 30
0.0
 10
-585.8251179691359
 20
-10.56590607863072
 30
0.0
 10
-585.3084602154283
 20
-10.54950970697815
 30
0.0
 10
-585.0486372714378
 20
-10.54119942548708
 30
0.0
 10
-584.6566837562847
 20
-10.52855823902702
 30
0.0
 10
-584.5256620566657
 20
-10.52431518726726
 30
0.0
 10
-584.2628731325918
 20
-10.51576880542515
 30
0.0
 10
-584.1301437703321
 20
-10.51143058110643
 30
0.0
 10
-584.0
 20
-10.50716514260553
 30
0.0
  0
CIRCLE
  5
1A7
330
1F
100
AcDbEntity
  8
0
  6
PHANTOM
 62
     8
370
     0
100
AcDbCircle
 10
525.0
 20
0.0
 30
0.0
 40
27.62549999999997
  0
CIRCLE
  5
1D2
330
1F
100
AcDbEntity
  8
0
  6
PHANTOM
 62
     8
370
     0
100
AcDbCircle
 10
-525.0
 20
0.0
 30
0.0
 40
27.62550000000012
  0
LINE
  5
21F
330
1F
100
AcDbEntity
  8
0
  6
Continuous
 62
     7
370
    15
100
AcDbLine
 10
-234.0
 20
-62.3969696197
 30
0.0
 11
-150.0
 21
-62.3969696197
 31
0.0
  0
LINE
  5
220
330
1F
100
AcDbEntity
  8
0
  6
Continuous
 62
     7
370
    15
100
AcDbLine
 10
-150.0
 20
62.3969696197
 30
0.0
 11
-234.0
 21
62.3969696197
 31
0.0
  0
LINE
  5
221
330
1F
100
AcDbEntity
  8
0
  6
Continuous
 62
     7
370
    15
100
AcDbLine
 10
-42.0
 20
-62.3969696197
 30
0.0
 11
42.0
 21
-62.3969696197
 31
0.0
  0
LINE
  5
222
330
1F
100
AcDbEntity
  8
0
  6
Continuous
 62
     7
370
    15
100
AcDbLine
 10
42.0
 20
62.3969696197
 30
0.0
 11
-42.0
 21
62.3969696197
 31
0.0
  0
LINE
  5
223
330
1F
100
AcDbEntity
  8
0
  6
Continuous
 62
     7
370
    15
100
AcDbLine
 10
454.8333261701
 20
33.2732882864
 30
0.0
 11
454.8333261701
 21
32.9627054322
 31
0.0
  0
LINE
  5
224
330
1F
100
AcDbEntity
  8
0
  6
Continuous
 62
     7
370
    15
100
AcDbLine
 10
438.75
 20
11.0
 30
0.0
 11
438.75
 21
10.0
 31
0.0
  0
LINE
  5
225
330
1F
100
AcDbEntity
  8
0
  6
Continuous
 62
     7
370
    15
100
AcDbLine
 10
447.25
 20
10.0
 30
0.0
 11
447.25
 21
11.0
 31
0.0
  0
LINE
  5
226
330
1F
100
AcDbEntity
  8
0
  6
Continuous
 62
     7
370
    15
100
AcDbLine
 10
448.8140102365
 20
31.6604174429
 30
0.0
 11
448.8140102365
 21
31.3498345888
 31
0.0
  0
LINE
  5
227
330
1F
100
AcDbEntity
  8
0
  6
Continuous
 62
     7
370
    15
100
AcDbLine
 10
456.2182524503
 20
-33.6443781647
 30
0.0
 11
456.2182524503
 21
-33.3337953106
 31
0.0
  0
LINE
  5
228
330
1F
100
AcDbEntity
  8
0
  6
Continuous
 62
     7
370
    15
100
AcDbLine
 10
448.9036696707
 20
-31.3738587618
 30
0.0
 11
448.9036696707
 21
-31.6844416159
 31
0.0
  0
LINE
  5
229
330
1F
100
AcDbEntity
  8
0
  6
Continuous
 62
     7
370
    15
100
AcDbLine
 10
447.25
 20
-11.0
 30
0.0
 11
447.25
 21
-10.0
 31
0.0
  0
LINE
  5
22A
330
1F
100
AcDbEntity
  8
0
  6
Continuous
 62
     7
370
    15
100
AcDbLine
 10
438.75
 20
-10.0
 30
0.0
 11
438.75
 21
-11.0
 31
0.0
  0
LINE
  5
22B
330
1F
100
AcDbEntity
  8
0
  6
Continuous
 62
     7
370
    15
100
AcDbLine
 10
448.8140102365
 20
-31.3498345888
 30
0.0
 11
448.8140102365
 21
-31.6604174429
 31
0.0
  0
LINE
  5
22C
330
1F
100
AcDbEntity
  8
0
  6
Continuous
 62
     7
370
    15
100
AcDbLine
 10
-456.2182524503
 20
33.6443781647
 30
0.0
 11
-456.2182524503
 21
33.3337953106
 31
0.0
  0
LINE
  5
22D
330
1F
100
AcDbEntity
  8
0
  6
Continuous
 62
     7
370
    15
100
AcDbLine
 10
-448.9036696707
 20
31.3738587618
 30
0.0
 11
-448.9036696707
 21
31.6844416159
 31
0.0
  0
LINE
  5
22E
330
1F
100
AcDbEntity
  8
0
  6
Continuous
 62
     7
370
    15
100
AcDbLine
 10
-447.25
 20
11.0
 30
0.0
 11
-447.25
 21
10.0
 31
0.0
  0
LINE
  5
22F
330
1F
100
AcDbEntity
  8
0
  6
Continuous
 62
     7
370
    15
100
AcDbLine
 10
-438.75
 20
10.0
 30
0.0
 11
-438.75
 21
11.0
 31
0.0
  0
LINE
  5
230
330
1F
100
AcDbEntity
  8
0
  6
Continuous
 62
     7
370
    15
100
AcDbLine
 10
-448.8140102365
 20
31.3498345888
 30
0.0
 11
-448.8140102365
 21
31.6604174429
 31
0.0
  0
LINE
  5
231
330
1F
100
AcDbEntity
  8
0
  6
Continuous
 62
     7
370
    15
100
AcDbLine
 10
-454.8333261701
 20
-33.2732882863
 30
0.0
 11
-454.8333261701
 21
-32.9627054322
 31
0.0
  0
LINE
  5
232
330
1F
100
AcDbEntity
  8
0
  6
Continuous
 62
     7
370
    15
100
AcDbLine
 10
-438.75
 20
-11.0
 30
0.0
 11
-438.75
 21
-10.0
 31
0.0
  0
LINE
  5
233
330
1F
100
AcDbEntity
  8
0
  6
Continuous
 62
     7
370
    15
100
AcDbLine
 10
-447.25
 20
-10.0
 30
0.0
 11
-447.25
 21
-11.0
 31
0.0
  0
LINE
  5
234
330
1F
100
AcDbEntity
  8
0
  6
Continuous
 62
     7
370
    15
100
AcDbLine
 10
-448.8140102365
 20
-31.6604174429
 30
0.0
 11
-448.8140102365
 21
-31.3498345888
 31
0.0
  0
LINE
  5
235
330
1F
100
AcDbEntity
  8
0
  6
Continuous
 62
     7
370
    15
100
AcDbLine
 10
150.0
 20
-62.3969696197
 30
0.0
 11
234.0
 21
-62.3969696197
 31
0.0
  0
LINE
  5
236
330
1F
100
AcDbEntity
  8
0
  6
Continuous
 62
     7
370
    15
100
AcDbLine
 10
234.0
 20
62.3969696197
 30
0.0
 11
150.0
 21
62.3969696197
 31
0.0
  0
LINE
  5
237
330
1F
100
AcDbEntity
  8
0
  6
Continuous
 62
     7
370
    15
100
AcDbLine
 10
382.75
 20
-30.0
 30
0.0
 11
382.75
 21
-40.0
 31
0.0
  0
LINE
  5
238
330
1F
100
AcDbEntity
  8
0
  6
Continuous
 62
     7
370
    15
100
AcDbLine
 10
415.25
 20
-40.0
 30
0.0
 11
415.25
 21
-30.0
 31
0.0
  0
LINE
  5
239
330
1F
100
AcDbEntity
  8
0
  6
Continuous
 62
     7
370
    15
100
AcDbLine
 10
386.05
 20
-44.2785119025
 30
0.0
 11
386.05
 21
-44.5895002101
 31
0.0
  0
LINE
  5
23A
330
1F
100
AcDbEntity
  8
0
  6
Continuous
 62
     7
370
    15
100
AcDbLine
 10
411.95
 20
-44.5895002101
 30
0.0
 11
411.95
 21
-44.2785119025
 31
0.0
  0
LINE
  5
23B
330
1F
100
AcDbEntity
  8
0
  6
Continuous
 62
     7
370
    15
100
AcDbLine
 10
415.25
 20
30.0
 30
0.0
 11
415.25
 21
40.0
 31
0.0
  0
LINE
  5
23C
330
1F
100
AcDbEntity
  8
0
  6
Continuous
 62
     7
370
    15
100
AcDbLine
 10
382.75
 20
40.0
 30
0.0
 11
382.75
 21
30.0
 31
0.0
  0
LINE
  5
23D
330
1F
100
AcDbEntity
  8
0
  6
Continuous
 62
     7
370
    15
100
AcDbLine
 10
411.95
 20
44.2785119025
 30
0.0
 11
411.95
 21
44.5895002101
 31
0.0
  0
LINE
  5
23E
330
1F
100
AcDbEntity
  8
0
  6
Continuous
 62
     7
370
    15
100
AcDbLine
 10
386.05
 20
44.5895002101
 30
0.0
 11
386.05
 21
44.2785119025
 31
0.0
  0
LINE
  5
23F
330
1F
100
AcDbEntity
  8
0
  6
Continuous
 62
     7
370
    15
100
AcDbLine
 10
478.0
 20
11.0
 30
0.0
 11
478.0
 21
10.0
 31
0.0
  0
LINE
  5
240
330
1F
100
AcDbEntity
  8
0
  6
Continuous
 62
     7
370
    15
100
AcDbLine
 10
478.0
 20
-10.0
 30
0.0
 11
478.0
 21
-11.0
 31
0.0
  0
LINE
  5
241
330
1F
100
AcDbEntity
  8
0
  6
Continuous
 62
     7
370
    15
100
AcDbLine
 10
486.0
 20
-11.0
 30
0.0
 11
486.0
 21
-10.0
 31
0.0
  0
LINE
  5
242
330
1F
100
AcDbEntity
  8
0
  6
Continuous
 62
     7
370
    15
100
AcDbLine
 10
486.0
 20
10.0
 30
0.0
 11
486.0
 21
11.0
 31
0.0
  0
LINE
  5
243
330
1F
100
AcDbEntity
  8
0
  6
Continuous
 62
     7
370
    15
100
AcDbLine
 10
560.5
 20
0.75
 30
0.0
 11
560.5
 21
-0.75
 31
0.0
  0
LINE
  5
244
330
1F
100
AcDbEntity
  8
0
  6
Continuous
 62
     7
370
    15
100
AcDbLine
 10
568.5
 20
-0.75
 30
0.0
 11
568.5
 21
0.75
 31
0.0
  0
LINE
  5
245
330
1F
100
AcDbEntity
  8
0
  6
Continuous
 62
     7
370
    15
100
AcDbLine
 10
-486.0
 20
11.0
 30
0.0
 11
-486.0
 21
10.0
 31
0.0
  0
LINE
  5
246
330
1F
100
AcDbEntity
  8
0
  6
Continuous
 62
     7
370
    15
100
AcDbLine
 10
-486.0
 20
-10.0
 30
0.0
 11
-486.0
 21
-11.0
 31
0.0
  0
LINE
  5
247
330
1F
100
AcDbEntity
  8
0
  6
Continuous
 62
     7
370
    15
100
AcDbLine
 10
-478.0
 20
-11.0
 30
0.0
 11
-478.0
 21
-10.0
 31
0.0
  0
LINE
  5
248
330
1F
100
AcDbEntity
  8
0
  6
Continuous
 62
     7
370
    15
100
AcDbLine
 10
-478.0
 20
10.0
 30
0.0
 11
-478.0
 21
11.0
 31
0.0
  0
LINE
  5
249
330
1F
100
AcDbEntity
  8
0
  6
Continuous
 62
     7
370
    15
100
AcDbLine
 10
-568.5
 20
0.75
 30
0.0
 11
-568.5
 21
-0.75
 31
0.0
  0
LINE
  5
24A
330
1F
100
AcDbEntity
  8
0
  6
Continuous
 62
     7
370
    15
100
AcDbLine
 10
-560.5
 20
-0.75
 30
0.0
 11
-560.5
 21
0.75
 31
0.0
  0
LINE
  5
24B
330
1F
100
AcDbEntity
  8
0
  6
Continuous
 62
     7
370
    15
100
AcDbLine
 10
-415.25
 20
-30.0
 30
0.0
 11
-415.25
 21
-40.0
 31
0.0
  0
LINE
  5
24C
330
1F
100
AcDbEntity
  8
0
  6
Continuous
 62
     7
370
    15
100
AcDbLine
 10
-382.75
 20
-40.0
 30
0.0
 11
-382.75
 21
-30.0
 31
0.0
  0
LINE
  5
24D
330
1F
100
AcDbEntity
  8
0
  6
Continuous
 62
     7
370
    15
100
AcDbLine
 10
-411.95
 20
-44.2785119025
 30
0.0
 11
-411.95
 21
-44.5895002101
 31
0.0
  0
LINE
  5
24E
330
1F
100
AcDbEntity
  8
0
  6
Continuous
 62
     7
370
    15
100
AcDbLine
 10
-386.05
 20
-44.5895002101
 30
0.0
 11
-386.05
 21
-44.2785119025
 31
0.0
  0
LINE
  5
24F
330
1F
100
AcDbEntity
  8
0
  6
Continuous
 62
     7
370
    15
100
AcDbLine
 10
-382.75
 20
30.0
 30
0.0
 11
-382.75
 21
40.0
 31
0.0
  0
LINE
  5
250
330
1F
100
AcDbEntity
  8
0
  6
Continuous
 62
     7
370
    15
100
AcDbLine
 10
-415.25
 20
40.0
 30
0.0
 11
-415.25
 21
30.0
 31
0.0
  0
LINE
  5
251
330
1F
100
AcDbEntity
  8
0
  6
Continuous
 62
     7
370
    15
100
AcDbLine
 10
-386.05
 20
44.2785119025
 30
0.0
 11
-386.05
 21
44.5895002101
 31
0.0
  0
LINE
  5
252
330
1F
100
AcDbEntity
  8
0
  6
Continuous
 62
     7
370
    15
100
AcDbLine
 10
-411.95
 20
44.5895002101
 30
0.0
 11
-411.95
 21
44.2785119025
 31
0.0
  0
LINE
  5
253
330
1F
100
AcDbEntity
  8
0
  6
Continuous
 62
     7
370
    15
100
AcDbLine
 10
-223.25
 20
-30.0
 30
0.0
 11
-223.25
 21
-40.0
 31
0.0
  0
LINE
  5
254
330
1F
100
AcDbEntity
  8
0
  6
Continuous
 62
     7
370
    15
100
AcDbLine
 10
-190.75
 20
-40.0
 30
0.0
 11
-190.75
 21
-30.0
 31
0.0
  0
LINE
  5
255
330
1F
100
AcDbEntity
  8
0
  6
Continuous
 62
     7
370
    15
100
AcDbLine
 10
-219.95
 20
-44.2785119025
 30
0.0
 11
-219.95
 21
-44.5895002101
 31
0.0
  0
LINE
  5
256
330
1F
100
AcDbEntity
  8
0
  6
Continuous
 62
     7
370
    15
100
AcDbLine
 10
-194.05
 20
-44.5895002101
 30
0.0
 11
-194.05
 21
-44.2785119025
 31
0.0
  0
LINE
  5
257
330
1F
100
AcDbEntity
  8
0
  6
Continuous
 62
     7
370
    15
100
AcDbLine
 10
-190.75
 20
30.0
 30
0.0
 11
-190.75
 21
40.0
 31
0.0
  0
LINE
  5
258
330
1F
100
AcDbEntity
  8
0
  6
Continuous
 62
     7
370
    15
100
AcDbLine
 10
-223.25
 20
40.0
 30
0.0
 11
-223.25
 21
30.0
 31
0.0
  0
LINE
  5
259
330
1F
100
AcDbEntity
  8
0
  6
Continuous
 62
     7
370
    15
100
AcDbLine
 10
-194.05
 20
44.2785119025
 30
0.0
 11
-194.05
 21
44.5895002101
 31
0.0
  0
LINE
  5
25A
330
1F
100
AcDbEntity
  8
0
  6
Continuous
 62
     7
370
    15
100
AcDbLine
 10
-219.95
 20
44.5895002101
 30
0.0
 11
-219.95
 21
44.2785119025
 31
0.0
  0
LINE
  5
25B
330
1F
100
AcDbEntity
  8
0
  6
Continuous
 62
     7
370
    15
100
AcDbLine
 10
190.75
 20
-30.0
 30
0.0
 11
190.75
 21
-40.0
 31
0.0
  0
LINE
  5
25C
330
1F
100
AcDbEntity
  8
0
  6
Continuous
 62
     7
370
    15
100
AcDbLine
 10
223.25
 20
-40.0
 30
0.0
 11
223.25
 21
-30.0
 31
0.0
  0
LINE
  5
25D
330
1F
100
AcDbEntity
  8
0
  6
Continuous
 62
     7
370
    15
100
AcDbLine
 10
194.05
 20
-44.2785119025
 30
0.0
 11
194.05
 21
-44.5895002101
 31
0.0
  0
LINE
  5
25E
330
1F
100
AcDbEntity
  8
0
  6
Continuous
 62
     7
370
    15
100
AcDbLine
 10
219.95
 20
-44.5895002101
 30
0.0
 11
219.95
 21
-44.2785119025
 31
0.0
  0
LINE
  5
25F
330
1F
100
AcDbEntity
  8
0
  6
Continuous
 62
     7
370
    15
100
AcDbLine
 10
223.25
 20
30.0
 30
0.0
 11
223.25
 21
40.0
 31
0.0
  0
LINE
  5
260
330
1F
100
AcDbEntity
  8
0
  6
Continuous
 62
     7
370
    15
100
AcDbLine
 10
190.75
 20
40.0
 30
0.0
 11
190.75
 21
30.0
 31
0.0
  0
LINE
  5
261
330
1F
100
AcDbEntity
  8
0
  6
Continuous
 62
     7
370
    15
100
AcDbLine
 10
219.95
 20
44.2785119025
 30
0.0
 11
219.95
 21
44.5895002101
 31
0.0
  0
LINE
  5
262
330
1F
100
AcDbEntity
  8
0
  6
Continuous
 62
     7
370
    15
100
AcDbLine
 10
194.05
 20
44.5895002101
 30
0.0
 11
194.05
 21
44.2785119025
 31
0.0
  0
LINE
  5
263
330
1F
100
AcDbEntity
  8
0
  6
Continuous
 62
     7
370
    15
100
AcDbLine
 10
491.5
 20
-10.0
 30
0.0
 11
-491.5
 21
-10.0
 31
0.0
  0
LINE
  5
264
330
1F
100
AcDbEntity
  8
0
  6
Continuous
 62
     7
370
    15
100
AcDbLine
 10
-494.5
 20
-7.0
 30
0.0
 11
-494.5
 21
7.0
 31
0.0
  0
LINE
  5
265
330
1F
100
AcDbEntity
  8
0
  6
Continuous
 62
     7
370
    15
100
AcDbLine
 10
-491.5
 20
10.0
 30
0.0
 11
491.5
 21
10.0
 31
0.0
  0
LINE
  5
266
330
1F
100
AcDbEntity
  8
0
  6
Continuous
 62
     7
370
    15
100
AcDbLine
 10
494.5
 20
-7.0
 30
0.0
 11
494.5
 21
7.0
 31
0.0
  0
LINE
  5
267
330
1F
100
AcDbEntity
  8
0
  6
Continuous
 62
     7
370
    15
100
AcDbLine
 10
-237.0
 20
30.0
 30
0.0
 11
-237.0
 21
59.3969696197
 31
0.0
  0
LINE
  5
268
330
1F
100
AcDbEntity
  8
0
  6
Continuous
 62
     7
370
    15
100
AcDbLine
 10
-237.0
 20
-59.3969696197
 30
0.0
 11
-237.0
 21
-30.0
 31
0.0
  0
LINE
  5
269
330
1F
100
AcDbEntity
  8
0
  6
Continuous
 62
     7
370
    15
100
AcDbLine
 10
-147.0
 20
59.3969696197
 30
0.0
 11
-147.0
 21
30.0
 31
0.0
  0
LINE
  5
26A
330
1F
100
AcDbEntity
  8
0
  6
Continuous
 62
     7
370
    15
100
AcDbLine
 10
-147.0
 20
-30.0
 30
0.0
 11
-147.0
 21
-59.3969696197
 31
0.0
  0
LINE
  5
26B
330
1F
100
AcDbEntity
  8
0
  6
Continuous
 62
     7
370
    15
100
AcDbLine
 10
-436.0
 20
30.0
 30
0.0
 11
436.0
 21
30.0
 31
0.0
  0
LINE
  5
26C
330
1F
100
AcDbEntity
  8
0
  6
Continuous
 62
     7
370
    15
100
AcDbLine
 10
432.5
 20
11.0
 30
0.0
 11
432.5
 21
13.5
 31
0.0
  0
LINE
  5
26D
330
1F
100
AcDbEntity
  8
0
  6
Continuous
 62
     7
370
    15
100
AcDbLine
 10
432.5
 20
11.0
 30
0.0
 11
496.0
 21
11.0
 31
0.0
  0
LINE
  5
26E
330
1F
100
AcDbEntity
  8
0
  6
Continuous
 62
     7
370
    15
100
AcDbLine
 10
496.0
 20
13.5
 30
0.0
 11
496.0
 21
11.0
 31
0.0
  0
LINE
  5
26F
330
1F
100
AcDbEntity
  8
0
  6
Continuous
 62
     7
370
    15
100
AcDbLine
 10
432.5
 20
-13.5
 30
0.0
 11
432.5
 21
-11.0
 31
0.0
  0
LINE
  5
270
330
1F
100
AcDbEntity
  8
0
  6
Continuous
 62
     7
370
    15
100
AcDbLine
 10
496.0
 20
-11.0
 30
0.0
 11
432.5
 21
-11.0
 31
0.0
  0
LINE
  5
271
330
1F
100
AcDbEntity
  8
0
  6
Continuous
 62
     7
370
    15
100
AcDbLine
 10
496.0
 20
-13.5
 30
0.0
 11
496.0
 21
-11.0
 31
0.0
  0
LINE
  5
272
330
1F
100
AcDbEntity
  8
0
  6
Continuous
 62
     7
370
    15
100
AcDbLine
 10
-496.0
 20
13.5
 30
0.0
 11
-496.0
 21
11.0
 31
0.0
  0
LINE
  5
273
330
1F
100
AcDbEntity
  8
0
  6
Continuous
 62
     7
370
    15
100
AcDbLine
 10
-496.0
 20
11.0
 30
0.0
 11
-432.5
 21
11.0
 31
0.0
  0
LINE
  5
274
330
1F
100
AcDbEntity
  8
0
  6
Continuous
 62
     7
370
    15
100
AcDbLine
 10
-432.5
 20
13.5
 30
0.0
 11
-432.5
 21
11.0
 31
0.0
  0
LINE
  5
275
330
1F
100
AcDbEntity
  8
0
  6
Continuous
 62
     7
370
    15
100
AcDbLine
 10
-496.0
 20
-13.5
 30
0.0
 11
-496.0
 21
-11.0
 31
0.0
  0
LINE
  5
276
330
1F
100
AcDbEntity
  8
0
  6
Continuous
 62
     7
370
    15
100
AcDbLine
 10
-499.897360572
 20
-13.5
 30
0.0
 11
-431.0
 21
-13.5
 31
0.0
  0
LINE
  5
277
330
1F
100
AcDbEntity
  8
0
  6
Continuous
 62
     7
370
    15
100
AcDbLine
 10
-432.5
 20
-11.0
 30
0.0
 11
-496.0
 21
-11.0
 31
0.0
  0
LINE
  5
278
330
1F
100
AcDbEntity
  8
0
  6
Continuous
 62
     7
370
    15
100
AcDbLine
 10
-432.5
 20
-11.0
 30
0.0
 11
-432.5
 21
-13.5
 31
0.0
  0
LINE
  5
279
330
1F
100
AcDbEntity
  8
0
  6
Continuous
 62
     7
370
    15
100
AcDbLine
 10
-2092.0
 20
62.4
 30
0.0
 11
-2092.0
 21
-62.4
 31
0.0
  0
LINE
  5
27A
330
1F
100
AcDbEntity
  8
0
  6
Continuous
 62
     7
370
    15
100
AcDbLine
 10
-592.0
 20
-1562.4
 30
0.0
 11
592.0
 21
-1562.4
 31
0.0
  0
LINE
  5
27B
330
1F
100
AcDbEntity
  8
0
  6
Continuous
 62
     7
370
    15
100
AcDbLine
 10
592.0
 20
1562.4
 30
0.0
 11
-592.0
 21
1562.4
 31
0.0
  0
LINE
  5
27C
330
1F
100
AcDbEntity
  8
0
  6
Continuous
 62
     7
370
    15
100
AcDbLine
 10
2092.0
 20
-62.4
 30
0.0
 11
2092.0
 21
62.4
 31
0.0
  0
LINE
  5
27D
330
1F
100
AcDbEntity
  8
0
  6
Continuous
 62
     7
370
    15
100
AcDbLine
 10
436.0
 20
-30.0
 30
0.0
 11
-436.0
 21
-30.0
 31
0.0
  0
LINE
  5
27E
330
1F
100
AcDbEntity
  8
0
  6
Continuous
 62
     7
370
    15
100
AcDbLine
 10
45.0
 20
59.3969696197
 30
0.0
 11
45.0
 21
30.0
 31
0.0
  0
LINE
  5
27F
330
1F
100
AcDbEntity
  8
0
  6
Continuous
 62
     7
370
    15
100
AcDbLine
 10
45.0
 20
-30.0
 30
0.0
 11
45.0
 21
-59.3969696197
 31
0.0
  0
LINE
  5
280
330
1F
100
AcDbEntity
  8
0
  6
Continuous
 62
     7
370
    15
100
AcDbLine
 10
-45.0
 20
-59.3969696197
 30
0.0
 11
-45.0
 21
-30.0
 31
0.0
  0
LINE
  5
281
330
1F
100
AcDbEntity
  8
0
  6
Continuous
 62
     7
370
    15
100
AcDbLine
 10
-45.0
 20
30.0
 30
0.0
 11
-45.0
 21
59.3969696197
 31
0.0
  0
LINE
  5
282
330
1F
100
AcDbEntity
  8
0
  6
Continuous
 62
     7
370
    15
100
AcDbLine
 10
537.9409522551
 20
48.2962913145
 30
0.0
 11
573.2249469216
 21
37.5088915805
 31
0.0
  0
LINE
  5
283
330
1F
100
AcDbEntity
  8
0
  6
Continuous
 62
     7
370
    15
100
AcDbLine
 10
431.0
 20
13.5
 30
0.0
 11
431.0
 21
20.4379690282
 31
0.0
  0
LINE
  5
284
330
1F
100
AcDbEntity
  8
0
  6
Continuous
 62
     7
370
    15
100
AcDbLine
 10
499.897360572
 20
13.5
 30
0.0
 11
431.0
 21
13.5
 31
0.0
  0
LINE
  5
285
330
1F
100
AcDbEntity
  8
0
  6
Continuous
 62
     7
370
    15
100
AcDbLine
 10
436.9294476392
 20
28.1653756385
 30
0.0
 11
512.0590477449
 21
48.2962913145
 31
0.0
  0
LINE
  5
286
330
1F
100
AcDbEntity
  8
0
  6
Continuous
 62
     7
370
    15
100
AcDbLine
 10
592.0
 20
10.75
 30
0.0
 11
592.0
 21
0.75
 31
0.0
  0
LINE
  5
287
330
1F
100
AcDbEntity
  8
0
  6
Continuous
 62
     7
370
    15
100
AcDbLine
 10
592.0
 20
0.75
 30
0.0
 11
553.4926307359
 21
0.75
 31
0.0
  0
LINE
  5
288
330
1F
100
AcDbEntity
  8
0
  6
Continuous
 62
     7
370
    15
100
AcDbLine
 10
456.0479925353
 20
33.2881743038
 30
0.0
 11
456.0479925353
 21
33.598757158
 31
0.0
  0
LINE
  5
289
330
1F
100
AcDbEntity
  8
0
  6
Continuous
 62
     7
370
    15
100
AcDbLine
 10
453.0939826008
 20
32.4966497275
 30
0.0
 11
453.0939826008
 21
32.8072325816
 31
0.0
  0
LINE
  5
28A
330
1F
100
AcDbEntity
  8
0
  6
Continuous
 62
     7
370
    15
100
AcDbLine
 10
451.9244340784
 20
32.1832701454
 30
0.0
 11
451.9244340784
 21
32.4938529995
 31
0.0
  0
LINE
  5
28B
330
1F
100
AcDbEntity
  8
0
  6
Continuous
 62
     7
370
    15
100
AcDbLine
 10
448.8140102365
 20
31.6604174429
 30
0.0
 11
459.327304302
 21
34.4774460976
 31
0.0
  0
LINE
  5
28C
330
1F
100
AcDbEntity
  8
0
  6
Continuous
 62
     7
370
    15
100
AcDbLine
 10
449.0
 20
31.3996703958
 30
0.0
 11
449.0
 21
31.7102532499
 31
0.0
  0
LINE
  5
28D
330
1F
100
AcDbEntity
  8
0
  6
Continuous
 62
     7
370
    15
100
AcDbLine
 10
459.327304302
 20
34.1668632435
 30
0.0
 11
459.327304302
 21
34.4774460976
 31
0.0
  0
LINE
  5
28E
330
1F
100
AcDbEntity
  8
0
  6
Continuous
 62
     7
370
    15
100
AcDbLine
 10
573.2249469216
 20
-37.5088915805
 30
0.0
 11
537.9409522551
 21
-48.2962913144
 31
0.0
  0
LINE
  5
28F
330
1F
100
AcDbEntity
  8
0
  6
Continuous
 62
     7
370
    15
100
AcDbLine
 10
592.0
 20
-0.75
 30
0.0
 11
592.0
 21
-10.75
 31
0.0
  0
LINE
  5
290
330
1F
100
AcDbEntity
  8
0
  6
Continuous
 62
     7
370
    15
100
AcDbLine
 10
592.0
 20
-0.75
 30
0.0
 11
553.4926307359
 21
-0.75
 31
0.0
  0
LINE
  5
291
330
1F
100
AcDbEntity
  8
0
  6
Continuous
 62
     7
370
    15
100
AcDbLine
 10
431.0
 20
-20.4379690281
 30
0.0
 11
431.0
 21
-13.5
 31
0.0
  0
LINE
  5
292
330
1F
100
AcDbEntity
  8
0
  6
Continuous
 62
     7
370
    15
100
AcDbLine
 10
499.897360572
 20
-13.5
 30
0.0
 11
431.0
 21
-13.5
 31
0.0
  0
LINE
  5
293
330
1F
100
AcDbEntity
  8
0
  6
Continuous
 62
     7
370
    15
100
AcDbLine
 10
512.0590477449
 20
-48.2962913144
 30
0.0
 11
436.9294476392
 21
-28.1653756384
 31
0.0
  0
LINE
  5
294
330
1F
100
AcDbEntity
  8
0
  6
Continuous
 62
     7
370
    15
100
AcDbLine
 10
459.327304302
 20
-34.4774460976
 30
0.0
 11
448.8140102365
 21
-31.6604174429
 31
0.0
  0
LINE
  5
295
330
1F
100
AcDbEntity
  8
0
  6
Continuous
 62
     7
370
    15
100
AcDbLine
 10
459.327304302
 20
-34.1668632434
 30
0.0
 11
459.327304302
 21
-34.4774460976
 31
0.0
  0
LINE
  5
296
330
1F
100
AcDbEntity
  8
0
  6
Continuous
 62
     7
370
    15
100
AcDbLine
 10
-573.2249469216
 20
37.5088915805
 30
0.0
 11
-537.9409522551
 21
48.2962913145
 31
0.0
  0
LINE
  5
297
330
1F
100
AcDbEntity
  8
0
  6
Continuous
 62
     7
370
    15
100
AcDbLine
 10
-431.0
 20
20.4379690282
 30
0.0
 11
-431.0
 21
13.5
 31
0.0
  0
LINE
  5
298
330
1F
100
AcDbEntity
  8
0
  6
Continuous
 62
     7
370
    15
100
AcDbLine
 10
-499.897360572
 20
13.5
 30
0.0
 11
-431.0
 21
13.5
 31
0.0
  0
LINE
  5
299
330
1F
100
AcDbEntity
  8
0
  6
Continuous
 62
     7
370
    15
100
AcDbLine
 10
-592.0
 20
0.75
 30
0.0
 11
-553.4926307359
 21
0.75
 31
0.0
  0
LINE
  5
29A
330
1F
100
AcDbEntity
  8
0
  6
Continuous
 62
     7
370
    15
100
AcDbLine
 10
-592.0
 20
0.75
 30
0.0
 11
-592.0
 21
10.75
 31
0.0
  0
LINE
  5
29B
330
1F
100
AcDbEntity
  8
0
  6
Continuous
 62
     7
370
    15
100
AcDbLine
 10
-512.0590477449
 20
48.2962913145
 30
0.0
 11
-436.9294476392
 21
28.1653756385
 31
0.0
  0
LINE
  5
29C
330
1F
100
AcDbEntity
  8
0
  6
Continuous
 62
     7
370
    15
100
AcDbLine
 10
-459.327304302
 20
34.4774460976
 30
0.0
 11
-448.8140102365
 21
31.6604174429
 31
0.0
  0
LINE
  5
29D
330
1F
100
AcDbEntity
  8
0
  6
Continuous
 62
     7
370
    15
100
AcDbLine
 10
-459.327304302
 20
34.1668632435
 30
0.0
 11
-459.327304302
 21
34.4774460976
 31
0.0
  0
LINE
  5
29E
330
1F
100
AcDbEntity
  8
0
  6
Continuous
 62
     7
370
    15
100
AcDbLine
 10
-537.9409522551
 20
-48.2962913144
 30
0.0
 11
-573.2249469216
 21
-37.5088915805
 31
0.0
  0
LINE
  5
29F
330
1F
100
AcDbEntity
  8
0
  6
Continuous
 62
     7
370
    15
100
AcDbLine
 10
-592.0
 20
-10.75
 30
0.0
 11
-592.0
 21
-0.75
 31
0.0
  0
LINE
  5
2A0
330
1F
100
AcDbEntity
  8
0
  6
Continuous
 62
     7
370
    15
100
AcDbLine
 10
-592.0
 20
-0.75
 30
0.0
 11
-553.4926307359
 21
-0.75
 31
0.0
  0
LINE
  5
2A1
330
1F
100
AcDbEntity
  8
0
  6
Continuous
 62
     7
370
    15
100
AcDbLine
 10
-431.0
 20
-13.5
 30
0.0
 11
-431.0
 21
-20.4379690281
 31
0.0
  0
LINE
  5
2A2
330
1F
100
AcDbEntity
  8
0
  6
Continuous
 62
     7
370
    15
100
AcDbLine
 10
-436.9294476392
 20
-28.1653756384
 30
0.0
 11
-512.0590477449
 21
-48.2962913144
 31
0.0
  0
LINE
  5
2A3
330
1F
100
AcDbEntity
  8
0
  6
Continuous
 62
     7
370
    15
100
AcDbLine
 10
-456.0479925353
 20
-33.2881743038
 30
0.0
 11
-456.0479925353
 21
-33.5987571579
 31
0.0
  0
LINE
  5
2A4
330
1F
100
AcDbEntity
  8
0
  6
Continuous
 62
     7
370
    15
100
AcDbLine
 10
-453.0939826008
 20
-32.4966497274
 30
0.0
 11
-453.0939826008
 21
-32.8072325816
 31
0.0
  0
LINE
  5
2A5
330
1F
100
AcDbEntity
  8
0
  6
Continuous
 62
     7
370
    15
100
AcDbLine
 10
-451.9244340784
 20
-32.1832701453
 30
0.0
 11
-451.9244340784
 21
-32.4938529995
 31
0.0
  0
LINE
  5
2A6
330
1F
100
AcDbEntity
  8
0
  6
Continuous
 62
     7
370
    15
100
AcDbLine
 10
-448.8140102365
 20
-31.6604174429
 30
0.0
 11
-459.327304302
 21
-34.4774460976
 31
0.0
  0
LINE
  5
2A7
330
1F
100
AcDbEntity
  8
0
  6
Continuous
 62
     7
370
    15
100
AcDbLine
 10
-449.0
 20
-31.3996703957
 30
0.0
 11
-449.0
 21
-31.7102532499
 31
0.0
  0
LINE
  5
2A8
330
1F
100
AcDbEntity
  8
0
  6
Continuous
 62
     7
370
    15
100
AcDbLine
 10
-459.327304302
 20
-34.1668632434
 30
0.0
 11
-459.327304302
 21
-34.4774460976
 31
0.0
  0
LINE
  5
2A9
330
1F
100
AcDbEntity
  8
0
  6
Continuous
 62
     7
370
    15
100
AcDbLine
 10
147.0
 20
30.0
 30
0.0
 11
147.0
 21
59.3969696197
 31
0.0
  0
LINE
  5
2AA
330
1F
100
AcDbEntity
  8
0
  6
Continuous
 62
     7
370
    15
100
AcDbLine
 10
147.0
 20
-59.3969696197
 30
0.0
 11
147.0
 21
-30.0
 31
0.0
  0
LINE
  5
2AB
330
1F
100
AcDbEntity
  8
0
  6
Continuous
 62
     7
370
    15
100
AcDbLine
 10
237.0
 20
-30.0
 30
0.0
 11
237.0
 21
-59.3969696197
 31
0.0
  0
LINE
  5
2AC
330
1F
100
AcDbEntity
  8
0
  6
Continuous
 62
     7
370
    15
100
AcDbLine
 10
237.0
 20
59.3969696197
 30
0.0
 11
237.0
 21
30.0
 31
0.0
  0
LINE
  5
2AD
330
1F
100
AcDbEntity
  8
0
  6
Continuous
 62
     7
370
    15
100
AcDbLine
 10
382.75
 20
-40.0
 30
0.0
 11
415.25
 21
-40.0
 31
0.0
  0
LINE
  5
2AE
330
1F
100
AcDbEntity
  8
0
  6
Continuous
 62
     7
370
    15
100
AcDbLine
 10
385.75
 20
-44.2785119025
 30
0.0
 11
412.25
 21
-44.2785119025
 31
0.0
  0
LINE
  5
2AF
330
1F
100
AcDbEntity
  8
0
  6
Continuous
 62
     7
370
    15
100
AcDbLine
 10
386.05
 20
-44.5895002101
 30
0.0
 11
411.95
 21
-44.5895002101
 31
0.0
  0
LINE
  5
2B0
330
1F
100
AcDbEntity
  8
0
  6
Continuous
 62
     7
370
    15
100
AcDbLine
 10
415.25
 20
40.0
 30
0.0
 11
382.75
 21
40.0
 31
0.0
  0
LINE
  5
2B1
330
1F
100
AcDbEntity
  8
0
  6
Continuous
 62
     7
370
    15
100
AcDbLine
 10
412.25
 20
44.2785119025
 30
0.0
 11
385.75
 21
44.2785119025
 31
0.0
  0
LINE
  5
2B2
330
1F
100
AcDbEntity
  8
0
  6
Continuous
 62
     7
370
    15
100
AcDbLine
 10
411.95
 20
44.5895002101
 30
0.0
 11
386.05
 21
44.5895002101
 31
0.0
  0
LINE
  5
2B3
330
1F
100
AcDbEntity
  8
0
  6
Continuous
 62
     7
370
    15
100
AcDbLine
 10
-415.25
 20
-40.0
 30
0.0
 11
-382.75
 21
-40.0
 31
0.0
  0
LINE
  5
2B4
330
1F
100
AcDbEntity
  8
0
  6
Continuous
 62
     7
370
    15
100
AcDbLine
 10
-412.25
 20
-44.2785119025
 30
0.0
 11
-385.75
 21
-44.2785119025
 31
0.0
  0
LINE
  5
2B5
330
1F
100
AcDbEntity
  8
0
  6
Continuous
 62
     7
370
    15
100
AcDbLine
 10
-411.95
 20
-44.5895002101
 30
0.0
 11
-386.05
 21
-44.5895002101
 31
0.0
  0
LINE
  5
2B6
330
1F
100
AcDbEntity
  8
0
  6
Continuous
 62
     7
370
    15
100
AcDbLine
 10
-382.75
 20
40.0
 30
0.0
 11
-415.25
 21
40.0
 31
0.0
  0
LINE
  5
2B7
330
1F
100
AcDbEntity
  8
0
  6
Continuous
 62
     7
370
    15
100
AcDbLine
 10
-385.75
 20
44.2785119025
 30
0.0
 11
-412.25
 21
44.2785119025
 31
0.0
  0
LINE
  5
2B8
330
1F
100
AcDbEntity
  8
0
  6
Continuous
 62
     7
370
    15
100
AcDbLine
 10
-386.05
 20
44.5895002101
 30
0.0
 11
-411.95
 21
44.5895002101
 31
0.0
  0
LINE
  5
2B9
330
1F
100
AcDbEntity
  8
0
  6
Continuous
 62
     7
370
    15
100
AcDbLine
 10
-223.25
 20
-40.0
 30
0.0
 11
-190.75
 21
-40.0
 31
0.0
  0
LINE
  5
2BA
330
1F
100
AcDbEntity
  8
0
  6
Continuous
 62
     7
370
    15
100
AcDbLine
 10
-220.25
 20
-44.2785119025
 30
0.0
 11
-193.75
 21
-44.2785119025
 31
0.0
  0
LINE
  5
2BB
330
1F
100
AcDbEntity
  8
0
  6
Continuous
 62
     7
370
    15
100
AcDbLine
 10
-219.95
 20
-44.5895002101
 30
0.0
 11
-194.05
 21
-44.5895002101
 31
0.0
  0
LINE
  5
2BC
330
1F
100
AcDbEntity
  8
0
  6
Continuous
 62
     7
370
    15
100
AcDbLine
 10
-190.75
 20
40.0
 30
0.0
 11
-223.25
 21
40.0
 31
0.0
  0
LINE
  5
2BD
330
1F
100
AcDbEntity
  8
0
  6
Continuous
 62
     7
370
    15
100
AcDbLine
 10
-193.75
 20
44.2785119025
 30
0.0
 11
-220.25
 21
44.2785119025
 31
0.0
  0
LINE
  5
2BE
330
1F
100
AcDbEntity
  8
0
  6
Continuous
 62
     7
370
    15
100
AcDbLine
 10
-194.05
 20
44.5895002101
 30
0.0
 11
-219.95
 21
44.5895002101
 31
0.0
  0
LINE
  5
2BF
330
1F
100
AcDbEntity
  8
0
  6
Continuous
 62
     7
370
    15
100
AcDbLine
 10
190.75
 20
-40.0
 30
0.0
 11
223.25
 21
-40.0
 31
0.0
  0
LINE
  5
2C0
330
1F
100
AcDbEntity
  8
0
  6
Continuous
 62
     7
370
    15
100
AcDbLine
 10
193.75
 20
-44.2785119025
 30
0.0
 11
220.25
 21
-44.2785119025
 31
0.0
  0
LINE
  5
2C1
330
1F
100
AcDbEntity
  8
0
  6
Continuous
 62
     7
370
    15
100
AcDbLine
 10
194.05
 20
-44.5895002101
 30
0.0
 11
219.95
 21
-44.5895002101
 31
0.0
  0
LINE
  5
2C2
330
1F
100
AcDbEntity
  8
0
  6
Continuous
 62
     7
370
    15
100
AcDbLine
 10
223.25
 20
40.0
 30
0.0
 11
190.75
 21
40.0
 31
0.0
  0
LINE
  5
2C3
330
1F
100
AcDbEntity
  8
0
  6
Continuous
 62
     7
370
    15
100
AcDbLine
 10
220.25
 20
44.2785119025
 30
0.0
 11
193.75
 21
44.2785119025
 31
0.0
  0
LINE
  5
2C4
330
1F
100
AcDbEntity
  8
0
  6
Continuous
 62
     7
370
    15
100
AcDbLine
 10
219.95
 20
44.5895002101
 30
0.0
 11
194.05
 21
44.5895002101
 31
0.0
  0
LINE
  5
2C5
330
1F
100
AcDbEntity
  8
0
  6
PHANTOM
 62
     8
370
     0
100
AcDbLine
 10
-494.5
 20
-7.0
 30
0.0
 11
494.5
 21
-7.0
 31
0.0
  0
LINE
  5
2C6
330
1F
100
AcDbEntity
  8
0
  6
PHANTOM
 62
     8
370
     0
100
AcDbLine
 10
489.5
 20
-10.0
 30
0.0
 11
489.5
 21
10.0
 31
0.0
  0
LINE
  5
2C7
330
1F
100
AcDbEntity
  8
0
  6
PHANTOM
 62
     8
370
     0
100
AcDbLine
 10
-489.5
 20
-10.0
 30
0.0
 11
-489.5
 21
10.0
 31
0.0
  0
LINE
  5
2C8
330
1F
100
AcDbEntity
  8
0
  6
PHANTOM
 62
     8
370
     0
100
AcDbLine
 10
494.5
 20
7.0
 30
0.0
 11
-494.5
 21
7.0
 31
0.0
  0
LINE
  5
2C9
330
1F
100
AcDbEntity
  8
0
  6
PHANTOM
 62
     8
370
     0
100
AcDbLine
 10
-234.0
 20
-61.5182899632
 30
0.0
 11
-150.0
 21
-61.5182899632
 31
0.0
  0
LINE
  5
2CA
330
1F
100
AcDbEntity
  8
0
  6
PHANTOM
 62
     8
370
     0
100
AcDbLine
 10
-234.0
 20
-30.0
 30
0.0
 11
-234.0
 21
-62.3969696197
 31
0.0
  0
LINE
  5
2CB
330
1F
100
AcDbEntity
  8
0
  6
PHANTOM
 62
     8
370
     0
100
AcDbLine
 10
-150.0
 20
-62.3969696197
 30
0.0
 11
-150.0
 21
-30.0
 31
0.0
  0
LINE
  5
2CC
330
1F
100
AcDbEntity
  8
0
  6
PHANTOM
 62
     8
370
     0
100
AcDbLine
 10
-234.0
 20
62.3969696197
 30
0.0
 11
-234.0
 21
30.0
 31
0.0
  0
LINE
  5
2CD
330
1F
100
AcDbEntity
  8
0
  6
PHANTOM
 62
     8
370
     0
100
AcDbLine
 10
-150.0
 20
61.5182899632
 30
0.0
 11
-234.0
 21
61.5182899632
 31
0.0
  0
LINE
  5
2CE
330
1F
100
AcDbEntity
  8
0
  6
PHANTOM
 62
     8
370
     0
100
AcDbLine
 10
-150.0
 20
30.0
 30
0.0
 11
-150.0
 21
62.3969696197
 31
0.0
  0
LINE
  5
2CF
330
1F
100
AcDbEntity
  8
0
  6
PHANTOM
 62
     8
370
     0
100
AcDbLine
 10
-432.5
 20
13.0
 30
0.0
 11
432.5
 21
13.0
 31
0.0
  0
LINE
  5
2D0
330
1F
100
AcDbEntity
  8
0
  6
PHANTOM
 62
     8
370
     0
100
AcDbLine
 10
-289.0
 20
30.0
 30
0.0
 11
-289.0
 21
10.0
 31
0.0
  0
LINE
  5
2D1
330
1F
100
AcDbEntity
  8
0
  6
PHANTOM
 62
     8
370
     0
100
AcDbLine
 10
434.4240028929
 20
27.0
 30
0.0
 11
-434.4240028929
 21
27.0
 31
0.0
  0
LINE
  5
2D2
330
1F
100
AcDbEntity
  8
0
  6
PHANTOM
 62
     8
370
     0
100
AcDbLine
 10
289.0
 20
30.0
 30
0.0
 11
289.0
 21
10.0
 31
0.0
  0
LINE
  5
2D3
330
1F
100
AcDbEntity
  8
0
  6
PHANTOM
 62
     8
370
     0
100
AcDbLine
 10
440.5
 20
13.5
 30
0.0
 11
440.5
 21
11.0
 31
0.0
  0
LINE
  5
2D4
330
1F
100
AcDbEntity
  8
0
  6
PHANTOM
 62
     8
370
     0
100
AcDbLine
 10
440.5
 20
-11.0
 30
0.0
 11
440.5
 21
-13.5
 31
0.0
  0
LINE
  5
2D5
330
1F
100
AcDbEntity
  8
0
  6
PHANTOM
 62
     8
370
     0
100
AcDbLine
 10
-440.5
 20
11.0
 30
0.0
 11
-440.5
 21
13.5
 31
0.0
  0
LINE
  5
2D6
330
1F
100
AcDbEntity
  8
0
  6
PHANTOM
 62
     8
370
     0
100
AcDbLine
 10
-440.5
 20
-13.5
 30
0.0
 11
-440.5
 21
-11.0
 31
0.0
  0
LINE
  5
2D7
330
1F
100
AcDbEntity
  8
0
  6
PHANTOM
 62
     8
370
     0
100
AcDbLine
 10
-434.4240028929
 20
-27.0
 30
0.0
 11
434.4240028929
 21
-27.0
 31
0.0
  0
LINE
  5
2D8
330
1F
100
AcDbEntity
  8
0
  6
PHANTOM
 62
     8
370
     0
100
AcDbLine
 10
432.5
 20
-13.0
 30
0.0
 11
-432.5
 21
-13.0
 31
0.0
  0
LINE
  5
2D9
330
1F
100
AcDbEntity
  8
0
  6
PHANTOM
 62
     8
370
     0
100
AcDbLine
 10
-289.0
 20
-30.0
 30
0.0
 11
-289.0
 21
-10.0
 31
0.0
  0
LINE
  5
2DA
330
1F
100
AcDbEntity
  8
0
  6
PHANTOM
 62
     8
370
     0
100
AcDbLine
 10
289.0
 20
-30.0
 30
0.0
 11
289.0
 21
-10.0
 31
0.0
  0
LINE
  5
2DB
330
1F
100
AcDbEntity
  8
0
  6
PHANTOM
 62
     8
370
     0
100
AcDbLine
 10
42.0
 20
30.0
 30
0.0
 11
42.0
 21
62.3969696197
 31
0.0
  0
LINE
  5
2DC
330
1F
100
AcDbEntity
  8
0
  6
PHANTOM
 62
     8
370
     0
100
AcDbLine
 10
42.0
 20
-62.3969696197
 30
0.0
 11
42.0
 21
-30.0
 31
0.0
  0
LINE
  5
2DD
330
1F
100
AcDbEntity
  8
0
  6
PHANTOM
 62
     8
370
     0
100
AcDbLine
 10
-42.0
 20
-30.0
 30
0.0
 11
-42.0
 21
-62.3969696197
 31
0.0
  0
LINE
  5
2DE
330
1F
100
AcDbEntity
  8
0
  6
PHANTOM
 62
     8
370
     0
100
AcDbLine
 10
-42.0
 20
62.3969696197
 30
0.0
 11
-42.0
 21
30.0
 31
0.0
  0
LINE
  5
2DF
330
1F
100
AcDbEntity
  8
0
  6
PHANTOM
 62
     8
370
     0
100
AcDbLine
 10
-42.0
 20
-61.5182899632
 30
0.0
 11
42.0
 21
-61.5182899632
 31
0.0
  0
LINE
  5
2E0
330
1F
100
AcDbEntity
  8
0
  6
PHANTOM
 62
     8
370
     0
100
AcDbLine
 10
42.0
 20
61.5182899632
 30
0.0
 11
-42.0
 21
61.5182899632
 31
0.0
  0
LINE
  5
2E1
330
1F
100
AcDbEntity
  8
0
  6
PHANTOM
 62
     8
370
     0
100
AcDbLine
 10
570.4459832914
 20
29.992971973
 30
0.0
 11
535.7413365
 21
40.6032472863
 31
0.0
  0
LINE
  5
2E2
330
1F
100
AcDbEntity
  8
0
  6
PHANTOM
 62
     8
370
     0
100
AcDbLine
 10
512.0590477449
 20
48.2962913145
 30
0.0
 11
514.1296001057
 21
40.5688847042
 31
0.0
  0
LINE
  5
2E3
330
1F
100
AcDbEntity
  8
0
  6
PHANTOM
 62
     8
370
     0
100
AcDbLine
 10
439.0
 20
20.4379690282
 30
0.0
 11
431.0
 21
20.4379690282
 31
0.0
  0
LINE
  5
2E4
330
1F
100
AcDbEntity
  8
0
  6
PHANTOM
 62
     8
370
     0
100
AcDbLine
 10
436.9294476392
 20
28.1653756385
 30
0.0
 11
439.0
 21
20.4379690282
 31
0.0
  0
LINE
  5
2E5
330
1F
100
AcDbEntity
  8
0
  6
PHANTOM
 62
     8
370
     0
100
AcDbLine
 10
439.0
 20
20.4379690282
 30
0.0
 11
439.0
 21
13.5
 31
0.0
  0
LINE
  5
2E6
330
1F
100
AcDbEntity
  8
0
  6
PHANTOM
 62
     8
370
     0
100
AcDbLine
 10
514.1296001057
 20
40.5688847042
 30
0.0
 11
439.0
 21
20.4379690282
 31
0.0
  0
LINE
  5
2E7
330
1F
100
AcDbEntity
  8
0
  6
PHANTOM
 62
     8
370
     0
100
AcDbLine
 10
584.0
 20
0.75
 30
0.0
 11
584.0
 21
10.5071651426
 31
0.0
  0
LINE
  5
2E8
330
1F
100
AcDbEntity
  8
0
  6
PHANTOM
 62
     8
370
     0
100
AcDbLine
 10
535.7413365
 20
-40.6032472863
 30
0.0
 11
570.4459832914
 21
-29.992971973
 31
0.0
  0
LINE
  5
2E9
330
1F
100
AcDbEntity
  8
0
  6
PHANTOM
 62
     8
370
     0
100
AcDbLine
 10
514.1296001057
 20
-40.5688847041
 30
0.0
 11
512.0590477449
 21
-48.2962913144
 31
0.0
  0
LINE
  5
2EA
330
1F
100
AcDbEntity
  8
0
  6
PHANTOM
 62
     8
370
     0
100
AcDbLine
 10
584.0
 20
-10.5071651426
 30
0.0
 11
584.0
 21
-0.75
 31
0.0
  0
LINE
  5
2EB
330
1F
100
AcDbEntity
  8
0
  6
PHANTOM
 62
     8
370
     0
100
AcDbLine
 10
439.0
 20
-13.5
 30
0.0
 11
439.0
 21
-20.4379690281
 31
0.0
  0
LINE
  5
2EC
330
1F
100
AcDbEntity
  8
0
  6
PHANTOM
 62
     8
370
     0
100
AcDbLine
 10
439.0
 20
-20.4379690281
 30
0.0
 11
431.0
 21
-20.4379690281
 31
0.0
  0
LINE
  5
2ED
330
1F
100
AcDbEntity
  8
0
  6
PHANTOM
 62
     8
370
     0
100
AcDbLine
 10
439.0
 20
-20.4379690281
 30
0.0
 11
514.1296001057
 21
-40.5688847041
 31
0.0
  0
LINE
  5
2EE
330
1F
100
AcDbEntity
  8
0
  6
PHANTOM
 62
     8
370
     0
100
AcDbLine
 10
439.0
 20
-20.4379690281
 30
0.0
 11
436.9294476392
 21
-28.1653756384
 31
0.0
  0
LINE
  5
2EF
330
1F
100
AcDbEntity
  8
0
  6
PHANTOM
 62
     8
370
     0
100
AcDbLine
 10
-514.1296001057
 20
40.5688847042
 30
0.0
 11
-512.0590477449
 21
48.2962913145
 31
0.0
  0
LINE
  5
2F0
330
1F
100
AcDbEntity
  8
0
  6
PHANTOM
 62
     8
370
     0
100
AcDbLine
 10
-535.7413365
 20
40.6032472863
 30
0.0
 11
-570.4459832914
 21
29.992971973
 31
0.0
  0
LINE
  5
2F1
330
1F
100
AcDbEntity
  8
0
  6
PHANTOM
 62
     8
370
     0
100
AcDbLine
 10
-439.0
 20
13.5
 30
0.0
 11
-439.0
 21
20.4379690282
 31
0.0
  0
LINE
  5
2F2
330
1F
100
AcDbEntity
  8
0
  6
PHANTOM
 62
     8
370
     0
100
AcDbLine
 10
-439.0
 20
20.4379690282
 30
0.0
 11
-431.0
 21
20.4379690282
 31
0.0
  0
LINE
  5
2F3
330
1F
100
AcDbEntity
  8
0
  6
PHANTOM
 62
     8
370
     0
100
AcDbLine
 10
-584.0
 20
10.5071651426
 30
0.0
 11
-584.0
 21
0.75
 31
0.0
  0
LINE
  5
2F4
330
1F
100
AcDbEntity
  8
0
  6
PHANTOM
 62
     8
370
     0
100
AcDbLine
 10
-439.0
 20
20.4379690282
 30
0.0
 11
-514.1296001057
 21
40.5688847042
 31
0.0
  0
LINE
  5
2F5
330
1F
100
AcDbEntity
  8
0
  6
PHANTOM
 62
     8
370
     0
100
AcDbLine
 10
-439.0
 20
20.4379690282
 30
0.0
 11
-436.9294476392
 21
28.1653756385
 31
0.0
  0
LINE
  5
2F6
330
1F
100
AcDbEntity
  8
0
  6
PHANTOM
 62
     8
370
     0
100
AcDbLine
 10
-512.0590477449
 20
-48.2962913144
 30
0.0
 11
-514.1296001057
 21
-40.5688847041
 31
0.0
  0
LINE
  5
2F7
330
1F
100
AcDbEntity
  8
0
  6
PHANTOM
 62
     8
370
     0
100
AcDbLine
 10
-570.4459832914
 20
-29.992971973
 30
0.0
 11
-535.7413365
 21
-40.6032472863
 31
0.0
  0
LINE
  5
2F8
330
1F
100
AcDbEntity
  8
0
  6
PHANTOM
 62
     8
370
     0
100
AcDbLine
 10
-584.0
 20
-0.75
 30
0.0
 11
-584.0
 21
-10.5071651426
 31
0.0
  0
LINE
  5
2F9
330
1F
100
AcDbEntity
  8
0
  6
PHANTOM
 62
     8
370
     0
100
AcDbLine
 10
-439.0
 20
-20.4379690281
 30
0.0
 11
-439.0
 21
-13.5
 31
0.0
  0
LINE
  5
2FA
330
1F
100
AcDbEntity
  8
0
  6
PHANTOM
 62
     8
370
     0
100
AcDbLine
 10
-514.1296001057
 20
-40.5688847041
 30
0.0
 11
-439.0
 21
-20.4379690281
 31
0.0
  0
LINE
  5
2FB
330
1F
100
AcDbEntity
  8
0
  6
PHANTOM
 62
     8
370
     0
100
AcDbLine
 10
-439.0
 20
-20.4379690281
 30
0.0
 11
-431.0
 21
-20.4379690281
 31
0.0
  0
LINE
  5
2FC
330
1F
100
AcDbEntity
  8
0
  6
PHANTOM
 62
     8
370
     0
100
AcDbLine
 10
-436.9294476392
 20
-28.1653756384
 30
0.0
 11
-439.0
 21
-20.4379690281
 31
0.0
  0
LINE
  5
2FD
330
1F
100
AcDbEntity
  8
0
  6
PHANTOM
 62
     8
370
     0
100
AcDbLine
 10
150.0
 20
62.3969696197
 30
0.0
 11
150.0
 21
30.0
 31
0.0
  0
LINE
  5
2FE
330
1F
100
AcDbEntity
  8
0
  6
PHANTOM
 62
     8
370
     0
100
AcDbLine
 10
150.0
 20
-30.0
 30
0.0
 11
150.0
 21
-62.3969696197
 31
0.0
  0
LINE
  5
2FF
330
1F
100
AcDbEntity
  8
0
  6
PHANTOM
 62
     8
370
     0
100
AcDbLine
 10
234.0
 20
-62.3969696197
 30
0.0
 11
234.0
 21
-30.0
 31
0.0
  0
LINE
  5
300
330
1F
100
AcDbEntity
  8
0
  6
PHANTOM
 62
     8
370
     0
100
AcDbLine
 10
150.0
 20
-61.5182899632
 30
0.0
 11
234.0
 21
-61.5182899632
 31
0.0
  0
LINE
  5
301
330
1F
100
AcDbEntity
  8
0
  6
PHANTOM
 62
     8
370
     0
100
AcDbLine
 10
234.0
 20
30.0
 30
0.0
 11
234.0
 21
62.3969696197
 31
0.0
  0
LINE
  5
302
330
1F
100
AcDbEntity
  8
0
  6
PHANTOM
 62
     8
370
     0
100
AcDbLine
 10
234.0
 20
61.5182899632
 30
0.0
 11
150.0
 21
61.5182899632
 31
0.0
  0
ARC
  5
303
330
1F
100
AcDbEntity
  8
0
  6
Continuous
 62
     7
370
    15
100
AcDbCircle
 10
-150.0
 20
-59.3969696197
 30
0.0
 40
3.000000000000007
100
AcDbArc
 50
270.0
 51
0.0
  0
ARC
  5
304
330
1F
100
AcDbEntity
  8
0
  6
Continuous
 62
     7
370
    15
100
AcDbCircle
 10
-234.0
 20
-59.3969696197
 30
0.0
 40
3.0
100
AcDbArc
 50
180.0
 51
270.0
  0
ARC
  5
305
330
1F
100
AcDbEntity
  8
0
  6
Continuous
 62
     7
370
    15
100
AcDbCircle
 10
-150.0
 20
59.3969696197
 30
0.0
 40
3.000000000000007
100
AcDbArc
 50
0.0
 51
90.0
  0
ARC
  5
306
330
1F
100
AcDbEntity
  8
0
  6
Continuous
 62
     7
370
    15
100
AcDbCircle
 10
-234.0
 20
59.3969696197
 30
0.0
 40
3.0
100
AcDbArc
 50
90.0
 51
180.0
  0
ARC
  5
307
330
1F
100
AcDbEntity
  8
0
  6
Continuous
 62
     7
370
    15
100
AcDbCircle
 10
42.0
 20
-59.3969696197
 30
0.0
 40
3.000000000000014
100
AcDbArc
 50
270.0
 51
0.0
  0
ARC
  5
308
330
1F
100
AcDbEntity
  8
0
  6
Continuous
 62
     7
370
    15
100
AcDbCircle
 10
-42.0
 20
-59.3969696197
 30
0.0
 40
3.000000000000014
100
AcDbArc
 50
180.0
 51
270.0
  0
ARC
  5
309
330
1F
100
AcDbEntity
  8
0
  6
Continuous
 62
     7
370
    15
100
AcDbCircle
 10
-42.0
 20
59.3969696197
 30
0.0
 40
3.000000000000007
100
AcDbArc
 50
90.0
 51
180.0
  0
ARC
  5
30A
330
1F
100
AcDbEntity
  8
0
  6
Continuous
 62
     7
370
    15
100
AcDbCircle
 10
42.0
 20
59.3969696197
 30
0.0
 40
3.0
100
AcDbArc
 50
0.0
 51
90.0
  0
ARC
  5
30B
330
1F
100
AcDbEntity
  8
0
  6
Continuous
 62
     7
370
    15
100
AcDbCircle
 10
234.0
 20
-59.3969696197
 30
0.0
 40
3.000000000000028
100
AcDbArc
 50
270.0
 51
0.0
  0
ARC
  5
30C
330
1F
100
AcDbEntity
  8
0
  6
Continuous
 62
     7
370
    15
100
AcDbCircle
 10
150.0
 20
-59.3969696197
 30
0.0
 40
3.0
100
AcDbArc
 50
180.0
 51
270.0
  0
ARC
  5
30D
330
1F
100
AcDbEntity
  8
0
  6
Continuous
 62
     7
370
    15
100
AcDbCircle
 10
234.0
 20
59.3969696197
 30
0.0
 40
3.000000000000007
100
AcDbArc
 50
0.0
 51
90.0
  0
ARC
  5
30E
330
1F
100
AcDbEntity
  8
0
  6
Continuous
 62
     7
370
    15
100
AcDbCircle
 10
150.0
 20
59.3969696197
 30
0.0
 40
3.000000000000007
100
AcDbArc
 50
90.0
 51
180.0
  0
ARC
  5
30F
330
1F
100
AcDbEntity
  8
0
  6
Continuous
 62
     7
370
    15
100
AcDbCircle
 10
399.0
 20
-31.796875
 30
0.0
 40
18.20312500000069
100
AcDbArc
 50
206.7849955075
 51
223.2896196999
  0
ARC
  5
310
330
1F
100
AcDbEntity
  8
0
  6
Continuous
 62
     7
370
    15
100
AcDbCircle
 10
399.0
 20
-31.796875
 30
0.0
 40
18.20312499999896
100
AcDbArc
 50
316.7103803001
 51
333.2150044925
  0
ARC
  5
311
330
1F
100
AcDbEntity
  8
0
  6
Continuous
 62
     7
370
    15
100
AcDbCircle
 10
399.0
 20
-31.796875
 30
0.0
 40
18.20312500000072
100
AcDbArc
 50
224.6497327347
 51
315.3502672653
  0
ARC
  5
312
330
1F
100
AcDbEntity
  8
0
  6
Continuous
 62
     7
370
    15
100
AcDbCircle
 10
399.0
 20
31.796875
 30
0.0
 40
18.2031249999991
100
AcDbArc
 50
136.7103803001
 51
153.2150044925
  0
ARC
  5
313
330
1F
100
AcDbEntity
  8
0
  6
Continuous
 62
     7
370
    15
100
AcDbCircle
 10
399.0
 20
31.796875
 30
0.0
 40
18.20312500000117
100
AcDbArc
 50
26.7849955075
 51
43.2896196999
  0
ARC
  5
314
330
1F
100
AcDbEntity
  8
0
  6
Continuous
 62
     7
370
    15
100
AcDbCircle
 10
399.0
 20
31.796875
 30
0.0
 40
18.20312500000017
100
AcDbArc
 50
44.6497327347
 51
135.3502672653
  0
ARC
  5
315
330
1F
100
AcDbEntity
  8
0
  6
Continuous
 62
     7
370
    15
100
AcDbCircle
 10
-399.0
 20
-31.796875
 30
0.0
 40
18.20312500000275
100
AcDbArc
 50
206.7849955075
 51
223.2896196999
  0
ARC
  5
316
330
1F
100
AcDbEntity
  8
0
  6
Continuous
 62
     7
370
    15
100
AcDbCircle
 10
-399.0
 20
-31.796875
 30
0.0
 40
18.20312500000248
100
AcDbArc
 50
316.7103803001
 51
333.2150044925
  0
ARC
  5
317
330
1F
100
AcDbEntity
  8
0
  6
Continuous
 62
     7
370
    15
100
AcDbCircle
 10
-399.0
 20
-31.796875
 30
0.0
 40
18.20312500000096
100
AcDbArc
 50
224.6497327347
 51
315.3502672653
  0
ARC
  5
318
330
1F
100
AcDbEntity
  8
0
  6
Continuous
 62
     7
370
    15
100
AcDbCircle
 10
-399.0
 20
31.796875
 30
0.0
 40
18.20312500000117
100
AcDbArc
 50
136.7103803001
 51
153.2150044925
  0
ARC
  5
319
330
1F
100
AcDbEntity
  8
0
  6
Continuous
 62
     7
370
    15
100
AcDbCircle
 10
-399.0
 20
31.796875
 30
0.0
 40
18.20312500000469
100
AcDbArc
 50
26.7849955075
 51
43.2896196999
  0
ARC
  5
31A
330
1F
100
AcDbEntity
  8
0
  6
Continuous
 62
     7
370
    15
100
AcDbCircle
 10
-399.0
 20
31.796875
 30
0.0
 40
18.20312500000023
100
AcDbArc
 50
44.6497327347
 51
135.3502672653
  0
ARC
  5
31B
330
1F
100
AcDbEntity
  8
0
  6
Continuous
 62
     7
370
    15
100
AcDbCircle
 10
-207.0
 20
-31.796875
 30
0.0
 40
18.20312499999963
100
AcDbArc
 50
206.7849955075
 51
223.2896196999
  0
ARC
  5
31C
330
1F
100
AcDbEntity
  8
0
  6
Continuous
 62
     7
370
    15
100
AcDbCircle
 10
-207.0
 20
-31.796875
 30
0.0
 40
18.20312500000022
100
AcDbArc
 50
316.7103803001
 51
333.2150044925
  0
ARC
  5
31D
330
1F
100
AcDbEntity
  8
0
  6
Continuous
 62
     7
370
    15
100
AcDbCircle
 10
-207.0
 20
-31.796875
 30
0.0
 40
18.20312500000035
100
AcDbArc
 50
224.6497327347
 51
315.3502672653
  0
ARC
  5
31E
330
1F
100
AcDbEntity
  8
0
  6
Continuous
 62
     7
370
    15
100
AcDbCircle
 10
-207.0
 20
31.796875
 30
0.0
 40
18.20312500000117
100
AcDbArc
 50
136.7103803001
 51
153.2150044925
  0
ARC
  5
31F
330
1F
100
AcDbEntity
  8
0
  6
Continuous
 62
     7
370
    15
100
AcDbCircle
 10
-207.0
 20
31.796875
 30
0.0
 40
18.20312499999905
100
AcDbArc
 50
26.7849955075
 51
43.2896196999
  0
ARC
  5
320
330
1F
100
AcDbEntity
  8
0
  6
Continuous
 62
     7
370
    15
100
AcDbCircle
 10
-207.0
 20
31.796875
 30
0.0
 40
18.20312500000015
100
AcDbArc
 50
44.6497327347
 51
135.3502672653
  0
ARC
  5
321
330
1F
100
AcDbEntity
  8
0
  6
Continuous
 62
     7
370
    15
100
AcDbCircle
 10
207.0
 20
-31.796875
 30
0.0
 40
18.20312499999987
100
AcDbArc
 50
206.7849955075
 51
223.2896196999
  0
ARC
  5
322
330
1F
100
AcDbEntity
  8
0
  6
Continuous
 62
     7
370
    15
100
AcDbCircle
 10
207.0
 20
-31.796875
 30
0.0
 40
18.20312499999937
100
AcDbArc
 50
316.7103803001
 51
333.2150044925
  0
ARC
  5
323
330
1F
100
AcDbEntity
  8
0
  6
Continuous
 62
     7
370
    15
100
AcDbCircle
 10
207.0
 20
-31.796875
 30
0.0
 40
18.20312500000047
100
AcDbArc
 50
224.6497327347
 51
315.3502672653
  0
ARC
  5
324
330
1F
100
AcDbEntity
  8
0
  6
Continuous
 62
     7
370
    15
100
AcDbCircle
 10
207.0
 20
31.796875
 30
0.0
 40
18.20312499999875
100
AcDbArc
 50
136.7103803001
 51
153.2150044925
  0
ARC
  5
325
330
1F
100
AcDbEntity
  8
0
  6
Continuous
 62
     7
370
    15
100
AcDbCircle
 10
207.0
 20
31.796875
 30
0.0
 40
18.20312500000074
100
AcDbArc
 50
26.7849955075
 51
43.2896196999
  0
ARC
  5
326
330
1F
100
AcDbEntity
  8
0
  6
Continuous
 62
     7
370
    15
100
AcDbCircle
 10
207.0
 20
31.796875
 30
0.0
 40
18.20312500000018
100
AcDbArc
 50
44.6497327347
 51
135.3502672653
  0
ARC
  5
327
330
1F
100
AcDbEntity
  8
0
  6
Continuous
 62
     7
370
    15
100
AcDbCircle
 10
-491.5
 20
7.0
 30
0.0
 40
3.000000000000081
100
AcDbArc
 50
90.0
 51
180.0
  0
ARC
  5
328
330
1F
100
AcDbEntity
  8
0
  6
Continuous
 62
     7
370
    15
100
AcDbCircle
 10
491.5
 20
-7.0
 30
0.0
 40
3.000000000000001
100
AcDbArc
 50
270.0
 51
0.0
  0
ARC
  5
329
330
1F
100
AcDbEntity
  8
0
  6
Continuous
 62
     7
370
    15
100
AcDbCircle
 10
491.5
 20
7.0
 30
0.0
 40
3.0
100
AcDbArc
 50
0.0
 51
90.0
  0
ARC
  5
32A
330
1F
100
AcDbEntity
  8
0
  6
Continuous
 62
     7
370
    15
100
AcDbCircle
 10
-491.5
 20
-7.0
 30
0.0
 40
3.000000000000016
100
AcDbArc
 50
180.0
 51
270.0
  0
ARC
  5
32B
330
1F
100
AcDbEntity
  8
0
  6
Continuous
 62
     7
370
    15
100
AcDbCircle
 10
436.0
 20
27.0
 30
0.0
 40
2.999999999999989
100
AcDbArc
 50
32.1596896266
 51
90.0
  0
ARC
  5
32C
330
1F
100
AcDbEntity
  8
0
  6
Continuous
 62
     7
370
    15
100
AcDbCircle
 10
436.0
 20
13.0
 30
0.0
 40
2.999999999999421
100
AcDbArc
 50
270.0
 51
318.1896851045
  0
ARC
  5
32D
330
1F
100
AcDbEntity
  8
0
  6
Continuous
 62
     7
370
    15
100
AcDbCircle
 10
-436.0
 20
13.0
 30
0.0
 40
2.999999999999599
100
AcDbArc
 50
221.8103148955
 51
270.0
  0
ARC
  5
32E
330
1F
100
AcDbEntity
  8
0
  6
Continuous
 62
     7
370
    15
100
AcDbCircle
 10
-436.0
 20
27.0
 30
0.0
 40
2.999999999999233
100
AcDbArc
 50
90.0
 51
147.8403103734
  0
ARC
  5
32F
330
1F
100
AcDbEntity
  8
0
  6
Continuous
 62
     7
370
    15
100
AcDbCircle
 10
-592.0
 20
-62.4
 30
0.0
 40
1500.000000000003
100
AcDbArc
 50
180.0
 51
270.0
  0
ARC
  5
330
330
1F
100
AcDbEntity
  8
0
  6
Continuous
 62
     7
370
    15
100
AcDbCircle
 10
-592.0
 20
62.4
 30
0.0
 40
1500.000000000002
100
AcDbArc
 50
90.0
 51
180.0
  0
ARC
  5
331
330
1F
100
AcDbEntity
  8
0
  6
Continuous
 62
     7
370
    15
100
AcDbCircle
 10
592.0
 20
62.4
 30
0.0
 40
1500.000000000002
100
AcDbArc
 50
0.0
 51
90.0
  0
ARC
  5
332
330
1F
100
AcDbEntity
  8
0
  6
Continuous
 62
     7
370
    15
100
AcDbCircle
 10
592.0
 20
-62.4
 30
0.0
 40
1500.000000000003
100
AcDbArc
 50
270.0
 51
0.0
  0
ARC
  5
333
330
1F
100
AcDbEntity
  8
0
  6
Continuous
 62
     7
370
    15
100
AcDbCircle
 10
-436.0
 20
-13.0
 30
0.0
 40
2.999999999999604
100
AcDbArc
 50
90.0
 51
138.1896851039
  0
ARC
  5
334
330
1F
100
AcDbEntity
  8
0
  6
Continuous
 62
     7
370
    15
100
AcDbCircle
 10
-436.0
 20
-27.0
 30
0.0
 40
2.99999999999935
100
AcDbArc
 50
212.1596896261
 51
270.0
  0
ARC
  5
335
330
1F
100
AcDbEntity
  8
0
  6
Continuous
 62
     7
370
    15
100
AcDbCircle
 10
436.0
 20
-13.0
 30
0.0
 40
2.99999999999954
100
AcDbArc
 50
41.8103148961
 51
90.0
  0
ARC
  5
336
330
1F
100
AcDbEntity
  8
0
  6
Continuous
 62
     7
370
    15
100
AcDbCircle
 10
436.0
 20
-27.0
 30
0.0
 40
2.999999999999623
100
AcDbArc
 50
270.0
 51
327.8403103739
  0
ARC
  5
337
330
1F
100
AcDbEntity
  8
0
  6
Continuous
 62
     7
370
    15
100
AcDbCircle
 10
525.0
 20
0.0
 30
0.0
 40
49.99999999999979
100
AcDbArc
 50
75.0
 51
105.0
  0
ARC
  5
338
330
1F
100
AcDbEntity
  8
0
  6
Continuous
 62
     7
370
    15
100
AcDbCircle
 10
561.0494345771
 20
9.0
 30
0.0
 40
30.99999999999969
100
AcDbArc
 50
3.2361595445
 51
66.8737517395
  0
ARC
  5
339
330
1F
100
AcDbEntity
  8
0
  6
Continuous
 62
     7
370
    15
100
AcDbCircle
 10
439.0
 20
20.4379690282
 30
0.0
 40
8.000000000000057
100
AcDbArc
 50
105.0
 51
180.0
  0
ARC
  5
33A
330
1F
100
AcDbEntity
  8
0
  6
Continuous
 62
     7
370
    15
100
AcDbCircle
 10
525.0
 20
0.0
 30
0.0
 40
49.9999999999998
100
AcDbArc
 50
255.0
 51
285.0
  0
ARC
  5
33B
330
1F
100
AcDbEntity
  8
0
  6
Continuous
 62
     7
370
    15
100
AcDbCircle
 10
561.0494345771
 20
-9.0
 30
0.0
 40
30.99999999999999
100
AcDbArc
 50
293.1262482605
 51
356.7638404555
  0
ARC
  5
33C
330
1F
100
AcDbEntity
  8
0
  6
Continuous
 62
     7
370
    15
100
AcDbCircle
 10
439.0
 20
-20.4379690281
 30
0.0
 40
8.000000000000114
100
AcDbArc
 50
180.0
 51
255.0
  0
ARC
  5
33D
330
1F
100
AcDbEntity
  8
0
  6
Continuous
 62
     7
370
    15
100
AcDbCircle
 10
-525.0
 20
0.0
 30
0.0
 40
49.9999999999998
100
AcDbArc
 50
75.0
 51
105.0
  0
ARC
  5
33E
330
1F
100
AcDbEntity
  8
0
  6
Continuous
 62
     7
370
    15
100
AcDbCircle
 10
-561.0494345771
 20
9.0
 30
0.0
 40
31.00000000000008
100
AcDbArc
 50
113.1262482605
 51
176.7638404555
  0
ARC
  5
33F
330
1F
100
AcDbEntity
  8
0
  6
Continuous
 62
     7
370
    15
100
AcDbCircle
 10
-439.0
 20
20.4379690282
 30
0.0
 40
7.999999999999943
100
AcDbArc
 50
0.0
 51
75.0
  0
ARC
  5
340
330
1F
100
AcDbEntity
  8
0
  6
Continuous
 62
     7
370
    15
100
AcDbCircle
 10
-525.0
 20
0.0
 30
0.0
 40
49.9999999999998
100
AcDbArc
 50
255.0
 51
285.0
  0
ARC
  5
341
330
1F
100
AcDbEntity
  8
0
  6
Continuous
 62
     7
370
    15
100
AcDbCircle
 10
-561.0494345771
 20
-9.0
 30
0.0
 40
30.99999999999998
100
AcDbArc
 50
183.2361595445
 51
246.8737517395
  0
ARC
  5
342
330
1F
100
AcDbEntity
  8
0
  6
Continuous
 62
     7
370
    15
100
AcDbCircle
 10
-439.0
 20
-20.4379690281
 30
0.0
 40
8.0
100
AcDbArc
 50
285.0
 51
0.0
  0
ARC
  5
343
330
1F
100
AcDbEntity
  8
0
  6
PHANTOM
 62
     8
370
     0
100
AcDbCircle
 10
-234.375
 20
58.8666395338
 30
0.0
 40
2.67803566070356
100
AcDbArc
 50
81.9505330245
 51
168.578246341
  0
ARC
  5
344
330
1F
100
AcDbEntity
  8
0
  6
PHANTOM
 62
     8
370
     0
100
AcDbCircle
 10
-234.375
 20
-58.8666395338
 30
0.0
 40
2.678035660703574
100
AcDbArc
 50
191.421753659
 51
278.0494669755
  0
ARC
  5
345
330
1F
100
AcDbEntity
  8
0
  6
PHANTOM
 62
     8
370
     0
100
AcDbCircle
 10
-149.625
 20
58.8666395338
 30
0.0
 40
2.678035660703606
100
AcDbArc
 50
11.421753659
 51
98.0494669755
  0
ARC
  5
346
330
1F
100
AcDbEntity
  8
0
  6
PHANTOM
 62
     8
370
     0
100
AcDbCircle
 10
-149.625
 20
-58.8666395338
 30
0.0
 40
2.678035660703566
100
AcDbArc
 50
261.9505330245
 51
348.578246341
  0
ARC
  5
347
330
1F
100
AcDbEntity
  8
0
  6
PHANTOM
 62
     8
370
     0
100
AcDbCircle
 10
42.375
 20
58.8666395338
 30
0.0
 40
2.678035660703589
100
AcDbArc
 50
11.421753659
 51
98.0494669755
  0
ARC
  5
348
330
1F
100
AcDbEntity
  8
0
  6
PHANTOM
 62
     8
370
     0
100
AcDbCircle
 10
42.375
 20
-58.8666395338
 30
0.0
 40
2.678035660703585
100
AcDbArc
 50
261.9505330245
 51
348.578246341
  0
ARC
  5
349
330
1F
100
AcDbEntity
  8
0
  6
PHANTOM
 62
     8
370
     0
100
AcDbCircle
 10
-42.375
 20
-58.8666395338
 30
0.0
 40
2.678035660703542
100
AcDbArc
 50
191.421753659
 51
278.0494669755
  0
ARC
  5
34A
330
1F
100
AcDbEntity
  8
0
  6
PHANTOM
 62
     8
370
     0
100
AcDbCircle
 10
-42.375
 20
58.8666395338
 30
0.0
 40
2.678035660703585
100
AcDbArc
 50
81.9505330245
 51
168.578246341
  0
ARC
  5
34B
330
1F
100
AcDbEntity
  8
0
  6
PHANTOM
 62
     8
370
     0
100
AcDbCircle
 10
525.0
 20
0.0
 30
0.0
 40
42.00000000000004
100
AcDbArc
 50
75.182200008
 51
105.0
  0
ARC
  5
34C
330
1F
100
AcDbEntity
  8
0
  6
PHANTOM
 62
     8
370
     0
100
AcDbCircle
 10
561.0494345771
 20
9.0
 30
0.0
 40
23.00000000000014
100
AcDbArc
 50
3.7572227311
 51
65.8864958731
  0
ARC
  5
34D
330
1F
100
AcDbEntity
  8
0
  6
PHANTOM
 62
     8
370
     0
100
AcDbCircle
 10
525.0
 20
0.0
 30
0.0
 40
42.00000000000048
100
AcDbArc
 50
255.0
 51
284.817799992
  0
ARC
  5
34E
330
1F
100
AcDbEntity
  8
0
  6
PHANTOM
 62
     8
370
     0
100
AcDbCircle
 10
561.0494345771
 20
-9.0
 30
0.0
 40
23.0000000000003
100
AcDbArc
 50
294.1135041269
 51
356.2427772689
  0
ARC
  5
34F
330
1F
100
AcDbEntity
  8
0
  6
PHANTOM
 62
     8
370
     0
100
AcDbCircle
 10
-525.0
 20
0.0
 30
0.0
 40
42.00000000000053
100
AcDbArc
 50
75.0
 51
104.817799992
  0
ARC
  5
350
330
1F
100
AcDbEntity
  8
0
  6
PHANTOM
 62
     8
370
     0
100
AcDbCircle
 10
-561.0494345771
 20
9.0
 30
0.0
 40
23.00000000000061
100
AcDbArc
 50
114.1135041269
 51
176.2427772689
  0
ARC
  5
351
330
1F
100
AcDbEntity
  8
0
  6
PHANTOM
 62
     8
370
     0
100
AcDbCircle
 10
-525.0
 20
0.0
 30
0.0
 40
42.00000000000007
100
AcDbArc
 50
255.182200008
 51
285.0
  0
ARC
  5
352
330
1F
100
AcDbEntity
  8
0
  6
PHANTOM
 62
     8
370
     0
100
AcDbCircle
 10
-561.0494345771
 20
-9.0
 30
0.0
 40
23.00000000000054
100
AcDbArc
 50
183.7572227311
 51
245.8864958731
  0
ARC
  5
353
330
1F
100
AcDbEntity
  8
0
  6
PHANTOM
 62
     8
370
     0
100
AcDbCircle
 10
149.625
 20
58.8666395338
 30
0.0
 40
2.678035660703576
100
AcDbArc
 50
81.9505330245
 51
168.578246341
  0
ARC
  5
354
330
1F
100
AcDbEntity
  8
0
  6
PHANTOM
 62
     8
370
     0
100
AcDbCircle
 10
149.625
 20
-58.8666395338
 30
0.0
 40
2.67803566070361
100
AcDbArc
 50
191.421753659
 51
278.0494669755
  0
ARC
  5
355
330
1F
100
AcDbEntity
  8
0
  6
PHANTOM
 62
     8
370
     0
100
AcDbCircle
 10
234.375
 20
-58.8666395338
 30
0.0
 40
2.678035660703572
100
AcDbArc
 50
261.9505330245
 51
348.578246341
  0
ARC
  5
356
330
1F
100
AcDbEntity
  8
0
  6
PHANTOM
 62
     8
370
     0
100
AcDbCircle
 10
234.375
 20
58.8666395338
 30
0.0
 40
2.678035660703611
100
AcDbArc
 50
11.421753659
 51
98.0494669755
  0
ENDSEC
  0
SECTION
  2
OBJECTS
  0
DICTIONARY
  5
C
330
0
100
AcDbDictionary
281
     1
  3
ACAD_GROUP
350
D
  3
ACAD_LAYOUT
350
1A
  3
ACAD_MLINESTYLE
350
17
  3
ACAD_PLOTSETTINGS
350
19
  3
ACAD_PLOTSTYLENAME
350
E
  3
ACAD_SCALELIST
350
47
  0
DICTIONARY
  5
D
102
{ACAD_REACTORS
330
C
102
}
330
C
100
AcDbDictionary
281
     1
  0
DICTIONARY
  5
1A
102
{ACAD_REACTORS
330
C
102
}
330
C
100
AcDbDictionary
281
     1
  3
Layout1
350
1E
  3
Layout2
350
26
  3
Model
350
22
  0
DICTIONARY
  5
17
102
{ACAD_REACTORS
330
C
102
}
330
C
100
AcDbDictionary
281
     1
  3
Standard
350
18
  0
DICTIONARY
  5
19
102
{ACAD_REACTORS
330
C
102
}
330
C
100
AcDbDictionary
281
     1
  0
ACDBDICTIONARYWDFLT
  5
E
102
{ACAD_REACTORS
330
C
102
}
330
C
100
AcDbDictionary
281
     1
  3
Normal
350
F
100
AcDbDictionaryWithDefault
340
F
  0
DICTIONARY
  5
47
102
{ACAD_REACTORS
330
C
102
}
330
C
100
AcDbDictionary
281
     1
  3
A0
350
48
  3
A1
350
49
  3
A2
350
4A
  3
A3
350
4B
  3
A4
350
4C
  3
A5
350
4D
  3
A6
350
4E
  3
A7
350
4F
  3
A8
350
50
  3
A9
350
51
  3
B0
350
52
  3
B1
350
53
  3
B2
350
54
  3
B3
350
55
  3
B4
350
56
  3
B5
350
57
  3
B6
350
58
  3
B7
350
59
  3
B8
350
5A
  3
B9
350
5B
  3
C0
350
5C
  3
C1
350
5D
  3
C2
350
5E
  3
C3
350
5F
  3
C4
350
60
  3
C5
350
61
  3
C6
350
62
  3
C7
350
63
  3
C8
350
64
  3
C9
350
65
  3
D0
350
66
  3
D1
350
67
  3
D2
350
68
  0
LAYOUT
  5
1E
102
{ACAD_REACTORS
330
1A
102
}
330
1A
100
AcDbPlotSettings
  1

  2
none_device
  4

  6

 40
0.0
 41
0.0
 42
0.0
 43
0.0
 44
0.0
 45
0.0
 46
0.0
 47
0.0
 48
0.0
 49
0.0
140
0.0
141
0.0
142
1.0
143
1.0
 70
   688
 72
     1
 73
     0
 74
     5
  7

 75
    16
147
1.0
148
0.0
149
0.0
100
AcDbLayout
  1
Layout1
 70
     1
 71
     1
 10
0.0
 20
0.0
 11
420.0
 21
297.0
 12
0.0
 22
0.0
 32
0.0
 14
1.0000000000E+20
 24
1.0000000000E+20
 34
1.0000000000E+20
 15
-1.0000000000E+20
 25
-1.0000000000E+20
 35
-1.0000000000E+20
146
0.0
 13
0.0
 23
0.0
 33
0.0
 16
1.0
 26
0.0
 36
0.0
 17
0.0
 27
1.0
 37
0.0
 76
     0
330
1B
  0
LAYOUT
  5
26
102
{ACAD_REACTORS
330
1A
102
}
330
1A
100
AcDbPlotSettings
  1

  2
none_device
  4

  6

 40
0.0
 41
0.0
 42
0.0
 43
0.0
 44
0.0
 45
0.0
 46
0.0
 47
0.0
 48
0.0
 49
0.0
140
0.0
141
0.0
142
1.0
143
1.0
 70
   688
 72
     1
 73
     0
 74
     5
  7

 75
    16
147
1.0
148
0.0
149
0.0
100
AcDbLayout
  1
Layout2
 70
     1
 71
     2
 10
0.0
 20
0.0
 11
0.0
 21
0.0
 12
0.0
 22
0.0
 32
0.0
 14
0.0
 24
0.0
 34
0.0
 15
0.0
 25
0.0
 35
0.0
146
0.0
 13
0.0
 23
0.0
 33
0.0
 16
1.0
 26
0.0
 36
0.0
 17
0.0
 27
1.0
 37
0.0
 76
     0
330
23
  0
LAYOUT
  5
22
102
{ACAD_REACTORS
330
1A
102
}
330
1A
100
AcDbPlotSettings
  1

  2
none_device
  4
ANSI_A_(11.00_x_8.50_Inches)
  6

 40
6.35
 41
19.05
 42
6.35000508
 43
19.05000254
 44
279.4
 45
215.9
 46
133.34999746
 47
88.89999873
 48
0.0
 49
0.0
140
0.0
141
0.0
142
0.0026027725
143
1.0
 70
  1696
 72
     0
 73
     0
 74
     0
  7

 75
     0
147
0.0179189148
148
-1300.4909072572
149
0.0
100
AcDbLayout
  1
Model
 70
     1
 71
     0
 10
0.0
 20
0.0
 11
420.0
 21
297.0
 12
0.0
 22
0.0
 32
0.0
 14
-2092.0
 24
-1562.4
 34
0.0
 15
2092.0
 25
1562.4
 35
0.0
146
0.0
 13
0.0
 23
0.0
 33
0.0
 16
1.0
 26
0.0
 36
0.0
 17
0.0
 27
1.0
 37
0.0
 76
     0
330
1F
331
29
  0
MLINESTYLE
  5
18
102
{ACAD_REACTORS
330
17
102
}
330
17
100
AcDbMlineStyle
  2
Standard
 70
     0
  3

 62
   256
 51
90.0
 52
90.0
 71
     2
 49
0.5
 62
   256
  6
BYLAYER
 49
-0.5
 62
   256
  6
BYLAYER
  0
ACDBPLACEHOLDER
  5
F
102
{ACAD_REACTORS
330
E
102
}
330
E
  0
SCALE
  5
48
102
{ACAD_REACTORS
330
47
102
}
330
47
100
AcDbScale
 70
     0
300
1:1
140
1.0
141
1.0
290
     1
  0
SCALE
  5
49
102
{ACAD_REACTORS
330
47
102
}
330
47
100
AcDbScale
 70
     0
300
1:2
140
1.0
141
2.0
290
     0
  0
SCALE
  5
4A
102
{ACAD_REACTORS
330
47
102
}
330
47
100
AcDbScale
 70
     0
300
1:4
140
1.0
141
4.0
290
     0
  0
SCALE
  5
4B
102
{ACAD_REACTORS
330
47
102
}
330
47
100
AcDbScale
 70
     0
300
1:5
140
1.0
141
5.0
290
     0
  0
SCALE
  5
4C
102
{ACAD_REACTORS
330
47
102
}
330
47
100
AcDbScale
 70
     0
300
1:8
140
1.0
141
8.0
290
     0
  0
SCALE
  5
4D
102
{ACAD_REACTORS
330
47
102
}
330
47
100
AcDbScale
 70
     0
300
1:10
140
1.0
141
10.0
290
     0
  0
SCALE
  5
4E
102
{ACAD_REACTORS
330
47
102
}
330
47
100
AcDbScale
 70
     0
300
1:16
140
1.0
141
16.0
290
     0
  0
SCALE
  5
4F
102
{ACAD_REACTORS
330
47
102
}
330
47
100
AcDbScale
 70
     0
300
1:20
140
1.0
141
20.0
290
     0
  0
SCALE
  5
50
102
{ACAD_REACTORS
330
47
102
}
330
47
100
AcDbScale
 70
     0
300
1:30
140
1.0
141
30.0
290
     0
  0
SCALE
  5
51
102
{ACAD_REACTORS
330
47
102
}
330
47
100
AcDbScale
 70
     0
300
1:40
140
1.0
141
40.0
290
     0
  0
SCALE
  5
52
102
{ACAD_REACTORS
330
47
102
}
330
47
100
AcDbScale
 70
     0
300
1:50
140
1.0
141
50.0
290
     0
  0
SCALE
  5
53
102
{ACAD_REACTORS
330
47
102
}
330
47
100
AcDbScale
 70
     0
300
1:100
140
1.0
141
100.0
290
     0
  0
SCALE
  5
54
102
{ACAD_REACTORS
330
47
102
}
330
47
100
AcDbScale
 70
     0
300
2:1
140
2.0
141
1.0
290
     0
  0
SCALE
  5
55
102
{ACAD_REACTORS
330
47
102
}
330
47
100
AcDbScale
 70
     0
300
4:1
140
4.0
141
1.0
290
     0
  0
SCALE
  5
56
102
{ACAD_REACTORS
330
47
102
}
330
47
100
AcDbScale
 70
     0
300
8:1
140
8.0
141
1.0
290
     0
  0
SCALE
  5
57
102
{ACAD_REACTORS
330
47
102
}
330
47
100
AcDbScale
 70
     0
300
10:1
140
10.0
141
1.0
290
     0
  0
SCALE
  5
58
102
{ACAD_REACTORS
330
47
102
}
330
47
100
AcDbScale
 70
     0
300
100:1
140
100.0
141
1.0
290
     0
  0
SCALE
  5
59
102
{ACAD_REACTORS
330
47
102
}
330
47
100
AcDbScale
 70
     0
300
1/128" = 1'-0"
140
0.0078125
141
12.0
290
     0
  0
SCALE
  5
5A
102
{ACAD_REACTORS
330
47
102
}
330
47
100
AcDbScale
 70
     0
300
1/64" = 1'-0"
140
0.015625
141
12.0
290
     0
  0
SCALE
  5
5B
102
{ACAD_REACTORS
330
47
102
}
330
47
100
AcDbScale
 70
     0
300
1/32" = 1'-0"
140
0.03125
141
12.0
290
     0
  0
SCALE
  5
5C
102
{ACAD_REACTORS
330
47
102
}
330
47
100
AcDbScale
 70
     0
300
1/16" = 1'-0"
140
0.0625
141
12.0
290
     0
  0
SCALE
  5
5D
102
{ACAD_REACTORS
330
47
102
}
330
47
100
AcDbScale
 70
     0
300
3/32" = 1'-0"
140
0.09375
141
12.0
290
     0
  0
SCALE
  5
5E
102
{ACAD_REACTORS
330
47
102
}
330
47
100
AcDbScale
 70
     0
300
1/8" = 1'-0"
140
0.125
141
12.0
290
     0
  0
SCALE
  5
5F
102
{ACAD_REACTORS
330
47
102
}
330
47
100
AcDbScale
 70
     0
300
3/16" = 1'-0"
140
0.1875
141
12.0
290
     0
  0
SCALE
  5
60
102
{ACAD_REACTORS
330
47
102
}
330
47
100
AcDbScale
 70
     0
300
1/4" = 1'-0"
140
0.25
141
12.0
290
     0
  0
SCALE
  5
61
102
{ACAD_REACTORS
330
47
102
}
330
47
100
AcDbScale
 70
     0
300
3/8" = 1'-0"
140
0.375
141
12.0
290
     0
  0
SCALE
  5
62
102
{ACAD_REACTORS
330
47
102
}
330
47
100
AcDbScale
 70
     0
300
1/2" = 1'-0"
140
0.5
141
12.0
290
     0
  0
SCALE
  5
63
102
{ACAD_REACTORS
330
47
102
}
330
47
100
AcDbScale
 70
     0
300
3/4" = 1'-0"
140
0.75
141
12.0
290
     0
  0
SCALE
  5
64
102
{ACAD_REACTORS
330
47
102
}
330
47
100
AcDbScale
 70
     0
300
1" = 1'-0"
140
1.0
141
12.0
290
     0
  0
SCALE
  5
65
102
{ACAD_REACTORS
330
47
102
}
330
47
100
AcDbScale
 70
     0
300
1-1/2" = 1'-0"
140
1.5
141
12.0
290
     0
  0
SCALE
  5
66
102
{ACAD_REACTORS
330
47
102
}
330
47
100
AcDbScale
 70
     0
300
3" = 1'-0"
140
3.0
141
12.0
290
     0
  0
SCALE
  5
67
102
{ACAD_REACTORS
330
47
102
}
330
47
100
AcDbScale
 70
     0
300
6" = 1'-0"
140
6.0
141
12.0
290
     0
  0
SCALE
  5
68
102
{ACAD_REACTORS
330
47
102
}
330
47
100
AcDbScale
 70
     0
300
1'-0" = 1'-0"
140
12.0
141
12.0
290
     0
  0
ENDSEC
  0
EOF
