  0
SECTION
  2
HEADER
  9
$ACADVER
  1
AC1015
  9
$ACADMAINTVER
 70
     6
  9
$DWGCODEPAGE
  3
ANSI_1251
  9
$INSBASE
 10
0.0
 20
0.0
 30
0.0
  9
$EXTMIN
 10
-2028.5
 20
-1528.5
 30
0.0
  9
$EXTMAX
 10
2028.5
 20
1528.5
 30
0.0
  9
$LIMMIN
 10
0.0
 20
0.0
  9
$LIMMAX
 10
420.0
 20
297.0
  9
$ORTHOMODE
 70
     0
  9
$REGENMODE
 70
     1
  9
$FILLMODE
 70
     1
  9
$QTEXTMODE
 70
     0
  9
$MIRRTEXT
 70
     1
  9
$LTSCALE
 40
1.0
  9
$ATTMODE
 70
     1
  9
$TEXTSIZE
 40
3.0
  9
$TRACEWID
 40
1.0
  9
$TEXTSTYLE
  7
Standard
  9
$CLAYER
  8
0
  9
$CELTYPE
  6
ByLayer
  9
$CECOLOR
 62
   256
  9
$CELTSCALE
 40
1.0
  9
$DISPSILH
 70
     0
  9
$DIMSCALE
 40
1.0
  9
$DIMASZ
 40
3.0
  9
$DIMEXO
 40
0.0
  9
$DIMDLI
 40
3.75
  9
$DIMRND
 40
0.0
  9
$DIMDLE
 40
0.0
  9
$DIMEXE
 40
2.0
  9
$DIMTP
 40
0.0
  9
$DIMTM
 40
0.0
  9
$DIMTXT
 40
3.0
  9
$DIMCEN
 40
2.5
  9
$DIMTSZ
 40
0.0
  9
$DIMTOL
 70
     0
  9
$DIMLIM
 70
     0
  9
$DIMTIH
 70
     1
  9
$DIMTOH
 70
     1
  9
$DIMSE1
 70
     0
  9
$DIMSE2
 70
     0
  9
$DIMTAD
 70
     1
  9
$DIMZIN
 70
     0
  9
$DIMBLK
  1

  9
$DIMASO
 70
     1
  9
$DIMSHO
 70
     1
  9
$DIMPOST
  1

  9
$DIMAPOST
  1

  9
$DIMALT
 70
     0
  9
$DIMALTD
 70
     3
  9
$DIMALTF
 40
0.0393700787
  9
$DIMLFAC
 40
1.0
  9
$DIMTOFL
 70
     1
  9
$DIMTVP
 40
0.0
  9
$DIMTIX
 70
     0
  9
$DIMSOXD
 70
     0
  9
$DIMSAH
 70
     0
  9
$DIMBLK1
  1

  9
$DIMBLK2
  1

  9
$DIMSTYLE
  2
ISO-25
  9
$DIMCLRD
 70
     0
  9
$DIMCLRE
 70
     0
  9
$DIMCLRT
 70
     0
  9
$DIMTFAC
 40
1.0
  9
$DIMGAP
 40
2.0
  9
$DIMJUST
 70
     0
  9
$DIMSD1
 70
     0
  9
$DIMSD2
 70
     0
  9
$DIMTOLJ
 70
     0
  9
$DIMTZIN
 70
     0
  9
$DIMALTZ
 70
     0
  9
$DIMALTTZ
 70
     0
  9
$DIMUPT
 70
     0
  9
$DIMDEC
 70
     2
  9
$DIMTDEC
 70
     2
  9
$DIMALTU
 70
     2
  9
$DIMALTTD
 70
     3
  9
$DIMTXSTY
  7
Standard
  9
$DIMAUNIT
 70
     0
  9
$DIMADEC
 70
     2
  9
$DIMALTRND
 40
0.0
  9
$DIMAZIN
 70
     0
  9
$DIMDSEP
 70
    44
  9
$DIMATFIT
 70
     3
  9
$DIMFRAC
 70
     0
  9
$DIMLDRBLK
  1

  9
$DIMLUNIT
 70
     2
  9
$DIMLWD
 70
    -2
  9
$DIMLWE
 70
    -2
  9
$DIMTMOVE
 70
     0
  9
$LUNITS
 70
     2
  9
$LUPREC
 70
     2
  9
$SKETCHINC
 40
1.0
  9
$FILLETRAD
 40
10.0
  9
$AUNITS
 70
     1
  9
$AUPREC
 70
     2
  9
$MENU
  1
.
  9
$ELEVATION
 40
0.0
  9
$PELEVATION
 40
0.0
  9
$THICKNESS
 40
0.0
  9
$LIMCHECK
 70
     0
  9
$CHAMFERA
 40
0.0
  9
$CHAMFERB
 40
0.0
  9
$CHAMFERC
 40
0.0
  9
$CHAMFERD
 40
0.0
  9
$SKPOLY
 70
     0
  9
$TDCREATE
 40
2459325.661953657
  9
$TDUCREATE
 40
2459325.536953657
  9
$TDUPDATE
 40
2459325.661983391
  9
$TDUUPDATE
 40
2459325.536983391
  9
$TDINDWG
 40
0.0000000116
  9
$TDUSRTIMER
 40
0.0000000116
  9
$USRTIMER
 70
     1
  9
$ANGBASE
 50
0.0
  9
$ANGDIR
 70
     0
  9
$PDMODE
 70
     0
  9
$PDSIZE
 40
-1.0
  9
$PLINEWID
 40
0.0
  9
$SPLFRAME
 70
     0
  9
$SPLINETYPE
 70
     6
  9
$SPLINESEGS
 70
     8
  9
$HANDSEED
  5
399
  9
$SURFTAB1
 70
     6
  9
$SURFTAB2
 70
     6
  9
$SURFTYPE
 70
     6
  9
$SURFU
 70
     6
  9
$SURFV
 70
     6
  9
$UCSBASE
  2

  9
$UCSNAME
  2

  9
$UCSORG
 10
0.0
 20
0.0
 30
0.0
  9
$UCSXDIR
 10
1.0
 20
0.0
 30
0.0
  9
$UCSYDIR
 10
0.0
 20
1.0
 30
0.0
  9
$UCSORTHOREF
  2

  9
$UCSORTHOVIEW
 70
     0
  9
$UCSORGTOP
 10
0.0
 20
0.0
 30
0.0
  9
$UCSORGBOTTOM
 10
0.0
 20
0.0
 30
0.0
  9
$UCSORGLEFT
 10
0.0
 20
0.0
 30
0.0
  9
$UCSORGRIGHT
 10
0.0
 20
0.0
 30
0.0
  9
$UCSORGFRONT
 10
0.0
 20
0.0
 30
0.0
  9
$UCSORGBACK
 10
0.0
 20
0.0
 30
0.0
  9
$PUCSBASE
  2

  9
$PUCSNAME
  2

  9
$PUCSORG
 10
0.0
 20
0.0
 30
0.0
  9
$PUCSXDIR
 10
1.0
 20
0.0
 30
0.0
  9
$PUCSYDIR
 10
0.0
 20
1.0
 30
0.0
  9
$PUCSORTHOREF
  2

  9
$PUCSORTHOVIEW
 70
     0
  9
$PUCSORGTOP
 10
0.0
 20
0.0
 30
0.0
  9
$PUCSORGBOTTOM
 10
0.0
 20
0.0
 30
0.0
  9
$PUCSORGLEFT
 10
0.0
 20
0.0
 30
0.0
  9
$PUCSORGRIGHT
 10
0.0
 20
0.0
 30
0.0
  9
$PUCSORGFRONT
 10
0.0
 20
0.0
 30
0.0
  9
$PUCSORGBACK
 10
0.0
 20
0.0
 30
0.0
  9
$USERI1
 70
     0
  9
$USERI2
 70
     0
  9
$USERI3
 70
     0
  9
$USERI4
 70
     0
  9
$USERI5
 70
     0
  9
$USERR1
 40
0.0
  9
$USERR2
 40
0.0
  9
$USERR3
 40
0.0
  9
$USERR4
 40
0.0
  9
$USERR5
 40
0.0
  9
$WORLDVIEW
 70
     1
  9
$SHADEDGE
 70
     3
  9
$SHADEDIF
 70
    70
  9
$TILEMODE
 70
     1
  9
$MAXACTVP
 70
    64
  9
$PINSBASE
 10
0.0
 20
0.0
 30
0.0
  9
$PLIMCHECK
 70
     0
  9
$PEXTMIN
 10
1.0000000000E+20
 20
1.0000000000E+20
 30
1.0000000000E+20
  9
$PEXTMAX
 10
-1.0000000000E+20
 20
-1.0000000000E+20
 30
-1.0000000000E+20
  9
$PLIMMIN
 10
0.0
 20
0.0
  9
$PLIMMAX
 10
420.0
 20
297.0
  9
$UNITMODE
 70
     0
  9
$VISRETAIN
 70
     1
  9
$PLINEGEN
 70
     0
  9
$PSLTSCALE
 70
     1
  9
$TREEDEPTH
 70
  3020
  9
$CMLSTYLE
  2
Standard
  9
$CMLJUST
 70
     0
  9
$CMLSCALE
 40
20.0
  9
$PROXYGRAPHICS
 70
     1
  9
$MEASUREMENT
 70
     1
  9
$CELWEIGHT
370
    -1
  9
$ENDCAPS
280
     0
  9
$JOINSTYLE
280
     0
  9
$LWDISPLAY
290
     1
  9
$INSUNITS
 70
     4
  9
$HYPERLINKBASE
  1

  9
$STYLESHEET
  1

  9
$XEDIT
290
     1
  9
$CEPSNTYPE
380
     0
  9
$PSTYLEMODE
290
     1
  9
$FINGERPRINTGUID
  2
{522107ED-1C42-4981-B8D4-DED8B14846EE}
  9
$VERSIONGUID
  2
{FAEB1C32-E019-11D5-929B-00C0DF256EC4}
  9
$EXTNAMES
290
     1
  9
$PSVPSCALE
 40
0.0
  9
$OLESTARTUP
290
     0
  0
ENDSEC
  0
SECTION
  2
CLASSES
  0
CLASS
  1
ACDBDICTIONARYWDFLT
  2
AcDbDictionaryWithDefault
  3
ObjectDBX Classes
 90
        0
280
     0
281
     0
  0
CLASS
  1
VISUALSTYLE
  2
AcDbVisualStyle
  3
ObjectDBX Classes
 90
     4095
280
     0
281
     0
  0
CLASS
  1
MATERIAL
  2
AcDbMaterial
  3
ObjectDBX Classes
 90
     1153
280
     0
281
     0
  0
CLASS
  1
SCALE
  2
AcDbScale
  3
ObjectDBX Classes
 90
     1153
280
     0
281
     0
  0
CLASS
  1
SUN
  2
AcDbSun
  3
SCENEOE
 90
     1153
280
     0
281
     0
  0
CLASS
  1
ACDBPLACEHOLDER
  2
AcDbPlaceHolder
  3
ObjectDBX Classes
 90
        0
280
     0
281
     0
  0
CLASS
  1
LAYOUT
  2
AcDbLayout
  3
ObjectDBX Classes
 90
        0
280
     0
281
     0
  0
ENDSEC
  0
SECTION
  2
TABLES
  0
TABLE
  2
VPORT
  5
8
330
0
100
AcDbSymbolTable
 70
     1
  0
VPORT
  5
29
330
8
100
AcDbSymbolTableRecord
100
AcDbViewportTableRecord
  2
*Active
 70
     0
 10
0.0
 20
0.0
 11
1.0
 21
1.0
 12
0.0
 22
0.0
 13
0.0
 23
0.0
 14
10.0
 24
10.0
 15
10.0
 25
10.0
 16
0.0
 26
0.0
 36
1.0
 17
0.0
 27
0.0
 37
0.0
 40
3118.14
 41
1.3271180896
 42
50.0
 43
0.0
 44
0.0
 50
0.0
 51
0.0
 71
     0
 72
   100
 73
     1
 74
     3
 75
     0
 76
     0
 77
     0
 78
     0
281
     0
 65
     1
110
0.0
120
0.0
130
0.0
111
1.0
121
0.0
131
0.0
112
0.0
122
1.0
132
0.0
 79
     0
146
0.0
  0
ENDTAB
  0
TABLE
  2
LTYPE
  5
5
330
0
100
AcDbSymbolTable
 70
     6
  0
LTYPE
  5
14
330
5
100
AcDbSymbolTableRecord
100
AcDbLinetypeTableRecord
  2
ByBlock
 70
     0
  3

 72
    65
 73
     0
 40
0.0
  0
LTYPE
  5
15
330
5
100
AcDbSymbolTableRecord
100
AcDbLinetypeTableRecord
  2
ByLayer
 70
     0
  3

 72
    65
 73
     0
 40
0.0
  0
LTYPE
  5
16
330
5
100
AcDbSymbolTableRecord
100
AcDbLinetypeTableRecord
  2
Continuous
 70
     0
  3
Solid line
 72
    65
 73
     0
 40
0.0
  0
LTYPE
  5
6A
330
5
100
AcDbSymbolTableRecord
100
AcDbLinetypeTableRecord
  2
HIDDEN
 70
     0
  3
Hidden __ __ __ __ __ __ __ __ __ __ __ __ __ __
 72
    65
 73
     2
 40
1.905
 49
1.27
 74
     0
 49
-0.635
 74
     0
  0
LTYPE
  5
6B
330
5
100
AcDbSymbolTableRecord
100
AcDbLinetypeTableRecord
  2
PHANTOM
 70
     0
  3
Phantom ______  __  __  ______  __  __  ______
 72
    65
 73
     6
 40
12.7
 49
6.35
 74
     0
 49
-1.27
 74
     0
 49
1.27
 74
     0
 49
-1.27
 74
     0
 49
1.27
 74
     0
 49
-1.27
 74
     0
  0
LTYPE
  5
6C
330
5
100
AcDbSymbolTableRecord
100
AcDbLinetypeTableRecord
  2
CENTER
 70
     0
  3
Center ____ _ ____ _ ____ _ ____ _ ____ _ ____
 72
    65
 73
     4
 40
10.16
 49
6.35
 74
     0
 49
-1.27
 74
     0
 49
1.27
 74
     0
 49
-1.27
 74
     0
  0
LTYPE
  5
6D
330
5
100
AcDbSymbolTableRecord
100
AcDbLinetypeTableRecord
  2
CENTERX2
 70
     0
  3
Center (2x) ________  __  ________  __  _____
 72
    65
 73
     4
 40
20.32
 49
12.7
 74
     0
 49
-2.54
 74
     0
 49
2.54
 74
     0
 49
-2.54
 74
     0
  0
LTYPE
  5
6E
330
5
100
AcDbSymbolTableRecord
100
AcDbLinetypeTableRecord
  2
DOT2
 70
     0
  3
Dot (.5x) ........................................
 72
    65
 73
     2
 40
0.635
 49
0.0
 74
     0
 49
-0.635
 74
     0
  0
ENDTAB
  0
TABLE
  2
LAYER
  5
2
330
0
100
AcDbSymbolTable
 70
     1
  0
LAYER
  5
10
330
2
100
AcDbSymbolTableRecord
100
AcDbLayerTableRecord
  2
0
 70
     0
 62
     7
  6
Continuous
370
    -3
390
F
  0
ENDTAB
  0
TABLE
  2
STYLE
  5
3
330
0
100
AcDbSymbolTable
 70
     1
  0
STYLE
  5
11
330
3
100
AcDbSymbolTableRecord
100
AcDbTextStyleTableRecord
  2
Standard
 70
     0
 40
0.0
 41
1.0
 50
0.0
 71
     0
 42
3.0
  3
txt
  4

  0
ENDTAB
  0
TABLE
  2
VIEW
  5
6
330
0
100
AcDbSymbolTable
 70
     0
  0
ENDTAB
  0
TABLE
  2
UCS
  5
7
330
0
100
AcDbSymbolTable
 70
     0
  0
ENDTAB
  0
TABLE
  2
APPID
  5
9
330
0
100
AcDbSymbolTable
 70
     1
  0
APPID
  5
12
330
9
100
AcDbSymbolTableRecord
100
AcDbRegAppTableRecord
  2
ACAD
 70
     0
  0
ENDTAB
  0
TABLE
  2
DIMSTYLE
  5
A
330
0
100
AcDbSymbolTable
 70
     1
100
AcDbDimStyleTable
  0
DIMSTYLE
105
27
330
A
100
AcDbSymbolTableRecord
100
AcDbDimStyleTableRecord
  2
ISO-25
 70
     0
 41
2.5
 42
0.625
 43
3.75
 44
1.25
 73
     0
 74
     0
 77
     1
 78
     8
140
2.5
141
2.5
143
0.0393700787
147
0.625
171
     3
172
     1
178
     0
271
     2
272
     2
274
     3
278
    44
283
     0
284
     8
340
11
  0
ENDTAB
  0
TABLE
  2
BLOCK_RECORD
  5
1
330
0
100
AcDbSymbolTable
 70
     1
  0
BLOCK_RECORD
  5
1F
330
1
100
AcDbSymbolTableRecord
100
AcDbBlockTableRecord
  2
*Model_Space
340
22
  0
BLOCK_RECORD
  5
1B
330
1
100
AcDbSymbolTableRecord
100
AcDbBlockTableRecord
  2
*Paper_Space
340
1E
  0
BLOCK_RECORD
  5
23
330
1
100
AcDbSymbolTableRecord
100
AcDbBlockTableRecord
  2
*Paper_Space0
340
26
  0
ENDTAB
  0
ENDSEC
  0
SECTION
  2
BLOCKS
  0
BLOCK
  5
20
330
1F
100
AcDbEntity
  8
0
100
AcDbBlockBegin
  2
*Model_Space
 70
     0
 10
0.0
 20
0.0
 30
0.0
  3
*Model_Space
  1
*Model_Space
  0
ENDBLK
  5
21
330
1F
100
AcDbEntity
  8
0
100
AcDbBlockEnd
  0
BLOCK
  5
1C
330
1B
100
AcDbEntity
 67
     1
  8
0
100
AcDbBlockBegin
  2
*Paper_Space
 70
     0
 10
0.0
 20
0.0
 30
0.0
  3
*Paper_Space
  1
*Paper_Space
  0
ENDBLK
  5
1D
330
1B
100
AcDbEntity
 67
     1
  8
0
100
AcDbBlockEnd
  0
BLOCK
  5
24
330
23
100
AcDbEntity
  8
0
100
AcDbBlockBegin
  2
*Paper_Space0
 70
     0
 10
0.0
 20
0.0
 30
0.0
  3
*Paper_Space0
  1
*Paper_Space0
  0
ENDBLK
  5
25
330
23
100
AcDbEntity
  8
0
100
AcDbBlockEnd
  0
ENDSEC
  0
SECTION
  2
ENTITIES
  0
SPLINE
  5
89
330
1F
100
AcDbEntity
  8
0
  6
Continuous
 62
     7
370
    15
100
AcDbSpline
210
0.0
220
0.0
230
1.0
 70
     8
 71
     3
 72
    13
 73
     9
 74
     0
 42
0.000000001
 43
0.00000001
 40
0.0
 40
0.0
 40
0.0
 40
0.0
 40
0.0527618372251589
 40
0.2427662739631408
 40
0.4326906514311451
 40
0.6230533746834692
 40
0.8143679820929322
 40
1.0
 40
1.0
 40
1.0
 40
1.0
 10
-247.7366645866652
 20
-121.5585849569686
 30
0.0
 10
-247.4232468604628
 20
-121.5674072020663
 30
0.0
 10
-245.981158078386
 20
-121.6079998668217
 30
0.0
 10
-243.4129449413161
 20
-121.3626380153166
 30
0.0
 10
-240.0578511850734
 20
-120.81843080636
 30
0.0
 10
-236.7483410922279
 20
-119.9349642702541
 30
0.0
 10
-233.5263229903698
 20
-118.7888760532896
 30
0.0
 10
-231.4623670428665
 20
-117.7855259883966
 30
0.0
 10
-230.4459464632032
 20
-117.2914138656077
 30
0.0
  0
SPLINE
  5
8A
330
1F
100
AcDbEntity
  8
0
  6
Continuous
 62
     7
370
    15
100
AcDbSpline
210
0.0
220
0.0
230
1.0
 70
     8
 71
     3
 72
    11
 73
     7
 74
     0
 42
0.000000001
 43
0.00000001
 40
0.0
 40
0.0
 40
0.0
 40
0.0
 40
0.189630328277324
 40
0.5018532558720613
 40
0.8122879376266936
 40
1.0
 40
1.0
 40
1.0
 40
1.0
 10
-236.4325121583715
 20
121.7721875526888
 30
0.0
 10
-237.1059153684648
 20
121.9666080280678
 30
0.0
 10
-238.8880648620088
 20
122.481138322159
 30
0.0
 10
-241.8247252333899
 20
123.0412135387582
 30
0.0
 10
-244.7830027793741
 20
123.38458176782
 30
0.0
 10
-246.6082872025326
 20
123.3729547274417
 30
0.0
 10
-247.2960923674319
 20
123.3685734166042
 30
0.0
  0
SPLINE
  5
8D
330
1F
100
AcDbEntity
  8
0
  6
Continuous
 62
     7
370
    15
100
AcDbSpline
210
0.0
220
0.0
230
1.0
 70
     8
 71
     3
 72
    37
 73
    33
 74
     0
 42
0.000000001
 43
0.00000001
 40
0.0
 40
0.0
 40
0.0
 40
0.0
 40
0.0152891234403927
 40
0.0556297359347524
 40
0.0953793916015407
 40
0.1336751771465825
 40
0.1704671793888565
 40
0.2060710421373243
 40
0.2408417856312282
 40
0.2750672878269792
 40
0.3089582389771365
 40
0.3426621850988056
 40
0.376279402061836
 40
0.4098748116007507
 40
0.4434786358381136
 40
0.4771198797474416
 40
0.510813560560788
 40
0.5445648416627431
 40
0.578372025710303
 40
0.6122286921525715
 40
0.6461252175502985
 40
0.6800498550594929
 40
0.7139895063419536
 40
0.7479302894211219
 40
0.7818542811999268
 40
0.8157463956447601
 40
0.8495932208193132
 40
0.8833825237028183
 40
0.9171039826170421
 40
0.9507502033770782
 40
0.9843181351385936
 40
1.0
 40
1.0
 40
1.0
 40
1.0
 10
-247.7518248118982
 20
-101.5546513952481
 30
0.0
 10
-248.0382621246377
 20
-101.5645113934919
 30
0.0
 10
-249.0804691636272
 20
-101.6003871649682
 30
0.0
 10
-250.8714574169387
 20
-101.3413077941397
 30
0.0
 10
-253.1240311297854
 20
-100.774238149236
 30
0.0
 10
-255.3435093103637
 20
-99.88505640916834
 30
0.0
 10
-257.5079606577193
 20
-98.71672907994059
 30
0.0
 10
-259.6105299100919
 20
-97.2768473289514
 30
0.0
 10
-261.6482223106396
 20
-95.57455890144308
 30
0.0
 10
-263.615587347591
 20
-93.61470607384739
 30
0.0
 10
-265.5036679985436
 20
-91.40316914588836
 30
0.0
 10
-267.300851037442
 20
-88.94768678573313
 30
0.0
 10
-268.9939788411451
 20
-86.25862021870758
 30
0.0
 10
-270.5691518551582
 20
-83.34933483682956
 30
0.0
 10
-272.0127656355206
 20
-80.23572233767308
 30
0.0
 10
-273.3120072326
 20
-76.9359028934165
 30
0.0
 10
-274.4552669198619
 20
-73.4695687398471
 30
0.0
 10
-275.4321440291112
 20
-69.8582391133259
 30
0.0
 10
-276.2336543027199
 20
-66.12497315237123
 30
0.0
 10
-276.8523736248634
 20
-62.29408669211782
 30
0.0
 10
-277.2825359404636
 20
-58.39088036042345
 30
0.0
 10
-277.5200984766788
 20
-54.44138168974366
 30
0.0
 10
-277.5627866916244
 20
-50.47209666776936
 30
0.0
 10
-277.4101226390233
 20
-46.50992588603305
 30
0.0
 10
-277.0634931276213
 20
-42.58178845673492
 30
0.0
 10
-276.526084308047
 20
-38.7144516309813
 30
0.0
 10
-275.803128404973
 20
-34.9336964130401
 30
0.0
 10
-274.900810132337
 20
-31.26585285245507
 30
0.0
 10
-273.8302347466382
 20
-27.73135277760376
 30
0.0
 10
-272.5925200027199
 20
-24.36763353253937
 30
0.0
 10
-271.4742474643937
 20
-21.71299231206717
 30
0.0
 10
-270.7242233873049
 20
-20.26201323411305
 30
0.0
 10
-270.4854046098435
 20
-19.79999999999922
 30
0.0
  0
SPLINE
  5
8E
330
1F
100
AcDbEntity
  8
0
  6
Continuous
 62
     7
370
    15
100
AcDbSpline
210
0.0
220
0.0
230
1.0
 70
     8
 71
     3
 72
    38
 73
    34
 74
     0
 42
0.000000001
 43
0.00000001
 40
0.0
 40
0.0
 40
0.0
 40
0.0
 40
0.007614676998725
 40
0.0406720196541411
 40
0.0737815567495131
 40
0.1069398097924784
 40
0.1401541606253721
 40
0.1734245460993493
 40
0.2067457461265318
 40
0.2401090272976517
 40
0.2735033098665871
 40
0.3069159994114021
 40
0.340333592016892
 40
0.3737397648484722
 40
0.407118293640991
 40
0.4404557547902102
 40
0.4737397245436044
 40
0.5069594401219306
 40
0.540106713540336
 40
0.573177205045773
 40
0.6061721907178063
 40
0.6391009916618008
 40
0.6719842708854221
 40
0.704854960654757
 40
0.737753423077823
 40
0.7707562657193606
 40
0.8039748493611674
 40
0.8375651980983801
 40
0.8717377015982837
 40
0.9067608860962647
 40
0.9429419672344271
 40
0.9805398783342102
 40
1.0
 40
1.0
 40
1.0
 40
1.0
 10
-269.2262442457188
 20
20.20000000000077
 30
0.0
 10
-269.3477201350135
 20
20.42154477977437
 30
0.0
 10
-269.9965552409185
 20
21.60487450455887
 30
0.0
 10
-271.0878398975058
 20
23.89554623583722
 30
0.0
 10
-272.4308689334786
 20
27.13957711590778
 30
0.0
 10
-273.6169754151942
 20
30.56404336678326
 30
0.0
 10
-274.6405657797211
 20
34.13750737375055
 30
0.0
 10
-275.4907868922428
 20
37.83990275812945
 30
0.0
 10
-276.1601699033338
 20
41.64653133002984
 30
0.0
 10
-276.6423818257777
 20
45.53252317385846
 30
0.0
 10
-276.9329319230924
 20
49.47197452476701
 30
0.0
 10
-277.029050386766
 20
53.43849901074662
 30
0.0
 10
-276.9297682771204
 20
57.4052915293436
 30
0.0
 10
-276.6359507153541
 20
61.34539056154404
 30
0.0
 10
-276.150323159165
 20
65.23201115161365
 30
0.0
 10
-275.4774462021732
 20
69.03888574654763
 30
0.0
 10
-274.6236804387698
 20
72.7404996722052
 30
0.0
 10
-273.5971692260366
 20
76.31225382204752
 30
0.0
 10
-272.4077948327843
 20
79.73073530272303
 30
0.0
 10
-271.0671041254867
 20
82.97400941816713
 30
0.0
 10
-269.5881886878252
 20
86.02193404317342
 30
0.0
 10
-267.9854982095242
 20
88.85649400515739
 30
0.0
 10
-266.2746188180913
 20
91.4620529435588
 30
0.0
 10
-264.4721334055324
 20
93.82539859585015
 30
0.0
 10
-262.5949490768423
 20
95.93642954245055
 30
0.0
 10
-260.6594250655715
 20
97.78852789596883
 30
0.0
 10
-258.6799674728812
 20
99.3786346413793
 30
0.0
 10
-256.6676950141391
 20
100.7071488502813
 30
0.0
 10
-254.628584140522
 20
101.7749959491595
 30
0.0
 10
-252.5616253770044
 20
102.5888437985184
 30
0.0
 10
-250.4580901448106
 20
103.1291928941969
 30
0.0
 10
-248.6778796849622
 20
103.4005416281868
 30
0.0
 10
-247.5924572521486
 20
103.3765753420128
 30
0.0
 10
-247.2222648081133
 20
103.3684014386688
 30
0.0
  0
SPLINE
  5
8F
330
1F
100
AcDbEntity
  8
0
  6
Continuous
 62
     7
370
    15
100
AcDbSpline
210
0.0
220
0.0
230
1.0
 70
     8
 71
     3
 72
    38
 73
    34
 74
     0
 42
0.000000001
 43
0.00000001
 40
0.0
 40
0.0
 40
0.0
 40
0.0
 40
0.0092743273050495
 40
0.0430290790471317
 40
0.076761379788506
 40
0.1104695347532858
 40
0.1441555900184417
 40
0.1778242789751842
 40
0.2114821974259342
 40
0.2451371668331151
 40
0.278797733231302
 40
0.3124704206302322
 40
0.3461634732914037
 40
0.3798853809995805
 40
0.4136437905469019
 40
0.4474449064281576
 40
0.4812927050310277
 40
0.5151879026460897
 40
0.5491266340812072
 40
0.5830988434206609
 40
0.6170819234264543
 40
0.6510412305518886
 40
0.6849345737902183
 40
0.7187094955415209
 40
0.7523063163809918
 40
0.7856639001420216
 40
0.8187276403165274
 40
0.8514581354857248
 40
0.8838384258240765
 40
0.9158779890981438
 40
0.9476128045084252
 40
0.9791020044746295
 40
1.0
 40
1.0
 40
1.0
 40
1.0
 10
-299.6785240040861
 20
-19.79999999999923
 30
0.0
 10
-299.8225504794064
 20
-20.18286562330671
 30
0.0
 10
-300.4907743179229
 20
-21.95920525720742
 30
0.0
 10
-301.4779527315811
 20
-25.26872764626919
 30
0.0
 10
-302.628177882536
 20
-29.70769941992075
 30
0.0
 10
-303.5486038807385
 20
-34.25246570085381
 30
0.0
 10
-304.2563088097414
 20
-38.8689427731738
 30
0.0
 10
-304.7438793374877
 20
-43.54086652283993
 30
0.0
 10
-305.0113064166198
 20
-48.24720213181357
 30
0.0
 10
-305.0574070723872
 20
-52.96820257551352
 30
0.0
 10
-304.8820985948891
 20
-57.68370127655315
 30
0.0
 10
-304.4857920982725
 20
-62.37365858620082
 30
0.0
 10
-303.8695461392672
 20
-67.01811485565662
 30
0.0
 10
-303.0349819282719
 20
-71.59735862641448
 30
0.0
 10
-301.9842813881361
 20
-76.09185047159637
 30
0.0
 10
-300.720187117431
 20
-80.48219331018824
 30
0.0
 10
-299.2460223197089
 20
-84.74910946492156
 30
0.0
 10
-297.5657398412974
 20
-88.87339854702115
 30
0.0
 10
-295.6840165550439
 20
-92.83587961945193
 30
0.0
 10
-293.6065014669099
 20
-96.61716247275024
 30
0.0
 10
-291.3401418757675
 20
-100.1975811230975
 30
0.0
 10
-288.8934674636965
 20
-103.5574290574629
 30
0.0
 10
-286.2768198356128
 20
-106.6773227205707
 30
0.0
 10
-283.5025569910759
 20
-109.5386362861086
 30
0.0
 10
-280.5852640731343
 20
-112.1239604634286
 30
0.0
 10
-277.5416472125431
 20
-114.4178576663184
 30
0.0
 10
-274.3901336713901
 20
-116.4074242596114
 30
0.0
 10
-271.1502207367748
 20
-118.0833284190271
 30
0.0
 10
-267.8416749892005
 20
-119.4380623034275
 30
0.0
 10
-264.4838381586509
 20
-120.4728137763818
 30
0.0
 10
-261.0948601589286
 20
-121.1709306461181
 30
0.0
 10
-258.0672214218649
 20
-121.5465154718038
 30
0.0
 10
-256.1734812537439
 20
-121.5525442876737
 30
0.0
 10
-255.4180414332258
 20
-121.5549492678581
 30
0.0
  0
SPLINE
  5
90
330
1F
100
AcDbEntity
  8
0
  6
Continuous
 62
     7
370
    15
100
AcDbSpline
210
0.0
220
0.0
230
1.0
 70
     8
 71
     3
 72
    39
 73
    35
 74
     0
 42
0.000000001
 43
0.00000001
 40
0.0
 40
0.0
 40
0.0
 40
0.0
 40
0.0131710339866716
 40
0.0439988156161081
 40
0.0748203326560369
 40
0.1057225621666487
 40
0.1367876846998068
 40
0.1680842376177638
 40
0.19966206191246
 40
0.2315487022591418
 40
0.263748043480792
 40
0.2962417968751427
 40
0.3289938656357079
 40
0.3619568001578041
 40
0.3950789182107942
 40
0.4283105806921169
 40
0.4616086049440398
 40
0.4949385406464264
 40
0.5282692906196353
 40
0.5615860957278161
 40
0.5948814163423328
 40
0.6281528948150629
 40
0.6614020491969844
 40
0.6946331963463105
 40
0.727852604729543
 40
0.7610678402897844
 40
0.7942872545892435
 40
0.8275177146254371
 40
0.8607669236977545
 40
0.8940433458141805
 40
0.9273546927506765
 40
0.9607073556104315
 40
0.9941056620460454
 40
1.0
 40
1.0
 40
1.0
 40
1.0
 10
-254.6725763887383
 20
123.3675387744505
 30
0.0
 10
-255.1548545342797
 20
123.3777253737152
 30
0.0
 10
-256.7659404386077
 20
123.4117544638573
 30
0.0
 10
-259.5008647098635
 20
123.1356436420709
 30
0.0
 10
-262.8514844460979
 20
122.5518509157453
 30
0.0
 10
-266.1571581284259
 20
121.6405243474136
 30
0.0
 10
-269.4061929967604
 20
120.4293057710743
 30
0.0
 10
-272.5871101138677
 20
118.9152984391145
 30
0.0
 10
-275.6879211467814
 20
117.1041384502605
 30
0.0
 10
-278.6958853542105
 20
115.0002127080215
 30
0.0
 10
-281.5974406719021
 20
112.6101676178514
 30
0.0
 10
-284.37841835159
 20
109.9427323458227
 30
0.0
 10
-287.0244819921089
 20
107.0092611533826
 30
0.0
 10
-289.5216878301869
 20
103.8236774423604
 30
0.0
 10
-291.8570240175145
 20
100.4021779934231
 30
0.0
 10
-294.0188109832118
 20
96.76271775540403
 30
0.0
 10
-295.9969067509614
 20
92.92444672832333
 30
0.0
 10
-297.782624634284
 20
88.90744885851574
 30
0.0
 10
-299.368816182927
 20
84.73210225691889
 30
0.0
 10
-300.7496861216439
 20
80.41882164058565
 30
0.0
 10
-301.9206366082519
 20
75.98767776482931
 30
0.0
 10
-302.8779700582141
 20
71.4587050870809
 30
0.0
 10
-303.6187743739731
 20
66.85193001170525
 30
0.0
 10
-304.1408493780707
 20
62.18737965914215
 30
0.0
 10
-304.4426633244089
 20
57.48508014387579
 30
0.0
 10
-304.5233089098454
 20
52.76505749918318
 30
0.0
 10
-304.3825374180803
 20
48.04736717986141
 30
0.0
 10
-304.020570593015
 20
43.35217068963608
 30
0.0
 10
-303.4388127600535
 20
38.69910507351809
 30
0.0
 10
-302.6371276691448
 20
34.10918247471114
 30
0.0
 10
-301.623861438523
 20
29.59727050539079
 30
0.0
 10
-300.3782954479954
 20
25.20033761687298
 30
0.0
 10
-299.3725082470323
 20
22.06219791716883
 30
0.0
 10
-298.721957998175
 20
20.44291119458978
 30
0.0
 10
-298.6243681545192
 20
20.20000000000075
 30
0.0
  0
LWPOLYLINE
  5
95
330
1F
100
AcDbEntity
  8
0
  6
Continuous
 62
     7
370
    15
100
AcDbPolyline
 90
        3
 70
   128
 43
0.0
 10
-202.2830783781
 20
110.2
 10
-208.562847573
 20
110.0206014319
 10
-213.5076277576
 20
109.6258172975
  0
SPLINE
  5
9B
330
1F
100
AcDbEntity
  8
0
  6
Continuous
 62
     7
370
    15
100
AcDbSpline
210
0.0
220
0.0
230
1.0
 70
     8
 71
     3
 72
    29
 73
    25
 74
     0
 42
0.000000001
 43
0.00000001
 40
0.0
 40
0.0
 40
0.0
 40
0.0
 40
0.0401202828118813
 40
0.0850132708823564
 40
0.1299592888965967
 40
0.1750848151629214
 40
0.2205006349180288
 40
0.2662937731907739
 40
0.3125210556747147
 40
0.3592053543201786
 40
0.4063356079415689
 40
0.4538711552642302
 40
0.5017498351809107
 40
0.5498981658255292
 40
0.5982413476988641
 40
0.6467111669098905
 40
0.6952508505845945
 40
0.7438126099366535
 40
0.7923630195709128
 40
0.8408865399406061
 40
0.8893762228858005
 40
0.9378316787402935
 40
0.9862573350750506
 40
1.0
 40
1.0
 40
1.0
 40
1.0
 10
-187.7981514568892
 20
-174.78164430244
 30
0.0
 10
-186.7895327970311
 20
-174.7623227749629
 30
0.0
 10
-184.6523102916573
 20
-174.7213812328265
 30
0.0
 10
-181.4048105179058
 20
-174.2719732987894
 30
0.0
 10
-178.0751295325736
 20
-173.5244551384065
 30
0.0
 10
-174.7964075883966
 20
-172.4623114627106
 30
0.0
 10
-171.5800173687948
 20
-171.0990855265848
 30
0.0
 10
-168.437671523394
 20
-169.435740362468
 30
0.0
 10
-165.3817048096816
 20
-167.4772949895394
 30
0.0
 10
-162.4252808472005
 20
-165.2291578732739
 30
0.0
 10
-159.5823074791852
 20
-162.6989647847248
 30
0.0
 10
-156.86710326902
 20
-159.8967357223255
 30
0.0
 10
-154.2938798389094
 20
-156.8351331115649
 30
0.0
 10
-151.8761757754315
 20
-153.5292731808236
 30
0.0
 10
-149.6263720360143
 20
-149.9963041024194
 30
0.0
 10
-147.5553993791977
 20
-146.2548462307593
 30
0.0
 10
-145.6726389890111
 20
-142.3245770784477
 30
0.0
 10
-143.986101082548
 20
-138.2257552324996
 30
0.0
 10
-142.5018210441082
 20
-133.9788739796117
 30
0.0
 10
-141.226491728411
 20
-129.6038963712626
 30
0.0
 10
-140.1585523335618
 20
-125.121927726757
 30
0.0
 10
-139.3225014303917
 20
-120.5490284556933
 30
0.0
 10
-138.8042142291819
 20
-117.024378717547
 30
0.0
 10
-138.6371234295587
 20
-115.0179559742394
 30
0.0
 10
-138.6001870474152
 20
-114.5744246885242
 30
0.0
  0
SPLINE
  5
9C
330
1F
100
AcDbEntity
  8
0
  6
Continuous
 62
     7
370
    15
100
AcDbSpline
210
0.0
220
0.0
230
1.0
 70
     8
 71
     3
 72
    21
 73
    17
 74
     0
 42
0.000000001
 43
0.00000001
 40
0.0
 40
0.0
 40
0.0
 40
0.0
 40
0.0014540829491341
 40
0.0812066223858502
 40
0.1613311209351165
 40
0.2415090455528975
 40
0.3213136394937838
 40
0.4004585216432429
 40
0.4787375354638965
 40
0.5560812037784413
 40
0.6326454334900689
 40
0.7089395875483048
 40
0.7857807207415733
 40
0.8645508980932949
 40
0.9478173903564442
 40
1.0
 40
1.0
 40
1.0
 40
1.0
 10
-246.0703989533864
 20
-85.42291493344163
 30
0.0
 10
-246.0684202346548
 20
-85.43438746599125
 30
0.0
 10
-245.9579141146702
 20
-86.07509755692571
 30
0.0
 10
-245.8799962615242
 20
-87.42594953577057
 30
0.0
 10
-245.861562395726
 20
-89.42098401985933
 30
0.0
 10
-246.0280845893313
 20
-91.40380323738644
 30
0.0
 10
-246.3479068781195
 20
-93.30252624951018
 30
0.0
 10
-246.809064188582
 20
-95.06586341600888
 30
0.0
 10
-247.3824045530089
 20
-96.64419999856844
 30
0.0
 10
-248.0319496977194
 20
-97.99753394998652
 30
0.0
 10
-248.7132897785505
 20
-99.0970042826642
 30
0.0
 10
-249.375120848537
 20
-99.92762595318851
 30
0.0
 10
-249.9627064560962
 20
-100.4926501099601
 30
0.0
 10
-250.4204103192956
 20
-100.8169234396144
 30
0.0
 10
-250.66943156622
 20
-100.9332731867433
 30
0.0
 10
-250.731621796466
 20
-100.9522324065549
 30
0.0
 10
-250.7555809697856
 20
-100.9595365640033
 30
0.0
  0
SPLINE
  5
9F
330
1F
100
AcDbEntity
  8
0
  6
Continuous
 62
     7
370
    15
100
AcDbSpline
210
0.0
220
0.0
230
1.0
 70
     8
 71
     3
 72
    21
 73
    17
 74
     0
 42
0.000000001
 43
0.00000001
 40
0.0
 40
0.0
 40
0.0
 40
0.0
 40
0.0410713373486142
 40
0.1251441518394558
 40
0.202025215574195
 40
0.2823333897294441
 40
0.3594303986865825
 40
0.4357612937188611
 40
0.5123634079276019
 40
0.5896884603666376
 40
0.6679351348004573
 40
0.7470399400531482
 40
0.8267934948562679
 40
0.9069097535024957
 40
0.987069055254615
 40
1.0
 40
1.0
 40
1.0
 40
1.0
 10
-249.8222807239167
 20
102.6614478085402
 30
0.0
 10
-249.8010798916899
 20
102.6545136254046
 30
0.0
 10
-249.7364810658763
 20
102.6333852053621
 30
0.0
 10
-249.5026759495109
 20
102.5242416502345
 30
0.0
 10
-249.0423380486784
 20
102.1989687804032
 30
0.0
 10
-248.4480000086281
 20
101.6285384086494
 30
0.0
 10
-247.7728879539685
 20
100.7755198738286
 30
0.0
 10
-247.0923710372049
 20
99.66871644900063
 30
0.0
 10
-246.4497595853765
 20
98.32095295176002
 30
0.0
 10
-245.8841370107195
 20
96.75738542603916
 30
0.0
 10
-245.4282544609499
 20
95.01262409626666
 30
0.0
 10
-245.1096948913648
 20
93.13039162273456
 30
0.0
 10
-244.9423940325931
 20
91.1578474792875
 30
0.0
 10
-244.95476648957
 20
89.16086888293458
 30
0.0
 10
-245.0451789311159
 20
87.71446764864345
 30
0.0
 10
-245.1746903214056
 20
86.98135136946382
 30
0.0
 10
-245.1926804406151
 20
86.87951593068594
 30
0.0
  0
SPLINE
  5
A1
330
1F
100
AcDbEntity
  8
0
  6
Continuous
 62
     7
370
    15
100
AcDbSpline
210
0.0
220
0.0
230
1.0
 70
     8
 71
     3
 72
    30
 73
    26
 74
     0
 42
0.000000001
 43
0.00000001
 40
0.0
 40
0.0
 40
0.0
 40
0.0
 40
0.0034154428164364
 40
0.0513072875499115
 40
0.0992359104848566
 40
0.1472127023216665
 40
0.195247335841433
 40
0.2433467544487456
 40
0.2915138398717987
 40
0.3397456858671167
 40
0.3880314508640512
 40
0.4363480202242396
 40
0.4846485385385617
 40
0.5328786662746814
 40
0.5809687748548558
 40
0.6288369687289945
 40
0.6763958965839483
 40
0.7235631463396924
 40
0.7702735552661477
 40
0.8164905852156724
 40
0.8622138735464823
 40
0.9074813323166475
 40
0.952365966880191
 40
0.9969688863879529
 40
1.0
 40
1.0
 40
1.0
 40
1.0
 10
-137.4068455707683
 20
113.9525286966154
 30
0.0
 10
-137.4142181952198
 20
114.0642829042595
 30
0.0
 10
-137.5249708510424
 20
115.7430711535951
 30
0.0
 10
-137.9450393739295
 20
118.9561591245137
 30
0.0
 10
-138.6821494886163
 20
123.5640331304615
 30
0.0
 10
-139.6604144921479
 20
128.0905133186312
 30
0.0
 10
-140.846640425682
 20
132.5207970482625
 30
0.0
 10
-142.2459438489611
 20
136.834321115349
 30
0.0
 10
-143.8523983558798
 20
141.0121979087726
 30
0.0
 10
-145.6621951488206
 20
145.0351568661806
 30
0.0
 10
-147.6699322680278
 20
148.883972437085
 30
0.0
 10
-149.8691911129596
 20
152.5390144376197
 30
0.0
 10
-152.2520410410411
 20
155.980573179691
 30
0.0
 10
-154.8087899748482
 20
159.1890666557825
 30
0.0
 10
-157.5278579556604
 20
162.145578939168
 30
0.0
 10
-160.3954643054739
 20
164.8321928596069
 30
0.0
 10
-163.3956358883181
 20
167.2326442745535
 30
0.0
 10
-166.510502291643
 20
169.3331585105178
 30
0.0
 10
-169.7208605933233
 20
171.1226561560058
 30
0.0
 10
-173.0069631905727
 20
172.5945238852362
 30
0.0
 10
-176.349187490853
 20
173.7411794141831
 30
0.0
 10
-179.7290903569931
 20
174.5733729248968
 30
0.0
 10
-183.1283139773912
 20
175.0469617441584
 30
0.0
 10
-185.4811845859608
 20
175.2424473767166
 30
0.0
 10
-186.6909522543556
 20
175.1901050425989
 30
0.0
 10
-186.7679338367856
 20
175.186774323971
 30
0.0
  0
SPLINE
  5
A2
330
1F
100
AcDbEntity
  8
0
  6
Continuous
 62
     7
370
    15
100
AcDbSpline
210
0.0
220
0.0
230
1.0
 70
     8
 71
     3
 72
    11
 73
     7
 74
     0
 42
0.000000001
 43
0.00000001
 40
0.0
 40
0.0
 40
0.0
 40
0.0
 40
0.1462272303340712
 40
0.4396094023041811
 40
0.7296053798714148
 40
1.0
 40
1.0
 40
1.0
 40
1.0
 10
-241.4645326818768
 20
127.4330129417045
 30
0.0
 10
-241.5291807273996
 20
127.1730079396601
 30
0.0
 10
-241.7235350113963
 20
126.3913433804415
 30
0.0
 10
-242.1304243666328
 20
125.2111344233799
 30
0.0
 10
-242.6775504826903
 20
124.0059003170003
 30
0.0
 10
-243.0471061815388
 20
123.4242636909473
 30
0.0
 10
-243.2254208663628
 20
123.1436176287166
 30
0.0
  0
SPLINE
  5
A3
330
1F
100
AcDbEntity
  8
0
  6
Continuous
 62
     7
370
    15
100
AcDbSpline
210
0.0
220
0.0
230
1.0
 70
     8
 71
     3
 72
    21
 73
    17
 74
     0
 42
0.000000001
 43
0.00000001
 40
0.0
 40
0.0
 40
0.0
 40
0.0
 40
0.0396238394924004
 40
0.1196029789864018
 40
0.2000261680397727
 40
0.2806883327878786
 40
0.3612197201655479
 40
0.4412439219945861
 40
0.520503129659424
 40
0.5988401183627848
 40
0.6762692143516281
 40
0.7530812236812282
 40
0.8299930225589592
 40
0.9078861245032407
 40
0.9885985413077781
 40
0.9999999999999999
 40
0.9999999999999999
 40
0.9999999999999999
 40
0.9999999999999999
 10
-215.7375676872478
 20
-121.7933911700035
 30
0.0
 10
-215.8011933937108
 20
-121.4898941928922
 30
0.0
 10
-215.9932450507581
 20
-120.5738006734128
 30
0.0
 10
-216.2056082795832
 20
-118.9614281055776
 30
0.0
 10
-216.3060915428605
 20
-116.9713974544273
 30
0.0
 10
-216.2378211483894
 20
-114.9701824960273
 30
0.0
 10
-216.0058514572191
 20
-113.01770516681
 30
0.0
 10
-215.6221506658437
 20
-111.170343362017
 30
0.0
 10
-215.1091209032937
 20
-109.4808813385179
 30
0.0
 10
-214.4981202704085
 20
-107.994667757089
 30
0.0
 10
-213.829104792379
 20
-106.7474403520372
 30
0.0
 10
-213.1494056437672
 20
-105.7621689214894
 30
0.0
 10
-212.5124146487476
 20
-105.0468971621739
 30
0.0
 10
-211.9747919647945
 20
-104.5902974346115
 30
0.0
 10
-211.7026283146304
 20
-104.425203482685
 30
0.0
 10
-211.5987469950903
 20
-104.3725523500083
 30
0.0
 10
-211.5858890128673
 20
-104.3660354196211
 30
0.0
  0
SPLINE
  5
A4
330
1F
100
AcDbEntity
  8
0
  6
Continuous
 62
     7
370
    15
100
AcDbSpline
210
0.0
220
0.0
230
1.0
 70
     8
 71
     3
 72
    24
 73
    20
 74
     0
 42
0.000000001
 43
0.00000001
 40
0.0
 40
0.0
 40
0.0
 40
0.0
 40
0.0427781581653265
 40
0.115511274032234
 40
0.1866002185350071
 40
0.2549398116451874
 40
0.3206760836902353
 40
0.3844306495237264
 40
0.4468217638903237
 40
0.5083335855372465
 40
0.5693157153659895
 40
0.6300111145972747
 40
0.6905837136355173
 40
0.7511321331836274
 40
0.8117111089443119
 40
0.872366029361633
 40
0.9331190896165842
 40
0.9907811458786508
 40
1.0
 40
1.0
 40
1.0
 40
1.0
 10
-187.8640788707104
 20
-154.760071870067
 30
0.0
 10
-188.3085192942649
 20
-154.7632872400554
 30
0.0
 10
-189.5086148981429
 20
-154.7719695092265
 30
0.0
 10
-191.457950052739
 20
-154.4399952676673
 30
0.0
 10
-193.7061463341504
 20
-153.793473412466
 30
0.0
 10
-195.9136472595107
 20
-152.8354686547523
 30
0.0
 10
-198.063501586916
 20
-151.6007790288744
 30
0.0
 10
-200.1507656813552
 20
-150.0971742028041
 30
0.0
 10
-202.172160564249
 20
-148.3324056780555
 30
0.0
 10
-204.121373926441
 20
-146.3113646607127
 30
0.0
 10
-205.9887051067463
 20
-144.0402888332857
 30
0.0
 10
-207.7620757196325
 20
-141.5275124230633
 30
0.0
 10
-209.4280477120821
 20
-138.7841334475979
 30
0.0
 10
-210.9727638601587
 20
-135.8241553690333
 30
0.0
 10
-212.3826804000953
 20
-132.6639981634326
 30
0.0
 10
-213.6456005102849
 20
-129.3223124223032
 30
0.0
 10
-214.7295754122591
 20
-125.8801051707258
 30
0.0
 10
-215.3886656013509
 20
-123.3367020771404
 30
0.0
 10
-215.6953010987319
 20
-121.980350462314
 30
0.0
 10
-215.7375676872483
 20
-121.7933911700038
 30
0.0
  0
SPLINE
  5
A5
330
1F
100
AcDbEntity
  8
0
  6
Continuous
 62
     7
370
    15
100
AcDbSpline
210
0.0
220
0.0
230
1.0
 70
     8
 71
     3
 72
    21
 73
    17
 74
     0
 42
0.000000001
 43
0.00000001
 40
0.0
 40
0.0
 40
0.0
 40
0.0
 40
0.0402912819688204
 40
0.1174785740239883
 40
0.19806667629303
 40
0.2755798484062537
 40
0.3523958050435411
 40
0.4295065398433357
 40
0.5073612429811748
 40
0.5861450442357938
 40
0.6657857186251082
 40
0.7460680156924908
 40
0.8267018559517905
 40
0.907360095177542
 40
0.9831196325478615
 40
0.9999999999999999
 40
0.9999999999999999
 40
0.9999999999999999
 40
0.9999999999999999
 10
-210.4112236212348
 20
105.3356410476063
 30
0.0
 10
-210.4637142187478
 20
105.3646404511952
 30
0.0
 10
-210.6167627256251
 20
105.4491949358058
 30
0.0
 10
-211.005534069744
 20
105.7289586262749
 30
0.0
 10
-211.6015464955329
 20
106.3087388154451
 30
0.0
 10
-212.2783578158272
 20
107.1732540008835
 30
0.0
 10
-212.9579575539222
 20
108.2907226371708
 30
0.0
 10
-213.5980376877328
 20
109.6484633063831
 30
0.0
 10
-214.1595781792578
 20
111.2206631479242
 30
0.0
 10
-214.6098433041318
 20
112.9722205708437
 30
0.0
 10
-214.922831570356
 20
114.8598444012852
 30
0.0
 10
-215.0800583504276
 20
116.833085247278
 30
0.0
 10
-215.0719480928512
 20
118.8373090882636
 30
0.0
 10
-214.8998724737914
 20
120.7760825218893
 30
0.0
 10
-214.6658389295544
 20
122.1428249011381
 30
0.0
 10
-214.5059082178667
 20
122.8419882229623
 30
0.0
 10
-214.4767664653428
 20
122.9693861710071
 30
0.0
  0
SPLINE
  5
A7
330
1F
100
AcDbEntity
  8
0
  6
Continuous
 62
     7
370
    15
100
AcDbSpline
210
0.0
220
0.0
230
1.0
 70
     8
 71
     3
 72
    24
 73
    20
 74
     0
 42
0.000000001
 43
0.00000001
 40
0.0
 40
0.0
 40
0.0
 40
0.0
 40
0.031645352970401
 40
0.0931334926185766
 40
0.1544930250964696
 40
0.2157101207790997
 40
0.2767883061506193
 40
0.337746494948887
 40
0.398625260860544
 40
0.4594858265169905
 40
0.5204086541366423
 40
0.5815408211190296
 40
0.6430953525799438
 40
0.7053697245988723
 40
0.7687634463973478
 40
0.8337829209369559
 40
0.9009983820542362
 40
0.9708646296003716
 40
1.0
 40
1.0
 40
1.0
 40
1.0
 10
-214.4767664653423
 20
122.9693861710068
 30
0.0
 10
-214.3236637819905
 20
123.5978811348737
 30
0.0
 10
-213.8730766881079
 20
125.447566020135
 30
0.0
 10
-212.9944988524575
 20
128.4244123107028
 30
0.0
 10
-211.7925668642441
 20
131.8285802472031
 30
0.0
 10
-210.4380366697942
 20
135.0543345160046
 30
0.0
 10
-208.9471997938663
 20
138.0833518344523
 30
0.0
 10
-207.3338117821175
 20
140.8973610992658
 30
0.0
 10
-205.6137831583077
 20
143.4810559829311
 30
0.0
 10
-203.8036951708529
 20
145.8214645522773
 30
0.0
 10
-201.9204637761358
 20
147.9087979587622
 30
0.0
 10
-199.9803168297254
 20
149.7367850546842
 30
0.0
 10
-197.9974269568815
 20
151.3026580331239
 30
0.0
 10
-195.9825207925737
 20
152.6071178519345
 30
0.0
 10
-193.9409959968227
 20
153.6509686011327
 30
0.0
 10
-191.8711485897288
 20
154.4415856920932
 30
0.0
 10
-189.7635322877584
 20
154.9555104647612
 30
0.0
 10
-188.0511043421244
 20
155.202366527347
 30
0.0
 10
-187.0336826966527
 20
155.169689255251
 30
0.0
 10
-186.7342637870581
 20
155.1600726000294
 30
0.0
  0
SPLINE
  5
A8
330
1F
100
AcDbEntity
  8
0
  6
Continuous
 62
     7
370
    15
100
AcDbSpline
210
0.0
220
0.0
230
1.0
 70
     8
 71
     3
 72
    28
 73
    24
 74
     0
 42
0.000000001
 43
0.00000001
 40
0.0
 40
0.0
 40
0.0
 40
0.0
 40
0.0188437057284984
 40
0.070876514290163
 40
0.1229717822695377
 40
0.1751371468229588
 40
0.2273758885266312
 40
0.2796850725220339
 40
0.3320532326251265
 40
0.384456058562597
 40
0.4368429609393427
 40
0.4891555097042616
 40
0.541318650186614
 40
0.5932438693602493
 40
0.6448364576696197
 40
0.6960066859416129
 40
0.7466831355415797
 40
0.7968251143398063
 40
0.8464310038138044
 40
0.895540717482478
 40
0.9442324015487896
 40
0.9926149478292136
 40
1.0
 40
1.0
 40
1.0
 40
1.0
 10
-243.6654486545521
 20
-121.3442099679931
 30
0.0
 10
-243.5779615438241
 20
-121.9015356441285
 30
0.0
 10
-243.2488977416684
 20
-123.9977953617244
 30
0.0
 10
-242.453841731485
 20
-127.5548871814679
 30
0.0
 10
-241.2839715143221
 20
-131.9919351080144
 30
0.0
 10
-239.8881796671157
 20
-136.3082173264948
 30
0.0
 10
-238.2885387572647
 20
-140.4906494225144
 30
0.0
 10
-236.4844956121244
 20
-144.5184018217057
 30
0.0
 10
-234.4825858675676
 20
-148.3726782222411
 30
0.0
 10
-232.2888771899781
 20
-152.0337398380035
 30
0.0
 10
-229.9113360490651
 20
-155.4819078272732
 30
0.0
 10
-227.3595801435345
 20
-158.6975781765129
 30
0.0
 10
-224.6451324832642
 20
-161.6618168567837
 30
0.0
 10
-221.7817058278534
 20
-164.3566668225882
 30
0.0
 10
-218.7852115002431
 20
-166.7658063040858
 30
0.0
 10
-215.673470774835
 20
-168.8753704906588
 30
0.0
 10
-212.4656568492914
 20
-170.6742183733798
 30
0.0
 10
-209.1815150117514
 20
-172.1555136624225
 30
0.0
 10
-205.8406733939255
 20
-173.3120370988163
 30
0.0
 10
-202.4616482211755
 20
-174.1527917101094
 30
0.0
 10
-199.0626891787197
 20
-174.6397408702013
 30
0.0
 10
-196.6138490710684
 20
-174.8398772859307
 30
0.0
 10
-195.3078732592951
 20
-174.7832715499583
 30
0.0
 10
-195.1349287579792
 20
-174.7757755070062
 30
0.0
  0
SPLINE
  5
A9
330
1F
100
AcDbEntity
  8
0
  6
Continuous
 62
     7
370
    15
100
AcDbSpline
210
0.0
220
0.0
230
1.0
 70
     8
 71
     3
 72
    26
 73
    22
 74
     0
 42
0.000000001
 43
0.00000001
 40
0.0
 40
0.0
 40
0.0
 40
0.0
 40
0.045289031293055
 40
0.0971021924003533
 40
0.1489810430197896
 40
0.2010711699170022
 40
0.2534997514897167
 40
0.3063662909067718
 40
0.3597352570539811
 40
0.413631863636452
 40
0.4680422364241289
 40
0.522918559136166
 40
0.5781885269540115
 40
0.6337671268118418
 40
0.689568138371402
 40
0.74551316072569
 40
0.8015371086461464
 40
0.8575849695913276
 40
0.9136190341749848
 40
0.9696216965228476
 40
1.0
 40
1.0
 40
1.0
 40
1.0
 10
-194.4586896948984
 20
175.1787068549478
 30
0.0
 10
-195.44512169084
 20
175.1568810442404
 30
0.0
 10
-197.5600865449123
 20
175.1100852967913
 30
0.0
 10
-200.7846471953335
 20
174.6538845201601
 30
0.0
 10
-204.1130134412483
 20
173.897499217169
 30
0.0
 10
-207.3900462013997
 20
172.8262535079084
 30
0.0
 10
-210.6044163916781
 20
171.4541230587006
 30
0.0
 10
-213.7443849361309
 20
169.7819629704756
 30
0.0
 10
-216.797597383694
 20
167.8148531452019
 30
0.0
 10
-219.7508647105643
 20
165.5582429091131
 30
0.0
 10
-222.5902610875272
 20
163.0198374107275
 30
0.0
 10
-225.3014634173246
 20
160.2097330955748
 30
0.0
 10
-227.8702705069967
 20
157.1406686992258
 30
0.0
 10
-230.2831774496561
 20
153.8278299954393
 30
0.0
 10
-232.5278217777222
 20
150.2884083335369
 30
0.0
 10
-234.5933986063256
 20
146.5410918132785
 30
0.0
 10
-236.4702700773669
 20
142.6054634325959
 30
0.0
 10
-238.1515915023174
 20
138.5022470217974
 30
0.0
 10
-239.6271888915396
 20
134.2502293401652
 30
0.0
 10
-240.7112381149831
 20
130.5419344093768
 30
0.0
 10
-241.2685412963744
 20
128.241888848483
 30
0.0
 10
-241.4645326818768
 20
127.4330129417046
 30
0.0
  0
SPLINE
  5
AA
330
1F
100
AcDbEntity
  8
0
  6
Continuous
 62
     7
370
    15
100
AcDbSpline
210
0.0
220
0.0
230
1.0
 70
     8
 71
     3
 72
    11
 73
     7
 74
     0
 42
0.000000001
 43
0.00000001
 40
0.0
 40
0.0
 40
0.0
 40
0.0
 40
0.04202482982553
 40
0.3366624167781445
 40
0.695818435501917
 40
1.0
 40
1.0
 40
1.0
 40
1.0
 10
-211.6371350834756
 20
-104.3902139062895
 30
0.0
 10
-211.6416880168734
 20
-104.3923280215149
 30
0.0
 10
-211.6781617293794
 20
-104.4092642742986
 30
0.0
 10
-211.5077994791388
 20
-104.3475183321298
 30
0.0
 10
-211.2191477012138
 20
-104.2925114753077
 30
0.0
 10
-210.9555942394376
 20
-104.2955803034162
 30
0.0
 10
-210.8347385750523
 20
-104.2969875520914
 30
0.0
  0
SPLINE
  5
AB
330
1F
100
AcDbEntity
  8
0
  6
Continuous
 62
     7
370
    15
100
AcDbSpline
210
0.0
220
0.0
230
1.0
 70
     8
 71
     3
 72
    11
 73
     7
 74
     0
 42
0.000000001
 43
0.00000001
 40
0.0
 40
0.0
 40
0.0
 40
0.0
 40
0.2240397937958351
 40
0.6117585371797373
 40
0.9065960443878669
 40
1.0
 40
1.0
 40
1.0
 40
1.0
 10
-209.5915385475316
 20
105.2445427010588
 30
0.0
 10
-209.6804033868061
 20
105.2429892391795
 30
0.0
 10
-209.923055922591
 20
105.2387473875389
 30
0.0
 10
-210.2642089694531
 20
105.2970059876264
 30
0.0
 10
-210.4856904620859
 20
105.3716431320887
 30
0.0
 10
-210.4569495739784
 20
105.3586702396476
 30
0.0
 10
-210.450035030082
 20
105.3555491936342
 30
0.0
  0
SPLINE
  5
AC
330
1F
100
AcDbEntity
  8
0
  6
Continuous
 62
     7
370
    15
100
AcDbSpline
210
0.0
220
0.0
230
1.0
 70
     8
 71
     3
 72
    13
 73
     9
 74
     0
 42
0.000000001
 43
0.00000001
 40
0.0
 40
0.0
 40
0.0
 40
0.0
 40
0.1231826273983925
 40
0.3016599387799416
 40
0.4802173829679646
 40
0.6591206922720263
 40
0.8386098721202097
 40
1.0
 40
1.0
 40
1.0
 40
1.0
 10
-186.2137083146679
 20
-109.7661048021586
 30
0.0
 10
-185.2646799238988
 20
-109.7635856696271
 30
0.0
 10
-182.9406196866227
 20
-109.7574166068195
 30
0.0
 10
-179.2505150567075
 20
-109.3834836211592
 30
0.0
 10
-175.1596473204868
 20
-108.6983272309135
 30
0.0
 10
-171.1063435154037
 20
-107.6847176648563
 30
0.0
 10
-167.2336625568602
 20
-106.4306671397696
 30
0.0
 10
-164.7500745904525
 20
-105.3835003939171
 30
0.0
 10
-163.57421389603
 20
-104.8877167802063
 30
0.0
  0
SPLINE
  5
AD
330
1F
100
AcDbEntity
  8
0
  6
Continuous
 62
     7
370
    15
100
AcDbSpline
210
0.0
220
0.0
230
1.0
 70
     8
 71
     3
 72
    22
 73
    18
 74
     0
 42
0.000000001
 43
0.00000001
 40
0.0
 40
0.0
 40
0.0
 40
0.0
 40
0.0359709754451735
 40
0.1058639661639734
 40
0.1756107703204698
 40
0.245195667909841
 40
0.3146226674534903
 40
0.3839132680195714
 40
0.45311358933654
 40
0.5222932225943737
 40
0.5915436284409007
 40
0.6610319883745287
 40
0.7310004460431918
 40
0.801787139711983
 40
0.8738461877600121
 40
0.9477532136765693
 40
1.0
 40
1.0
 40
1.0
 40
1.0
 10
-167.6134926933726
 20
-122.569386171003
 30
0.0
 10
-167.7665953767157
 20
-123.1978811347926
 30
0.0
 10
-168.2171824705731
 20
-125.0475660198263
 30
0.0
 10
-169.0957603065501
 20
-128.0244123133478
 30
0.0
 10
-170.2976922933978
 20
-131.4285802375085
 30
0.0
 10
-171.6522224929039
 20
-134.6543345519972
 30
0.0
 10
-173.1430593500298
 20
-137.6833517005597
 30
0.0
 10
-174.7564474317509
 20
-140.4973615976129
 30
0.0
 10
-176.476475794877
 20
-143.0810541258589
 30
0.0
 10
-178.2865647550184
 20
-145.4214714839746
 30
0.0
 10
-180.169792512043
 20
-147.5087720218705
 30
0.0
 10
-182.1099531140123
 20
-149.336882503425
 30
0.0
 10
-184.0927914460288
 20
-150.9022897815898
 30
0.0
 10
-186.1078935851465
 20
-152.2085203426912
 30
0.0
 10
-188.1486661011603
 20
-153.2455738226657
 30
0.0
 10
-189.9962651512265
 20
-153.9738253013218
 30
0.0
 10
-191.1513517282299
 20
-154.2374433260171
 30
0.0
 10
-191.6297325278442
 20
-154.346621117498
 30
0.0
  0
SPLINE
  5
AE
330
1F
100
AcDbEntity
  8
0
  6
Continuous
 62
     7
370
    15
100
AcDbSpline
210
0.0
220
0.0
230
1.0
 70
     8
 71
     3
 72
    14
 73
    10
 74
     0
 42
0.000000001
 43
0.00000001
 40
0.0
 40
0.0
 40
0.0
 40
0.0
 40
0.0559916421413057
 40
0.2355755364862429
 40
0.4143274655110407
 40
0.592101806297474
 40
0.7690557508783636
 40
0.9453974529614505
 40
1.0
 40
1.0
 40
1.0
 40
1.0
 10
-163.4075649707695
 20
105.2000000000003
 30
0.0
 10
-163.8184715560617
 20
105.385421776874
 30
0.0
 10
-165.5472927796231
 20
106.1655531124229
 30
0.0
 10
-168.6497387598862
 20
107.31596083951
 30
0.0
 10
-172.721990492435
 20
108.5303253642733
 30
0.0
 10
-176.83081860671
 20
109.4222752248425
 30
0.0
 10
-180.9579914729069
 20
109.9742078502748
 30
0.0
 10
-184.1450928798681
 20
110.2197108588374
 30
0.0
 10
-185.9503085266065
 20
110.1763554065117
 30
0.0
 10
-186.3771187747104
 20
110.1661048021603
 30
0.0
  0
SPLINE
  5
AF
330
1F
100
AcDbEntity
  8
0
  6
Continuous
 62
     7
370
    15
100
AcDbSpline
210
0.0
220
0.0
230
1.0
 70
     8
 71
     3
 72
    22
 73
    18
 74
     0
 42
0.000000001
 43
0.00000001
 40
0.0
 40
0.0
 40
0.0
 40
0.0
 40
0.0754722122280568
 40
0.1531484721375344
 40
0.227865741007124
 40
0.300330559726706
 40
0.3712456500136563
 40
0.4411613171738157
 40
0.510474925154693
 40
0.579462628935695
 40
0.6483107553607687
 40
0.7171313988542855
 40
0.785986773200025
 40
0.8549284678854063
 40
0.9239817104332769
 40
0.9895216509755967
 40
0.9999999999999999
 40
0.9999999999999999
 40
0.9999999999999999
 40
0.9999999999999999
 10
-190.4605266308707
 20
154.7466211174992
 30
0.0
 10
-189.7589249580162
 20
154.5612583670362
 30
0.0
 10
-188.3352324349703
 20
154.1851196374752
 30
0.0
 10
-186.1762047205936
 20
153.2319482473583
 30
0.0
 10
-184.0268613583041
 20
152.001676352009
 30
0.0
 10
-181.9394666685046
 20
150.496942417332
 30
0.0
 10
-179.9181056025778
 20
148.7324662691896
 30
0.0
 10
-177.9688833833245
 20
146.7113486749773
 30
0.0
 10
-176.1015545430289
 20
144.4402930789328
 30
0.0
 10
-174.3281833080579
 20
141.9275112902545
 30
0.0
 10
-172.6622114816927
 20
139.184133750731
 30
0.0
 10
-171.1174952891567
 20
136.2241552877765
 30
0.0
 10
-169.7075787611415
 20
133.0639981852446
 30
0.0
 10
-168.4446586477481
 20
129.7223124164131
 30
0.0
 10
-167.3606837466353
 20
126.2801051722837
 30
0.0
 10
-166.7015935573582
 20
123.736702077093
 30
0.0
 10
-166.3949580599821
 20
122.3803504623079
 30
0.0
 10
-166.3526914714665
 20
122.1933911700042
 30
0.0
  0
SPLINE
  5
B2
330
1F
100
AcDbEntity
  8
0
  6
Continuous
 62
     7
370
    15
100
AcDbSpline
210
0.0
220
0.0
230
1.0
 70
     8
 71
     3
 72
    17
 73
    13
 74
     0
 42
0.000000001
 43
0.00000001
 40
0.0
 40
0.0
 40
0.0
 40
0.0
 40
0.0094694198190503
 40
0.1191638834330219
 40
0.2295068507600101
 40
0.3410725337427061
 40
0.4539559714849636
 40
0.5679594717471439
 40
0.6827251372794966
 40
0.7978155123854876
 40
0.9126974737649213
 40
1.0
 40
1.0
 40
1.0
 40
1.0
 10
-169.602980261736
 20
-107.1413006132236
 30
0.0
 10
-169.5838036911837
 20
-107.1684320537569
 30
0.0
 10
-169.3424843008079
 20
-107.5098561197364
 30
0.0
 10
-168.8742859561791
 20
-108.4114830932821
 30
0.0
 10
-168.2615501661271
 20
-109.8347516768049
 30
0.0
 10
-167.739713849621
 20
-111.4877320050509
 30
0.0
 10
-167.3404742666601
 20
-113.296478297392
 30
0.0
 10
-167.0867542853858
 20
-115.2242163682669
 30
0.0
 10
-166.9930558926067
 20
-117.2166364461106
 30
0.0
 10
-167.0686674076372
 20
-119.2148992270741
 30
0.0
 10
-167.2815180114765
 20
-121.0190525143672
 30
0.0
 10
-167.5133768781921
 20
-122.1018417277078
 30
0.0
 10
-167.613492693372
 20
-122.5693861710034
 30
0.0
  0
SPLINE
  5
B3
330
1F
100
AcDbEntity
  8
0
  6
Continuous
 62
     7
370
    15
100
AcDbSpline
210
0.0
220
0.0
230
1.0
 70
     8
 71
     3
 72
    17
 73
    13
 74
     0
 42
0.000000001
 43
0.00000001
 40
0.0
 40
0.0
 40
0.0
 40
0.0
 40
0.0582365064468823
 40
0.1757845717637452
 40
0.2939852718418942
 40
0.4125372026378217
 40
0.5308969254782887
 40
0.648511220443751
 40
0.7650011774312336
 40
0.8801357178012466
 40
0.9939358973268937
 40
1.0
 40
1.0
 40
1.0
 40
1.0
 10
-166.352691471467
 20
122.193391170004
 30
0.0
 10
-166.2890657692572
 20
121.8898939944607
 30
0.0
 10
-166.0970141250483
 20
120.9737998760223
 30
0.0
 10
-165.8846507232669
 20
119.3614353773427
 30
0.0
 10
-165.7841681914171
 20
117.3713706019143
 30
0.0
 10
-165.8524358598701
 20
115.3702828241351
 30
0.0
 10
-166.0844156896569
 20
113.417332484264
 30
0.0
 10
-166.468079007968
 20
111.5717189612674
 30
0.0
 10
-166.9812466122863
 20
109.8758260184124
 30
0.0
 10
-167.5917415502304
 20
108.4132053103326
 30
0.0
 10
-168.0529507416211
 20
107.4962112913208
 30
0.0
 10
-168.2893299106583
 20
107.1517234295232
 30
0.0
 10
-168.301288665381
 20
107.134295303936
 30
0.0
  0
SPLINE
  5
B4
330
1F
100
AcDbEntity
  8
0
  6
Continuous
 62
     7
370
    15
100
AcDbSpline
210
0.0
220
0.0
230
1.0
 70
     8
 71
     3
 72
    19
 73
    15
 74
     0
 42
0.000000001
 43
0.00000001
 40
0.0
 40
0.0
 40
0.0
 40
0.0
 40
0.0703338639431434
 40
0.1592085458981178
 40
0.2481590089065961
 40
0.3374380079341708
 40
0.4272691706564436
 40
0.5178307502549645
 40
0.6092424236949039
 40
0.7015571490255058
 40
0.7947602849170207
 40
0.8887772204772085
 40
0.9834887052604334
 40
1.0
 40
1.0
 40
1.0
 40
1.0
 10
-127.3334889449431
 20
-122.9801847672119
 30
0.0
 10
-126.4402253524618
 20
-122.9714251250412
 30
0.0
 10
-124.4182235784994
 20
-122.9515966979593
 30
0.0
 10
-121.2825179138615
 20
-122.5455454622469
 30
0.0
 10
-117.9478369914508
 20
-121.8341102167695
 30
0.0
 10
-114.6628511394984
 20
-120.8057464539892
 30
0.0
 10
-111.4388873254825
 20
-119.4764375343635
 30
0.0
 10
-108.2877077860837
 20
-117.846345237195
 30
0.0
 10
-105.2211998326495
 20
-115.9210273237937
 30
0.0
 10
-102.253799478933
 20
-113.7038893046204
 30
0.0
 10
-99.39417420213256
 20
-111.2090448735701
 30
0.0
 10
-96.67616953701611
 20
-108.420825146586
 30
0.0
 10
-94.77117610706833
 20
-106.2719942424818
 30
0.0
 10
-93.82752321956494
 20
-104.9902744505167
 30
0.0
 10
-93.68743563117465
 20
-104.7999999999997
 30
0.0
  0
SPLINE
  5
B5
330
1F
100
AcDbEntity
  8
0
  6
Continuous
 62
     7
370
    15
100
AcDbSpline
210
0.0
220
0.0
230
1.0
 70
     8
 71
     3
 72
    19
 73
    15
 74
     0
 42
0.000000001
 43
0.00000001
 40
0.0
 40
0.0
 40
0.0
 40
0.0
 40
0.0204812563503302
 40
0.1205165261519236
 40
0.2200953785759422
 40
0.3190361830913389
 40
0.4171668800230849
 40
0.5143505455655413
 40
0.6105091983692779
 40
0.7056397989052592
 40
0.7998189545528641
 40
0.8931965842904702
 40
0.9859815554413494
 40
1.0
 40
1.0
 40
1.0
 40
1.0
 10
-94.28627689303839
 20
105.2000000000003
 30
0.0
 10
-94.4590599406713
 20
105.4199716652047
 30
0.0
 10
-95.4757560027918
 20
106.7143366440337
 30
0.0
 10
-97.50023207214653
 20
108.8450023001899
 30
0.0
 10
-100.3519845674639
 20
111.5557174824137
 30
0.0
 10
-103.3517093501334
 20
113.9603475283481
 30
0.0
 10
-106.4627075181597
 20
116.0707944254168
 30
0.0
 10
-109.6708103130917
 20
117.8690874752431
 30
0.0
 10
-112.9549484086805
 20
119.3502022604796
 30
0.0
 10
-116.29584343147
 20
120.5064372935204
 30
0.0
 10
-119.674888702955
 20
121.3469516475992
 30
0.0
 10
-123.0738568309401
 20
121.8335733168213
 30
0.0
 10
-125.5209356527245
 20
122.0335499013073
 30
0.0
 10
-126.8251431085878
 20
121.9769843410988
 30
0.0
 10
-126.9963263969829
 20
121.9695598484977
 30
0.0
  0
SPLINE
  5
B8
330
1F
100
AcDbEntity
  8
0
  6
Continuous
 62
     7
370
    15
100
AcDbSpline
210
0.0
220
0.0
230
1.0
 70
     8
 71
     3
 72
    10
 73
     6
 74
     0
 42
0.000000001
 43
0.00000001
 40
0.0
 40
0.0
 40
0.0
 40
0.0
 40
0.1655067524643793
 40
0.8572159228779411
 40
1.0
 40
1.0
 40
1.0
 40
1.0
 10
-139.7396740488055
 20
-122.6450091545678
 30
0.0
 10
-139.4711862125703
 20
-122.6899493515993
 30
0.0
 10
-138.080596131544
 20
-122.9227099604511
 30
0.0
 10
-136.4358059367605
 20
-123.0334401473338
 30
0.0
 10
-135.0679257974776
 20
-122.9881623325196
 30
0.0
 10
-134.8338777642815
 20
-122.980415174563
 30
0.0
  0
SPLINE
  5
B9
330
1F
100
AcDbEntity
  8
0
  6
Continuous
 62
     7
370
    15
100
AcDbSpline
210
0.0
220
0.0
230
1.0
 70
     8
 71
     3
 72
     9
 73
     5
 74
     0
 42
0.000000001
 43
0.00000001
 40
0.0
 40
0.0
 40
0.0
 40
0.0
 40
0.7446835242481018
 40
1.0
 40
1.0
 40
1.0
 40
1.0
 10
-134.2491041430164
 20
121.9786234122453
 30
0.0
 10
-135.2888918750717
 20
121.9751600214464
 30
0.0
 10
-136.6851732458798
 20
121.9705091990688
 30
0.0
 10
-138.0686481684969
 20
121.7719314702362
 30
0.0
 10
-138.4218721100307
 20
121.7212313043479
 30
0.0
  0
SPLINE
  5
BA
330
1F
100
AcDbEntity
  8
0
  6
Continuous
 62
     7
370
    15
100
AcDbSpline
210
0.0
220
0.0
230
1.0
 70
     8
 71
     3
 72
    13
 73
     9
 74
     0
 42
0.000000001
 43
0.00000001
 40
0.0
 40
0.0
 40
0.0
 40
0.0
 40
0.0527618372249635
 40
0.2427662739629356
 40
0.4326906514309325
 40
0.6230533746832193
 40
0.814367982092696
 40
1.0
 40
1.0
 40
1.0
 40
1.0
 10
134.3535945720472
 20
-121.5585849569684
 30
0.0
 10
134.6670122982485
 20
-121.5674072020661
 30
0.0
 10
136.1091010803242
 20
-121.6079998668215
 30
0.0
 10
138.6773142173928
 20
-121.3626380153168
 30
0.0
 10
142.0324079736356
 20
-120.8184308063605
 30
0.0
 10
145.3419180664811
 20
-119.934964270255
 30
0.0
 10
148.5639361683407
 20
-118.7888760532903
 30
0.0
 10
150.6278921158455
 20
-117.7855259883967
 30
0.0
 10
151.6443126955102
 20
-117.2914138656071
 30
0.0
  0
SPLINE
  5
BB
330
1F
100
AcDbEntity
  8
0
  6
Continuous
 62
     7
370
    15
100
AcDbSpline
210
0.0
220
0.0
230
1.0
 70
     8
 71
     3
 72
    11
 73
     7
 74
     0
 42
0.000000001
 43
0.00000001
 40
0.0
 40
0.0
 40
0.0
 40
0.0
 40
0.1896312078866891
 40
0.5018555837424312
 40
0.8122917054632208
 40
0.9999999999999999
 40
0.9999999999999999
 40
0.9999999999999999
 40
0.9999999999999999
 10
145.6577470003391
 20
121.7721875526898
 30
0.0
 10
144.9843437905261
 20
121.9666080372682
 30
0.0
 10
143.2021942977238
 20
122.4811383557056
 30
0.0
 10
140.2655339180108
 20
123.0412132988473
 30
0.0
 10
137.3072733347186
 20
123.3845805345882
 30
0.0
 10
135.4820059202118
 20
123.3729540092752
 30
0.0
 10
134.79421775624
 20
123.3685729599919
 30
0.0
  0
SPLINE
  5
BE
330
1F
100
AcDbEntity
  8
0
  6
Continuous
 62
     7
370
    15
100
AcDbSpline
210
0.0
220
0.0
230
1.0
 70
     8
 71
     3
 72
    37
 73
    33
 74
     0
 42
0.000000001
 43
0.00000001
 40
0.0
 40
0.0
 40
0.0
 40
0.0
 40
0.0152891234403838
 40
0.0556297359347401
 40
0.0953793916015284
 40
0.1336751771465713
 40
0.1704671793888459
 40
0.2060710421373133
 40
0.240841785631214
 40
0.2750672878269671
 40
0.3089582389771218
 40
0.3426621850987927
 40
0.3762794020618216
 40
0.409874811600736
 40
0.4434786358381044
 40
0.4771198797474264
 40
0.5108135605607795
 40
0.5445648416627344
 40
0.5783720257102917
 40
0.6122286921525609
 40
0.6461252175502901
 40
0.6800498550594904
 40
0.7139895063419534
 40
0.747930289421117
 40
0.7818542811999233
 40
0.8157463956447613
 40
0.8495932208193131
 40
0.8833825237028116
 40
0.9171039826170441
 40
0.9507502033770772
 40
0.9843181351385889
 40
1.0
 40
1.0
 40
1.0
 40
1.0
 10
134.3384343468144
 20
-101.5546513952494
 30
0.0
 10
134.051997034075
 20
-101.5645113934932
 30
0.0
 10
133.0097899950858
 20
-101.6003871649696
 30
0.0
 10
131.2188017417745
 20
-101.3413077941412
 30
0.0
 10
128.9662280289277
 20
-100.7742381492376
 30
0.0
 10
126.7467498483495
 20
-99.88505640916998
 30
0.0
 10
124.5822985009936
 20
-98.71672907994225
 30
0.0
 10
122.4797292486211
 20
-97.27684732895321
 30
0.0
 10
120.4420368480734
 20
-95.5745589014449
 30
0.0
 10
118.4746718111218
 20
-93.61470607384942
 30
0.0
 10
116.5865911601693
 20
-91.40316914589033
 30
0.0
 10
114.7894081212708
 20
-88.94768678573517
 30
0.0
 10
113.0962803175675
 20
-86.25862021870968
 30
0.0
 10
111.5211073035545
 20
-83.34933483683157
 30
0.0
 10
110.077493523192
 20
-80.23572233767507
 30
0.0
 10
108.7782519261125
 20
-76.9359028934183
 30
0.0
 10
107.6349922388504
 20
-73.4695687398489
 30
0.0
 10
106.6581151296011
 20
-69.85823911332741
 30
0.0
 10
105.8566048559923
 20
-66.12497315237282
 30
0.0
 10
105.2378855338488
 20
-62.29408669211933
 30
0.0
 10
104.8077232182484
 20
-58.39088036042455
 30
0.0
 10
104.5701606820334
 20
-54.44138168974425
 30
0.0
 10
104.5274724670876
 20
-50.47209666776973
 30
0.0
 10
104.6801365196889
 20
-46.50992588603343
 30
0.0
 10
105.0267660310909
 20
-42.58178845673514
 30
0.0
 10
105.5641748506652
 20
-38.7144516309813
 30
0.0
 10
106.2871307537391
 20
-34.93369641304007
 30
0.0
 10
107.1894490263753
 20
-31.26585285245507
 30
0.0
 10
108.2600244120741
 20
-27.73135277760367
 30
0.0
 10
109.4977391559925
 20
-24.36763353253915
 30
0.0
 10
110.6160116943187
 20
-21.71299231206702
 30
0.0
 10
111.3660357714075
 20
-20.26201323411287
 30
0.0
 10
111.604854548869
 20
-19.7999999999989
 30
0.0
  0
SPLINE
  5
BF
330
1F
100
AcDbEntity
  8
0
  6
Continuous
 62
     7
370
    15
100
AcDbSpline
210
0.0
220
0.0
230
1.0
 70
     8
 71
     3
 72
    38
 73
    34
 74
     0
 42
0.000000001
 43
0.00000001
 40
0.0
 40
0.0
 40
0.0
 40
0.0
 40
0.0076146766176163
 40
0.0406720176185237
 40
0.0737815530567815
 40
0.1069398044401817
 40
0.1401541536106997
 40
0.1734245374195038
 40
0.2067457357789772
 40
0.2401090152802751
 40
0.273503296177832
 40
0.3069159840503562
 40
0.3403335749833028
 40
0.3737397461429129
 40
0.4071182732648371
 40
0.4404557327455331
 40
0.473739700833075
 40
0.5069594147487602
 40
0.5401066865081507
 40
0.5731771763584267
 40
0.6061721603790707
 40
0.6391009596749848
 40
0.67198423725281
 40
0.7048549253769797
 40
0.7377533861534851
 40
0.7707562271432432
 40
0.8039748091224701
 40
0.8375651561784947
 40
0.8717376579680772
 40
0.9067608407131531
 40
0.9429419200404675
 40
0.9805398292584858
 40
1.0
 40
1.0
 40
1.0
 40
1.0
 10
112.8640149129934
 20
20.20000000000109
 30
0.0
 10
112.7425390236986
 20
20.42154477977479
 30
0.0
 10
112.0937039177935
 20
21.60487450455945
 30
0.0
 10
111.0024192612062
 20
23.89554623583818
 30
0.0
 10
109.6593902252331
 20
27.13957711590897
 30
0.0
 10
108.4732837435178
 20
30.56404336678444
 30
0.0
 10
107.4496933789909
 20
34.13750737375133
 30
0.0
 10
106.5994722664692
 20
37.83990275813021
 30
0.0
 10
105.9300892553781
 20
41.64653133003088
 30
0.0
 10
105.4478773329343
 20
45.5325231738597
 30
0.0
 10
105.1573272356197
 20
49.47197452476822
 30
0.0
 10
105.061208771946
 20
53.43849901074776
 30
0.0
 10
105.1604908815917
 20
57.40529152934476
 30
0.0
 10
105.4543084433579
 20
61.34539056154471
 30
0.0
 10
105.9399359995471
 20
65.23201115161419
 30
0.0
 10
106.6128129565388
 20
69.0388857465481
 30
0.0
 10
107.4665787199422
 20
72.74049967220583
 30
0.0
 10
108.4930899326755
 20
76.3122538220479
 30
0.0
 10
109.6824643259277
 20
79.73073530272342
 30
0.0
 10
111.0231550332252
 20
82.97400941816765
 30
0.0
 10
112.5020704708869
 20
86.02193404317408
 30
0.0
 10
114.1047609491878
 20
88.85649400515786
 30
0.0
 10
115.8156403406209
 20
91.46205294355994
 30
0.0
 10
117.6181257531797
 20
93.82539859584904
 30
0.0
 10
119.4953100818701
 20
95.93642954245773
 30
0.0
 10
121.4308340931402
 20
97.78852789594538
 30
0.0
 10
123.4102916858331
 20
99.37863464147152
 30
0.0
 10
125.422564144566
 20
100.7071488499339
 30
0.0
 10
127.4616750182185
 20
101.7749959504981
 30
0.0
 10
129.5286337815989
 20
102.5888437933184
 30
0.0
 10
131.6321690143304
 20
103.1291929146385
 30
0.0
 10
133.412380428021
 20
103.4005417105974
 30
0.0
 10
134.4978038122083
 20
103.3765753686632
 30
0.0
 10
134.8679972080971
 20
103.3684014324491
 30
0.0
  0
SPLINE
  5
C2
330
1F
100
AcDbEntity
  8
0
  6
Continuous
 62
     7
370
    15
100
AcDbSpline
210
0.0
220
0.0
230
1.0
 70
     8
 71
     3
 72
    38
 73
    34
 74
     0
 42
0.000000001
 43
0.00000001
 40
0.0
 40
0.0
 40
0.0
 40
0.0
 40
0.0092743228665606
 40
0.0430290584544448
 40
0.076761343052367
 40
0.1104694818852417
 40
0.1441555210290763
 40
0.1778241938728133
 40
0.2114820962157017
 40
0.245137049516439
 40
0.2787975998055003
 40
0.312470271089503
 40
0.3461633076260068
 40
0.3798851991956994
 40
0.413643592587068
 40
0.4474446922919281
 40
0.4812924746960749
 40
0.5151876560897232
 40
0.5491263712825952
 40
0.5830985643637786
 40
0.6170816281061032
 40
0.6510409189794394
 40
0.6849342459972426
 40
0.7187091515847013
 40
0.7523059563455484
 40
0.7856635241424543
 40
0.818727248493466
 40
0.8514577279986495
 40
0.8838380028405832
 40
0.9158775507812987
 40
0.947612351004071
 40
0.9791015359003146
 40
1.0
 40
1.0
 40
1.0
 40
1.0
 10
82.41173515462744
 20
-19.79999999999893
 30
0.0
 10
82.26770867930742
 20
-20.18286562330548
 30
0.0
 10
81.59948484079115
 20
-21.95920525720527
 30
0.0
 10
80.61230642713305
 20
-25.26872764626622
 30
0.0
 10
79.46208127617801
 20
-29.70769941991756
 30
0.0
 10
78.5416552779752
 20
-34.25246570085048
 30
0.0
 10
77.83395034897231
 20
-38.86894277317052
 30
0.0
 10
77.3463798212258
 20
-43.54086652283677
 30
0.0
 10
77.07895274209332
 20
-48.24720213181061
 30
0.0
 10
77.03285208632585
 20
-52.9682025755104
 30
0.0
 10
77.20816056382382
 20
-57.68370127655002
 30
0.0
 10
77.60446706044016
 20
-62.37365858619778
 30
0.0
 10
78.22071301944521
 20
-67.01811485565352
 30
0.0
 10
79.05527723044048
 20
-71.5973586264114
 30
0.0
 10
80.10597777057586
 20
-76.09185047159278
 30
0.0
 10
81.37007204128079
 20
-80.48219331018456
 30
0.0
 10
82.84423683900256
 20
-84.74910946491795
 30
0.0
 10
84.52451931741415
 20
-88.87339854701804
 30
0.0
 10
86.40624260366745
 20
-92.83587961944899
 30
0.0
 10
88.48375769180151
 20
-96.61716247274737
 30
0.0
 10
90.75011728294358
 20
-100.1975811230954
 30
0.0
 10
93.19679169501448
 20
-103.5574290574588
 30
0.0
 10
95.81343932309805
 20
-106.677322720575
 30
0.0
 10
98.58770216763585
 20
-109.5386362860826
 30
0.0
 10
101.5049950855733
 20
-112.123960463516
 30
0.0
 10
104.5486119461795
 20
-114.4178576659881
 30
0.0
 10
107.700125487277
 20
-116.4074242608201
 30
0.0
 10
110.9400384220974
 20
-118.0833284145801
 30
0.0
 10
114.2485841689179
 20
-119.4380623197544
 30
0.0
 10
117.6064210022377
 20
-120.4728137163772
 30
0.0
 10
120.9953989917636
 20
-121.1709308670444
 30
0.0
 10
124.0230549867504
 20
-121.5465169069773
 30
0.0
 10
125.9168124691288
 20
-121.5525453849781
 30
0.0
 10
126.6722695953317
 20
-121.5549502634846
 30
0.0
  0
SPLINE
  5
C3
330
1F
100
AcDbEntity
  8
0
  6
Continuous
 62
     7
370
    15
100
AcDbSpline
210
0.0
220
0.0
230
1.0
 70
     8
 71
     3
 72
    39
 73
    35
 74
     0
 42
0.000000001
 43
0.00000001
 40
0.0
 40
0.0
 40
0.0
 40
0.0
 40
0.0131710339866802
 40
0.0439988156161189
 40
0.0748203326560493
 40
0.1057225621666603
 40
0.1367876846998182
 40
0.1680842376177749
 40
0.1996620619124705
 40
0.2315487022591507
 40
0.2637480434808024
 40
0.2962417968751538
 40
0.3289938656357203
 40
0.3619568001578169
 40
0.395078918210807
 40
0.4283105806921257
 40
0.4616086049440551
 40
0.4949385406464353
 40
0.5282692906196401
 40
0.5615860957278208
 40
0.5948814163423417
 40
0.6281528948150727
 40
0.6614020491969916
 40
0.6946331963463209
 40
0.7278526047295479
 40
0.7610678402897868
 40
0.7942872545892502
 40
0.8275177146254424
 40
0.8607669236977628
 40
0.8940433458141879
 40
0.9273546927506853
 40
0.9607073556104351
 40
0.9941056620460447
 40
1.0
 40
1.0
 40
1.0
 40
1.0
 10
127.4176827699737
 20
123.367538774451
 30
0.0
 10
126.935404624432
 20
123.3777253737156
 30
0.0
 10
125.3243187201036
 20
123.4117544638578
 30
0.0
 10
122.5893944488474
 20
123.1356436420712
 30
0.0
 10
119.2387747126128
 20
122.5518509157455
 30
0.0
 10
115.9331010302848
 20
121.6405243474136
 30
0.0
 10
112.6840661619505
 20
120.4293057710743
 30
0.0
 10
109.5031490448431
 20
118.9152984391143
 30
0.0
 10
106.4023380119296
 20
117.1041384502602
 30
0.0
 10
103.3943738045005
 20
115.0002127080213
 30
0.0
 10
100.492818486809
 20
112.610167617851
 30
0.0
 10
97.71184080712115
 20
109.9427323458221
 30
0.0
 10
95.0657771666021
 20
107.0092611533819
 30
0.0
 10
92.56857132852403
 20
103.8236774423595
 30
0.0
 10
90.23323514119679
 20
100.4021779934221
 30
0.0
 10
88.07144817549931
 20
96.76271775540306
 30
0.0
 10
86.09335240775
 20
92.92444672832232
 30
0.0
 10
84.30763452442734
 20
88.90744885851491
 30
0.0
 10
82.72144297578478
 20
84.73210225691848
 30
0.0
 10
81.34057303706771
 20
80.41882164058515
 30
0.0
 10
80.16962255046
 20
75.9876777648286
 30
0.0
 10
79.21228910049756
 20
71.45870508708
 30
0.0
 10
78.47148478473892
 20
66.85193001170428
 30
0.0
 10
77.94940978064119
 20
62.18737965914138
 30
0.0
 10
77.64759583430309
 20
57.48508014387527
 30
0.0
 10
77.56695024886677
 20
52.76505749918284
 30
0.0
 10
77.70772174063168
 20
48.04736717986107
 30
0.0
 10
78.06968856569708
 20
43.35217068963543
 30
0.0
 10
78.65144639865879
 20
38.69910507351742
 30
0.0
 10
79.45313148956745
 20
34.10918247471033
 30
0.0
 10
80.46639772018926
 20
29.59727050539023
 30
0.0
 10
81.71196371071706
 20
25.20033761687283
 30
0.0
 10
82.71775091167969
 20
22.06219791716907
 30
0.0
 10
83.36830116053724
 20
20.44291119459015
 30
0.0
 10
83.46589100419295
 20
20.20000000000108
 30
0.0
  0
SPLINE
  5
C6
330
1F
100
AcDbEntity
  8
0
  6
Continuous
 62
     7
370
    15
100
AcDbSpline
210
0.0
220
0.0
230
1.0
 70
     8
 71
     3
 72
    10
 73
     6
 74
     0
 42
0.000000001
 43
0.00000001
 40
0.0
 40
0.0
 40
0.0
 40
0.0
 40
0.2919446324596446
 40
0.9410766504549737
 40
0.9999999999999999
 40
0.9999999999999999
 40
0.9999999999999999
 40
0.9999999999999999
 10
111.313957572472
 20
-20.37492467886891
 30
0.0
 10
111.3645069546684
 20
-20.6491212613864
 30
0.0
 10
111.5274516982632
 20
-21.532987490636
 30
0.0
 10
111.6882168066233
 20
-22.54513079002165
 30
0.0
 10
111.793465823767
 20
-23.27208056431443
 30
0.0
 10
111.8022244956318
 20
-23.33257627922035
 30
0.0
  0
SPLINE
  5
C7
330
1F
100
AcDbEntity
  8
0
  6
Continuous
 62
     7
370
    15
100
AcDbSpline
210
0.0
220
0.0
230
1.0
 70
     8
 71
     3
 72
     9
 73
     5
 74
     0
 42
0.000000001
 43
0.00000001
 40
0.0
 40
0.0
 40
0.0
 40
0.0
 40
0.4695893352319527
 40
1.0
 40
1.0
 40
1.0
 40
1.0
 10
112.0542870672372
 20
25.36103689278481
 30
0.0
 10
111.9864951443333
 20
24.93724601556956
 30
0.0
 10
111.8421308715152
 20
24.03477475947528
 30
0.0
 10
111.6830950552798
 20
23.18410645245458
 30
0.0
 10
111.5987407622685
 20
22.73290291023062
 30
0.0
  0
SPLINE
  5
C8
330
1F
100
AcDbEntity
  8
0
  6
Continuous
 62
     7
370
    15
100
AcDbSpline
210
0.0
220
0.0
230
1.0
 70
     8
 71
     3
 72
    19
 73
    15
 74
     0
 42
0.000000001
 43
0.00000001
 40
0.0
 40
0.0
 40
0.0
 40
0.0
 40
0.0501430728006244
 40
0.1440961585659051
 40
0.2381066985733251
 40
0.3321745604850364
 40
0.4263046715650639
 40
0.520499521010823
 40
0.6147583676598084
 40
0.7090762784962742
 40
0.8034429941091287
 40
0.8978416465308695
 40
0.9870600335197398
 40
1.0
 40
1.0
 40
1.0
 40
1.0
 10
111.8010631876696
 20
-23.33036815687461
 30
0.0
 10
111.9610492422713
 20
-24.35625204096315
 30
0.0
 10
112.4208012001117
 20
-27.30433476855356
 30
0.0
 10
113.3439755327834
 20
-32.11884768957285
 30
0.0
 10
114.635648867223
 20
-37.73228326224786
 30
0.0
 10
116.1372427809788
 20
-43.23997563551567
 30
0.0
 10
117.8418280919529
 20
-48.62736525936004
 30
0.0
 10
119.7467739957076
 20
-53.8788437055125
 30
0.0
 10
121.8477031378367
 20
-58.97939419603605
 30
0.0
 10
124.1401839666802
 20
-63.91395501795892
 30
0.0
 10
126.618832231937
 20
-68.66818849108144
 30
0.0
 10
129.2302491800101
 20
-73.14254061950453
 30
0.0
 10
131.1923798640119
 20
-76.16766617123473
 30
0.0
 10
132.2472502855442
 20
-77.69329618145689
 30
0.0
 10
132.3808662594917
 20
-77.88654128108075
 30
0.0
  0
SPLINE
  5
C9
330
1F
100
AcDbEntity
  8
0
  6
Continuous
 62
     7
370
    15
100
AcDbSpline
210
0.0
220
0.0
230
1.0
 70
     8
 71
     3
 72
    19
 73
    15
 74
     0
 42
0.000000001
 43
0.00000001
 40
0.0
 40
0.0
 40
0.0
 40
0.0
 40
0.050723622073136
 40
0.1447023954181985
 40
0.2387168367440374
 40
0.3327881000474346
 40
0.4268787824171653
 40
0.52095916372071
 40
0.6150135451418375
 40
0.7090323421096282
 40
0.8030109429043791
 40
0.8969486855375035
 40
0.9859233742990969
 40
1.0
 40
1.0
 40
1.0
 40
1.0
 10
133.2176832857315
 20
79.47230371935404
 30
0.0
 10
132.6887655006405
 20
78.72113578650398
 30
0.0
 10
131.179889214724
 20
76.57823283907615
 30
0.0
 10
128.8204196083849
 20
72.87205912079843
 30
0.0
 10
126.1980900487399
 20
68.29865504205928
 30
0.0
 10
123.7566379493084
 20
63.52703849838089
 30
0.0
 10
121.4991703078052
 20
58.57520537033211
 30
0.0
 10
119.4322280163003
 20
53.45737223676057
 30
0.0
 10
117.5606352100869
 20
48.18925093097603
 30
0.0
 10
115.8889583109537
 20
42.78621575296413
 30
0.0
 10
114.4206401725582
 20
37.26402570801163
 30
0.0
 10
113.1825004906808
 20
31.73639970538644
 30
0.0
 10
112.4412407959732
 20
27.74347539786659
 30
0.0
 10
112.0993051185211
 20
25.63896208347247
 30
0.0
 10
112.0525973150313
 20
25.35148931940526
 30
0.0
  0
SPLINE
  5
CA
330
1F
100
AcDbEntity
  8
0
  6
Continuous
 62
     7
370
    15
100
AcDbSpline
210
0.0
220
0.0
230
1.0
 70
     8
 71
     3
 72
    29
 73
    25
 74
     0
 42
0.000000001
 43
0.00000001
 40
0.0
 40
0.0
 40
0.0
 40
0.0
 40
0.0401205391275312
 40
0.0850128483623378
 40
0.1299581867390344
 40
0.17508303065344
 40
0.2204981636670441
 40
0.2662906094927756
 40
0.3125171929649145
 40
0.35920078568796
 40
0.4063303266435572
 40
0.4538651551718867
 40
0.5017431111056786
 40
0.5498907136899562
 40
0.5982331645565697
 40
0.6467022508459737
 40
0.6952412005426112
 40
0.7438022255827952
 40
0.7923519010768109
 40
0.8408746877128407
 40
0.8893636374360465
 40
0.9378183605861078
 40
0.9862432846670247
 40
1.0
 40
1.0
 40
1.0
 40
1.0
 10
194.2920426766611
 20
-174.7816467615082
 30
0.0
 10
195.3006830422171
 20
-174.7623250172982
 30
0.0
 10
197.4379272645986
 20
-174.7213834809594
 30
0.0
 10
200.6854486513132
 20
-174.2719735055613
 30
0.0
 10
204.0151296233072
 20
-173.5244550827413
 30
0.0
 10
207.293851571078
 20
-172.4623114777542
 30
0.0
 10
210.510241789708
 20
-171.099085522508
 30
0.0
 10
213.6525876353723
 20
-169.4357403635768
 30
0.0
 10
216.7085543490129
 20
-167.4772949892398
 30
0.0
 10
219.6649783115143
 20
-165.2291578733579
 30
0.0
 10
222.5079516795212
 20
-162.6989647847043
 30
0.0
 10
225.2231558896999
 20
-159.8967357223361
 30
0.0
 10
227.7963793197644
 20
-156.8351331115588
 30
0.0
 10
230.2140833834153
 20
-153.5292731808554
 30
0.0
 10
232.4638871221845
 20
-149.9963041023169
 30
0.0
 10
234.5348597814299
 20
-146.2548462311587
 30
0.0
 10
236.4176201625341
 20
-142.3245770769717
 30
0.0
 10
238.1041581029154
 20
-138.2257552380274
 30
0.0
 10
239.5884380148141
 20
-133.9788739590103
 30
0.0
 10
240.8637678023823
 20
-129.6038964480973
 30
0.0
 10
241.9317054379878
 20
-125.1219274403274
 30
0.0
 10
242.7677628999954
 20
-120.5490295235916
 30
0.0
 10
243.2860982798383
 20
-117.0239216435265
 30
0.0
 10
243.4532202519113
 20
-115.0170372467092
 30
0.0
 10
243.4901933748035
 20
-114.573045457277
 30
0.0
  0
SPLINE
  5
CB
330
1F
100
AcDbEntity
  8
0
  6
Continuous
 62
     7
370
    15
100
AcDbSpline
210
0.0
220
0.0
230
1.0
 70
     8
 71
     3
 72
    20
 73
    16
 74
     0
 42
0.000000001
 43
0.00000001
 40
0.0
 40
0.0
 40
0.0
 40
0.0
 40
0.0396521391273527
 40
0.1198880723164885
 40
0.2002932740567733
 40
0.2805322067578955
 40
0.3602417278254882
 40
0.439171142093405
 40
0.5171748273934887
 40
0.5942854172673958
 40
0.6708216273603224
 40
0.7475210976151049
 40
0.8253131952366851
 40
0.9061874030596988
 40
1.0
 40
1.0
 40
1.0
 40
1.0
 10
136.0295005301432
 20
-85.48651530545162
 30
0.0
 10
136.0662125681417
 20
-85.80787370074482
 30
0.0
 10
136.1772112573249
 20
-86.77949942844343
 30
0.0
 10
136.2433982124422
 20
-88.44447357977914
 30
0.0
 10
136.1632339161068
 20
-90.44288871229907
 30
0.0
 10
135.9175411765727
 20
-92.38912526886612
 30
0.0
 10
135.522275715822
 20
-94.22519979530246
 30
0.0
 10
134.9997607139478
 20
-95.89943812262304
 30
0.0
 10
134.3823341317789
 20
-97.36701949807266
 30
0.0
 10
133.7105113092021
 20
-98.59319307421693
 30
0.0
 10
133.0323894057512
 20
-99.55608678791648
 30
0.0
 10
132.4010873170247
 20
-100.2492257303049
 30
0.0
 10
131.8753585131296
 20
-100.6857113488536
 30
0.0
 10
131.4802193076351
 20
-100.9146665208445
 30
0.0
 10
131.3855296627871
 20
-100.9438591537476
 30
0.0
 10
131.3346781889246
 20
-100.9595365640011
 30
0.0
  0
SPLINE
  5
CC
330
1F
100
AcDbEntity
  8
0
  6
Continuous
 62
     7
370
    15
100
AcDbSpline
210
0.0
220
0.0
230
1.0
 70
     8
 71
     3
 72
    21
 73
    17
 74
     0
 42
0.000000001
 43
0.00000001
 40
0.0
 40
0.0
 40
0.0
 40
0.0
 40
0.0412065848972602
 40
0.1255562504185782
 40
0.2026904828124975
 40
0.2832631110710583
 40
0.3606139997930837
 40
0.4371962517838929
 40
0.5140506160735073
 40
0.5916302992225875
 40
0.6701346392594743
 40
0.7494999359323854
 40
0.8295161184822389
 40
0.9098961992557258
 40
0.9859731884214981
 40
1.0
 40
1.0
 40
1.0
 40
1.0
 10
132.2679784347955
 20
102.6614478085408
 30
0.0
 10
132.2891792665555
 20
102.6545136256822
 30
0.0
 10
132.3537780909467
 20
102.633385206484
 30
0.0
 10
132.5875832260053
 20
102.5242416402604
 30
0.0
 10
133.0479210531869
 20
102.198968814147
 30
0.0
 10
133.6422593693885
 20
101.6285382784745
 30
0.0
 10
134.3173704269153
 20
100.7755203355348
 30
0.0
 10
134.9978910002269
 20
99.66871474024236
 30
0.0
 10
135.6404887396675
 20
98.3209593824406
 30
0.0
 10
136.2061632071994
 20
96.75736105399751
 30
0.0
 10
136.6618487577054
 20
95.01271665961538
 30
0.0
 10
136.9811551489979
 20
93.13004088550302
 30
0.0
 10
137.1456363835589
 20
91.15917042271683
 30
0.0
 10
137.1438841577142
 20
89.19206156827191
 30
0.0
 10
137.03033864507
 20
87.78924223410708
 30
0.0
 10
136.9340764936737
 20
87.06554114882712
 30
0.0
 10
136.9190909875283
 20
86.95287976630465
 30
0.0
  0
SPLINE
  5
CE
330
1F
100
AcDbEntity
  8
0
  6
Continuous
 62
     7
370
    15
100
AcDbSpline
210
0.0
220
0.0
230
1.0
 70
     8
 71
     3
 72
    30
 73
    26
 74
     0
 42
0.000000001
 43
0.00000001
 40
0.0
 40
0.0
 40
0.0
 40
0.0
 40
0.0034297079667068
 40
0.051320836523341
 40
0.0992487427314564
 40
0.1472248171211287
 40
0.1952587323287839
 40
0.243357431655183
 40
0.2915237967854319
 40
0.3397549215195185
 40
0.3880399644489176
 40
0.4363558112809157
 40
0.4846556073070759
 40
0.5328850138076523
 40
0.5809744032461311
 40
0.6288418812971117
 40
0.6764000979536829
 40
0.7235666423682132
 40
0.7702763527850638
 40
0.8164926916030131
 40
0.8622152961856745
 40
0.9074820780241821
 40
0.9523660413808441
 40
0.9969682938945035
 40
1.0
 40
1.0
 40
1.0
 40
1.0
 10
244.6835082759264
 20
113.9511237093331
 30
0.0
 10
244.6761053590117
 20
114.0633464554784
 30
0.0
 10
244.5653309454277
 20
115.7426046503552
 30
0.0
 10
244.145227712721
 20
118.956160431525
 30
0.0
 10
243.4081075428367
 20
123.5640327797622
 30
0.0
 10
242.4298452375406
 20
128.0905134127658
 30
0.0
 10
241.2436185797365
 20
132.5207970229934
 30
0.0
 10
239.8443153509107
 20
136.8343211221375
 30
0.0
 10
238.2378607917799
 20
141.0121979069533
 30
0.0
 10
236.4280640128569
 20
145.0351568666725
 30
0.0
 10
234.4203268898871
 20
148.8839724369571
 30
0.0
 10
232.221068045964
 20
152.5390144376579
 30
0.0
 10
229.838218117612
 20
155.9805731796861
 30
0.0
 10
227.2814691838774
 20
159.1890666557837
 30
0.0
 10
224.5624012030455
 20
162.1455789391864
 30
0.0
 10
221.6947948532378
 20
164.8321928595494
 30
0.0
 10
218.6946232703887
 20
167.2326442747796
 30
0.0
 10
215.5797568670754
 20
169.3331585096977
 30
0.0
 10
212.3693985653541
 20
171.1226561590327
 30
0.0
 10
209.0832959682548
 20
172.5945238741297
 30
0.0
 10
205.741071667422
 20
173.7411794549936
 30
0.0
 10
202.3611688033137
 20
174.5733727747688
 30
0.0
 10
198.9619451754254
 20
175.0469622979079
 30
0.0
 10
196.6090583651336
 20
175.2424474796922
 30
0.0
 10
195.3992745044162
 20
175.1901038115064
 30
0.0
 10
195.3222767233542
 20
175.1867723517028
 30
0.0
  0
SPLINE
  5
CF
330
1F
100
AcDbEntity
  8
0
  6
Continuous
 62
     7
370
    15
100
AcDbSpline
210
0.0
220
0.0
230
1.0
 70
     8
 71
     3
 72
    11
 73
     7
 74
     0
 42
0.000000001
 43
0.00000001
 40
0.0
 40
0.0
 40
0.0
 40
0.0
 40
0.1462272303340629
 40
0.439609402303974
 40
0.7296053798712256
 40
1.0
 40
1.0
 40
1.0
 40
1.0
 10
140.6257264768338
 20
127.4330129417055
 30
0.0
 10
140.5610784313111
 20
127.173007939661
 30
0.0
 10
140.3667241473145
 20
126.3913433804427
 30
0.0
 10
139.959834792078
 20
125.2111344233814
 30
0.0
 10
139.4127086760206
 20
124.0059003170014
 30
0.0
 10
139.0431529771719
 20
123.4242636909482
 30
0.0
 10
138.8648382923477
 20
123.1436176287173
 30
0.0
  0
SPLINE
  5
D0
330
1F
100
AcDbEntity
  8
0
  6
Continuous
 62
     7
370
    15
100
AcDbSpline
210
0.0
220
0.0
230
1.0
 70
     8
 71
     3
 72
    22
 73
    18
 74
     0
 42
0.000000001
 43
0.00000001
 40
0.0
 40
0.0
 40
0.0
 40
0.0
 40
0.0342384966934123
 40
0.1033475365589626
 40
0.172840274459989
 40
0.2425395084663519
 40
0.3121257392750742
 40
0.3812737169777886
 40
0.4497606721623219
 40
0.5174507487185416
 40
0.5843563257890392
 40
0.6507286854880614
 40
0.7171872721695661
 40
0.7844937913641603
 40
0.8542924805590709
 40
0.9294129847540338
 40
1.0
 40
1.0
 40
1.0
 40
1.0
 10
166.3526914714642
 20
-121.7933911700032
 30
0.0
 10
166.2890657649513
 20
-121.489894192921
 30
0.0
 10
166.0970141077534
 20
-120.5738006735298
 30
0.0
 10
165.8846508809587
 20
-118.961428104509
 30
0.0
 10
165.7841676090945
 20
-116.9713974583738
 30
0.0
 10
165.8524380355683
 20
-114.9701824812834
 30
0.0
 10
166.084407607714
 20
-113.0177052215792
 30
0.0
 10
166.4681088390126
 20
-111.1703431598608
 30
0.0
 10
166.9811369833388
 20
-109.4808820814419
 30
0.0
 10
167.5921435529415
 20
-107.9946650328323
 30
0.0
 10
168.2611372328965
 20
-106.7474503583608
 30
0.0
 10
168.9409169518937
 20
-105.7621318728416
 30
0.0
 10
169.5776060682142
 20
-105.0470364176788
 30
0.0
 10
170.116531867811
 20
-104.5896363732075
 30
0.0
 10
170.5050615539542
 20
-104.353906960855
 30
0.0
 10
170.7075630599883
 20
-104.2825431603515
 30
0.0
 10
170.7127572510737
 20
-104.283685587813
 30
0.0
 10
170.7152735415626
 20
-104.2842390290147
 30
0.0
  0
SPLINE
  5
D1
330
1F
100
AcDbEntity
  8
0
  6
Continuous
 62
     7
370
    15
100
AcDbSpline
210
0.0
220
0.0
230
1.0
 70
     8
 71
     3
 72
    14
 73
    10
 74
     0
 42
0.000000001
 43
0.00000001
 40
0.0
 40
0.0
 40
0.0
 40
0.0
 40
0.0253004379393539
 40
0.2198888167855644
 40
0.4127382323281492
 40
0.6452549110012133
 40
0.8557040739443984
 40
0.9986221587814812
 40
1.0
 40
1.0
 40
1.0
 40
1.0
 10
132.3865917480999
 20
-77.89307683132692
 30
0.0
 10
132.4199303129148
 20
-77.93952513112625
 30
0.0
 10
132.7096793515696
 20
-78.34321228109
 30
0.0
 10
133.3162819002844
 20
-79.28754617229214
 30
0.0
 10
134.2016103531222
 20
-80.74663395868743
 30
0.0
 10
135.0737292616642
 20
-82.39472741668523
 30
0.0
 10
135.6922718979746
 20
-83.99944734885526
 30
0.0
 10
136.0106136782959
 20
-85.0707215436971
 30
0.0
 10
136.0262847912529
 20
-85.46877078699644
 30
0.0
 10
136.0264344303034
 20
-85.47257164727995
 30
0.0
  0
SPLINE
  5
D2
330
1F
100
AcDbEntity
  8
0
  6
Continuous
 62
     7
370
    15
100
AcDbSpline
210
0.0
220
0.0
230
1.0
 70
     8
 71
     3
 72
    24
 73
    20
 74
     0
 42
0.000000001
 43
0.00000001
 40
0.0
 40
0.0
 40
0.0
 40
0.0
 40
0.042779673200369
 40
0.1155126739495214
 40
0.1866015059368495
 40
0.2549409908830992
 40
0.3206771588845973
 40
0.3844316238110805
 40
0.4468226394286505
 40
0.5083343637182428
 40
0.5693163970280113
 40
0.6300117001941551
 40
0.6905842033616115
 40
0.7511325270772017
 40
0.8117114069570055
 40
0.8723662313732488
 40
0.933119195471781
 40
0.9907811604696972
 40
1.0
 40
1.0
 40
1.0
 40
1.0
 10
194.226229652913
 20
-154.760072600028
 30
0.0
 10
193.781772792203
 20
-154.7632883045804
 30
0.0
 10
192.5816607624697
 20
-154.771971274872
 30
0.0
 10
190.6323091162326
 20
-154.4399956004486
 30
0.0
 10
188.3841128219534
 20
-153.7934733278384
 30
0.0
 10
186.176611899861
 20
-152.8354686761274
 30
0.0
 10
184.0267575716288
 20
-151.6007790234256
 30
0.0
 10
181.9394934774008
 20
-150.0971742042111
 30
0.0
 10
179.9180985944524
 20
-148.3324056776869
 30
0.0
 10
177.9688852322745
 20
-146.3113646608093
 30
0.0
 10
176.1015540519656
 20
-144.0402888332592
 30
0.0
 10
174.3281834390804
 20
-141.5275124230695
 30
0.0
 10
172.6622114466307
 20
-138.7841334475955
 30
0.0
 10
171.117495298554
 20
-135.8241553690333
 30
0.0
 10
169.7075787586176
 20
-132.6639981634321
 30
0.0
 10
168.4446586484282
 20
-129.3223124223031
 30
0.0
 10
167.3606837464539
 20
-125.8801051707258
 30
0.0
 10
166.7015935573621
 20
-123.3367020771405
 30
0.0
 10
166.3949580599811
 20
-121.9803504623136
 30
0.0
 10
166.3526914714645
 20
-121.793391170003
 30
0.0
  0
SPLINE
  5
D3
330
1F
100
AcDbEntity
  8
0
  6
Continuous
 62
     7
370
    15
100
AcDbSpline
210
0.0
220
0.0
230
1.0
 70
     8
 71
     3
 72
    22
 73
    18
 74
     0
 42
0.000000001
 43
0.00000001
 40
0.0
 40
0.0
 40
0.0
 40
0.0
 40
0.0617939207732811
 40
0.138043365629008
 40
0.2069213280413428
 40
0.2715327721766993
 40
0.3391427079412216
 40
0.4051366976617897
 40
0.4710137257710131
 40
0.5372802128914189
 40
0.6042810020993372
 40
0.6720731691441745
 40
0.7405379899190053
 40
0.8094605291717959
 40
0.8785780728122827
 40
0.947570453555114
 40
1.0
 40
1.0
 40
1.0
 40
1.0
 10
171.9178795390203
 20
105.2370876048305
 30
0.0
 10
171.9195754393959
 20
105.2361305333434
 30
0.0
 10
171.9233639641031
 20
105.2339925015179
 30
0.0
 10
171.7424835799176
 20
105.2924797880499
 30
0.0
 10
171.3740540129895
 20
105.5083458435617
 30
0.0
 10
170.8539076033712
 20
105.9351523730359
 30
0.0
 10
170.2272580963968
 20
106.6163913368468
 30
0.0
 10
169.5443196374853
 20
107.5801622469197
 30
0.0
 10
168.8751003579759
 20
108.7940231474387
 30
0.0
 10
168.2613287962297
 20
110.2394976220728
 30
0.0
 10
167.7397742046007
 20
111.8864380556472
 30
0.0
 10
167.3404578385682
 20
113.6968304989079
 30
0.0
 10
167.0867587382301
 20
115.624120903766
 30
0.0
 10
166.9930546918944
 20
117.6166621881164
 30
0.0
 10
167.0686677304989
 20
119.6148923052116
 30
0.0
 10
167.2815179529704
 20
121.4190537686431
 30
0.0
 10
167.5133768605468
 20
122.5018421059719
 30
0.0
 10
167.6134926933704
 20
122.9693861710088
 30
0.0
  0
SPLINE
  5
D4
330
1F
100
AcDbEntity
  8
0
  6
Continuous
 62
     7
370
    15
100
AcDbSpline
210
0.0
220
0.0
230
1.0
 70
     8
 71
     3
 72
    13
 73
     9
 74
     0
 42
0.000000001
 43
0.00000001
 40
0.0
 40
0.0
 40
0.0
 40
0.0
 40
0.0296565129622051
 40
0.1807857122972331
 40
0.4024073793253624
 40
0.6443682510646931
 40
0.847353656249166
 40
1.0
 40
1.0
 40
1.0
 40
1.0
 10
136.9045643475498
 20
86.94886705002519
 30
0.0
 10
136.8967369127578
 20
86.8662040996801
 30
0.0
 10
136.8490209733912
 20
86.36229184344907
 30
0.0
 10
136.4736296166243
 20
85.18830250653811
 30
0.0
 10
135.7564186399659
 20
83.5319617507725
 30
0.0
 10
134.81640588136
 20
81.87416474551321
 30
0.0
 10
133.9307143461727
 20
80.48373967784667
 30
0.0
 10
133.4362172111548
 20
79.7822935771722
 30
0.0
 10
133.2239662524547
 20
79.481214770438
 30
0.0
  0
SPLINE
  5
D6
330
1F
100
AcDbEntity
  8
0
  6
Continuous
 62
     7
370
    15
100
AcDbSpline
210
0.0
220
0.0
230
1.0
 70
     8
 71
     3
 72
    24
 73
    20
 74
     0
 42
0.000000001
 43
0.00000001
 40
0.0
 40
0.0
 40
0.0
 40
0.0
 40
0.0316453023131307
 40
0.0931333435322881
 40
0.1544927777870292
 40
0.2157097754745146
 40
0.2767878630732493
 40
0.3377459542908182
 40
0.3986246227489181
 40
0.4594850909809359
 40
0.5204078210764902
 40
0.5815398901996892
 40
0.6430943231252966
 40
0.7053685954566178
 40
0.7687622157756395
 40
0.8337815862333277
 40
0.9009969397533922
 40
0.9708630754589934
 40
1.0
 40
1.0
 40
1.0
 40
1.0
 10
167.6134926933697
 20
122.9693861710091
 30
0.0
 10
167.7665953767215
 20
123.597881134876
 30
0.0
 10
168.2171824706043
 20
125.4475660201375
 30
0.0
 10
169.095760306255
 20
128.4244123107055
 30
0.0
 10
170.2976922944686
 20
131.828580247206
 30
0.0
 10
171.6522224889187
 20
135.0543345160073
 30
0.0
 10
173.1430593648466
 20
138.0833518344554
 30
0.0
 10
174.7564473765955
 20
140.8973610992655
 30
0.0
 10
176.4764760004051
 20
143.4810559829421
 30
0.0
 10
178.2865639878594
 20
145.821464552244
 30
0.0
 10
180.1697953825786
 20
147.9087979588925
 30
0.0
 10
182.1099423289803
 20
149.7367850541994
 30
0.0
 10
184.092832201857
 20
151.3026580349598
 30
0.0
 10
186.1077383660408
 20
152.6071178449463
 30
0.0
 10
188.1492631622682
 20
153.6509686280158
 30
0.0
 10
190.2191105675121
 20
154.441585587487
 30
0.0
 10
192.3267268767443
 20
154.9555108762663
 30
0.0
 10
194.0391712914736
 20
155.2023676994881
 30
0.0
 10
195.0566093787147
 20
155.1696892458798
 30
0.0
 10
195.3560447365637
 20
155.1600718700681
 30
0.0
  0
SPLINE
  5
D7
330
1F
100
AcDbEntity
  8
0
  6
Continuous
 62
     7
370
    15
100
AcDbSpline
210
0.0
220
0.0
230
1.0
 70
     8
 71
     3
 72
    28
 73
    24
 74
     0
 42
0.000000001
 43
0.00000001
 40
0.0
 40
0.0
 40
0.0
 40
0.0
 40
0.0188437057284806
 40
0.0708765142901516
 40
0.1229717822695302
 40
0.1751371468229554
 40
0.2273758885266315
 40
0.2796850725220318
 40
0.3320532326251251
 40
0.3844560585625986
 40
0.4368429609393393
 40
0.4891555097042645
 40
0.5413186501866146
 40
0.5932438693602505
 40
0.6448364576696232
 40
0.6960066859416139
 40
0.7466831355415756
 40
0.7968251143398105
 40
0.8464310038138046
 40
0.8955407174824789
 40
0.9442324015487917
 40
0.9926149478292166
 40
0.9999999999999999
 40
0.9999999999999999
 40
0.9999999999999999
 40
0.9999999999999999
 10
138.4248105041612
 20
-121.344209967993
 30
0.0
 10
138.5122976148891
 20
-121.9015356441278
 30
0.0
 10
138.8413614170446
 20
-123.9977953617233
 30
0.0
 10
139.636417427228
 20
-127.5548871814666
 30
0.0
 10
140.8062876443909
 20
-131.9919351080135
 30
0.0
 10
142.2020794915974
 20
-136.3082173264943
 30
0.0
 10
143.8017204014485
 20
-140.4906494225139
 30
0.0
 10
145.6057635465889
 20
-144.5184018217053
 30
0.0
 10
147.6076732911456
 20
-148.3726782222408
 30
0.0
 10
149.8013819687352
 20
-152.0337398380031
 30
0.0
 10
152.1789231096482
 20
-155.4819078272728
 30
0.0
 10
154.7306790151787
 20
-158.6975781765125
 30
0.0
 10
157.4451266754492
 20
-161.6618168567834
 30
0.0
 10
160.30855333086
 20
-164.3566668225878
 30
0.0
 10
163.3050476584703
 20
-166.7658063040854
 30
0.0
 10
166.4167883838783
 20
-168.8753704906583
 30
0.0
 10
169.6246023094218
 20
-170.6742183733794
 30
0.0
 10
172.9087441469618
 20
-172.1555136624219
 30
0.0
 10
176.2495857647878
 20
-173.3120370988159
 30
0.0
 10
179.6286109375379
 20
-174.1527917101088
 30
0.0
 10
183.0275699799938
 20
-174.6397408702007
 30
0.0
 10
185.4764100876448
 20
-174.83987728593
 30
0.0
 10
186.7823858994181
 20
-174.7832715499576
 30
0.0
 10
186.9553304007339
 20
-174.7757755070056
 30
0.0
  0
SPLINE
  5
D8
330
1F
100
AcDbEntity
  8
0
  6
Continuous
 62
     7
370
    15
100
AcDbSpline
210
0.0
220
0.0
230
1.0
 70
     8
 71
     3
 72
    26
 73
    22
 74
     0
 42
0.000000001
 43
0.00000001
 40
0.0
 40
0.0
 40
0.0
 40
0.0
 40
0.0452890312930642
 40
0.0971021924003626
 40
0.1489810430197981
 40
0.2010711699170104
 40
0.2534997514897305
 40
0.3063662909067826
 40
0.3597352570539874
 40
0.4136318636364666
 40
0.4680422364241399
 40
0.5229185591361667
 40
0.5781885269540238
 40
0.6337671268118471
 40
0.6895681383714005
 40
0.7455131607256902
 40
0.8015371086461506
 40
0.8575849695913332
 40
0.9136190341749914
 40
0.9696216965228549
 40
1.0
 40
1.0
 40
1.0
 40
1.0
 10
187.6315694638126
 20
175.1787068549493
 30
0.0
 10
186.6451374678708
 20
175.1568810442419
 30
0.0
 10
184.5301726137983
 20
175.1100852967928
 30
0.0
 10
181.305611963377
 20
174.6538845201614
 30
0.0
 10
177.9772457174622
 20
173.8974992171702
 30
0.0
 10
174.7002129573106
 20
172.8262535079095
 30
0.0
 10
171.4858427670322
 20
171.4541230587016
 30
0.0
 10
168.3458742225795
 20
169.7819629704765
 30
0.0
 10
165.2926617750163
 20
167.8148531452028
 30
0.0
 10
162.3393944481461
 20
165.5582429091139
 30
0.0
 10
159.4999980711833
 20
163.0198374107282
 30
0.0
 10
156.7887957413859
 20
160.2097330955756
 30
0.0
 10
154.2199886517139
 20
157.1406686992266
 30
0.0
 10
151.8070817090545
 20
153.82782999544
 30
0.0
 10
149.5624373809885
 20
150.2884083335378
 30
0.0
 10
147.4968605523851
 20
146.5410918132796
 30
0.0
 10
145.6199890813438
 20
142.6054634325967
 30
0.0
 10
143.938667656393
 20
138.5022470217981
 30
0.0
 10
142.4630702671709
 20
134.2502293401658
 30
0.0
 10
141.3790210437274
 20
130.5419344093773
 30
0.0
 10
140.8217178623362
 20
128.2418888484838
 30
0.0
 10
140.6257264768338
 20
127.4330129417055
 30
0.0
  0
SPLINE
  5
D9
330
1F
100
AcDbEntity
  8
0
  6
Continuous
 62
     7
370
    15
100
AcDbSpline
210
0.0
220
0.0
230
1.0
 70
     8
 71
     3
 72
    22
 73
    18
 74
     0
 42
0.000000001
 43
0.00000001
 40
0.0
 40
0.0
 40
0.0
 40
0.0
 40
0.0359709754451742
 40
0.1058639661639829
 40
0.1756107703204754
 40
0.2451956679098436
 40
0.3146226674534949
 40
0.3839132680195775
 40
0.4531135893365397
 40
0.5222932225943773
 40
0.5915436284409055
 40
0.6610319883745289
 40
0.7310004460432022
 40
0.8017871397119904
 40
0.873846187760021
 40
0.9477532136765813
 40
1.0
 40
1.0
 40
1.0
 40
1.0
 10
214.4767664653404
 20
-122.5693861710033
 30
0.0
 10
214.3236637819972
 20
-123.1978811347929
 30
0.0
 10
213.8730766881399
 20
-125.0475660198267
 30
0.0
 10
212.9944988521625
 20
-128.0244123133483
 30
0.0
 10
211.7925668653151
 20
-131.4285802375089
 30
0.0
 10
210.4380366658091
 20
-134.6543345519975
 30
0.0
 10
208.9471998086829
 20
-137.6833517005599
 30
0.0
 10
207.333811726962
 20
-140.497361597613
 30
0.0
 10
205.6137833638357
 20
-143.081054125859
 30
0.0
 10
203.8036944036944
 20
-145.4214714839747
 30
0.0
 10
201.9204666466698
 20
-147.5087720218704
 30
0.0
 10
199.9803060447005
 20
-149.3368825034251
 30
0.0
 10
197.997467712684
 20
-150.9022897815898
 30
0.0
 10
195.9823655735662
 20
-152.2085203426912
 30
0.0
 10
193.9415930575524
 20
-153.2455738226658
 30
0.0
 10
192.0939940074862
 20
-153.9738253013217
 30
0.0
 10
190.938907430483
 20
-154.2374433260169
 30
0.0
 10
190.4605266308688
 20
-154.3466211174978
 30
0.0
  0
SPLINE
  5
DA
330
1F
100
AcDbEntity
  8
0
  6
Continuous
 62
     7
370
    15
100
AcDbSpline
210
0.0
220
0.0
230
1.0
 70
     8
 71
     3
 72
    22
 73
    18
 74
     0
 42
0.000000001
 43
0.00000001
 40
0.0
 40
0.0
 40
0.0
 40
0.0
 40
0.075472212228096
 40
0.1531484721375693
 40
0.2278657410071549
 40
0.3003305597267322
 40
0.3712456500136778
 40
0.4411613171738404
 40
0.5104749251547075
 40
0.579462628935712
 40
0.6483107553607792
 40
0.7171313988542881
 40
0.785986773200028
 40
0.8549284678854063
 40
0.9239817104332813
 40
0.9895216509755992
 40
1.0
 40
1.0
 40
1.0
 40
1.0
 10
191.6297325278408
 20
154.746621117499
 30
0.0
 10
192.3313342006957
 20
154.5612583670358
 30
0.0
 10
193.755026723742
 20
154.1851196374746
 30
0.0
 10
195.9140544381189
 20
153.2319482473574
 30
0.0
 10
198.0633978004084
 20
152.0016763520079
 30
0.0
 10
200.1507924902078
 20
150.4969424173309
 30
0.0
 10
202.1721535561346
 20
148.7324662691883
 30
0.0
 10
204.1213757753877
 20
146.7113486749761
 30
0.0
 10
205.9887046156832
 20
144.4402930789312
 30
0.0
 10
207.7620758506542
 20
141.9275112902532
 30
0.0
 10
209.4280476770192
 20
139.1841337507295
 30
0.0
 10
210.9727638695551
 20
136.2241552877751
 30
0.0
 10
212.3826803975702
 20
133.0639981852433
 30
0.0
 10
213.6456005109634
 20
129.7223124164117
 30
0.0
 10
214.7295754120763
 20
126.2801051722822
 30
0.0
 10
215.3886656013534
 20
123.7367020770914
 30
0.0
 10
215.6953010987293
 20
122.3803504623064
 30
0.0
 10
215.7375676872449
 20
122.1933911700027
 30
0.0
  0
SPLINE
  5
DD
330
1F
100
AcDbEntity
  8
0
  6
Continuous
 62
     7
370
    15
100
AcDbSpline
210
0.0
220
0.0
230
1.0
 70
     8
 71
     3
 72
    13
 73
     9
 74
     0
 42
0.000000001
 43
0.00000001
 40
0.0
 40
0.0
 40
0.0
 40
0.0
 40
0.0206511456706348
 40
0.2476078614957118
 40
0.473323358738089
 40
0.6979972200691565
 40
0.9218937328851454
 40
1.0
 40
1.0
 40
1.0
 40
1.0
 10
168.3012886653788
 20
-106.7342953039343
 30
0.0
 10
168.4226744368787
 20
-106.7806287518089
 30
0.0
 10
169.8780935103024
 20
-107.3361681938769
 30
0.0
 10
172.7272715559397
 20
-108.1086420735439
 30
0.0
 10
176.8294119888505
 20
-109.0278235323327
 30
0.0
 10
180.958373354213
 20
-109.57354237813
 30
0.0
 10
184.1990989398309
 20
-109.8215014749989
 30
0.0
 10
186.0583886691943
 20
-109.7754195984542
 30
0.0
 10
186.539252389319
 20
-109.7635015513442
 30
0.0
  0
SPLINE
  5
DE
330
1F
100
AcDbEntity
  8
0
  6
Continuous
 62
     7
370
    15
100
AcDbSpline
210
0.0
220
0.0
230
1.0
 70
     8
 71
     3
 72
    12
 73
     8
 74
     0
 42
0.000000001
 43
0.00000001
 40
0.0
 40
0.0
 40
0.0
 40
0.0
 40
0.1613255842493704
 40
0.4091876553499367
 40
0.6571610116509742
 40
0.9056146914358086
 40
1.0
 40
1.0
 40
1.0
 40
1.0
 10
186.051574700054
 20
110.1635015513461
 30
0.0
 10
185.1566530477018
 20
110.1605864979515
 30
0.0
 10
182.8867657613687
 20
110.1531927304389
 30
0.0
 10
179.2497624348541
 20
109.7864234031189
 30
0.0
 10
175.1624839113159
 20
109.0855341203494
 30
0.0
 10
171.940388644662
 20
108.3309357510787
 30
0.0
 10
170.1075656953914
 20
107.711762219924
 30
0.0
 10
169.602980261735
 20
107.5413006132257
 30
0.0
  0
SPLINE
  5
DF
330
1F
100
AcDbEntity
  8
0
  6
Continuous
 62
     7
370
    15
100
AcDbSpline
210
0.0
220
0.0
230
1.0
 70
     8
 71
     3
 72
    16
 73
    12
 74
     0
 42
0.000000001
 43
0.00000001
 40
0.0
 40
0.0
 40
0.0
 40
0.0
 40
0.0111548742372875
 40
0.1461016336522633
 40
0.2826588131829556
 40
0.4207012241524467
 40
0.5598557696196708
 40
0.6996196503310336
 40
0.8394258221477855
 40
0.9707409983780575
 40
0.9999999999999999
 40
0.9999999999999999
 40
0.9999999999999999
 40
0.9999999999999999
 10
213.5294687066588
 20
-109.1648599398725
 30
0.0
 10
213.5471161604116
 20
-109.2021794438885
 30
0.0
 10
213.7782547432626
 20
-109.6909738836864
 30
0.0
 10
214.1549573152411
 20
-110.8352137080783
 30
0.0
 10
214.6111023866591
 20
-112.5682558672651
 30
0.0
 10
214.9224896604857
 20
-114.460921035455
 30
0.0
 10
215.080150755026
 20
-116.4327942759988
 30
0.0
 10
215.07192315731
 20
-118.437387607355
 30
0.0
 10
214.8998789610651
 20
-120.3760620942122
 30
0.0
 10
214.6658386531372
 20
-121.7428257715315
 30
0.0
 10
214.5059081752601
 20
-122.4419883571133
 30
0.0
 10
214.4767664653402
 20
-122.5693861710032
 30
0.0
  0
SPLINE
  5
E0
330
1F
100
AcDbEntity
  8
0
  6
Continuous
 62
     7
370
    15
100
AcDbSpline
210
0.0
220
0.0
230
1.0
 70
     8
 71
     3
 72
    33
 73
    29
 74
     0
 42
0.000000001
 43
0.00000001
 40
0.0
 40
0.0
 40
0.0
 40
0.0
 40
0.0291647018242774
 40
0.0660163845928055
 40
0.1028994898011384
 40
0.1399188217152944
 40
0.1771671070373902
 40
0.2147182580397955
 40
0.2526218985012664
 40
0.2908999873553163
 40
0.3295464536081686
 40
0.3685303600247208
 40
0.4078022596815443
 40
0.4473024499149943
 40
0.4869692891229804
 40
0.5267459328840473
 40
0.5665846097711998
 40
0.6064457325851119
 40
0.6462994847794375
 40
0.6861322111522631
 40
0.7259375046236108
 40
0.765714518554475
 40
0.8054665064837209
 40
0.8451996442970319
 40
0.8849221133943678
 40
0.9246433921869919
 40
0.9643736074282407
 40
1.0
 40
1.0
 40
1.0
 40
1.0
 10
254.7566851283743
 20
-122.9801870946971
 30
0.0
 10
255.6499771011994
 20
-122.9714274162906
 30
0.0
 10
257.6720072521335
 20
-122.9515992588803
 30
0.0
 10
260.8077414939826
 20
-122.5455460740997
 30
0.0
 10
264.1424212829788
 20
-121.8341089904844
 30
0.0
 10
267.427411328627
 20
-120.8057507740306
 30
0.0
 10
270.6513593595724
 20
-119.476421324782
 30
0.0
 10
273.8025985219405
 20
-117.8464064880393
 30
0.0
 10
276.8688808310081
 20
-115.9207954494068
 30
0.0
 10
279.8371356790742
 20
-113.7047674614825
 30
0.0
 10
282.693526534224
 20
-111.2057213554829
 30
0.0
 10
285.4237574227676
 20
-108.4333841016586
 30
0.0
 10
288.0135760869599
 20
-105.4001274059395
 30
0.0
 10
290.4493424752619
 20
-102.1208094090413
 30
0.0
 10
292.7185253007851
 20
-98.6123771715301
 30
0.0
 10
294.8100292007962
 20
-94.89331558424877
 30
0.0
 10
296.7142814534765
 20
-90.98318687972031
 30
0.0
 10
298.42320589908
 20
-86.90223829330151
 30
0.0
 10
299.9302059192607
 20
-82.67088193942948
 30
0.0
 10
301.2299753811981
 20
-78.30940913715719
 30
0.0
 10
302.3182964396026
 20
-73.83785992777116
 30
0.0
 10
303.1917520618954
 20
-69.27627259337056
 30
0.0
 10
303.847845698713
 20
-64.64464324487898
 30
0.0
 10
304.2841499624665
 20
-59.96311037051653
 30
0.0
 10
304.5012121654797
 20
-55.25128649099715
 30
0.0
 10
304.491540506397
 20
-50.53073075490333
 30
0.0
 10
304.2878951537528
 20
-45.97875395000916
 30
0.0
 10
303.977278359812
 20
-43.02746165680972
 30
0.0
 10
303.8304278557689
 20
-41.63217727654093
 30
0.0
  0
SPLINE
  5
E1
330
1F
100
AcDbEntity
  8
0
  6
Continuous
 62
     7
370
    15
100
AcDbSpline
210
0.0
220
0.0
230
1.0
 70
     8
 71
     3
 72
    15
 73
    11
 74
     0
 42
0.000000001
 43
0.00000001
 40
0.0
 40
0.0
 40
0.0
 40
0.0
 40
0.0722312547614723
 40
0.2180271613267935
 40
0.3646325365670935
 40
0.5116735463776041
 40
0.6584761589585103
 40
0.8043542107436151
 40
0.9488377361760661
 40
1.0
 40
1.0
 40
1.0
 40
1.0
 10
215.7375676872471
 20
122.1933911700038
 30
0.0
 10
215.801193926714
 20
121.8898929440041
 30
0.0
 10
215.9932471926124
 20
120.9737956548051
 30
0.0
 10
216.2055887470558
 20
119.3614738724944
 30
0.0
 10
216.3061636708088
 20
117.3712284504984
 30
0.0
 10
216.2375516592622
 20
115.3708139394877
 30
0.0
 10
216.006852511634
 20
113.4153595832609
 30
0.0
 10
215.618455698873
 20
111.5790010869243
 30
0.0
 10
215.2275819384228
 20
110.2150495127703
 30
0.0
 10
214.9464339602279
 20
109.5497920387831
 30
0.0
 10
214.872912485073
 20
109.3758241832809
 30
0.0
  0
SPLINE
  5
E2
330
1F
100
AcDbEntity
  8
0
  6
Continuous
 62
     7
370
    15
100
AcDbSpline
210
0.0
220
0.0
230
1.0
 70
     8
 71
     3
 72
    13
 73
     9
 74
     0
 42
0.000000001
 43
0.00000001
 40
0.0
 40
0.0
 40
0.0
 40
0.0
 40
0.1060345592339257
 40
0.323086751920623
 40
0.5215718812786772
 40
0.728904838984753
 40
0.9279474777387592
 40
1.0
 40
1.0
 40
1.0
 40
1.0
 10
249.8222807239129
 20
-102.2614478085379
 30
0.0
 10
249.8010791535246
 20
-102.2545370946796
 30
0.0
 10
249.7364780785365
 20
-102.2334801854034
 30
0.0
 10
249.5027025215352
 20
-102.123396813103
 30
0.0
 10
249.042248156432
 20
-101.8018268348691
 30
0.0
 10
248.4483467956685
 20
-101.2175125822544
 30
0.0
 10
247.9118447802578
 20
-100.5809568856733
 30
0.0
 10
247.6051011944855
 20
-100.0638995814415
 30
0.0
 10
247.5235739220711
 20
-99.92647446922633
 30
0.0
  0
SPLINE
  5
E3
330
1F
100
AcDbEntity
  8
0
  6
Continuous
 62
     7
370
    15
100
AcDbSpline
210
0.0
220
0.0
230
1.0
 70
     8
 71
     3
 72
    34
 73
    30
 74
     0
 42
0.000000001
 43
0.00000001
 40
0.0
 40
0.0
 40
0.0
 40
0.0
 40
0.0115600204385748
 40
0.0512516457967572
 40
0.0909360756451491
 40
0.1306231174549527
 40
0.1703217229957191
 40
0.2100403041581071
 40
0.2497891010837205
 40
0.2895775914308569
 40
0.3294138490323339
 40
0.3693037116492331
 40
0.409249684636635
 40
0.4492495192328031
 40
0.4892944413685981
 40
0.5293658456081197
 40
0.5694250424258225
 40
0.6094273409258185
 40
0.6493153385582346
 40
0.6890213446259664
 40
0.7284729358905994
 40
0.7676015053905784
 40
0.8063524562177855
 40
0.8446946941402682
 40
0.8826270071782187
 40
0.9201799417076696
 40
0.9574132763233713
 40
0.9944102946443205
 40
1.0
 40
1.0
 40
1.0
 40
1.0
 10
304.377013363066
 20
40.77315530963804
 30
0.0
 10
304.434713249918
 20
41.22385455248227
 30
0.0
 10
304.6905271716291
 20
43.22204115412871
 30
0.0
 10
304.9233600364463
 20
46.8164185022947
 30
0.0
 10
305.0685263904689
 20
51.53098075240146
 30
0.0
 10
304.9758464736835
 20
56.25183586073693
 30
0.0
 10
304.6663295385129
 20
60.95387599602414
 30
0.0
 10
304.1352122651169
 20
65.61844667891975
 30
0.0
 10
303.385396039499
 20
70.22536716870047
 30
0.0
 10
302.41844377758
 20
74.75513808162113
 30
0.0
 10
301.2369864616306
 20
79.18828266481037
 30
0.0
 10
299.844088746147
 20
83.50548769703396
 30
0.0
 10
298.2434579645549
 20
87.68752706077609
 30
0.0
 10
296.4394725542488
 20
91.71522019101761
 30
0.0
 10
294.4373450624506
 20
95.56932774456736
 30
0.0
 10
292.2434996054028
 20
99.23022968576143
 30
0.0
 10
289.8658086076487
 20
102.6782152620143
 30
0.0
 10
287.3139167497649
 20
105.8936893847027
 30
0.0
 10
284.5993419241281
 20
108.8577162883794
 30
0.0
 10
281.7358005368271
 20
111.5523406013371
 30
0.0
 10
278.7392051334583
 20
113.9612419929828
 30
0.0
 10
275.627378470513
 20
116.0705580625357
 30
0.0
 10
272.4194945313021
 20
117.8691498324458
 30
0.0
 10
269.1352987039797
 20
119.3501858186081
 30
0.0
 10
265.7944189062594
 20
120.5064416326179
 30
0.0
 10
262.4153696125822
 20
121.346950496735
 30
0.0
 10
259.016402561764
 20
121.8335736362012
 30
0.0
 10
256.5693234993426
 20
122.0335498922388
 30
0.0
 10
255.2651160493536
 20
121.9769843400481
 30
0.0
 10
255.093932761729
 20
121.9695598484994
 30
0.0
  0
SPLINE
  5
E4
330
1F
100
AcDbEntity
  8
0
  6
Continuous
 62
     7
370
    15
100
AcDbSpline
210
0.0
220
0.0
230
1.0
 70
     8
 71
     3
 72
    12
 73
     8
 74
     0
 42
0.000000001
 43
0.00000001
 40
0.0
 40
0.0
 40
0.0
 40
0.0
 40
0.1384908623238842
 40
0.36593278009585
 40
0.5990844718473891
 40
0.8455447971897229
 40
1.0
 40
1.0
 40
1.0
 40
1.0
 10
248.9621648161875
 20
99.77363243670646
 30
0.0
 10
249.0971006421578
 20
99.95163590379636
 30
0.0
 10
249.4536399914211
 20
100.4219723757187
 30
0.0
 10
249.96146724035
 20
100.8852505526408
 30
0.0
 10
250.4207708755451
 20
101.2190763791841
 30
0.0
 10
250.6693781406055
 20
101.3329541737716
 30
0.0
 10
250.7316069381671
 20
101.3521436852541
 30
0.0
 10
250.755580969785
 20
101.3595365640022
 30
0.0
  0
SPLINE
  5
E7
330
1F
100
AcDbEntity
  8
0
  6
Continuous
 62
     7
370
    15
100
AcDbSpline
210
0.0
220
0.0
230
1.0
 70
     8
 71
     3
 72
    10
 73
     6
 74
     0
 42
0.000000001
 43
0.00000001
 40
0.0
 40
0.0
 40
0.0
 40
0.0
 40
0.2296280332305194
 40
0.6969313949556325
 40
1.0
 40
1.0
 40
1.0
 40
1.0
 10
254.7142306739679
 20
-102.9684014386668
 30
0.0
 10
254.3425841759203
 20
-102.9745939619556
 30
0.0
 10
253.2146203612643
 20
-102.9933885482842
 30
0.0
 10
251.590473490934
 20
-102.7427216516964
 30
0.0
 10
250.3215013882158
 20
-102.3973277036343
 30
0.0
 10
249.8222807239129
 20
-102.2614478085379
 30
0.0
  0
SPLINE
  5
E8
330
1F
100
AcDbEntity
  8
0
  6
Continuous
 62
     7
370
    15
100
AcDbSpline
210
0.0
220
0.0
230
1.0
 70
     8
 71
     3
 72
    10
 73
     6
 74
     0
 42
0.000000001
 43
0.00000001
 40
0.0
 40
0.0
 40
0.0
 40
0.0
 40
0.2111209924105337
 40
0.6961072396812198
 40
1.0
 40
1.0
 40
1.0
 40
1.0
 10
250.7555809697848
 20
101.3595365640031
 30
0.0
 10
251.0744794686267
 20
101.4420279927093
 30
0.0
 10
252.1259502448518
 20
101.7140183811514
 30
0.0
 10
253.619690955846
 20
101.9608604959076
 30
0.0
 10
254.7921390501961
 20
101.9563781059812
 30
0.0
 10
255.2437906777521
 20
101.9546513952506
 30
0.0
  0
SPLINE
  5
E9
330
1F
100
AcDbEntity
  8
0
  6
Continuous
 62
     7
370
    15
100
AcDbSpline
210
0.0
220
0.0
230
1.0
 70
     8
 71
     3
 72
    10
 73
     6
 74
     0
 42
0.000000001
 43
0.00000001
 40
0.0
 40
0.0
 40
0.0
 40
0.0
 40
0.1655067524644232
 40
0.8572159228780425
 40
0.9999999999999999
 40
0.9999999999999999
 40
0.9999999999999999
 40
0.9999999999999999
 10
242.3505851099073
 20
-122.6450091545677
 30
0.0
 10
242.6190729461426
 20
-122.6899493515992
 30
0.0
 10
244.0096630271691
 20
-122.922709960451
 30
0.0
 10
245.6544532219522
 20
-123.0334401473336
 30
0.0
 10
247.022333361235
 20
-122.9881623325194
 30
0.0
 10
247.2563813944309
 20
-122.9804151745629
 30
0.0
  0
SPLINE
  5
EA
330
1F
100
AcDbEntity
  8
0
  6
Continuous
 62
     7
370
    15
100
AcDbSpline
210
0.0
220
0.0
230
1.0
 70
     8
 71
     3
 72
     9
 73
     5
 74
     0
 42
0.000000001
 43
0.00000001
 40
0.0
 40
0.0
 40
0.0
 40
0.0
 40
0.7446800227447232
 40
1.0
 40
1.0
 40
1.0
 40
1.0
 10
247.8410976999377
 20
121.978621240379
 30
0.0
 10
246.8013291278623
 20
121.9751577448099
 30
0.0
 10
245.4050669208501
 20
121.9705067598724
 30
0.0
 10
244.0216109863989
 20
121.7719315280277
 30
0.0
 10
243.6683870486811
 20
121.7212313043496
 30
0.0
  0
SPLINE
  5
EB
330
1F
100
AcDbEntity
  8
0
  6
Continuous
 62
     7
370
    15
100
AcDbSpline
210
0.0
220
0.0
230
1.0
 70
     8
 71
     3
 72
    17
 73
    13
 74
     0
 42
0.000000001
 43
0.00000001
 40
0.0
 40
0.0
 40
0.0
 40
0.0
 40
0.036482348445853
 40
0.143712912763965
 40
0.2509024235643118
 40
0.3581824994604333
 40
0.4658029535060205
 40
0.5741269270834761
 40
0.6836632061826078
 40
0.7950978599328681
 40
0.9093065376135797
 40
1.0
 40
1.0
 40
1.0
 40
1.0
 10
268.5098582510115
 20
-87.45835923687011
 30
0.0
 10
268.3301248015642
 20
-87.78175410646283
 30
0.0
 10
267.6221106894926
 20
-89.05568576552459
 30
0.0
 10
266.26958952576
 20
-91.05271004396008
 30
0.0
 10
264.4734812766903
 20
-93.42790911715456
 30
0.0
 10
262.5945888696761
 20
-95.53573398294056
 30
0.0
 10
260.6595138518007
 20
-97.38879247093828
 30
0.0
 10
258.6799755224899
 20
-98.9782731752955
 30
0.0
 10
256.6675703284632
 20
-100.3083496952637
 30
0.0
 10
254.6290893093696
 20
-101.3704297983767
 30
0.0
 10
252.7240097866367
 20
-102.1401715344337
 30
0.0
 10
251.5118824638349
 20
-102.4295946168571
 30
0.0
 10
250.9753725780814
 20
-102.5576986055755
 30
0.0
  0
SPLINE
  5
EC
330
1F
100
AcDbEntity
  8
0
  6
Continuous
 62
     7
370
    15
100
AcDbSpline
210
0.0
220
0.0
230
1.0
 70
     8
 71
     3
 72
    16
 73
    12
 74
     0
 42
0.000000001
 43
0.00000001
 40
0.0
 40
0.0
 40
0.0
 40
0.0
 40
0.1046355512264932
 40
0.2371267695472878
 40
0.3644153766919916
 40
0.4875933996867942
 40
0.6078890954627372
 40
0.7262984300414171
 40
0.8435503245783219
 40
0.9601552412897575
 40
1.0
 40
1.0
 40
1.0
 40
1.0
 10
251.4304901594436
 20
101.5564613320728
 30
0.0
 10
252.0046018652228
 20
101.4225507564386
 30
0.0
 10
253.3056630490647
 20
101.119080455607
 30
0.0
 10
255.3441023172228
 20
100.2798768208062
 30
0.0
 10
257.5077854547584
 20
99.11799180248714
 30
0.0
 10
259.6106623933411
 20
97.67671360708007
 30
0.0
 10
261.6478718873035
 20
95.97390174606582
 30
0.0
 10
263.6168342627095
 20
94.01740865180889
 30
0.0
 10
265.4990820868927
 20
91.79313026482498
 30
0.0
 10
266.9207070745479
 20
89.91076608364142
 30
0.0
 10
267.6729492166312
 20
88.69523378900207
 30
0.0
 10
267.8645309924464
 20
88.38566081702965
 30
0.0
  0
CIRCLE
  5
ED
330
1F
100
AcDbEntity
  8
0
  6
Continuous
 62
     7
370
    15
100
AcDbCircle
 10
528.5
 20
0.0
 30
0.0
 40
28.50249999999994
  0
SPLINE
  5
EF
330
1F
100
AcDbEntity
  8
0
  6
Continuous
 62
     7
370
    15
100
AcDbSpline
210
0.0
220
0.0
230
1.0
 70
     8
 71
     3
 72
    29
 73
    25
 74
     0
 42
0.000000001
 43
0.00000001
 40
0.0
 40
0.0
 40
0.0
 40
0.0
 40
0.1249999999999782
 40
0.1249999999999782
 40
0.1874999999999745
 40
0.1874999999999745
 40
0.2499999999999709
 40
0.2499999999999709
 40
0.3749999999999764
 40
0.3749999999999764
 40
0.4999999999999819
 40
0.4999999999999819
 40
0.6249999999999873
 40
0.6249999999999873
 40
0.6874999999999895
 40
0.6874999999999895
 40
0.7499999999999916
 40
0.8124999999999937
 40
0.8124999999999937
 40
0.8749999999999957
 40
0.8749999999999957
 40
0.9374999999999978
 40
0.9374999999999978
 40
1.0
 40
1.0
 40
1.0
 40
1.0
 10
-541.440952255126
 20
48.29629131445891
 30
0.0
 10
-541.440952255126
 20
48.29629131445892
 30
0.0
 10
-541.4266681032641
 20
48.2464789808675
 30
0.0
 10
-541.3846982199856
 20
48.10009778497418
 30
0.0
 10
-541.3672589851342
 20
48.03927149711154
 30
0.0
 10
-541.3253273718049
 20
47.89300532285512
 30
0.0
 10
-541.3007160921912
 20
47.80715054469602
 30
0.0
 10
-541.2177999562165
 20
47.51787047603759
 30
0.0
 10
-541.1501566973494
 20
47.28183800641694
 30
0.0
 10
-540.9903991673328
 20
46.72419296305279
 30
0.0
 10
-540.8974313756172
 20
46.3995974970412
 30
0.0
 10
-540.6944285578611
 20
45.69050891736394
 30
0.0
 10
-540.5837002839259
 20
45.30359816412669
 30
0.0
 10
-540.4034770184103
 20
44.67352856870517
 30
0.0
 10
-540.3410400332829
 20
44.45519429346864
 30
0.0
 10
-540.2141703496937
 20
44.01142783172442
 30
0.0
 10
-540.0846394365617
 20
43.55823714618784
 30
0.0
 10
-539.9498777352994
 20
43.08648295395997
 30
0.0
 10
-539.8124702332076
 20
42.60532111258085
 30
0.0
 10
-539.7421404642288
 20
42.35897419040351
 30
0.0
 10
-539.6002907903536
 20
41.8619522397655
 30
0.0
 10
-539.528971188786
 20
41.61197975588498
 30
0.0
 10
-539.3855527824069
 20
41.10913802199084
 30
0.0
 10
-539.3127145261898
 20
40.85366428747633
 30
0.0
 10
-539.2413365000393
 20
40.60324728631152
 30
0.0
  0
SPLINE
  5
F1
330
1F
100
AcDbEntity
  8
0
  6
Continuous
 62
     7
370
    15
100
AcDbSpline
210
0.0
220
0.0
230
1.0
 70
     8
 71
     3
 72
    31
 73
    27
 74
     0
 42
0.000000001
 43
0.00000001
 40
0.0
 40
0.0
 40
0.0
 40
0.0
 40
0.1250000000000098
 40
0.1250000000000098
 40
0.1875000000000139
 40
0.1875000000000139
 40
0.2500000000000181
 40
0.2500000000000181
 40
0.375000000000017
 40
0.375000000000017
 40
0.500000000000016
 40
0.500000000000016
 40
0.625000000000015
 40
0.625000000000015
 40
0.6875000000000137
 40
0.6875000000000137
 40
0.7500000000000123
 40
0.8125000000000111
 40
0.8125000000000111
 40
0.8750000000000098
 40
0.8750000000000098
 40
0.9375000000000084
 40
0.9375000000000084
 40
0.9687500000000042
 40
0.9687500000000042
 40
1.0
 40
1.0
 40
1.0
 40
1.0
 10
-576.7249469215687
 20
37.5088915805036
 30
0.0
 10
-576.724946921569
 20
37.50889158050361
 30
0.0
 10
-576.7071235585156
 20
37.46007995321787
 30
0.0
 10
-576.654722222801
 20
37.31665971036993
 30
0.0
 10
-576.6329450227901
 20
37.25706558400849
 30
0.0
 10
-576.5805621810324
 20
37.11376989075529
 30
0.0
 10
-576.5498114913386
 20
37.02967209201758
 30
0.0
 10
-576.4461718858925
 20
36.74636761728888
 30
0.0
 10
-576.3615686345595
 20
36.51524767985735
 30
0.0
 10
-576.1614526748926
 20
35.96934936967733
 30
0.0
 10
-576.0448957088098
 20
35.65173664593257
 30
0.0
 10
-575.7899262930564
 20
34.95822901331071
 30
0.0
 10
-575.6506319321887
 20
34.57991875078515
 30
0.0
 10
-575.4233680764983
 20
33.96407499326861
 30
0.0
 10
-575.3445944832456
 20
33.75083025105639
 30
0.0
 10
-575.1843171953043
 20
33.31746048684996
 30
0.0
 10
-575.0204782551535
 20
32.87495568618271
 30
0.0
 10
-574.8495633789584
 20
32.41448059058451
 30
0.0
 10
-574.6750339981454
 20
31.9449100975435
 30
0.0
 10
-574.5855625752608
 20
31.70450582878179
 30
0.0
 10
-574.4049367789836
 20
31.21988992999896
 30
0.0
 10
-574.3139906326859
 20
30.97623367000633
 30
0.0
 10
-574.1766146542924
 20
30.60875324676839
 30
0.0
 10
-574.1306629540569
 20
30.48592647551515
 30
0.0
 10
-574.0384359945632
 20
30.2396032652967
 30
0.0
 10
-573.9917291519823
 20
30.1149690625046
 30
0.0
 10
-573.9459832913543
 20
29.99297197302074
 30
0.0
  0
SPLINE
  5
F3
330
1F
100
AcDbEntity
  8
0
  6
Continuous
 62
     7
370
    15
100
AcDbSpline
210
0.0
220
0.0
230
1.0
 70
     8
 71
     3
 72
    31
 73
    27
 74
     0
 42
0.000000001
 43
0.00000001
 40
0.0
 40
0.0
 40
0.0
 40
0.0
 40
0.1249999999999996
 40
0.1249999999999996
 40
0.1875000000000033
 40
0.1875000000000033
 40
0.250000000000007
 40
0.250000000000007
 40
0.3750000000000022
 40
0.3750000000000022
 40
0.4999999999999973
 40
0.4999999999999973
 40
0.6249999999999926
 40
0.6249999999999926
 40
0.6874999999999938
 40
0.6874999999999938
 40
0.749999999999995
 40
0.8124999999999962
 40
0.8124999999999962
 40
0.8749999999999974
 40
0.8749999999999974
 40
0.9374999999999987
 40
0.9374999999999987
 40
0.9687499999999993
 40
0.9687499999999993
 40
1.0
 40
1.0
 40
1.0
 40
1.0
 10
-595.5000000000003
 20
10.75000000000541
 30
0.0
 10
-595.5000000000005
 20
10.75000000000541
 30
0.0
 10
-595.4481728299447
 20
10.74853772008705
 30
0.0
 10
-595.2958745425993
 20
10.74422485805738
 30
0.0
 10
-595.2325898369618
 20
10.74243107610455
 30
0.0
 10
-595.0804133710185
 20
10.73810830977577
 30
0.0
 10
-594.9910920368591
 20
10.73556702306518
 30
0.0
 10
-594.6901427553508
 20
10.72698085246103
 30
0.0
 10
-594.4445960505034
 20
10.71994862838535
 30
0.0
 10
-593.8644987563601
 20
10.70319392774605
 30
0.0
 10
-593.5268626205301
 20
10.69337974480364
 30
0.0
 10
-592.789349184072
 20
10.67171098892831
 30
0.0
 10
-592.3869466856032
 20
10.65978523816309
 30
0.0
 10
-591.7316889350814
 20
10.64011379750917
 30
0.0
 10
-591.5046581420075
 20
10.63325843536851
 30
0.0
 10
-591.043225375175
 20
10.61923180841003
 30
0.0
 10
-590.5720051204585
 20
10.60481701757053
 30
0.0
 10
-590.0815096362406
 20
10.58960358253308
 30
0.0
 10
-589.5812476753954
 20
10.573969209578
 30
0.0
 10
-589.3251179691365
 20
10.5659060786478
 30
0.0
 10
-588.8084602154285
 20
10.54950970699522
 30
0.0
 10
-588.5486372714381
 20
10.54119942550413
 30
0.0
 10
-588.1566837562851
 20
10.528558239044
 30
0.0
 10
-588.0256620566665
 20
10.5243151872841
 30
0.0
 10
-587.7628731325923
 20
10.51576880544178
 30
0.0
 10
-587.6301437703323
 20
10.5114305811235
 30
0.0
 10
-587.5000000000003
 20
10.50716514262261
 30
0.0
  0
SPLINE
  5
100
330
1F
100
AcDbEntity
  8
0
  6
Continuous
 62
     7
370
    15
100
AcDbSpline
210
0.0
220
0.0
230
1.0
 70
     8
 71
     3
 72
    29
 73
    25
 74
     0
 42
0.000000001
 43
0.00000001
 40
0.0
 40
0.0
 40
0.0
 40
0.0
 40
0.1249999999999777
 40
0.1249999999999777
 40
0.1874999999999726
 40
0.1874999999999726
 40
0.2499999999999675
 40
0.2499999999999675
 40
0.3749999999999722
 40
0.3749999999999722
 40
0.4999999999999769
 40
0.4999999999999769
 40
0.6249999999999816
 40
0.6249999999999816
 40
0.6874999999999847
 40
0.6874999999999847
 40
0.7499999999999878
 40
0.8124999999999909
 40
0.8124999999999909
 40
0.8749999999999939
 40
0.8749999999999939
 40
0.937499999999997
 40
0.937499999999997
 40
1.0
 40
1.0
 40
1.0
 40
1.0
 10
541.4409522551256
 20
48.29629131445391
 30
0.0
 10
541.4409522551255
 20
48.29629131445391
 30
0.0
 10
541.4266681032634
 20
48.24647898086265
 30
0.0
 10
541.3846982199847
 20
48.10009778496928
 30
0.0
 10
541.3672589851334
 20
48.03927149710655
 30
0.0
 10
541.3253273718043
 20
47.89300532285016
 30
0.0
 10
541.3007160921902
 20
47.80715054469107
 30
0.0
 10
541.217799956216
 20
47.51787047603263
 30
0.0
 10
541.1501566973487
 20
47.28183800641197
 30
0.0
 10
540.9903991673323
 20
46.72419296304781
 30
0.0
 10
540.8974313756166
 20
46.39959749703625
 30
0.0
 10
540.6944285578606
 20
45.69050891735899
 30
0.0
 10
540.5837002839256
 20
45.30359816412173
 30
0.0
 10
540.4034770184098
 20
44.6735285687002
 30
0.0
 10
540.3410400332822
 20
44.45519429346369
 30
0.0
 10
540.2141703496933
 20
44.01142783171951
 30
0.0
 10
540.0846394156172
 20
43.55823710210583
 30
0.0
 10
539.949877735299
 20
43.08648295395502
 30
0.0
 10
539.8124702332069
 20
42.60532111257593
 30
0.0
 10
539.7421404642286
 20
42.35897419039843
 30
0.0
 10
539.6002907903537
 20
41.86195223976036
 30
0.0
 10
539.5289711887856
 20
41.61197975588004
 30
0.0
 10
539.3855527824066
 20
41.10913802198591
 30
0.0
 10
539.3127145261897
 20
40.85366428747131
 30
0.0
 10
539.2413365000388
 20
40.60324728630658
 30
0.0
  0
SPLINE
  5
102
330
1F
100
AcDbEntity
  8
0
  6
Continuous
 62
     7
370
    15
100
AcDbSpline
210
0.0
220
0.0
230
1.0
 70
     8
 71
     3
 72
    31
 73
    27
 74
     0
 42
0.000000001
 43
0.00000001
 40
0.0
 40
0.0
 40
0.0
 40
0.0
 40
0.1250000000000104
 40
0.1250000000000104
 40
0.1875000000000148
 40
0.1875000000000148
 40
0.2500000000000193
 40
0.2500000000000193
 40
0.3750000000000165
 40
0.3750000000000165
 40
0.5000000000000138
 40
0.5000000000000138
 40
0.625000000000011
 40
0.625000000000011
 40
0.6875000000000101
 40
0.6875000000000101
 40
0.7500000000000092
 40
0.8125000000000083
 40
0.8125000000000083
 40
0.8750000000000073
 40
0.8750000000000073
 40
0.9375000000000072
 40
0.9375000000000072
 40
0.9687500000000037
 40
0.9687500000000037
 40
1.0
 40
1.0
 40
1.0
 40
1.0
 10
576.7249469215683
 20
37.50889158049859
 30
0.0
 10
576.7249469215684
 20
37.50889158049861
 30
0.0
 10
576.7071235585151
 20
37.46007995321284
 30
0.0
 10
576.6547222228007
 20
37.31665971036491
 30
0.0
 10
576.6329450227897
 20
37.25706558400347
 30
0.0
 10
576.580562181032
 20
37.11376989075024
 30
0.0
 10
576.5498114913383
 20
37.02967209201255
 30
0.0
 10
576.4461718858921
 20
36.74636761728385
 30
0.0
 10
576.3615686345591
 20
36.51524767985236
 30
0.0
 10
576.1614526748921
 20
35.96934936967234
 30
0.0
 10
576.0448957088096
 20
35.65173664592754
 30
0.0
 10
575.7899262930562
 20
34.95822901330568
 30
0.0
 10
575.6506319321884
 20
34.57991875078016
 30
0.0
 10
575.4233680764979
 20
33.96407499326363
 30
0.0
 10
575.3445944832451
 20
33.7508302510514
 30
0.0
 10
575.1843171953035
 20
33.31746048684499
 30
0.0
 10
575.0204782551533
 20
32.87495568617769
 30
0.0
 10
574.8495633789578
 20
32.41448059057954
 30
0.0
 10
574.6750339981446
 20
31.94491009753855
 30
0.0
 10
574.58556257526
 20
31.70450582877683
 30
0.0
 10
574.4049367789831
 20
31.21988992999405
 30
0.0
 10
574.3139906326851
 20
30.97623367000138
 30
0.0
 10
574.1766146542911
 20
30.60875324676355
 30
0.0
 10
574.1306629540558
 20
30.48592647551036
 30
0.0
 10
574.0384359945617
 20
30.23960326529218
 30
0.0
 10
573.9917291519855
 20
30.11496906249828
 30
0.0
 10
573.9459832913539
 20
29.99297197301569
 30
0.0
  0
SPLINE
  5
105
330
1F
100
AcDbEntity
  8
0
  6
Continuous
 62
     7
370
    15
100
AcDbSpline
210
0.0
220
0.0
230
1.0
 70
     8
 71
     3
 72
    31
 73
    27
 74
     0
 42
0.000000001
 43
0.00000001
 40
0.0
 40
0.0
 40
0.0
 40
0.0
 40
0.1249999999999996
 40
0.1249999999999996
 40
0.1875000000000033
 40
0.1875000000000033
 40
0.250000000000007
 40
0.250000000000007
 40
0.3750000000000022
 40
0.3750000000000022
 40
0.4999999999999973
 40
0.4999999999999973
 40
0.6249999999999926
 40
0.6249999999999926
 40
0.6874999999999938
 40
0.6874999999999938
 40
0.749999999999995
 40
0.8124999999999962
 40
0.8124999999999962
 40
0.8749999999999974
 40
0.8749999999999974
 40
0.9374999999999987
 40
0.9374999999999987
 40
0.9687499999999993
 40
0.9687499999999993
 40
1.0
 40
1.0
 40
1.0
 40
1.0
 10
595.4999999999999
 20
10.75000000000041
 30
0.0
 10
595.4999999999999
 20
10.75000000000042
 30
0.0
 10
595.4481728299445
 20
10.74853772008199
 30
0.0
 10
595.2958745425989
 20
10.74422485805233
 30
0.0
 10
595.2325898369613
 20
10.74243107609951
 30
0.0
 10
595.0804133710183
 20
10.73810830977073
 30
0.0
 10
594.9910920368587
 20
10.73556702306021
 30
0.0
 10
594.6901427553505
 20
10.72698085245608
 30
0.0
 10
594.4445960505028
 20
10.71994862838043
 30
0.0
 10
593.8644987563595
 20
10.70319392774116
 30
0.0
 10
593.5268626205295
 20
10.69337974479876
 30
0.0
 10
592.7893491840715
 20
10.67171098892346
 30
0.0
 10
592.3869466856028
 20
10.65978523815821
 30
0.0
 10
591.731688935081
 20
10.64011379750434
 30
0.0
 10
591.5046581420072
 20
10.63325843536363
 30
0.0
 10
591.0432253751743
 20
10.61923180840518
 30
0.0
 10
590.572005120458
 20
10.60481701756584
 30
0.0
 10
590.08150963624
 20
10.58960358252832
 30
0.0
 10
589.581247675395
 20
10.5739692095733
 30
0.0
 10
589.325117969136
 20
10.56590607864304
 30
0.0
 10
588.8084602154281
 20
10.54950970699054
 30
0.0
 10
588.5486372714377
 20
10.54119942549944
 30
0.0
 10
588.1566837562846
 20
10.52855823903958
 30
0.0
 10
588.0256620566661
 20
10.52431518728008
 30
0.0
 10
587.7628731325917
 20
10.51576880543878
 30
0.0
 10
587.630143770332
 20
10.5114305811185
 30
0.0
 10
587.4999999999999
 20
10.50716514261761
 30
0.0
  0
SPLINE
  5
11A
330
1F
100
AcDbEntity
  8
0
  6
Continuous
 62
     7
370
    15
100
AcDbSpline
210
0.0
220
0.0
230
1.0
 70
     8
 71
     3
 72
    29
 73
    25
 74
     0
 42
0.000000001
 43
0.00000001
 40
0.0
 40
0.0
 40
0.0
 40
0.0
 40
0.1249999999999789
 40
0.1249999999999789
 40
0.1874999999999749
 40
0.1874999999999749
 40
0.2499999999999709
 40
0.2499999999999709
 40
0.3749999999999757
 40
0.3749999999999757
 40
0.4999999999999806
 40
0.4999999999999806
 40
0.6249999999999853
 40
0.6249999999999853
 40
0.6874999999999878
 40
0.6874999999999878
 40
0.7499999999999902
 40
0.8124999999999927
 40
0.8124999999999927
 40
0.8749999999999951
 40
0.8749999999999951
 40
0.9374999999999976
 40
0.9374999999999976
 40
1.0
 40
1.0
 40
1.0
 40
1.0
 10
-541.440952255126
 20
-46.79629131444816
 30
0.0
 10
-541.4409522551261
 20
-46.79629131444819
 30
0.0
 10
-541.4266681032638
 20
-46.74647898085693
 30
0.0
 10
-541.3846982199848
 20
-46.60009778496359
 30
0.0
 10
-541.3672589851338
 20
-46.53927149710085
 30
0.0
 10
-541.3253273718046
 20
-46.39300532284447
 30
0.0
 10
-541.3007160921906
 20
-46.3071505446854
 30
0.0
 10
-541.217799956216
 20
-46.01787047602698
 30
0.0
 10
-541.1501566973491
 20
-45.78183800640626
 30
0.0
 10
-540.9903991673326
 20
-45.2241929630421
 30
0.0
 10
-540.8974313756166
 20
-44.89959749703064
 30
0.0
 10
-540.6944285578605
 20
-44.19050891735338
 30
0.0
 10
-540.5837002839257
 20
-43.80359816411605
 30
0.0
 10
-540.4034770184101
 20
-43.17352856869452
 30
0.0
 10
-540.3410400332823
 20
-42.95519429345808
 30
0.0
 10
-540.2141703496932
 20
-42.51142783171385
 30
0.0
 10
-540.0846394365603
 20
-42.05823714617742
 30
0.0
 10
-539.9498777352989
 20
-41.58648295394944
 30
0.0
 10
-539.8124702332069
 20
-41.10532111257039
 30
0.0
 10
-539.7421404642279
 20
-40.85897419039304
 30
0.0
 10
-539.6002907903525
 20
-40.36195223975508
 30
0.0
 10
-539.5289711887854
 20
-40.11197975587457
 30
0.0
 10
-539.3855527824054
 20
-39.60913802198068
 30
0.0
 10
-539.3127145261906
 20
-39.35366428746548
 30
0.0
 10
-539.2413365000392
 20
-39.10324728630083
 30
0.0
  0
SPLINE
  5
11C
330
1F
100
AcDbEntity
  8
0
  6
Continuous
 62
     7
370
    15
100
AcDbSpline
210
0.0
220
0.0
230
1.0
 70
     8
 71
     3
 72
    31
 73
    27
 74
     0
 42
0.000000001
 43
0.00000001
 40
0.0
 40
0.0
 40
0.0
 40
0.0
 40
0.1250000000000053
 40
0.1250000000000053
 40
0.187500000000007
 40
0.187500000000007
 40
0.2500000000000088
 40
0.2500000000000088
 40
0.3750000000000001
 40
0.3750000000000001
 40
0.4999999999999915
 40
0.4999999999999915
 40
0.6249999999999828
 40
0.6249999999999828
 40
0.6874999999999859
 40
0.6874999999999859
 40
0.7499999999999889
 40
0.812499999999992
 40
0.812499999999992
 40
0.8749999999999951
 40
0.8749999999999951
 40
0.9374999999999982
 40
0.9374999999999982
 40
0.9687499999999991
 40
0.9687499999999991
 40
1.0
 40
1.0
 40
1.0
 40
1.0
 10
-576.7249469215687
 20
-36.00889158049281
 30
0.0
 10
-576.7249469215687
 20
-36.00889158049284
 30
0.0
 10
-576.7071235585155
 20
-35.96007995320706
 30
0.0
 10
-576.654722222801
 20
-35.81665971035913
 30
0.0
 10
-576.6329450227902
 20
-35.75706558399769
 30
0.0
 10
-576.5805621810324
 20
-35.61376989074448
 30
0.0
 10
-576.5498114913389
 20
-35.52967209200678
 30
0.0
 10
-576.4461718858923
 20
-35.24636761727809
 30
0.0
 10
-576.3615686345594
 20
-35.01524767984657
 30
0.0
 10
-576.1614526748925
 20
-34.46934936966656
 30
0.0
 10
-576.0448957088099
 20
-34.15173664592181
 30
0.0
 10
-575.7899262930564
 20
-33.45822901329994
 30
0.0
 10
-575.6506319321885
 20
-33.0799187507744
 30
0.0
 10
-575.4233680764983
 20
-32.46407499325787
 30
0.0
 10
-575.3445944832454
 20
-32.25083025104568
 30
0.0
 10
-575.1843171953038
 20
-31.81746048683929
 30
0.0
 10
-575.0204782551538
 20
-31.37495568617196
 30
0.0
 10
-574.849563378958
 20
-30.91448059057389
 30
0.0
 10
-574.675033998145
 20
-30.44491009753293
 30
0.0
 10
-574.5855625752602
 20
-30.20450582877124
 30
0.0
 10
-574.4049367789829
 20
-29.71988992998853
 30
0.0
 10
-574.3139906326847
 20
-29.47623366999586
 30
0.0
 10
-574.1766146542907
 20
-29.10875324675822
 30
0.0
 10
-574.130662954055
 20
-28.98592647550513
 30
0.0
 10
-574.0384359945591
 20
-28.73960326528749
 30
0.0
 10
-573.9917291519861
 20
-28.6149690624925
 30
0.0
 10
-573.9459832913543
 20
-28.49297197300991
 30
0.0
  0
SPLINE
  5
11E
330
1F
100
AcDbEntity
  8
0
  6
Continuous
 62
     7
370
    15
100
AcDbSpline
210
0.0
220
0.0
230
1.0
 70
     8
 71
     3
 72
    31
 73
    27
 74
     0
 42
0.000000001
 43
0.00000001
 40
0.0
 40
0.0
 40
0.0
 40
0.0
 40
0.1250000000000095
 40
0.1250000000000095
 40
0.1875000000000052
 40
0.1875000000000052
 40
0.2500000000000008
 40
0.2500000000000008
 40
0.3750000000000043
 40
0.3750000000000043
 40
0.5000000000000079
 40
0.5000000000000079
 40
0.6250000000000114
 40
0.6250000000000114
 40
0.6875000000000095
 40
0.6875000000000095
 40
0.7500000000000077
 40
0.8125000000000058
 40
0.8125000000000058
 40
0.8750000000000039
 40
0.8750000000000039
 40
0.937500000000002
 40
0.937500000000002
 40
0.968750000000001
 40
0.968750000000001
 40
1.0
 40
1.0
 40
1.0
 40
1.0
 10
-595.5000000000003
 20
-9.249999999994614
 30
0.0
 10
-595.5000000000007
 20
-9.249999999994634
 30
0.0
 10
-595.4481728299448
 20
-9.248537720076177
 30
0.0
 10
-595.2958745425994
 20
-9.244224858046541
 30
0.0
 10
-595.2325898369618
 20
-9.242431076093661
 30
0.0
 10
-595.0804133710186
 20
-9.2381083097649
 30
0.0
 10
-594.9910920368593
 20
-9.235567023054363
 30
0.0
 10
-594.6901427553508
 20
-9.226980852450245
 30
0.0
 10
-594.4445960505034
 20
-9.21994862837463
 30
0.0
 10
-593.8644987563601
 20
-9.203193927735397
 30
0.0
 10
-593.5268626205301
 20
-9.193379744793024
 30
0.0
 10
-592.7893491840721
 20
-9.171710988917768
 30
0.0
 10
-592.3869466856031
 20
-9.159785238152528
 30
0.0
 10
-591.7316889350815
 20
-9.140113797498708
 30
0.0
 10
-591.5046581420075
 20
-9.133258435358128
 30
0.0
 10
-591.043225375175
 20
-9.119231808399746
 30
0.0
 10
-590.5720051204584
 20
-9.104817017560455
 30
0.0
 10
-590.0815096362405
 20
-9.089603582523074
 30
0.0
 10
-589.5812476753958
 20
-9.073969209568217
 30
0.0
 10
-589.3251179691366
 20
-9.065906078638061
 30
0.0
 10
-588.8084602154288
 20
-9.049509706985926
 30
0.0
 10
-588.548637271438
 20
-9.041199425494932
 30
0.0
 10
-588.1566837562848
 20
-9.0285582390361
 30
0.0
 10
-588.0256620566662
 20
-9.024315187276672
 30
0.0
 10
-587.762873132592
 20
-9.015768805437789
 30
0.0
 10
-587.6301437703323
 20
-9.011430581112714
 30
0.0
 10
-587.5000000000003
 20
-9.007165142611822
 30
0.0
  0
SPLINE
  5
133
330
1F
100
AcDbEntity
  8
0
  6
Continuous
 62
     7
370
    15
100
AcDbSpline
210
0.0
220
0.0
230
1.0
 70
     8
 71
     3
 72
    29
 73
    25
 74
     0
 42
0.000000001
 43
0.00000001
 40
0.0
 40
0.0
 40
0.0
 40
0.0
 40
0.125000000000009
 40
0.125000000000009
 40
0.1875000000000077
 40
0.1875000000000077
 40
0.2500000000000064
 40
0.2500000000000064
 40
0.3750000000000059
 40
0.3750000000000059
 40
0.5000000000000054
 40
0.5000000000000054
 40
0.6250000000000051
 40
0.6250000000000051
 40
0.6875000000000042
 40
0.6875000000000042
 40
0.7500000000000034
 40
0.8125000000000026
 40
0.8125000000000026
 40
0.8750000000000018
 40
0.8750000000000018
 40
0.9375000000000009
 40
0.9375000000000009
 40
1.0
 40
1.0
 40
1.0
 40
1.0
 10
541.4409522551256
 20
-48.29629131445304
 30
0.0
 10
541.4409522551256
 20
-48.29629131445304
 30
0.0
 10
541.4266681032631
 20
-48.24647898086184
 30
0.0
 10
541.3846982199843
 20
-48.1000977849685
 30
0.0
 10
541.3672589851332
 20
-48.03927149710577
 30
0.0
 10
541.3253273718041
 20
-47.89300532284936
 30
0.0
 10
541.30071609219
 20
-47.80715054469027
 30
0.0
 10
541.2177999562157
 20
-47.51787047603183
 30
0.0
 10
541.1501566973486
 20
-47.28183800641118
 30
0.0
 10
540.9903991673319
 20
-46.724192963047
 30
0.0
 10
540.8974313756164
 20
-46.39959749703549
 30
0.0
 10
540.6944285578602
 20
-45.69050891735824
 30
0.0
 10
540.5837002839252
 20
-45.303598164121
 30
0.0
 10
540.4034770184094
 20
-44.67352856869947
 30
0.0
 10
540.341040033282
 20
-44.45519429346292
 30
0.0
 10
540.2141703496927
 20
-44.01142783171869
 30
0.0
 10
540.0846394156165
 20
-43.55823710210515
 30
0.0
 10
539.9498777352983
 20
-43.08648295395428
 30
0.0
 10
539.8124702332066
 20
-42.6053211125752
 30
0.0
 10
539.7421404642276
 20
-42.35897419039772
 30
0.0
 10
539.6002907903528
 20
-41.86195223975974
 30
0.0
 10
539.5289711887849
 20
-41.6119797558794
 30
0.0
 10
539.3855527824051
 20
-41.10913802198542
 30
0.0
 10
539.3127145261893
 20
-40.85366428747048
 30
0.0
 10
539.2413365000389
 20
-40.60324728630566
 30
0.0
  0
SPLINE
  5
135
330
1F
100
AcDbEntity
  8
0
  6
Continuous
 62
     7
370
    15
100
AcDbSpline
210
0.0
220
0.0
230
1.0
 70
     8
 71
     3
 72
    31
 73
    27
 74
     0
 42
0.000000001
 43
0.00000001
 40
0.0
 40
0.0
 40
0.0
 40
0.0
 40
0.1250000000000073
 40
0.1250000000000073
 40
0.1875000000000099
 40
0.1875000000000099
 40
0.2500000000000125
 40
0.2500000000000125
 40
0.3750000000000171
 40
0.3750000000000171
 40
0.5000000000000218
 40
0.5000000000000218
 40
0.6250000000000264
 40
0.6250000000000264
 40
0.687500000000022
 40
0.687500000000022
 40
0.7500000000000173
 40
0.8125000000000128
 40
0.8125000000000128
 40
0.8750000000000082
 40
0.8750000000000082
 40
0.9375000000000044
 40
0.9375000000000044
 40
0.9687500000000023
 40
0.9687500000000023
 40
1.0
 40
1.0
 40
1.0
 40
1.0
 10
576.7249469215683
 20
-37.50889158049771
 30
0.0
 10
576.7249469215685
 20
-37.50889158049772
 30
0.0
 10
576.707123558515
 20
-37.46007995321196
 30
0.0
 10
576.6547222228007
 20
-37.31665971036403
 30
0.0
 10
576.6329450227897
 20
-37.25706558400259
 30
0.0
 10
576.580562181032
 20
-37.11376989074939
 30
0.0
 10
576.5498114913383
 20
-37.02967209201167
 30
0.0
 10
576.446171885892
 20
-36.74636761728298
 30
0.0
 10
576.3615686345589
 20
-36.51524767985144
 30
0.0
 10
576.1614526748923
 20
-35.96934936967144
 30
0.0
 10
576.0448957088098
 20
-35.65173664592667
 30
0.0
 10
575.7899262930562
 20
-34.9582290133048
 30
0.0
 10
575.650631932188
 20
-34.57991875077927
 30
0.0
 10
575.4233680764979
 20
-33.96407499326273
 30
0.0
 10
575.3445944832451
 20
-33.75083025105049
 30
0.0
 10
575.1843171953038
 20
-33.31746048684408
 30
0.0
 10
575.0204782551534
 20
-32.87495568617679
 30
0.0
 10
574.8495633789579
 20
-32.41448059057866
 30
0.0
 10
574.675033998145
 20
-31.94491009753767
 30
0.0
 10
574.5855625752604
 20
-31.70450582877598
 30
0.0
 10
574.4049367789829
 20
-31.21988992999319
 30
0.0
 10
574.313990632685
 20
-30.97623367000054
 30
0.0
 10
574.1766146542916
 20
-30.60875324676271
 30
0.0
 10
574.1306629540561
 20
-30.48592647550953
 30
0.0
 10
574.0384359945615
 20
-30.23960326529133
 30
0.0
 10
573.9917291519821
 20
-30.11496906249873
 30
0.0
 10
573.9459832913539
 20
-29.99297197301485
 30
0.0
  0
SPLINE
  5
137
330
1F
100
AcDbEntity
  8
0
  6
Continuous
 62
     7
370
    15
100
AcDbSpline
210
0.0
220
0.0
230
1.0
 70
     8
 71
     3
 72
    31
 73
    27
 74
     0
 42
0.000000001
 43
0.00000001
 40
0.0
 40
0.0
 40
0.0
 40
0.0
 40
0.1250000000000095
 40
0.1250000000000095
 40
0.1875000000000052
 40
0.1875000000000052
 40
0.2500000000000008
 40
0.2500000000000008
 40
0.3750000000000043
 40
0.3750000000000043
 40
0.5000000000000078
 40
0.5000000000000078
 40
0.6250000000000113
 40
0.6250000000000113
 40
0.6875000000000094
 40
0.6875000000000094
 40
0.7500000000000075
 40
0.8125000000000057
 40
0.8125000000000057
 40
0.8750000000000038
 40
0.8750000000000038
 40
0.9375000000000019
 40
0.9375000000000019
 40
0.9687500000000009
 40
0.9687500000000009
 40
1.0
 40
1.0
 40
1.0
 40
1.0
 10
595.4999999999999
 20
-10.74999999999952
 30
0.0
 10
595.5
 20
-10.74999999999952
 30
0.0
 10
595.4481728299445
 20
-10.74853772008104
 30
0.0
 10
595.2958745425991
 20
-10.74422485805137
 30
0.0
 10
595.2325898369613
 20
-10.74243107609855
 30
0.0
 10
595.0804133710182
 20
-10.73810830976977
 30
0.0
 10
594.991092036859
 20
-10.73556702305923
 30
0.0
 10
594.6901427553503
 20
-10.72698085245509
 30
0.0
 10
594.4445960505027
 20
-10.71994862837943
 30
0.0
 10
593.8644987563595
 20
-10.70319392774015
 30
0.0
 10
593.5268626205293
 20
-10.69337974479775
 30
0.0
 10
592.7893491840716
 20
-10.67171098892244
 30
0.0
 10
592.3869466856028
 20
-10.65978523815717
 30
0.0
 10
591.7316889350811
 20
-10.64011379750328
 30
0.0
 10
591.5046581420072
 20
-10.63325843536268
 30
0.0
 10
591.0432253751744
 20
-10.61923180840424
 30
0.0
 10
590.5720051204579
 20
-10.60481701756472
 30
0.0
 10
590.0815096362398
 20
-10.5896035825274
 30
0.0
 10
589.5812476753954
 20
-10.57396920957239
 30
0.0
 10
589.3251179691363
 20
-10.56590607864215
 30
0.0
 10
588.8084602154283
 20
-10.54950970698967
 30
0.0
 10
588.5486372714377
 20
-10.54119942549863
 30
0.0
 10
588.1566837562845
 20
-10.52855823903885
 30
0.0
 10
588.025662056666
 20
-10.52431518727915
 30
0.0
 10
587.7628731325917
 20
-10.5157688054378
 30
0.0
 10
587.6301437703318
 20
-10.5114305811176
 30
0.0
 10
587.4999999999999
 20
-10.50716514261672
 30
0.0
  0
CIRCLE
  5
150
330
1F
100
AcDbEntity
  8
0
  6
Continuous
 62
     7
370
    15
100
AcDbCircle
 10
-528.5
 20
0.0
 30
0.0
 40
28.50250000000005
  0
SPLINE
  5
151
330
1F
100
AcDbEntity
  8
0
  6
Continuous
 62
     7
370
    15
100
AcDbSpline
210
0.0
220
0.0
230
1.0
 70
     8
 71
     3
 72
    14
 73
    10
 74
     0
 42
0.000000001
 43
0.00000001
 40
0.0
 40
0.0
 40
0.0
 40
0.0
 40
0.0790380017126037
 40
0.2738966706668631
 40
0.4209841380603658
 40
0.5720086014967424
 40
0.783516516231884
 40
0.9988154930739709
 40
1.0
 40
1.0
 40
1.0
 40
1.0
 10
-230.4742093005596
 20
-117.2360946967023
 30
0.0
 10
-230.0764321290688
 20
-117.0386901623233
 30
0.0
 10
-228.6979832743673
 20
-116.3546085361511
 30
0.0
 10
-226.7715388680989
 20
-114.5240456945125
 30
0.0
 10
-224.8408496050372
 20
-112.2213767574854
 30
0.0
 10
-223.1174642382195
 20
-109.6520501799196
 30
0.0
 10
-221.4936291564951
 20
-106.641985499573
 30
0.0
 10
-220.5229503967867
 20
-104.3829757817498
 30
0.0
 10
-220.0784996125919
 20
-103.2417834909793
 30
0.0
 10
-220.0760677641064
 20
-103.235539364874
 30
0.0
  0
SPLINE
  5
152
330
1F
100
AcDbEntity
  8
0
  6
Continuous
 62
     7
370
    15
100
AcDbSpline
210
0.0
220
0.0
230
1.0
 70
     8
 71
     3
 72
    14
 73
    10
 74
     0
 42
0.000000001
 43
0.00000001
 40
0.0
 40
0.0
 40
0.0
 40
0.0
 40
0.2191764789157319
 40
0.4245477441167348
 40
0.5273241474782783
 40
0.6326963725843907
 40
0.71510617478802
 40
0.8226365170396359
 40
1.0
 40
1.0
 40
1.0
 40
1.0
 10
-269.7213126429003
 20
-32.56210060264144
 30
0.0
 10
-269.4621491589274
 20
-31.66552648504572
 30
0.0
 10
-268.96014605612
 20
-29.92885053814787
 30
0.0
 10
-268.0968447080604
 20
-27.86170363440634
 30
0.0
 10
-267.5317046943692
 20
-26.14062156616869
 30
0.0
 10
-267.2929682545357
 20
-24.8088088279526
 30
0.0
 10
-267.4823002540244
 20
-23.33653969837093
 30
0.0
 10
-268.2565685078365
 20
-21.6382112443468
 30
0.0
 10
-269.0463389432614
 20
-20.50530317844639
 30
0.0
 10
-269.5380183787909
 20
-19.7999999999992
 30
0.0
  0
SPLINE
  5
153
330
1F
100
AcDbEntity
  8
0
  6
Continuous
 62
     7
370
    15
100
AcDbSpline
210
0.0
220
0.0
230
1.0
 70
     8
 71
     3
 72
    22
 73
    18
 74
     0
 42
0.000000001
 43
0.00000001
 40
0.0
 40
0.0
 40
0.0
 40
0.0
 40
0.1250000000000007
 40
0.1250000000000007
 40
0.2500000000000014
 40
0.2500000000000014
 40
0.5000000000000008
 40
0.5000000000000008
 40
0.6249999999999998
 40
0.6249999999999998
 40
0.749999999999999
 40
0.749999999999999
 40
0.8749999999999981
 40
0.8749999999999981
 40
0.9374999999999991
 40
0.9374999999999991
 40
1.0
 40
1.0
 40
1.0
 40
1.0
 10
-269.8445319531724
 20
-40.97508491223908
 30
0.0
 10
-270.0629106712956
 20
-40.15830936066531
 30
0.0
 10
-270.204823345377
 20
-39.35249143765936
 30
0.0
 10
-270.3619110873883
 20
-37.75823250572881
 30
0.0
 10
-270.3766656375881
 20
-36.96822183580029
 30
0.0
 10
-270.2536431170511
 20
-34.630862994003
 30
0.0
 10
-269.9565640340368
 20
-33.17685283457418
 30
0.0
 10
-269.3103602647832
 20
-31.09073626594065
 30
0.0
 10
-269.0600636371836
 20
-30.40991471744316
 30
0.0
 10
-268.5103642827373
 20
-29.08084510998417
 30
0.0
 10
-268.2114436089705
 20
-28.43317056640405
 30
0.0
 10
-267.5803260060121
 20
-27.1591446835012
 30
0.0
 10
-267.2480996593883
 20
-26.53281657426707
 30
0.0
 10
-266.7348876163687
 20
-25.60037763878739
 30
0.0
 10
-266.5613303680504
 20
-25.29074135108011
 30
0.0
 10
-266.210853774149
 20
-24.67232705419591
 30
0.0
 10
-266.0329939540571
 20
-24.36191506114773
 30
0.0
 10
-265.8561675371191
 20
-24.05453248437014
 30
0.0
  0
SPLINE
  5
154
330
1F
100
AcDbEntity
  8
0
  6
Continuous
 62
     7
370
    15
100
AcDbSpline
210
0.0
220
0.0
230
1.0
 70
     8
 71
     3
 72
    22
 73
    18
 74
     0
 42
0.000000001
 43
0.00000001
 40
0.0
 40
0.0
 40
0.0
 40
0.0
 40
0.1250000000000003
 40
0.1250000000000003
 40
0.2500000000000006
 40
0.2500000000000006
 40
0.5000000000000012
 40
0.5000000000000012
 40
0.625000000000001
 40
0.625000000000001
 40
0.7500000000000007
 40
0.7500000000000007
 40
0.8750000000000004
 40
0.8750000000000004
 40
0.9375000000000003
 40
0.9375000000000003
 40
1.0
 40
1.0
 40
1.0
 40
1.0
 10
-269.4116763873
 20
42.9584137968639
 30
0.0
 10
-269.6384525460831
 20
42.14687119728655
 30
0.0
 10
-269.788650916992
 20
41.34603882238813
 30
0.0
 10
-269.9621330521621
 20
39.76131870088299
 30
0.0
 10
-269.985012444524
 20
38.9758698342681
 30
0.0
 10
-269.8860307704418
 20
36.65155278638549
 30
0.0
 10
-269.6039099656739
 20
35.2050558780208
 30
0.0
 10
-268.9791707084869
 20
33.12906448642403
 30
0.0
 10
-268.7358798084185
 20
32.45143007572698
 30
0.0
 10
-268.199857784631
 20
31.12837665206371
 30
0.0
 10
-267.9076028078416
 20
30.48352936464753
 30
0.0
 10
-267.289598105204
 20
29.21487891744165
 30
0.0
 10
-266.9638187232648
 20
28.59109880520597
 30
0.0
 10
-266.4602052089533
 20
27.66232083597554
 30
0.0
 10
-266.2898354725584
 20
27.35387791013488
 30
0.0
 10
-265.945725293362
 20
26.73780314635137
 30
0.0
 10
-265.7710611729832
 20
26.4285432961684
 30
0.0
 10
-265.5973994304791
 20
26.12227996056781
 30
0.0
  0
SPLINE
  5
155
330
1F
100
AcDbEntity
  8
0
  6
Continuous
 62
     7
370
    15
100
AcDbSpline
210
0.0
220
0.0
230
1.0
 70
     8
 71
     3
 72
    15
 73
    11
 74
     0
 42
0.000000001
 43
0.00000001
 40
0.0
 40
0.0
 40
0.0
 40
0.0
 40
0.1134792266766005
 40
0.2106931429408266
 40
0.3103623893144703
 40
0.3883119900858476
 40
0.4900225515137196
 40
0.7099735438269843
 40
0.9309167910727117
 40
1.0
 40
1.0
 40
1.0
 40
1.0
 10
-269.7565900801958
 20
21.21379692079094
 30
0.0
 10
-269.4249262215575
 20
21.69105348795183
 30
0.0
 10
-268.8091368579631
 20
22.57716003863219
 30
0.0
 10
-267.9360637906634
 20
23.93045778903745
 30
0.0
 10
-267.2873051956578
 20
25.24800644020901
 30
0.0
 10
-267.0191066256234
 20
26.71523715528947
 30
0.0
 10
-267.3122174984575
 20
28.66738504063266
 30
0.0
 10
-268.2081258067312
 20
30.94092112915949
 30
0.0
 10
-269.0369187506773
 20
33.04527972799696
 30
0.0
 10
-269.3029304565088
 20
34.32957504109476
 30
0.0
 10
-269.3662934424016
 20
34.63548934494757
 30
0.0
  0
LWPOLYLINE
  5
156
330
1F
100
AcDbEntity
  8
0
  6
Continuous
 62
     7
370
    15
100
AcDbPolyline
 90
        3
 70
   128
 43
0.0
 10
-247.6420060315
 20
-22.9520537351
 10
-247.8729225455
 20
-21.3519131736
 10
-248.0804188987
 20
-19.8
  0
LWPOLYLINE
  5
15F
330
1F
100
AcDbEntity
  8
0
  6
Continuous
 62
     7
370
    15
100
AcDbPolyline
 90
       11
 70
   128
 43
0.0
 10
-227.794491494
 20
-75.79966705
 10
-230.6649026174
 20
-71.4185284056
 10
-233.360135922
 20
-66.7907019989
 10
-235.8709077617
 20
-61.9321282322
 10
-238.1885698621
 20
-56.8595423094
 10
-240.3051391092
 20
-51.5904165928
 10
-242.213325047
 20
-46.1429004198
 10
-243.9065549891
 20
-40.535757588
 10
-245.3789966586
 20
-34.788301724
 10
-246.6255782764
 20
-28.9203297582
 10
-247.6420060315
 20
-22.9520537351
  0
LWPOLYLINE
  5
160
330
1F
100
AcDbEntity
  8
0
  6
Continuous
 62
     7
370
    15
100
AcDbPolyline
 90
       11
 70
   128
 43
0.0
 10
-247.3950001116
 20
24.9439945078
 10
-246.3171410261
 20
30.8876514532
 10
-245.0101904803
 20
36.7256057511
 10
-243.4786502242
 20
42.437748752
 10
-241.7277955997
 20
48.0044051596
 10
-239.7636573706
 20
53.4064008013
 10
-237.5930009489
 20
58.6251286737
 10
-235.2233030922
 20
63.6426130331
 10
-232.6627261501
 20
68.4415713129
 10
-229.9200899491
 20
73.0054736528
 10
-227.004841413
 20
77.3185998349
  0
SPLINE
  5
162
330
1F
100
AcDbEntity
  8
0
  6
Continuous
 62
     7
370
    15
100
AcDbSpline
210
0.0
220
0.0
230
1.0
 70
     8
 71
     3
 72
    22
 73
    18
 74
     0
 42
0.000000001
 43
0.00000001
 40
0.0
 40
0.0
 40
0.0
 40
0.0
 40
0.1250000000000044
 40
0.1250000000000044
 40
0.2500000000000088
 40
0.2500000000000088
 40
0.500000000000012
 40
0.500000000000012
 40
0.6250000000000099
 40
0.6250000000000099
 40
0.7500000000000077
 40
0.7500000000000077
 40
0.8750000000000056
 40
0.8750000000000056
 40
0.9375000000000028
 40
0.9375000000000028
 40
1.0
 40
1.0
 40
1.0
 40
1.0
 10
-260.3740282838789
 20
-66.19202151488257
 30
0.0
 10
-260.0219074665693
 20
-66.89430462367115
 30
0.0
 10
-259.6046418048643
 20
-67.5774006101532
 30
0.0
 10
-258.6621531150038
 20
-68.91096369703297
 30
0.0
 10
-258.1354445639658
 20
-69.56269690613304
 30
0.0
 10
-256.4198426730115
 20
-71.46586997484967
 30
0.0
 10
-255.1444736687338
 20
-72.61673446462487
 30
0.0
 10
-253.1082277701885
 20
-74.2318576054181
 30
0.0
 10
-252.4067070360265
 20
-74.7525022181675
 30
0.0
 10
-250.9804034537064
 20
-75.75755062721062
 30
0.0
 10
-250.2564642406574
 20
-76.24156516104459
 30
0.0
 10
-248.7931519072912
 20
-77.18340893946
 30
0.0
 10
-248.0537662927918
 20
-77.64121635290344
 30
0.0
 10
-246.9371394377591
 20
-78.31547898172066
 30
0.0
 10
-246.5636677779169
 20
-78.53815113478582
 30
0.0
 10
-245.814824751338
 20
-78.98045983937992
 30
0.0
 10
-245.4374652162109
 20
-79.20125202445197
 30
0.0
 10
-245.0635332597143
 20
-79.4186988143177
 30
0.0
  0
SPLINE
  5
163
330
1F
100
AcDbEntity
  8
0
  6
Continuous
 62
     7
370
    15
100
AcDbSpline
210
0.0
220
0.0
230
1.0
 70
     8
 71
     3
 72
    22
 73
    18
 74
     0
 42
0.000000001
 43
0.00000001
 40
0.0
 40
0.0
 40
0.0
 40
0.0
 40
0.1249999999999998
 40
0.1249999999999998
 40
0.2499999999999995
 40
0.2499999999999995
 40
0.5000000000000038
 40
0.5000000000000038
 40
0.6250000000000034
 40
0.6250000000000034
 40
0.750000000000003
 40
0.750000000000003
 40
0.8749999999999992
 40
0.8749999999999992
 40
0.9374999999999996
 40
0.9374999999999996
 40
1.0
 40
1.0
 40
1.0
 40
1.0
 10
-259.6822428903558
 20
67.94964839151773
 30
0.0
 10
-259.3229216794678
 20
68.64356824927275
 30
0.0
 10
-258.8986534094307
 20
69.31832338881571
 30
0.0
 10
-257.9424959665739
 20
70.63522006861218
 30
0.0
 10
-257.4091082987575
 20
71.27861087725306
 30
0.0
 10
-255.6740050820314
 20
73.1568712261348
 30
0.0
 10
-254.3868472631845
 20
74.29193426193815
 30
0.0
 10
-252.3340612064753
 20
75.88405495417612
 30
0.0
 10
-251.6272094346441
 20
76.39713308586528
 30
0.0
 10
-250.1906162442071
 20
77.38730635746477
 30
0.0
 10
-249.4617224404509
 20
77.8640190623435
 30
0.0
 10
-247.9887702536172
 20
78.79140532687121
 30
0.0
 10
-247.2446996003906
 20
79.24205727616452
 30
0.0
 10
-246.1211735144047
 20
79.90560022795806
 30
0.0
 10
-245.7454235743826
 20
80.12470136226769
 30
0.0
 10
-244.9920553610327
 20
80.55985569054731
 30
0.0
 10
-244.6124371012494
 20
80.77704550269502
 30
0.0
 10
-244.2362807938642
 20
80.99091411275619
 30
0.0
  0
SPLINE
  5
164
330
1F
100
AcDbEntity
  8
0
  6
Continuous
 62
     7
370
    15
100
AcDbSpline
210
0.0
220
0.0
230
1.0
 70
     8
 71
     3
 72
    15
 73
    11
 74
     0
 42
0.000000001
 43
0.00000001
 40
0.0
 40
0.0
 40
0.0
 40
0.0
 40
0.0572551887501355
 40
0.1603338431734536
 40
0.262315095122772
 40
0.3434703765784109
 40
0.44936378921948
 40
0.6785102742873005
 40
0.9084935958526741
 40
1.0
 40
1.0
 40
1.0
 40
1.0
 10
-249.3300175489343
 20
77.94336203117109
 30
0.0
 10
-249.0906520545361
 20
78.10711001200609
 30
0.0
 10
-248.4203479217972
 20
78.56565959768196
 30
0.0
 10
-247.3358816292506
 20
79.31999003619008
 30
0.0
 10
-246.2506607849588
 20
80.2340256015002
 30
0.0
 10
-245.4859944897378
 20
81.25076212413953
 30
0.0
 10
-245.1210222812038
 20
82.6288441338413
 30
0.0
 10
-245.1691655046966
 20
84.24965121241577
 30
0.0
 10
-245.3590795244272
 20
85.7202409878267
 30
0.0
 10
-245.1785547850224
 20
86.61404709386588
 30
0.0
 10
-245.1271715884802
 20
86.86845330416465
 30
0.0
  0
SPLINE
  5
165
330
1F
100
AcDbEntity
  8
0
  6
Continuous
 62
     7
370
    15
100
AcDbSpline
210
0.0
220
0.0
230
1.0
 70
     8
 71
     3
 72
    14
 73
    10
 74
     0
 42
0.000000001
 43
0.00000001
 40
0.0
 40
0.0
 40
0.0
 40
0.0
 40
0.2381955686508475
 40
0.4384655863293536
 40
0.5405376938086923
 40
0.6415231147776156
 40
0.7218859275982374
 40
0.8267453076204346
 40
1.0
 40
1.0
 40
1.0
 40
1.0
 10
-246.0556168823608
 20
-85.4199216569921
 30
0.0
 10
-246.1028092334197
 20
-84.74731710992467
 30
0.0
 10
-246.1896799589943
 20
-83.5092002601104
 30
0.0
 10
-246.0340600913335
 20
-81.97500221711606
 30
0.0
 10
-246.0453982062606
 20
-80.74957353671778
 30
0.0
 10
-246.2792236241232
 20
-79.7928931777305
 30
0.0
 10
-246.9650044957015
 20
-78.7566600588536
 30
0.0
 10
-248.3207685024964
 20
-77.57232059275076
 30
0.0
 10
-249.4899410367431
 20
-76.76102178940809
 30
0.0
 10
-250.2182919109374
 20
-76.25561289949769
 30
0.0
  0
SPLINE
  5
166
330
1F
100
AcDbEntity
  8
0
  6
Continuous
 62
     7
370
    15
100
AcDbSpline
210
0.0
220
0.0
230
1.0
 70
     8
 71
     3
 72
    11
 73
     7
 74
     0
 42
0.000000001
 43
0.00000001
 40
0.0
 40
0.0
 40
0.0
 40
0.0
 40
0.1494308259708221
 40
0.387549927015109
 40
0.7210328169689103
 40
0.9999999999999999
 40
0.9999999999999999
 40
0.9999999999999999
 40
0.9999999999999999
 10
-138.623891075637
 20
-114.5723863342777
 30
0.0
 10
-138.5804635649941
 20
-114.1298241026351
 30
0.0
 10
-138.4678340023137
 20
-112.9820357567002
 30
0.0
 10
-138.7386651543822
 20
-110.6388071856646
 30
0.0
 10
-139.3432569538615
 20
-107.8101281291627
 30
0.0
 10
-140.0697740681332
 20
-105.7420133602842
 30
0.0
 10
-140.4006980760356
 20
-104.7999999999997
 30
0.0
  0
SPLINE
  5
167
330
1F
100
AcDbEntity
  8
0
  6
Continuous
 62
     7
370
    15
100
AcDbSpline
210
0.0
220
0.0
230
1.0
 70
     8
 71
     3
 72
    11
 73
     7
 74
     0
 42
0.000000001
 43
0.00000001
 40
0.0
 40
0.0
 40
0.0
 40
0.0
 40
0.1653971246286225
 40
0.4280149512853255
 40
0.7958080069569686
 40
1.0
 40
1.0
 40
1.0
 40
1.0
 10
-137.4456782582414
 20
113.9499133419632
 30
0.0
 10
-137.4065162333524
 20
113.5097596483707
 30
0.0
 10
-137.3051726809011
 20
112.3707291957913
 30
0.0
 10
-137.6037469979435
 20
110.0464331645905
 30
0.0
 10
-138.1503158402794
 20
107.5541101037035
 30
0.0
 10
-138.7759071358044
 20
105.8193051431018
 30
0.0
 10
-138.9992359339097
 20
105.2000000000003
 30
0.0
  0
SPLINE
  5
169
330
1F
100
AcDbEntity
  8
0
  6
Continuous
 62
     7
370
    15
100
AcDbSpline
210
0.0
220
0.0
230
1.0
 70
     8
 71
     3
 72
     9
 73
     5
 74
     0
 42
0.000000001
 43
0.00000001
 40
0.0
 40
0.0
 40
0.0
 40
0.0
 40
0.3378423994407163
 40
1.0
 40
1.0
 40
1.0
 40
1.0
 10
-214.5209445259104
 20
-108.1150481221686
 30
0.0
 10
-214.3406700896595
 20
-108.1899646665362
 30
0.0
 10
-213.8070649632771
 20
-108.4117146437195
 30
0.0
 10
-212.987830059282
 20
-108.6000353299968
 30
0.0
 10
-212.4453674409583
 20
-108.7247333037578
 30
0.0
  0
SPLINE
  5
16A
330
1F
100
AcDbEntity
  8
0
  6
Continuous
 62
     7
370
    15
100
AcDbSpline
210
0.0
220
0.0
230
1.0
 70
     8
 71
     3
 72
     9
 73
     5
 74
     0
 42
0.000000001
 43
0.00000001
 40
0.0
 40
0.0
 40
0.0
 40
0.0
 40
0.7265781697091561
 40
0.9999999999999999
 40
0.9999999999999999
 40
0.9999999999999999
 40
0.9999999999999999
 10
-211.3207264815639
 20
109.3504353117448
 30
0.0
 10
-211.8544908762338
 20
109.2430533460312
 30
0.0
 10
-212.5891185005175
 20
109.0952619999787
 30
0.0
 10
-213.0712282204473
 20
108.9168633143002
 30
0.0
 10
-213.2030475424715
 20
108.8680852191405
 30
0.0
  0
SPLINE
  5
16C
330
1F
100
AcDbEntity
  8
0
  6
Continuous
 62
     7
370
    15
100
AcDbSpline
210
0.0
220
0.0
230
1.0
 70
     8
 71
     3
 72
    14
 73
    10
 74
     0
 42
0.000000001
 43
0.00000001
 40
0.0
 40
0.0
 40
0.0
 40
0.0
 40
0.079038001712591
 40
0.2738966706668484
 40
0.4209841380603487
 40
0.5720086014967265
 40
0.783516516231875
 40
0.9988154930739707
 40
1.0
 40
1.0
 40
1.0
 40
1.0
 10
151.6160498581537
 20
-117.2360946967016
 30
0.0
 10
152.0138270296445
 20
-117.0386901623226
 30
0.0
 10
153.3922758843457
 20
-116.3546085361505
 30
0.0
 10
155.3187202906142
 20
-114.5240456945118
 30
0.0
 10
157.2494095536758
 20
-112.2213767574848
 30
0.0
 10
158.9727949204939
 20
-109.6520501799188
 30
0.0
 10
160.5966300022166
 20
-106.6419854995723
 30
0.0
 10
161.5673087619299
 20
-104.3829757817487
 30
0.0
 10
162.0117595461212
 20
-103.2417834909782
 30
0.0
 10
162.0141913946068
 20
-103.235539364873
 30
0.0
  0
SPLINE
  5
16D
330
1F
100
AcDbEntity
  8
0
  6
Continuous
 62
     7
370
    15
100
AcDbSpline
210
0.0
220
0.0
230
1.0
 70
     8
 71
     3
 72
    52
 73
    48
 74
     0
 42
0.000000001
 43
0.00000001
 40
0.0
 40
0.0
 40
0.0
 40
0.0
 40
0.0625000000000028
 40
0.0625000000000028
 40
0.1250000000000057
 40
0.1250000000000057
 40
0.1562500000000065
 40
0.1562500000000065
 40
0.1875000000000074
 40
0.1875000000000074
 40
0.2500000000000068
 40
0.2500000000000068
 40
0.3125000000000062
 40
0.3125000000000062
 40
0.3750000000000056
 40
0.3750000000000056
 40
0.4062500000000051
 40
0.4062500000000051
 40
0.4375000000000046
 40
0.4375000000000046
 40
0.468750000000004
 40
0.468750000000004
 40
0.4843750000000043
 40
0.4843750000000043
 40
0.5000000000000046
 40
0.5000000000000046
 40
0.5156250000000048
 40
0.5156250000000048
 40
0.5312500000000051
 40
0.5312500000000051
 40
0.5625000000000046
 40
0.5625000000000046
 40
0.5937500000000041
 40
0.5937500000000041
 40
0.6250000000000037
 40
0.6250000000000037
 40
0.6875000000000033
 40
0.6875000000000033
 40
0.7500000000000031
 40
0.7500000000000031
 40
0.8750000000000031
 40
0.8750000000000031
 40
0.9062500000000027
 40
0.9062500000000027
 40
0.9375000000000021
 40
0.9375000000000021
 40
1.0
 40
1.0
 40
1.0
 40
1.0
 10
169.7671494542731
 20
-98.23770673212535
 30
0.0
 10
170.2563819541313
 20
-98.60607135410592
 30
0.0
 10
170.681933283618
 20
-98.95989475801314
 30
0.0
 10
171.4281130573502
 20
-99.6413359631866
 30
0.0
 10
171.7484521452319
 20
-99.96890295646931
 30
0.0
 10
172.1607702316541
 20
-100.4410983735927
 30
0.0
 10
172.2861029582583
 20
-100.5945274153147
 30
0.0
 10
172.5132289971286
 20
-100.8912077502
 30
0.0
 10
172.6154226437333
 20
-101.0349187329485
 30
0.0
 10
172.8924516746194
 20
-101.4532198578419
 30
0.0
 10
173.037660102557
 20
-101.7149758430616
 30
0.0
 10
173.2727873770749
 20
-102.2092468875144
 30
0.0
 10
173.3623861425305
 20
-102.4416784401831
 30
0.0
 10
173.5153616029736
 20
-102.8831350251067
 30
0.0
 10
173.577741545989
 20
-103.0917064457031
 30
0.0
 10
173.689673654565
 20
-103.39507871725
 30
0.0
 10
173.7302634471839
 20
-103.4947465318349
 30
0.0
 10
173.8311424031859
 20
-103.6940967593674
 30
0.0
 10
173.8910248419971
 20
-103.7934141131075
 30
0.0
 10
174.0531470882283
 20
-103.9962165517416
 30
0.0
 10
174.1548403124895
 20
-104.099603989699
 30
0.0
 10
174.3729271422481
 20
-104.2646937958606
 30
0.0
 10
174.4567862118318
 20
-104.3214393352122
 30
0.0
 10
174.6561015227889
 20
-104.4401628093763
 30
0.0
 10
174.7685821132464
 20
-104.5002653342652
 30
0.0
 10
175.0209448082844
 20
-104.6219875844752
 30
0.0
 10
175.1609017436657
 20
-104.6836461462207
 30
0.0
 10
175.467669019207
 20
-104.8084391340323
 30
0.0
 10
175.6300794400534
 20
-104.8698221393329
 30
0.0
 10
176.137040088416
 20
-105.0510504914634
 30
0.0
 10
176.5030322458653
 20
-105.1686961291041
 30
0.0
 10
177.2529496599795
 20
-105.3953211939175
 30
0.0
 10
177.635127735437
 20
-105.5038358926772
 30
0.0
 10
178.4059887464786
 20
-105.7143118648374
 30
0.0
 10
178.7947899483857
 20
-105.8162240549103
 30
0.0
 10
179.9652869107083
 20
-106.1142417091264
 30
0.0
 10
180.7508518086307
 20
-106.302707342712
 30
0.0
 10
182.3167642717949
 20
-106.6651306414176
 30
0.0
 10
183.0990608932103
 20
-106.8393425561327
 30
0.0
 10
185.412408404764
 20
-107.3420980001008
 30
0.0
 10
186.9060334133113
 20
-107.6501963721678
 30
0.0
 10
188.6631154633677
 20
-108.0101851287948
 30
0.0
 10
189.0090227981723
 20
-108.0809023844864
 30
0.0
 10
189.6883173147997
 20
-108.2198914998702
 30
0.0
 10
190.020287898166
 20
-108.2878755503531
 30
0.0
 10
190.9799403772331
 20
-108.485208686166
 30
0.0
 10
191.5760606322215
 20
-108.608889390776
 30
0.0
 10
192.1207893153248
 20
-108.7247333037599
 30
0.0
  0
SPLINE
  5
16F
330
1F
100
AcDbEntity
  8
0
  6
Continuous
 62
     7
370
    15
100
AcDbSpline
210
0.0
220
0.0
230
1.0
 70
     8
 71
     3
 72
    52
 73
    48
 74
     0
 42
0.000000001
 43
0.00000001
 40
0.0
 40
0.0
 40
0.0
 40
0.0
 40
0.0625000000000008
 40
0.0625000000000008
 40
0.1250000000000016
 40
0.1250000000000016
 40
0.1562500000000026
 40
0.1562500000000026
 40
0.1875000000000035
 40
0.1875000000000035
 40
0.2500000000000055
 40
0.2500000000000055
 40
0.3125000000000075
 40
0.3125000000000075
 40
0.3750000000000095
 40
0.3750000000000095
 40
0.4062500000000097
 40
0.4062500000000097
 40
0.4375000000000099
 40
0.4375000000000099
 40
0.4687500000000101
 40
0.4687500000000101
 40
0.4843750000000095
 40
0.4843750000000095
 40
0.5000000000000089
 40
0.5000000000000089
 40
0.5156250000000083
 40
0.5156250000000083
 40
0.5312500000000078
 40
0.5312500000000078
 40
0.5625000000000066
 40
0.5625000000000066
 40
0.5937500000000054
 40
0.5937500000000054
 40
0.6250000000000042
 40
0.6250000000000042
 40
0.6875000000000031
 40
0.6875000000000031
 40
0.7500000000000019
 40
0.7500000000000019
 40
0.8750000000000003
 40
0.8750000000000003
 40
0.9062499999999999
 40
0.9062499999999999
 40
0.9374999999999994
 40
0.9374999999999994
 40
1.0
 40
1.0
 40
1.0
 40
1.0
 10
144.1921284724042
 20
-66.19202151487994
 30
0.0
 10
144.5220948616534
 20
-66.850118992354
 30
0.0
 10
144.7932457454405
 20
-67.49139872145436
 30
0.0
 10
145.2392405852593
 20
-68.74463436819245
 30
0.0
 10
145.4138132235378
 20
-69.35652483586877
 30
0.0
 10
145.613647511112
 20
-70.25377685129463
 30
0.0
 10
145.6695255393273
 20
-70.54797985918319
 30
0.0
 10
145.7615214805948
 20
-71.12220622977509
 30
0.0
 10
145.7978329868388
 20
-71.40310233922328
 30
0.0
 10
145.8818108529416
 20
-72.22900629441867
 30
0.0
 10
145.9044488206917
 20
-72.75721078110337
 30
0.0
 10
145.9044790861984
 20
-73.77812817518446
 30
0.0
 10
145.8815857412287
 20
-74.27070263539414
 30
0.0
 10
145.8169768740454
 20
-75.23156613532538
 30
0.0
 10
145.7744761778961
 20
-75.69894517686713
 30
0.0
 10
145.7310486592181
 20
-76.39685791536915
 30
0.0
 10
145.720118393265
 20
-76.62923429577097
 30
0.0
 10
145.7171891902132
 20
-77.09892244982169
 30
0.0
 10
145.724969061144
 20
-77.33540353436237
 30
0.0
 10
145.7803804614908
 20
-77.82034714843337
 30
0.0
 10
145.8275100171111
 20
-78.06861981979226
 30
0.0
 10
145.9588778196393
 20
-78.46242979722727
 30
0.0
 10
146.0129974452333
 20
-78.59735348366068
 30
0.0
 10
146.1503704805022
 20
-78.87784487137101
 30
0.0
 10
146.2316308032531
 20
-79.01895540689524
 30
0.0
 10
146.4210961536762
 20
-79.3026033899178
 30
0.0
 10
146.5293561014252
 20
-79.44523032461088
 30
0.0
 10
146.7722668333548
 20
-79.7319895594837
 30
0.0
 10
146.9034110707083
 20
-79.87211553953726
 30
0.0
 10
147.3183074274016
 20
-80.28423693237356
 30
0.0
 10
147.6248550848484
 20
-80.54970811751562
 30
0.0
 10
148.260042435377
 20
-81.06251256151954
 30
0.0
 10
148.5871725027853
 20
-81.3087795152845
 30
0.0
 10
149.2505662716425
 20
-81.79092453206707
 30
0.0
 10
149.5869790368677
 20
-82.0266531903703
 30
0.0
 10
150.6028370038994
 20
-82.72527610932411
 30
0.0
 10
151.2886226586934
 20
-83.17988269613717
 30
0.0
 10
152.6576626727459
 20
-84.08629246346976
 30
0.0
 10
153.3427308776573
 20
-84.53871281942172
 30
0.0
 10
155.366915023289
 20
-85.89960077413213
 30
0.0
 10
156.6716044326045
 20
-86.80918286847103
 30
0.0
 10
158.1914665992057
 20
-87.97806436975823
 30
0.0
 10
158.4898830256438
 20
-88.21342363794538
 30
0.0
 10
159.073963740291
 20
-88.68808270360894
 30
0.0
 10
159.3584012557415
 20
-88.92644689318637
 30
0.0
 10
160.1771560720684
 20
-89.63719213105561
 30
0.0
 10
160.6809896411473
 20
-90.10829449114225
 30
0.0
 10
161.1349639512861
 20
-90.57735796273315
 30
0.0
  0
SPLINE
  5
170
330
1F
100
AcDbEntity
  8
0
  6
Continuous
 62
     7
370
    15
100
AcDbSpline
210
0.0
220
0.0
230
1.0
 70
     8
 71
     3
 72
    17
 73
    13
 74
     0
 42
0.000000001
 43
0.00000001
 40
0.0
 40
0.0
 40
0.0
 40
0.0
 40
0.0396315874626186
 40
0.1038770003785191
 40
0.1674384397261641
 40
0.2180197613062048
 40
0.2840195171068606
 40
0.426838713125379
 40
0.570179480817774
 40
0.7142583232428255
 40
0.857877422559699
 40
1.0
 40
1.0
 40
1.0
 40
1.0
 10
126.4422356700895
 20
-19.7999999999989
 30
0.0
 10
126.3395272040152
 20
-20.05839046818757
 30
0.0
 10
126.0703215513439
 20
-20.73564889966366
 30
0.0
 10
125.7159270259436
 20
-21.86297602554049
 30
0.0
 10
125.5128938378469
 20
-23.19094456821612
 30
0.0
 10
125.7005163013298
 20
-24.65422043840781
 30
0.0
 10
126.5645791316651
 20
-26.61034602577124
 30
0.0
 10
128.1162315053948
 20
-28.92407194872519
 30
0.0
 10
130.142102581695
 20
-31.65841285123243
 30
0.0
 10
132.0069754596239
 20
-34.60508385217275
 30
0.0
 10
133.6747080101809
 20
-37.72579347199891
 30
0.0
 10
134.3738731236545
 20
-39.89577606647661
 30
0.0
 10
134.7216248031117
 20
-40.9750849122417
 30
0.0
  0
SPLINE
  5
171
330
1F
100
AcDbEntity
  8
0
  6
Continuous
 62
     7
370
    15
100
AcDbSpline
210
0.0
220
0.0
230
1.0
 70
     8
 71
     3
 72
    18
 73
    14
 74
     0
 42
0.000000001
 43
0.00000001
 40
0.0
 40
0.0
 40
0.0
 40
0.0
 40
0.0961673135634777
 40
0.1924815705627125
 40
0.3363809681590281
 40
0.4808044250691577
 40
0.5970292114279419
 40
0.656265781247511
 40
0.7148717029602064
 40
0.7615094915796735
 40
0.8223636283205793
 40
0.9540480380324546
 40
1.0
 40
1.0
 40
1.0
 40
1.0
 10
135.1544803689834
 20
42.95841379686446
 30
0.0
 10
134.9022956506861
 20
42.17293023143527
 30
0.0
 10
134.3975408764172
 20
40.60076288348066
 30
0.0
 10
133.1135396383584
 20
37.90907176763487
 30
0.0
 10
131.3559525516042
 20
34.99214160631248
 30
0.0
 10
129.3250802088993
 20
32.12183969761936
 30
0.0
 10
127.7151053446536
 20
29.90119948810138
 30
0.0
 10
126.6338085229546
 20
28.19273811459705
 30
0.0
 10
126.0205820264869
 20
26.86011085976125
 30
0.0
 10
125.7542989028705
 20
25.40171635448027
 30
0.0
 10
126.014400494421
 20
23.46420231533584
 30
0.0
 10
126.6306567384686
 20
21.78827030893198
 30
0.0
 10
127.130300864844
 20
20.52642193642203
 30
0.0
 10
127.2595515789598
 20
20.2000000000011
 30
0.0
  0
SPLINE
  5
172
330
1F
100
AcDbEntity
  8
0
  6
Continuous
 62
     7
370
    15
100
AcDbSpline
210
0.0
220
0.0
230
1.0
 70
     8
 71
     3
 72
    52
 73
    48
 74
     0
 42
0.000000001
 43
0.00000001
 40
0.0
 40
0.0
 40
0.0
 40
0.0
 40
0.0624999999999992
 40
0.0624999999999992
 40
0.1249999999999983
 40
0.1249999999999983
 40
0.1562499999999982
 40
0.1562499999999982
 40
0.1874999999999981
 40
0.1874999999999981
 40
0.2499999999999989
 40
0.2499999999999989
 40
0.3124999999999998
 40
0.3124999999999998
 40
0.3750000000000007
 40
0.3750000000000007
 40
0.4062500000000014
 40
0.4062500000000014
 40
0.4375000000000022
 40
0.4375000000000022
 40
0.4687500000000029
 40
0.4687500000000029
 40
0.4843750000000029
 40
0.4843750000000029
 40
0.5000000000000028
 40
0.5000000000000028
 40
0.5156250000000027
 40
0.5156250000000027
 40
0.5312500000000026
 40
0.5312500000000026
 40
0.5625000000000018
 40
0.5625000000000018
 40
0.5937500000000011
 40
0.5937500000000011
 40
0.6250000000000003
 40
0.6250000000000003
 40
0.6874999999999998
 40
0.6874999999999998
 40
0.7499999999999993
 40
0.7499999999999993
 40
0.8749999999999984
 40
0.8749999999999984
 40
0.9062499999999991
 40
0.9062499999999991
 40
0.9374999999999999
 40
0.9374999999999999
 40
1.0
 40
1.0
 40
1.0
 40
1.0
 10
162.0761964124326
 20
91.93371453236512
 30
0.0
 10
161.620282556129
 20
91.47822107526626
 30
0.0
 10
161.1175053100026
 20
91.02284599676577
 30
0.0
 10
160.0351340786259
 20
90.11038959153557
 30
0.0
 10
159.4553244592931
 20
89.65332171850682
 30
0.0
 10
158.5360609078812
 20
88.96481405178334
 30
0.0
 10
158.2227729612511
 20
88.73590951845661
 30
0.0
 10
157.5898164926864
 20
88.28287959121606
 30
0.0
 10
157.2692536495761
 20
88.05808537128951
 30
0.0
 10
156.2972017783912
 20
87.38759703422652
 30
0.0
 10
155.6353134930348
 20
86.94582901651168
 30
0.0
 10
154.2938081158587
 20
86.06579274932868
 30
0.0
 10
153.6140611774129
 20
85.62760681547545
 30
0.0
 10
152.2491851328323
 20
84.74599399733297
 30
0.0
 10
151.564445954547
 20
84.30332223203976
 30
0.0
 10
150.5491898184609
 20
83.62415551800582
 30
0.0
 10
150.2125511478324
 20
83.39500365817817
 30
0.0
 10
149.547953875926
 20
82.92710931496839
 30
0.0
 10
149.2209245025013
 20
82.68916628535732
 30
0.0
 10
148.5883836526727
 20
82.19928276316917
 30
0.0
 10
148.2826106018798
 20
81.94749305795995
 30
0.0
 10
147.8559435863617
 20
81.55056867342401
 30
0.0
 10
147.7191659359227
 20
81.41499125332365
 30
0.0
 10
147.4608831874995
 20
81.13483908697589
 30
0.0
 10
147.3436899125698
 20
80.994741221397
 30
0.0
 10
147.1356834518029
 20
80.71517234257077
 30
0.0
 10
147.0448004781963
 20
80.57561410571802
 30
0.0
 10
146.8886318797419
 20
80.29687862685327
 30
0.0
 10
146.8254026720751
 20
80.16157777499336
 30
0.0
 10
146.6697355720754
 20
79.76521174679186
 30
0.0
 10
146.6101870403949
 20
79.51192527171725
 30
0.0
 10
146.5371987513225
 20
79.02124607198934
 30
0.0
 10
146.5237322384353
 20
78.78488826668999
 30
0.0
 10
146.5171681407849
 20
78.31770415742542
 30
0.0
 10
146.5244528137686
 20
78.08705888419469
 30
0.0
 10
146.5585126312086
 20
77.39447554093208
 30
0.0
 10
146.5967664803227
 20
76.93153069069969
 30
0.0
 10
146.6535729303897
 20
75.97850779107655
 30
0.0
 10
146.6730577294315
 20
75.48779762406053
 30
0.0
 10
146.661416058968
 20
73.96392395509835
 30
0.0
 10
146.5611219857064
 20
72.88264690992364
 30
0.0
 10
146.2184812885197
 20
71.41236510806607
 30
0.0
 10
146.139071201594
 20
71.1123448670926
 30
0.0
 10
145.955417779618
 20
70.49912600282558
 30
0.0
 10
145.8514390088903
 20
70.18710499367003
 30
0.0
 10
145.5034990451067
 20
69.24464576699494
 30
0.0
 10
145.2227274267201
 20
68.60396394759006
 30
0.0
 10
144.8839138659277
 20
67.94964839151822
 30
0.0
  0
SPLINE
  5
174
330
1F
100
AcDbEntity
  8
0
  6
Continuous
 62
     7
370
    15
100
AcDbSpline
210
0.0
220
0.0
230
1.0
 70
     8
 71
     3
 72
    52
 73
    48
 74
     0
 42
0.000000001
 43
0.00000001
 40
0.0
 40
0.0
 40
0.0
 40
0.0
 40
0.0625000000000004
 40
0.0625000000000004
 40
0.1250000000000007
 40
0.1250000000000007
 40
0.1562500000000008
 40
0.1562500000000008
 40
0.1875000000000009
 40
0.1875000000000009
 40
0.2500000000000021
 40
0.2500000000000021
 40
0.3125000000000033
 40
0.3125000000000033
 40
0.3750000000000044
 40
0.3750000000000044
 40
0.4062500000000039
 40
0.4062500000000039
 40
0.4375000000000036
 40
0.4375000000000036
 40
0.4687500000000031
 40
0.4687500000000031
 40
0.4843750000000029
 40
0.4843750000000029
 40
0.5000000000000027
 40
0.5000000000000027
 40
0.5156250000000026
 40
0.5156250000000026
 40
0.5312500000000023
 40
0.5312500000000023
 40
0.5625000000000019
 40
0.5625000000000019
 40
0.5937500000000016
 40
0.5937500000000016
 40
0.6250000000000011
 40
0.6250000000000011
 40
0.6875000000000003
 40
0.6875000000000003
 40
0.7499999999999994
 40
0.7499999999999994
 40
0.8749999999999977
 40
0.8749999999999977
 40
0.9062499999999979
 40
0.9062499999999979
 40
0.9374999999999981
 40
0.9374999999999981
 40
1.0
 40
1.0
 40
1.0
 40
1.0
 10
193.2454302747173
 20
109.3504353117459
 30
0.0
 10
192.7029558297016
 20
109.2480501135557
 30
0.0
 10
192.1124910028029
 20
109.1382831294312
 30
0.0
 10
190.852225266694
 20
108.9042183688521
 30
0.0
 10
190.1822081028799
 20
108.7799031394675
 30
0.0
 10
189.1253697637413
 20
108.5817481954035
 30
0.0
 10
188.7660598209129
 20
108.5140432701437
 30
0.0
 10
188.0414652380223
 20
108.3764701440312
 30
0.0
 10
187.6751527136681
 20
108.3064099616018
 30
0.0
 10
186.5658213924289
 20
108.0921391243719
 30
0.0
 10
185.8123808299192
 20
107.9438573050079
 30
0.0
 10
184.28633437958
 20
107.634535606012
 30
0.0
 10
183.5136129404122
 20
107.4735055431771
 30
0.0
 10
181.9595920935889
 20
107.1360895919889
 30
0.0
 10
181.1788386126067
 20
106.9599539892399
 30
0.0
 10
180.0149499590744
 20
106.6811915787272
 30
0.0
 10
179.6279483660985
 20
106.5857569285322
 30
0.0
 10
178.8601866536254
 20
106.3887616235377
 30
0.0
 10
178.4805300856168
 20
106.2875250220615
 30
0.0
 10
177.7395056778077
 20
106.0782374509404
 30
0.0
 10
177.3779068522167
 20
105.970232835914
 30
0.0
 10
176.8634031880448
 20
105.8010544228005
 30
0.0
 10
176.6966514978401
 20
105.7434506590971
 30
0.0
 10
176.3765482051049
 20
105.6251725161874
 30
0.0
 10
176.2284980644224
 20
105.5663994287306
 30
0.0
 10
175.9590580671075
 20
105.4500322439417
 30
0.0
 10
175.8375793242825
 20
105.3924022818352
 30
0.0
 10
175.6204335494029
 20
105.2781429152009
 30
0.0
 10
175.5276696809585
 20
105.2230943588136
 30
0.0
 10
175.2855921850325
 20
105.0625497167074
 30
0.0
 10
175.1709717008584
 20
104.9609002185153
 30
0.0
 10
174.9911931088676
 20
104.7633212689412
 30
0.0
 10
174.9262345381505
 20
104.6678153426347
 30
0.0
 10
174.81757199893
 20
104.4769801138006
 30
0.0
 10
174.774292434791
 20
104.3817414133751
 30
0.0
 10
174.6558805905483
 20
104.0916525399369
 30
0.0
 10
174.5913629667028
 20
103.8922403985005
 30
0.0
 10
174.4345695991477
 20
103.4686231805195
 30
0.0
 10
174.3430854809215
 20
103.2441442382054
 30
0.0
 10
173.9837921608653
 20
102.5274204520372
 30
0.0
 10
173.6329488491931
 20
101.993920214763
 30
0.0
 10
172.9449291801376
 20
101.2382518554922
 30
0.0
 10
172.7948242535312
 20
101.0826473983935
 30
0.0
 10
172.4662341146366
 20
100.7617563872581
 30
0.0
 10
172.2882901375844
 20
100.5970753492559
 30
0.0
 10
171.7163007233725
 20
100.0955470986936
 30
0.0
 10
171.2823879351926
 20
99.74924175518149
 30
0.0
 10
170.7863413133046
 20
99.39019811400372
 30
0.0
  0
SPLINE
  5
175
330
1F
100
AcDbEntity
  8
0
  6
Continuous
 62
     7
370
    15
100
AcDbSpline
210
0.0
220
0.0
230
1.0
 70
     8
 71
     3
 72
    22
 73
    18
 74
     0
 42
0.000000001
 43
0.00000001
 40
0.0
 40
0.0
 40
0.0
 40
0.0
 40
0.1249999999999993
 40
0.1249999999999993
 40
0.2499999999999986
 40
0.2499999999999986
 40
0.4999999999999982
 40
0.4999999999999982
 40
0.6249999999999988
 40
0.6249999999999988
 40
0.7499999999999992
 40
0.7499999999999992
 40
0.8749999999999998
 40
0.8749999999999998
 40
0.9374999999999999
 40
0.9374999999999999
 40
1.0
 40
1.0
 40
1.0
 40
1.0
 10
134.7216248031125
 20
-40.97508491224129
 30
0.0
 10
134.5032460849888
 20
-40.15830936066549
 30
0.0
 10
134.2293356440082
 20
-39.35249143765811
 30
0.0
 10
133.5913736872481
 20
-37.75823250572372
 30
0.0
 10
133.2261912372468
 20
-36.96822183579316
 30
0.0
 10
132.0177749326545
 20
-34.63086299399092
 30
0.0
 10
131.0965195906576
 20
-33.17685283455926
 30
0.0
 10
129.6104554177262
 20
-31.09073626592182
 30
0.0
 10
129.0960422262727
 20
-30.40991471742194
 30
0.0
 10
128.048237645289
 20
-29.08084510996463
 30
0.0
 10
127.5154746594342
 20
-28.43317056638872
 30
0.0
 10
126.4401943295712
 20
-27.1591446834986
 30
0.0
 10
125.8976628572244
 20
-26.53281657427266
 30
0.0
 10
125.0826195859311
 20
-25.60037763880926
 30
0.0
 10
124.8107333725656
 20
-25.29074135110772
 30
0.0
 10
124.2676046360494
 20
-24.6723270542419
 30
0.0
 10
123.9949326895406
 20
-24.3619150792816
 30
0.0
 10
123.7260574874521
 20
-24.05453248437045
 30
0.0
  0
SPLINE
  5
176
330
1F
100
AcDbEntity
  8
0
  6
Continuous
 62
     7
370
    15
100
AcDbSpline
210
0.0
220
0.0
230
1.0
 70
     8
 71
     3
 72
    22
 73
    18
 74
     0
 42
0.000000001
 43
0.00000001
 40
0.0
 40
0.0
 40
0.0
 40
0.0
 40
0.1249999999999994
 40
0.1249999999999994
 40
0.2499999999999989
 40
0.2499999999999989
 40
0.4999999999999987
 40
0.4999999999999987
 40
0.6249999999999988
 40
0.6249999999999988
 40
0.7499999999999993
 40
0.7499999999999993
 40
0.8749999999999999
 40
0.8749999999999999
 40
0.9374999999999999
 40
0.9374999999999999
 40
1.0
 40
1.0
 40
1.0
 40
1.0
 10
135.1544803689834
 20
42.95841379686446
 30
0.0
 10
134.9277042102003
 20
42.14687119728711
 30
0.0
 10
134.6455080723931
 20
41.34603882238867
 30
0.0
 10
133.9911517224727
 20
39.76131870088352
 30
0.0
 10
133.6178444303079
 20
38.97586983426866
 30
0.0
 10
132.3853872792558
 20
36.65155278638604
 30
0.0
 10
131.4491736590078
 20
35.20505587802138
 30
0.0
 10
129.9416449740014
 20
33.1290644864246
 30
0.0
 10
129.4202260550126
 20
32.45143007572754
 30
0.0
 10
128.3587441433676
 20
31.12837665206429
 30
0.0
 10
127.8193154605376
 20
30.48352936464809
 30
0.0
 10
126.7309222303631
 20
29.21487891744219
 30
0.0
 10
126.1819437933397
 20
28.5910988052065
 30
0.0
 10
125.3573019933475
 20
27.66232083597606
 30
0.0
 10
125.0822282680623
 20
27.35387791013534
 30
0.0
 10
124.532733116836
 20
26.73780314635172
 30
0.0
 10
124.2568654396426
 20
26.42854329615982
 30
0.0
 10
123.9848255940901
 20
26.12227996056837
 30
0.0
  0
SPLINE
  5
177
330
1F
100
AcDbEntity
  8
0
  6
Continuous
 62
     7
370
    15
100
AcDbSpline
210
0.0
220
0.0
230
1.0
 70
     8
 71
     3
 72
    22
 73
    18
 74
     0
 42
0.000000001
 43
0.00000001
 40
0.0
 40
0.0
 40
0.0
 40
0.0
 40
0.1250000000000016
 40
0.1250000000000016
 40
0.2500000000000031
 40
0.2500000000000031
 40
0.500000000000003
 40
0.500000000000003
 40
0.6250000000000029
 40
0.6250000000000029
 40
0.7500000000000029
 40
0.7500000000000029
 40
0.8750000000000029
 40
0.8750000000000029
 40
0.9375000000000014
 40
0.9375000000000014
 40
1.0
 40
1.0
 40
1.0
 40
1.0
 10
144.1921284724042
 20
-66.19202151487994
 30
0.0
 10
144.5442492897139
 20
-66.89430462366828
 30
0.0
 10
144.8295171845192
 20
-67.57740061015105
 30
0.0
 10
145.2911316596281
 20
-68.91096369703038
 30
0.0
 10
145.4674123108622
 20
-69.56269690613026
 30
0.0
 10
145.8515753766784
 20
-71.46586997484637
 30
0.0
 10
145.9086099559372
 20
-72.61673446462129
 30
0.0
 10
145.812587912284
 20
-74.23185760541419
 30
0.0
 10
145.7493988273862
 20
-74.75250221816337
 30
0.0
 10
145.5781984742724
 20
-75.75755062720668
 30
0.0
 10
145.4704540277041
 20
-76.24156516104102
 30
0.0
 10
145.2273684282654
 20
-77.18340893945755
 30
0.0
 10
145.0919962238075
 20
-77.6412163529017
 30
0.0
 10
144.880367764544
 20
-78.31547898172032
 30
0.0
 10
144.8083959627084
 20
-78.53815113478595
 30
0.0
 10
144.6636336588645
 20
-78.98045983938167
 30
0.0
 10
144.590461382098
 20
-79.20125202595503
 30
0.0
 10
144.5186917648529
 20
-79.41869881431616
 30
0.0
  0
SPLINE
  5
178
330
1F
100
AcDbEntity
  8
0
  6
Continuous
 62
     7
370
    15
100
AcDbSpline
210
0.0
220
0.0
230
1.0
 70
     8
 71
     3
 72
    22
 73
    18
 74
     0
 42
0.000000001
 43
0.00000001
 40
0.0
 40
0.0
 40
0.0
 40
0.0
 40
0.1250000000000001
 40
0.1250000000000001
 40
0.2500000000000003
 40
0.2500000000000003
 40
0.4999999999999999
 40
0.4999999999999999
 40
0.6249999999999998
 40
0.6249999999999998
 40
0.7499999999999997
 40
0.7499999999999997
 40
0.8749999999999997
 40
0.8749999999999997
 40
0.9374999999999998
 40
0.9374999999999998
 40
1.0
 40
1.0
 40
1.0
 40
1.0
 10
144.8839138659277
 20
67.94964839151825
 30
0.0
 10
145.2432350768157
 20
68.6435682492733
 30
0.0
 10
145.5355055799544
 20
69.31832338881627
 30
0.0
 10
146.0107888080611
 20
70.63522006861268
 30
0.0
 10
146.1937485760745
 20
71.27861087725361
 30
0.0
 10
146.5974129676662
 20
73.15687122613537
 30
0.0
 10
146.6662363614973
 20
74.29193426193868
 30
0.0
 10
146.5867544760131
 20
75.8840549541766
 30
0.0
 10
146.5288964287872
 20
76.39713308586582
 30
0.0
 10
146.3679856837914
 20
77.38730635746526
 30
0.0
 10
146.2651958279284
 20
77.864019062344
 30
0.0
 10
146.0317500819502
 20
78.79140532687168
 30
0.0
 10
145.9010629162139
 20
79.24205727616501
 30
0.0
 10
145.6963336878964
 20
79.90560022795857
 30
0.0
 10
145.626640166238
 20
80.12470136226815
 30
0.0
 10
145.4864030491654
 20
80.55985569054774
 30
0.0
 10
145.4154895113738
 20
80.77704550268923
 30
0.0
 10
145.3459442307051
 20
80.99091411275668
 30
0.0
  0
SPLINE
  5
179
330
1F
100
AcDbEntity
  8
0
  6
Continuous
 62
     7
370
    15
100
AcDbSpline
210
0.0
220
0.0
230
1.0
 70
     8
 71
     3
 72
    12
 73
     8
 74
     0
 42
0.000000001
 43
0.00000001
 40
0.0
 40
0.0
 40
0.0
 40
0.0
 40
0.0017581268740865
 40
0.3162257873259839
 40
0.6352502161437421
 40
0.854041694393956
 40
1.0
 40
1.0
 40
1.0
 40
1.0
 10
241.4802877588974
 20
-104.1696912509397
 30
0.0
 10
241.4826530437706
 20
-104.1759917613993
 30
0.0
 10
241.9080854072106
 20
-105.3092341399874
 30
0.0
 10
242.6785815160634
 20
-107.5901204465625
 30
0.0
 10
243.3491702778178
 20
-110.6024906033505
 30
0.0
 10
243.6202599205238
 20
-112.9630537276387
 30
0.0
 10
243.5092418346965
 20
-114.1113618786282
 30
0.0
 10
243.4648168277021
 20
-114.5708689693797
 30
0.0
  0
SPLINE
  5
17A
330
1F
100
AcDbEntity
  8
0
  6
Continuous
 62
     7
370
    15
100
AcDbSpline
210
0.0
220
0.0
230
1.0
 70
     8
 71
     3
 72
    12
 73
     8
 74
     0
 42
0.000000001
 43
0.00000001
 40
0.0
 40
0.0
 40
0.0
 40
0.0
 40
0.0017572359108652
 40
0.3160655340756844
 40
0.6349282913799462
 40
0.8536088930130948
 40
1.0
 40
1.0
 40
1.0
 40
1.0
 10
242.5519653616741
 20
103.6355393648758
 30
0.0
 10
242.554395340863
 20
103.6417834832021
 30
0.0
 10
242.9914639583514
 20
104.7648828811902
 30
0.0
 10
243.7853621415126
 20
107.0253464892029
 30
0.0
 10
244.4869566528334
 20
110.0107865582722
 30
0.0
 10
244.7823286792825
 20
112.3518814361595
 30
0.0
 10
244.6828956386331
 20
113.4914646001129
 30
0.0
 10
244.6430237106035
 20
113.9484291825106
 30
0.0
  0
SPLINE
  5
17B
330
1F
100
AcDbEntity
  8
0
  6
Continuous
 62
     7
370
    15
100
AcDbSpline
210
0.0
220
0.0
230
1.0
 70
     8
 71
     3
 72
    22
 73
    18
 74
     0
 42
0.000000001
 43
0.00000001
 40
0.0
 40
0.0
 40
0.0
 40
0.0
 40
0.1249999999999984
 40
0.1249999999999984
 40
0.2499999999999967
 40
0.2499999999999967
 40
0.4999999999999972
 40
0.4999999999999972
 40
0.624999999999998
 40
0.624999999999998
 40
0.7499999999999988
 40
0.7499999999999988
 40
0.8749999999999997
 40
0.8749999999999997
 40
0.9374999999999998
 40
0.9374999999999998
 40
1.0
 40
1.0
 40
1.0
 40
1.0
 10
192.1207893153251
 20
-108.7247333037575
 30
0.0
 10
191.5430893863132
 20
-108.6018776099358
 30
0.0
 10
190.9109095587443
 20
-108.4708148264705
 30
0.0
 10
189.5572272665014
 20
-108.1934525743308
 30
0.0
 10
188.8338710985845
 20
-108.0468327130401
 30
0.0
 10
186.5560709898313
 20
-107.5877342201174
 30
0.0
 10
184.9568250414939
 20
-107.2687870964877
 30
0.0
 10
182.4841087829475
 20
-106.7747912200864
 30
0.0
 10
181.6451987291901
 20
-106.6070478032746
 30
0.0
 10
179.9595529254856
 20
-106.2681514674175
 30
0.0
 10
179.1137379656854
 20
-106.0971896287223
 30
0.0
 10
177.4187044153986
 20
-105.7505500103658
 30
0.0
 10
176.5694811993096
 20
-105.574873850437
 30
0.0
 10
175.2950394991863
 20
-105.3059778667747
 30
0.0
 10
174.8701250766405
 20
-105.2154427133854
 30
0.0
 10
174.0204307919864
 20
-105.0321827448078
 30
0.0
 10
173.5934064789301
 20
-104.9389605903318
 30
0.0
 10
173.1712257690304
 20
-104.8454465971241
 30
0.0
  0
SPLINE
  5
17C
330
1F
100
AcDbEntity
  8
0
  6
Continuous
 62
     7
370
    15
100
AcDbSpline
210
0.0
220
0.0
230
1.0
 70
     8
 71
     3
 72
    22
 73
    18
 74
     0
 42
0.000000001
 43
0.00000001
 40
0.0
 40
0.0
 40
0.0
 40
0.0
 40
0.1249999999999998
 40
0.1249999999999998
 40
0.2499999999999996
 40
0.2499999999999996
 40
0.4999999999999972
 40
0.4999999999999972
 40
0.624999999999998
 40
0.624999999999998
 40
0.7499999999999987
 40
0.7499999999999987
 40
0.8749999999999993
 40
0.8749999999999993
 40
0.9374999999999997
 40
0.9374999999999997
 40
1.0
 40
1.0
 40
1.0
 40
1.0
 10
193.2454302747173
 20
109.3504353117459
 30
0.0
 10
192.6665332986271
 20
109.2411758209564
 30
0.0
 10
192.0330703825684
 20
109.123439432539
 30
0.0
 10
190.6766624501701
 20
108.8722823979127
 30
0.0
 10
189.951860556873
 20
108.7385667403975
 30
0.0
 10
187.6695209274466
 20
108.3174227612308
 30
0.0
 10
186.067105515438
 20
108.0217903426412
 30
0.0
 10
183.5894649029973
 20
107.5609220918379
 30
0.0
 10
182.7488801593829
 20
107.4039322938902
 30
0.0
 10
181.0598466331342
 20
107.0859272792707
 30
0.0
 10
180.2123205670563
 20
106.925094525689
 30
0.0
 10
178.5138139698931
 20
106.5982878568995
 30
0.0
 10
177.6628288278317
 20
106.4323151581076
 30
0.0
 10
176.3856878299258
 20
106.1777998176945
 30
0.0
 10
175.9598641756268
 20
106.0920290449189
 30
0.0
 10
175.1083286630127
 20
105.9182629857293
 30
0.0
 10
174.6803673572071
 20
105.8297953204122
 30
0.0
 10
174.2572463415202
 20
105.7409787748881
 30
0.0
  0
CIRCLE
  5
188
330
1F
100
AcDbEntity
  8
0
  6
PHANTOM
 62
     8
370
     0
100
AcDbCircle
 10
528.5
 20
0.0
 30
0.0
 40
27.62549999999965
  0
CIRCLE
  5
1AD
330
1F
100
AcDbEntity
  8
0
  6
PHANTOM
 62
     8
370
     0
100
AcDbCircle
 10
-528.5
 20
0.0
 30
0.0
 40
27.62550000000013
  0
LWPOLYLINE
  5
1AE
330
1F
100
AcDbEntity
  8
0
  6
PHANTOM
 62
     8
370
     0
100
AcDbPolyline
 90
       30
 70
   128
 43
0.0
 10
-247.7458106384
 20
-121.5903737539
 10
-249.927960456
 20
-121.5164496948
 10
-253.278688368
 20
-121.0994662057
 10
-256.6005921063
 20
-120.316978668
 10
-259.8762038839
 20
-119.173101688
 10
-263.0882993342
 20
-117.6738501898
 10
-266.2199880823
 20
-115.8271077872
 10
-269.2548025616
 20
-113.6425853282
 10
-272.1767846056
 20
-111.1317698323
 10
-274.9705693623
 20
-108.3078640872
 10
-277.6214660878
 20
-105.185717224
 10
-280.115535396
 20
-101.7817466346
 10
-282.4396625568
 20
-98.1138516435
 10
-284.5816264579
 20
-94.2013193864
 10
-286.5301638686
 20
-90.0647233913
 10
-288.2750286652
 20
-85.7258153955
 10
-289.8070457094
 20
-81.2074109667
 10
-291.1181590942
 20
-76.5332695309
 10
-292.2014745052
 20
-71.7279694362
 10
-293.051295473
 20
-66.816778711
 10
-293.6631533276
 20
-61.8255221953
 10
-294.0338306964
 20
-56.7804457446
 10
-294.1613784217
 20
-51.7080782192
 10
-294.0451258111
 20
-46.6350919858
 10
-293.6856841633
 20
-41.5881626647
 10
-293.0849435542
 20
-36.5938288592
 10
-292.2460628979
 20
-31.6783526062
 10
-291.1734533364
 20
-26.8675812807
 10
-289.8727550437
 20
-22.1868116809
 10
-289.1042927876
 20
-19.8
  0
LWPOLYLINE
  5
1AF
330
1F
100
AcDbEntity
  8
0
  6
PHANTOM
 62
     8
370
     0
100
AcDbPolyline
 90
       31
 70
   128
 43
0.0
 10
-274.0092627135
 20
-19.8
 10
-275.3734178652
 20
-23.3630851642
 10
-276.7133662467
 20
-27.539026197
 10
-277.8355617902
 20
-31.8588154455
 10
-278.7332927912
 20
-36.2966168161
 10
-279.4011900383
 20
-40.8258884001
 10
-279.8352589253
 20
-45.4195412173
 10
-280.0329033433
 20
-50.0501012319
 10
-279.9929412067
 20
-54.6898736709
 10
-279.715611524
 20
-59.3111086631
 10
-279.2025729675
 20
-63.8861672073
 10
-278.4568939538
 20
-68.3876864774
 10
-277.4830342913
 20
-72.7887434765
 10
-276.2868185072
 20
-77.0630160589
 10
-274.8754010113
 20
-81.1849403602
 10
-273.2572233068
 20
-85.129863691
 10
-271.4419635027
 20
-88.8741919816
 10
-269.44047843
 20
-92.3955308948
 10
-267.2647387089
 20
-95.6728197639
 10
-264.9277571537
 20
-98.6864575534
 10
-262.4435109449
 20
-101.4184200903
 10
-259.8268580337
 20
-103.8523678646
 10
-257.0934482786
 20
-105.9737437534
 10
-254.2596298451
 20
-107.7698600853
 10
-251.3423514303
 20
-109.2299745239
 10
-248.3590608942
 20
-110.3453543159
 10
-245.3276009067
 20
-111.1093285208
 10
-242.2661022331
 20
-111.5173279091
 10
-239.1928752959
 20
-111.5669122897
 10
-236.1263006628
 20
-111.2577851051
 10
-233.0847191152
 20
-110.5917952044
  0
LWPOLYLINE
  5
1B2
330
1F
100
AcDbEntity
  8
0
  6
PHANTOM
 62
     8
370
     0
100
AcDbPolyline
 90
       32
 70
   128
 43
0.0
 10
-231.9355946737
 20
112.230879211
 10
-234.9699386889
 20
112.9682937517
 10
-238.0329533076
 20
113.3494764119
 10
-241.1063190406
 20
113.3721473879
 10
-244.1716544901
 20
113.0361710877
 10
-247.2106262861
 20
112.3435569414
 10
-250.2050587364
 20
111.2984473836
 10
-253.1370425327
 20
109.9070930777
 10
-255.9890418639
 20
108.1778155315
 10
-258.7439992957
 20
106.1209573275
 10
-261.3854377883
 20
103.7488202653
 10
-263.8975592442
 20
101.0755917859
 10
-266.2653389939
 20
98.1172601188
 10
-268.474615657
 20
94.8915186581
 10
-270.512175839
 20
91.4176601411
 10
-272.3658331593
 20
87.7164612605
 10
-274.0245011363
 20
83.8100584021
 10
-275.4782594942
 20
79.7218152498
 10
-276.7184134944
 20
75.4761830503
 10
-277.7375459385
 20
71.0985543738
 10
-278.5295615287
 20
66.615111244
 10
-279.0897233236
 20
62.0526685471
 10
-279.4146810687
 20
57.4385136553
 10
-279.5024912345
 20
52.8002432246
 10
-279.3526286397
 20
48.1655981429
 10
-278.965989593
 20
43.5622976156
 10
-278.3448865318
 20
39.01787338
 10
-277.4930341922
 20
34.5595050424
 10
-276.4155273915
 20
30.2138575199
 10
-275.1188105567
 20
26.0069215611
 10
-273.6106391814
 20
21.9638582989
 10
-272.8633856992
 20
20.2
  0
LWPOLYLINE
  5
1B3
330
1F
100
AcDbEntity
  8
0
  6
PHANTOM
 62
     8
370
     0
100
AcDbPolyline
 90
       31
 70
   128
 43
0.0
 10
-288.0711574418
 20
20.2
 10
-289.5000669804
 20
24.5597473284
 10
-290.7462456184
 20
29.1454976425
 10
-291.7743588503
 20
33.852894036
 10
-292.5792516353
 20
38.6583332526
 10
-293.1568881776
 20
43.5377204414
 10
-293.504372162
 20
48.4665899709
 10
-293.6199612766
 20
53.420228101
 10
-293.5030759483
 20
58.3737968999
 10
-293.1543022495
 20
63.3024587835
 10
-292.5753889589
 20
68.181501053
 10
-291.7692387933
 20
72.986459806
 10
-290.7398938532
 20
77.6932426009
 10
-289.4925153552
 20
82.2782492581
 10
-288.0333577533
 20
86.7184901931
 10
-286.3697373787
 20
90.991701688
 10
-284.509995755
 20
95.0764575238
 10
-282.4634577731
 20
98.9522764131
 10
-280.2403849357
 20
102.5997246947
 10
-277.8519239051
 20
106.0005137756
 10
-275.310050613
 20
109.1375918314
 10
-272.6275102124
 20
111.9952293057
 10
-269.817753172
 20
114.5590977792
 10
-266.8948678351
 20
116.8163418133
 10
-263.8735097788
 20
118.7556434087
 10
-260.7688283305
 20
120.3672787544
 10
-257.5963906075
 20
121.6431669839
 10
-254.3721034624
 20
122.5769106931
 10
-251.1121337249
 20
123.1638280175
 10
-247.8328271401
 20
123.4009761073
 10
-247.2891893149
 20
123.406382457
  0
LWPOLYLINE
  5
1B4
330
1F
100
AcDbEntity
  8
0
  6
PHANTOM
 62
     8
370
     0
100
AcDbPolyline
 90
        8
 70
   128
 43
0.0
 10
-231.8673831875
 20
112.2100943828
 10
-231.754591432
 20
114.1220996355
 10
-231.9340462471
 20
115.9606275987
 10
-232.3988512849
 20
117.6550246737
 10
-233.1311443484
 20
119.1401761312
 10
-234.1027838259
 20
120.3590084335
 10
-235.2764301572
 20
121.2646825388
 10
-236.434502554
 20
121.7727963677
  0
LWPOLYLINE
  5
1B5
330
1F
100
AcDbEntity
  8
0
  6
PHANTOM
 62
     8
370
     0
100
AcDbPolyline
 90
       30
 70
   128
 43
0.0
 10
-296.5962586534
 20
-19.8
 10
-297.3647209095
 20
-22.1868116809
 10
-298.6654192023
 20
-26.8675812807
 10
-299.7380287638
 20
-31.6783526062
 10
-300.57690942
 20
-36.5938288592
 10
-301.1776500292
 20
-41.5881626647
 10
-301.537091677
 20
-46.6350919858
 10
-301.6533442876
 20
-51.7080782192
 10
-301.5257965622
 20
-56.7804457446
 10
-301.1551191935
 20
-61.8255221953
 10
-300.5432613389
 20
-66.816778711
 10
-299.6934403711
 20
-71.7279694362
 10
-298.6101249601
 20
-76.5332695309
 10
-297.2990115752
 20
-81.2074109667
 10
-295.7669945311
 20
-85.7258153955
 10
-294.0221297345
 20
-90.0647233913
 10
-292.0735923238
 20
-94.2013193864
 10
-289.9316284226
 20
-98.1138516435
 10
-287.6075012619
 20
-101.7817466346
 10
-285.1134319537
 20
-105.185717224
 10
-282.4625352281
 20
-108.3078640872
 10
-279.6687504715
 20
-111.1317698323
 10
-276.7467684274
 20
-113.6425853282
 10
-273.7119539482
 20
-115.8271077872
 10
-270.5802652
 20
-117.6738501898
 10
-267.3681697498
 20
-119.173101688
 10
-264.0925579722
 20
-120.316978668
 10
-260.7706542339
 20
-121.0994662057
 10
-257.4199263219
 20
-121.5164496948
 10
-255.2890708409
 20
-121.5904165928
  0
LWPOLYLINE
  5
1B6
330
1F
100
AcDbEntity
  8
0
  6
PHANTOM
 62
     8
370
     0
100
AcDbPolyline
 90
       31
 70
   128
 43
0.0
 10
-254.7475891023
 20
123.4064008013
 10
-255.3247930059
 20
123.4009761073
 10
-258.6040995908
 20
123.1638280175
 10
-261.8640693282
 20
122.5769106931
 10
-265.0883564733
 20
121.6431669839
 10
-268.2607941963
 20
120.3672787544
 10
-271.3654756446
 20
118.7556434087
 10
-274.3868337009
 20
116.8163418133
 10
-277.3097190379
 20
114.5590977792
 10
-280.1194760782
 20
111.9952293057
 10
-282.8020164789
 20
109.1375918314
 10
-285.343889771
 20
106.0005137756
 10
-287.7323508016
 20
102.5997246947
 10
-289.955423639
 20
98.9522764131
 10
-292.0019616208
 20
95.0764575238
 10
-293.8617032446
 20
90.991701688
 10
-295.5253236192
 20
86.7184901931
 10
-296.984481221
 20
82.2782492581
 10
-298.231859719
 20
77.6932426009
 10
-299.2612046591
 20
72.986459806
 10
-300.0673548247
 20
68.181501053
 10
-300.6462681153
 20
63.3024587835
 10
-300.9950418142
 20
58.3737968999
 10
-301.1119271424
 20
53.420228101
 10
-300.9963380279
 20
48.4665899709
 10
-300.6488540434
 20
43.5377204414
 10
-300.0712175011
 20
38.6583332526
 10
-299.2663247162
 20
33.852894036
 10
-298.2382114843
 20
29.1454976425
 10
-296.9920328462
 20
24.5597473284
 10
-295.5631233077
 20
20.2
  0
LWPOLYLINE
  5
1B8
330
1F
100
AcDbEntity
  8
0
  6
PHANTOM
 62
     8
370
     0
100
AcDbPolyline
 90
        9
 70
   128
 43
0.0
 10
-241.7800883134
 20
-100.7582321024
 10
-240.2953552225
 20
-100.9471812601
 10
-238.8214334764
 20
-101.5067675228
 10
-237.4149650613
 20
-102.4154863044
 10
-236.1299997697
 20
-103.6384160518
 10
-235.0159180969
 20
-105.1285602604
 10
-234.115533577
 20
-106.8286535241
 10
-233.4634474821
 20
-108.6733622122
 10
-233.0847191152
 20
-110.5917952044
  0
LWPOLYLINE
  5
1BA
330
1F
100
AcDbEntity
  8
0
  6
PHANTOM
 62
     8
370
     0
100
AcDbPolyline
 90
        9
 70
   128
 43
0.0
 10
-240.7322376557
 20
102.4267994761
 10
-239.2455586175
 20
102.6151821191
 10
-237.765873811
 20
103.1730906088
 10
-236.3500466937
 20
104.0790848348
 10
-235.0524867075
 20
105.2983479471
 10
-233.9230583552
 20
106.7840243481
 10
-233.0051649348
 20
108.4790203269
 10
-232.3340805758
 20
110.3181981384
 10
-231.9355946737
 20
112.230879211
  0
LWPOLYLINE
  5
1BF
330
1F
100
AcDbEntity
  8
0
  6
PHANTOM
 62
     8
370
     0
100
AcDbPolyline
 90
        3
 70
   128
 43
0.0
 10
-249.2720541792
 20
-100.7582321024
 10
-250.7105411549
 20
-100.9471812601
 10
-250.7327139843
 20
-100.9532116256
  0
LWPOLYLINE
  5
1C0
330
1F
100
AcDbEntity
  8
0
  6
PHANTOM
 62
     8
370
     0
100
AcDbPolyline
 90
        3
 70
   128
 43
0.0
 10
-249.7967343305
 20
102.6537675797
 10
-249.6607445499
 20
102.6151821191
 10
-248.2242035216
 20
102.4267994761
  0
SPLINE
  5
1C2
330
1F
100
AcDbEntity
  8
0
  6
PHANTOM
 62
     8
370
     0
100
AcDbSpline
210
0.0
220
0.0
230
1.0
 70
     8
 71
     3
 72
    10
 73
     6
 74
     0
 42
0.000000001
 43
0.00000001
 40
0.0
 40
0.0
 40
0.0
 40
0.0
 40
0.3373457492337983
 40
0.6866744444554936
 40
1.0
 40
1.0
 40
1.0
 40
1.0
 10
-257.360468569524
 20
-24.05453248437013
 30
0.0
 10
-257.4721845362162
 20
-23.53667825077599
 30
0.0
 10
-257.699584761473
 20
-22.48257494883775
 30
0.0
 10
-258.3882265200492
 20
-21.05414954369715
 30
0.0
 10
-258.958101791816
 20
-20.20262831256692
 30
0.0
 10
-259.2275582782279
 20
-19.7999999999992
 30
0.0
  0
SPLINE
  5
1C6
330
1F
100
AcDbEntity
  8
0
  6
PHANTOM
 62
     8
370
     0
100
AcDbSpline
210
0.0
220
0.0
230
1.0
 70
     8
 71
     3
 72
    11
 73
     7
 74
     0
 42
0.000000001
 43
0.00000001
 40
0.0
 40
0.0
 40
0.0
 40
0.0
 40
0.2742346993866302
 40
0.5308193356636959
 40
0.7926421361973457
 40
1.0
 40
1.0
 40
1.0
 40
1.0
 10
-260.2845620351298
 20
20.20000000000079
 30
0.0
 10
-259.9242721646374
 20
20.65413537891005
 30
0.0
 10
-259.2268810973185
 20
21.53317745736758
 30
0.0
 10
-258.1990867497168
 20
23.0688296621118
 30
0.0
 10
-257.4407626663095
 20
24.58566725485749
 30
0.0
 10
-257.2056224292966
 20
25.65131088061815
 30
0.0
 10
-257.1017004628831
 20
26.12227996056782
 30
0.0
  0
LWPOLYLINE
  5
1CA
330
1F
100
AcDbEntity
  8
0
  6
PHANTOM
 62
     8
370
     0
100
AcDbPolyline
 90
       11
 70
   128
 43
0.0
 10
-236.5678342921
 20
-79.4186988143
 10
-239.5749316595
 20
-74.8289345201
 10
-242.3985094071
 20
-69.9807354275
 10
-245.0288418106
 20
-64.8908010051
 10
-247.456868773
 20
-59.5766633718
 10
-249.6742270318
 20
-54.0566269068
 10
-251.6732789666
 20
-48.3497052017
 10
-253.447138906
 20
-42.4755555684
 10
-254.9896968455
 20
-36.4544113299
 10
-256.2956394927
 20
-30.3070121277
 10
-257.3604685695
 20
-24.0545324844
  0
LWPOLYLINE
  5
1CB
330
1F
100
AcDbEntity
  8
0
  6
PHANTOM
 62
     8
370
     0
100
AcDbPolyline
 90
       11
 70
   128
 43
0.0
 10
-257.1017004629
 20
26.1222799606
 10
-255.9725147543
 20
32.3489681891
 10
-254.6033284682
 20
38.4649203107
 10
-252.9988577237
 20
44.4490701212
 10
-251.1646290695
 20
50.2808054053
 10
-249.1069604485
 20
55.9400389347
 10
-246.8329394353
 20
61.4072776582
 10
-244.3503988236
 20
66.6636898442
 10
-241.6678896461
 20
71.6911699469
 10
-238.7946517212
 20
76.4724009696
 10
-235.7405818263
 20
80.9909141128
  0
LWPOLYLINE
  5
1D3
330
1F
100
AcDbEntity
  8
0
  6
PHANTOM
 62
     8
370
     0
100
AcDbPolyline
 90
       10
 70
   128
 43
0.0
 10
-241.7800883134
 20
-100.7582321024
 10
-240.3832207765
 20
-100.173758189
 10
-239.0752777618
 20
-99.230429264
 10
-237.8963500409
 20
-97.957160031
 10
-236.8825738382
 20
-96.3929784486
 10
-236.0650231909
 20
-94.5858294549
 10
-235.4687574756
 20
-92.5911053695
 10
-235.1120532932
 20
-90.4699480212
 10
-235.0058442592
 20
-88.2873746422
 10
-235.1533858686
 20
-86.1102849751
  0
LWPOLYLINE
  5
1D5
330
1F
100
AcDbEntity
  8
0
  6
PHANTOM
 62
     8
370
     0
100
AcDbPolyline
 90
       13
 70
   128
 43
0.0
 10
-221.1566547146
 20
-84.2254903752
 10
-220.9147322498
 20
-87.1589102756
 10
-220.9296121751
 20
-90.114896599
 10
-221.2010376487
 20
-93.0424261903
 10
-221.7243236072
 20
-95.8909670851
 10
-222.4904376335
 20
-98.6113507395
 10
-223.4861558661
 20
-101.1566207263
 10
-224.6942912544
 20
-103.4828432479
 10
-226.0939902248
 20
-105.5498654757
 10
-227.6610926324
 20
-107.3220086265
 10
-229.368548789
 20
-108.7686838124
 10
-231.1868863659
 20
-109.864920034
 10
-233.0847191152
 20
-110.5917952044
  0
LWPOLYLINE
  5
1D6
330
1F
100
AcDbEntity
  8
0
  6
PHANTOM
 62
     8
370
     0
100
AcDbPolyline
 90
       13
 70
   128
 43
0.0
 10
-218.0049990254
 20
-123.9737962275
 10
-218.5075671571
 20
-121.1167643398
 10
-218.7577163195
 20
-118.1849176759
 10
-218.7511286987
 20
-115.2288627172
 10
-218.4879180031
 20
-112.2996238032
 10
-217.9726275016
 20
-109.447762403
 10
-217.2141516016
 20
-106.7225043756
 10
-216.2255823237
 20
-104.1708902845
 10
-215.0239833202
 20
-101.8369634326
 10
-213.6300953408
 20
-99.7610096326
 10
-212.067978227
 20
-97.9788618353
 10
-210.3645956161
 20
-96.5212816185
 10
-208.5493495233
 20
-95.4134282125
  0
LWPOLYLINE
  5
1D8
330
1F
100
AcDbEntity
  8
0
  6
PHANTOM
 62
     8
370
     0
100
AcDbPolyline
 90
       10
 70
   128
 43
0.0
 10
-234.2574120718
 20
87.6248392831
 10
-234.0874346633
 20
89.7981964025
 10
-234.1711205766
 20
91.9830020633
 10
-234.5059046901
 20
94.1122880996
 10
-235.0815252773
 20
96.1207881202
 10
-235.8803385469
 20
97.9469380398
 10
-236.8778594565
 20
99.5347631264
 10
-238.0435122221
 20
100.8355937269
 10
-239.3415675204
 20
101.8095570778
 10
-240.7322376557
 20
102.4267994761
  0
LWPOLYLINE
  5
1D9
330
1F
100
AcDbEntity
  8
0
  6
PHANTOM
 62
     8
370
     0
100
AcDbPolyline
 90
       13
 70
   128
 43
0.0
 10
-231.9355946737
 20
112.230879211
 10
-230.0454887363
 20
111.4594754903
 10
-228.2386777848
 20
110.3206243739
 10
-226.5463491065
 20
108.8339835228
 10
-224.9977139151
 20
107.0252137816
 10
-223.6195031373
 20
104.9255362486
 10
-222.435506011
 20
102.5711933687
 10
-221.4661594605
 20
100.0028233549
 10
-220.7281953355
 20
97.2647587333
 10
-220.2343516038
 20
94.4042611216
 10
-219.993152481
 20
91.470705448
 10
-220.0087612949
 20
88.514727693
 10
-220.2809086226
 20
85.5873508636
  0
LWPOLYLINE
  5
1DB
330
1F
100
AcDbEntity
  8
0
  6
PHANTOM
 62
     8
370
     0
100
AcDbPolyline
 90
       11
 70
   128
 43
0.0
 10
-231.8673831875
 20
112.2100943828
 10
-229.9880766502
 20
111.8436447866
 10
-228.0933666452
 20
111.8857734471
 10
-226.2220226882
 20
112.3356183286
 10
-224.412336179
 20
113.1839747147
 10
-222.7013368844
 20
114.4134835553
 10
-221.1240352351
 20
115.9989866667
 10
-219.7127059439
 20
117.9080415183
 10
-218.4962276004
 20
120.1015850706
 10
-217.4994917584
 20
122.5347330823
 10
-216.7428936054
 20
125.157698531
  0
LWPOLYLINE
  5
1DD
330
1F
100
AcDbEntity
  8
0
  6
PHANTOM
 62
     8
370
     0
100
AcDbPolyline
 90
       13
 70
   128
 43
0.0
 10
-207.5597437464
 20
96.4775436352
 10
-209.3633437732
 20
97.6279378489
 10
-211.0514869294
 20
99.1253866429
 10
-212.5950342472
 20
100.9440426169
 10
-213.9673426217
 20
103.052514027
 10
-215.144724696
 20
105.4144066374
 10
-216.106857728
 20
107.9889519196
 10
-216.8371343801
 20
110.7317107564
 10
-217.3229493779
 20
113.5953405035
 10
-217.5559170892
 20
116.530412169
 10
-217.5320162683
 20
119.486263605
 10
-217.2516594662
 20
122.4118739848
 10
-216.7196859098
 20
125.2567444715
  0
LWPOLYLINE
  5
1DE
330
1F
100
AcDbEntity
  8
0
  6
PHANTOM
 62
     8
370
     0
100
AcDbPolyline
 90
        8
 70
   128
 43
0.0
 10
-230.4810585652
 20
128.4845120538
 10
-230.9730509578
 20
126.8589784689
 10
-231.6488391829
 20
125.3916284194
 10
-232.4868378046
 20
124.1293307157
 10
-233.4602802046
 20
123.1124045659
 10
-234.5380735381
 20
122.3733317349
 10
-235.6857918741
 20
121.9357190397
 10
-236.7221071197
 20
121.8113286001
  0
LWPOLYLINE
  5
1E0
330
1F
100
AcDbEntity
  8
0
  6
PHANTOM
 62
     8
370
     0
100
AcDbPolyline
 90
       14
 70
   128
 43
0.0
 10
-245.0635332597
 20
-79.4186988143
 10
-244.1368268063
 20
-80.99860463
 10
-243.3993678809
 20
-82.7913642294
 10
-242.8721765402
 20
-84.7458779416
 10
-242.5702795085
 20
-86.8064355598
 10
-242.5022818652
 20
-88.91430427
 10
-242.6701217717
 20
-91.0094027328
 10
-243.0690152268
 20
-93.0320136039
 10
-243.687592427
 20
-94.924485679
 10
-244.5082218441
 20
-96.6328771465
 10
-245.507512783
 20
-98.1084931105
 10
-246.656982095
 20
-99.309273559
 10
-247.9238660432
 20
-100.2009922154
 10
-249.2720541792
 20
-100.7582321024
  0
SPLINE
  5
1E1
330
1F
100
AcDbEntity
  8
0
  6
PHANTOM
 62
     8
370
     0
100
AcDbSpline
210
0.0
220
0.0
230
1.0
 70
     8
 71
     3
 72
    16
 73
    12
 74
     0
 42
0.000000001
 43
0.00000001
 40
0.0
 40
0.0
 40
0.0
 40
0.0
 40
0.2500000000000011
 40
0.2500000000000011
 40
0.5000000000000021
 40
0.5000000000000021
 40
0.7500000000000031
 40
0.7500000000000031
 40
0.8750000000000016
 40
0.8750000000000016
 40
1.0
 40
1.0
 40
1.0
 40
1.0
 10
-235.1533858686132
 20
-86.11028497512925
 30
0.0
 10
-235.2363722118946
 20
-85.45745187534115
 30
0.0
 10
-235.2791108399216
 20
-84.83444267348708
 30
0.0
 10
-235.3659752502378
 20
-83.62807202022636
 30
0.0
 10
-235.4094288790028
 20
-83.04390938212302
 30
0.0
 10
-235.5600355712965
 20
-81.93186164124658
 30
0.0
 10
-235.6669978968208
 20
-81.39952968992445
 30
0.0
 10
-235.9247084227599
 20
-80.62805664364073
 30
0.0
 10
-236.0275469368125
 20
-80.37438966821317
 30
0.0
 10
-236.2696008314549
 20
-79.88440786598247
 30
0.0
 10
-236.4088915945837
 20
-79.64746047349257
 30
0.0
 10
-236.567834292117
 20
-79.4186988143176
 30
0.0
  0
LWPOLYLINE
  5
1E2
330
1F
100
AcDbEntity
  8
0
  6
PHANTOM
 62
     8
370
     0
100
AcDbPolyline
 90
       14
 70
   128
 43
0.0
 10
-248.2242035216
 20
102.4267994761
 10
-246.8819260036
 20
101.8379322199
 10
-245.6243925048
 20
100.9165381494
 10
-244.4874469544
 20
99.6888800907
 10
-243.5034961199
 20
98.1899504228
 10
-242.7005859056
 20
96.4624736765
 10
-242.1016019496
 20
94.5556887421
 10
-241.723617307
 20
92.5239453959
 10
-241.5774058099
 20
90.4251551485
 10
-241.6671349771
 20
88.3191405725
 10
-241.9902472259
 20
86.2659301579
 10
-242.5375327717
 20
84.3240472992
 10
-243.2933921381
 20
82.548842181
 10
-244.2362807939
 20
80.9909141128
  0
SPLINE
  5
1E3
330
1F
100
AcDbEntity
  8
0
  6
PHANTOM
 62
     8
370
     0
100
AcDbSpline
210
0.0
220
0.0
230
1.0
 70
     8
 71
     3
 72
    16
 73
    12
 74
     0
 42
0.000000001
 43
0.00000001
 40
0.0
 40
0.0
 40
0.0
 40
0.0
 40
0.1250000000000005
 40
0.1250000000000005
 40
0.2500000000000009
 40
0.2500000000000009
 40
0.5000000000000007
 40
0.5000000000000007
 40
0.7500000000000003
 40
0.7500000000000003
 40
1.0
 40
1.0
 40
1.0
 40
1.0
 10
-235.7405818262681
 20
80.99091411275619
 30
0.0
 10
-235.5793227820244
 20
81.21587828330708
 30
0.0
 10
-235.4376497817573
 20
81.44915243606782
 30
0.0
 10
-235.1906678476165
 20
81.93201638367607
 30
0.0
 10
-235.0851913766255
 20
82.18241324577558
 30
0.0
 10
-234.8194398745911
 20
82.94492038908608
 30
0.0
 10
-234.7070249483505
 20
83.47188680595467
 30
0.0
 10
-234.5450163607496
 20
84.57421679445812
 30
0.0
 10
-234.4955628746318
 20
85.15409643227378
 30
0.0
 10
-234.3962650904394
 20
86.35387084901787
 30
0.0
 10
-234.3471017687758
 20
86.97417891347379
 30
0.0
 10
-234.2574120717517
 20
87.6248392830811
 30
0.0
  0
LWPOLYLINE
  5
1E6
330
1F
100
AcDbEntity
  8
0
  6
PHANTOM
 62
     8
370
     0
100
AcDbPolyline
 90
       21
 70
   128
 43
0.0
 10
-187.8051321384
 20
-174.7967968795
 10
-188.2016162108
 20
-174.794695657
 10
-191.5448335907
 20
-174.5730562566
 10
-194.8687538419
 20
-173.9879161873
 10
-198.1560609372
 20
-173.0423237476
 10
-201.3896295867
 20
-171.7412050195
 10
-204.5526144518
 20
-170.0913382064
 10
-207.6285379015
 20
-168.1013183214
 10
-210.6013758529
 20
-165.7815124116
 10
-213.4556412493
 20
-163.1440055509
 10
-216.1764647395
 20
-160.2025378824
 10
-218.749672141
 20
-156.9724330391
 10
-221.1618582798
 20
-153.4705183145
 10
-223.4004568256
 20
-149.7150370015
 10
-225.4538057558
 20
-145.7255533527
 10
-227.3112081093
 20
-141.5228506605
 10
-228.9629877126
 20
-137.1288229861
 10
-230.4005395878
 20
-132.5663611017
 10
-231.6163747806
 20
-127.8592332411
 10
-232.6041593739
 20
-123.0319612781
 10
-233.2930943447
 20
-118.6115419655
  0
LWPOLYLINE
  5
1E7
330
1F
100
AcDbEntity
  8
0
  6
PHANTOM
 62
     8
370
     0
100
AcDbPolyline
 90
       33
 70
   128
 43
0.0
 10
-218.0049990254
 20
-123.9737962275
 10
-216.9108153236
 20
-128.3099348093
 10
-215.5979581746
 20
-132.5054445155
 10
-214.0742796052
 20
-136.5352325521
 10
-212.3488925372
 20
-140.3751972846
 10
-210.4321162847
 20
-144.0023723869
 10
-208.3354148354
 20
-147.3950641997
 10
-206.0713282861
 20
-150.5329814778
 10
-203.653397842
 20
-153.3973567488
 10
-201.0960848282
 20
-155.9710585594
 10
-198.414684199
 20
-158.2386939362
 10
-195.6252330604
 20
-160.1867004491
 10
-192.7444147542
 20
-161.8034273261
 10
-189.7894590774
 20
-163.0792051355
 10
-186.778039233
 20
-164.0064036175
 10
-183.7281661285
 20
-164.5794773194
 10
-180.6580806555
 20
-164.7949987623
 10
-177.5861445932
 20
-164.6516789407
 10
-174.5307307888
 20
-164.1503750318
 10
-171.5101132721
 20
-163.2940852686
 10
-168.5423579608
 20
-162.0879310079
 10
-165.6452146107
 20
-160.5391261005
 10
-162.8360106567
 20
-158.6569337456
 10
-160.1315475798
 20
-156.4526110892
 10
-157.5480004194
 20
-153.9393418963
 10
-155.1008210327
 20
-151.1321577009
 10
-152.804645679
 20
-148.0478479039
 10
-150.6732074825
 20
-144.7048593583
 10
-148.7192542958
 20
-141.1231860407
 10
-146.9544724569
 20
-137.3242494701
 10
-145.389416895
 20
-133.3307705886
 10
-144.0334480024
 20
-129.1666338703
 10
-142.8946756513
 20
-124.8567444715
  0
LWPOLYLINE
  5
1E9
330
1F
100
AcDbEntity
  8
0
  6
PHANTOM
 62
     8
370
     0
100
AcDbPolyline
 90
       21
 70
   128
 43
0.0
 10
-240.4614426174
 20
-120.8487772697
 10
-240.0961252398
 20
-123.0319612781
 10
-239.1083406464
 20
-127.8592332411
 10
-237.8925054537
 20
-132.5663611017
 10
-236.4549535784
 20
-137.1288229861
 10
-234.8031739751
 20
-141.5228506605
 10
-232.9457716216
 20
-145.7255533527
 10
-230.8924226915
 20
-149.7150370015
 10
-228.6538241457
 20
-153.4705183145
 10
-226.2416380068
 20
-156.9724330391
 10
-223.6684306054
 20
-160.2025378824
 10
-220.9476071151
 20
-163.1440055509
 10
-218.0933417188
 20
-165.7815124116
 10
-215.1205037673
 20
-168.1013183214
 10
-212.0445803176
 20
-170.0913382064
 10
-208.8815954525
 20
-171.7412050195
 10
-205.6480268031
 20
-173.0423237476
 10
-202.3607197077
 20
-173.9879161873
 10
-199.0367994566
 20
-174.5730562566
 10
-195.6935820766
 20
-174.794695657
 10
-195.3325942509
 20
-174.7968173942
  0
LWPOLYLINE
  5
1EA
330
1F
100
AcDbEntity
  8
0
  6
PHANTOM
 62
     8
370
     0
100
AcDbPolyline
 90
       18
 70
   128
 43
0.0
 10
-230.4810585652
 20
128.4845120538
 10
-229.2483321303
 20
133.2070248406
 10
-227.7921742
 20
137.7822496947
 10
-226.1202417864
 20
142.1861284076
 10
-224.2413265224
 20
146.3955037717
 10
-222.1653084331
 20
150.388241349
 10
-219.9031039819
 20
154.1433458627
 10
-217.4666086688
 20
157.6410715974
 10
-214.8686344787
 20
160.8630262298
 10
-212.1228425118
 20
163.792267542
 10
-209.2436711481
 20
166.41339251
 10
-206.2462601256
 20
168.7126182985
 10
-203.1463709294
 20
170.6778547359
 10
-199.9603039128
 20
172.2987678891
 10
-196.7048125833
 20
173.5668344028
 10
-193.397015507
 20
174.4753863187
 10
-190.0543062929
 20
175.019646138
 10
-186.7656990068
 20
175.1968163433
  0
LWPOLYLINE
  5
1EC
330
1F
100
AcDbEntity
  8
0
  6
PHANTOM
 62
     8
370
     0
100
AcDbPolyline
 90
       33
 70
   128
 43
0.0
 10
-141.6093625358
 20
124.3737962275
 10
-142.7035462376
 20
128.7099348093
 10
-144.0164033865
 20
132.9054445155
 10
-145.540081956
 20
136.9352325521
 10
-147.265469024
 20
140.7751972846
 10
-149.1822452765
 20
144.4023723869
 10
-151.2789467257
 20
147.7950641997
 10
-153.543033275
 20
150.9329814778
 10
-155.9609637192
 20
153.7973567488
 10
-158.5182767329
 20
156.3710585594
 10
-161.1996773621
 20
158.6386939362
 10
-163.9891285008
 20
160.5867004491
 10
-166.869946807
 20
162.2034273261
 10
-169.8249024837
 20
163.4792051355
 10
-172.8363223282
 20
164.4064036175
 10
-175.8861954327
 20
164.9794773194
 10
-178.9562809056
 20
165.1949987623
 10
-182.0282169679
 20
165.0516789407
 10
-185.0836307723
 20
164.5503750318
 10
-188.104248289
 20
163.6940852686
 10
-191.0720036004
 20
162.4879310079
 10
-193.9691469505
 20
160.9391261005
 10
-196.7783509044
 20
159.0569337456
 10
-199.4828139813
 20
156.8526110892
 10
-202.0663611417
 20
154.3393418963
 10
-204.5135405285
 20
151.5321577009
 10
-206.8097158821
 20
148.4478479039
 10
-208.9411540786
 20
145.1048593583
 10
-210.8951072654
 20
141.5231860407
 10
-212.6598891042
 20
137.7242494701
 10
-214.2249446661
 20
133.7307705886
 10
-215.5809135588
 20
129.5666338703
 10
-216.7196859098
 20
125.2567444715
  0
LWPOLYLINE
  5
1ED
330
1F
100
AcDbEntity
  8
0
  6
PHANTOM
 62
     8
370
     0
100
AcDbPolyline
 90
        6
 70
   128
 43
0.0
 10
-237.973024431
 20
128.4845120538
 10
-239.3146155002
 20
128.4205882648
 10
-240.3646120487
 20
128.2312734532
 10
-241.0826632979
 20
127.923842881
 10
-241.4411749412
 20
127.5101109327
 10
-241.4625767585
 20
127.4411367688
  0
LWPOLYLINE
  5
1EE
330
1F
100
AcDbEntity
  8
0
  6
PHANTOM
 62
     8
370
     0
100
AcDbPolyline
 90
        5
 70
   128
 43
0.0
 10
-215.737179899
 20
-121.7951397222
 10
-215.7808329961
 20
-122.1981031276
 10
-216.1735482854
 20
-122.7506775471
 10
-216.9245572462
 20
-123.3502557315
 10
-218.0049990254
 20
-123.9737962275
  0
LWPOLYLINE
  5
1EF
330
1F
100
AcDbEntity
  8
0
  6
PHANTOM
 62
     8
370
     0
100
AcDbPolyline
 90
        8
 70
   128
 43
0.0
 10
-211.5811811283
 20
-104.3636894038
 10
-211.2585582115
 20
-104.1878204837
 10
-210.1549123483
 20
-103.3101726291
 10
-209.2774776529
 20
-102.129057315
 10
-208.6599734484
 20
-100.6898641407
 10
-208.3261300752
 20
-99.0479004928
 10
-208.288776947
 20
-97.2662661134
 10
-208.5493495233
 20
-95.4134282125
  0
LWPOLYLINE
  5
1F0
330
1F
100
AcDbEntity
  8
0
  6
PHANTOM
 62
     8
370
     0
100
AcDbPolyline
 90
       16
 70
   128
 43
0.0
 10
-187.8719629705
 20
-154.7967950134
 10
-186.6853029499
 20
-154.7663827099
 10
-183.8678372879
 20
-154.4357482847
 10
-181.0792995224
 20
-153.7436677596
 10
-178.3399944035
 20
-152.695180522
 10
-175.669868194
 20
-151.2979211365
 10
-173.0883634299
 20
-149.5620637536
 10
-170.6142773499
 20
-147.5002480267
 10
-168.2656250229
 20
-145.1274870764
 10
-166.0595081715
 20
-142.4610581723
 10
-164.0119906455
 20
-139.5203769285
 10
-162.137981453
 20
-136.3268559287
 10
-160.4511262005
 20
-132.9037488107
 10
-158.9637077322
 20
-129.2759809443
 10
-157.6865566922
 20
-125.4699679377
 10
-156.6289726618
 20
-121.5134232919
  0
LWPOLYLINE
  5
1F2
330
1F
100
AcDbEntity
  8
0
  6
PHANTOM
 62
     8
370
     0
100
AcDbPolyline
 90
        8
 70
   128
 43
0.0
 10
-207.5597437464
 20
96.4775436352
 10
-207.2801107394
 20
98.3206467224
 10
-207.2991359187
 20
100.0929203915
 10
-207.6160881574
 20
101.7262571594
 10
-208.2187871586
 20
103.1578888101
 10
-209.0840715378
 20
104.3327985421
 10
-210.1786889015
 20
105.2058352333
 10
-210.4056779547
 20
105.3327314237
  0
LWPOLYLINE
  5
1F3
330
1F
100
AcDbEntity
  8
0
  6
PHANTOM
 62
     8
370
     0
100
AcDbPolyline
 90
        5
 70
   128
 43
0.0
 10
-214.4760872131
 20
122.9723083944
 10
-214.5142564532
 20
123.3992947447
 10
-214.9011411455
 20
123.977310847
 10
-215.64582354
 20
124.6044948659
 10
-216.7196859098
 20
125.2567444715
  0
LWPOLYLINE
  5
1F4
330
1F
100
AcDbEntity
  8
0
  6
PHANTOM
 62
     8
370
     0
100
AcDbPolyline
 90
       18
 70
   128
 43
0.0
 10
-194.4271139167
 20
175.1963045142
 10
-197.5462721587
 20
175.019646138
 10
-200.8889813729
 20
174.4753863187
 10
-204.1967784491
 20
173.5668344028
 10
-207.4522697786
 20
172.2987678891
 10
-210.6383367953
 20
170.6778547359
 10
-213.7382259914
 20
168.7126182985
 10
-216.735637014
 20
166.41339251
 10
-219.6148083777
 20
163.792267542
 10
-222.3606003446
 20
160.8630262298
 10
-224.9585745347
 20
157.6410715974
 10
-227.3950698478
 20
154.1433458627
 10
-229.6572742989
 20
150.388241349
 10
-231.7332923883
 20
146.3955037717
 10
-233.6122076522
 20
142.1861284076
 10
-235.2841400659
 20
137.7822496947
 10
-236.7402979961
 20
133.2070248406
 10
-237.973024431
 20
128.4845120538
  0
LWPOLYLINE
  5
1F5
330
1F
100
AcDbEntity
  8
0
  6
PHANTOM
 62
     8
370
     0
100
AcDbPolyline
 90
       16
 70
   128
 43
0.0
 10
-155.377384486
 20
121.1776330886
 10
-156.3940339758
 20
125.1585610783
 10
-157.6317763817
 20
128.994137541
 10
-159.0815990767
 20
132.6564337094
 10
-160.7329451703
 20
136.1187825572
 10
-162.5737903785
 20
139.3559729758
 10
-164.5907305786
 20
142.3444333484
 10
-166.7690794113
 20
145.0624031873
 10
-169.0929752197
 20
147.4900915828
 10
-171.5454965461
 20
149.6098213109
 10
-174.1087853453
 20
151.4061575499
 10
-176.7641770182
 20
152.8660202694
 10
-179.4923363185
 20
153.9787794724
 10
-182.2733981417
 20
154.7363325978
 10
-185.0871121737
 20
155.133163519
 10
-186.7263303223
 20
155.1967950134
  0
SPLINE
  5
1F7
330
1F
100
AcDbEntity
  8
0
  6
PHANTOM
 62
     8
370
     0
100
AcDbSpline
210
0.0
220
0.0
230
1.0
 70
     8
 71
     3
 72
    10
 73
     6
 74
     0
 42
0.000000001
 43
0.00000001
 40
0.0
 40
0.0
 40
0.0
 40
0.0
 40
0.3715950940100533
 40
0.8435400863371362
 40
0.9999999999999999
 40
0.9999999999999999
 40
0.9999999999999999
 40
0.9999999999999999
 10
-207.9153002879417
 20
-104.8454465971245
 30
0.0
 10
-208.2346932945123
 20
-104.7220987136922
 30
0.0
 10
-208.9597319419028
 20
-104.4420926374086
 30
0.0
 10
-210.0014531461339
 20
-104.2707276780804
 30
0.0
 10
-210.6682434463732
 20
-104.3026871590524
 30
0.0
 10
-210.834260534738
 20
-104.3106444133416
 30
0.0
  0
SPLINE
  5
1F9
330
1F
100
AcDbEntity
  8
0
  6
PHANTOM
 62
     8
370
     0
100
AcDbSpline
210
0.0
220
0.0
230
1.0
 70
     8
 71
     3
 72
    10
 73
     6
 74
     0
 42
0.000000001
 43
0.00000001
 40
0.0
 40
0.0
 40
0.0
 40
0.0
 40
0.2676586677378719
 40
0.7849001123117605
 40
1.0
 40
1.0
 40
1.0
 40
1.0
 10
-209.5916718056741
 20
105.2657214770291
 30
0.0
 10
-209.3220782561835
 20
105.2602103572458
 30
0.0
 10
-208.5315041676924
 20
105.2440491823679
 30
0.0
 10
-207.5839116303655
 20
105.4414093359884
 30
0.0
 10
-207.0006056370244
 20
105.6729667955623
 30
0.0
 10
-206.8292797154517
 20
105.740978774886
 30
0.0
  0
LWPOLYLINE
  5
1FC
330
1F
100
AcDbEntity
  8
0
  6
PHANTOM
 62
     8
370
     0
100
AcDbPolyline
 90
       15
 70
   128
 43
0.0
 10
-164.1209385277
 20
-121.5134232919
 10
-165.1785225581
 20
-125.4699679377
 10
-166.455673598
 20
-129.2759809443
 10
-167.9430920664
 20
-132.9037488107
 10
-169.6299473189
 20
-136.3268559287
 10
-171.5039565113
 20
-139.5203769285
 10
-173.5514740373
 20
-142.4610581723
 10
-175.7575908888
 20
-145.1274870764
 10
-178.1062432158
 20
-147.5002480267
 10
-180.5803292958
 20
-149.5620637536
 10
-183.1618340599
 20
-151.2979211365
 10
-185.8319602694
 20
-152.695180522
 10
-188.5712653882
 20
-153.7436677596
 10
-191.3598031538
 20
-154.4357482847
 10
-191.6509902908
 20
-154.4868970184
  0
LWPOLYLINE
  5
1FF
330
1F
100
AcDbEntity
  8
0
  6
PHANTOM
 62
     8
370
     0
100
AcDbPolyline
 90
       15
 70
   128
 43
0.0
 10
-190.2742257224
 20
154.8352712564
 10
-189.7653640076
 20
154.7363325978
 10
-186.9843021843
 20
153.9787794724
 10
-184.2561428841
 20
152.8660202694
 10
-181.6007512111
 20
151.4061575499
 10
-179.037462412
 20
149.6098213109
 10
-176.5849410856
 20
147.4900915828
 10
-174.2610452771
 20
145.0624031873
 10
-172.0826964444
 20
142.3444333484
 10
-170.0657562444
 20
139.3559729758
 10
-168.2249110362
 20
136.1187825572
 10
-166.5735649426
 20
132.6564337094
 10
-165.1237422475
 20
128.994137541
 10
-163.8859998417
 20
125.1585610783
 10
-162.8693503518
 20
121.1776330886
  0
LWPOLYLINE
  5
203
330
1F
100
AcDbEntity
  8
0
  6
PHANTOM
 62
     8
370
     0
100
AcDbPolyline
 90
        6
 70
   128
 43
0.0
 10
-164.1209385277
 20
-121.5134232919
 10
-165.4626039184
 20
-121.5776642709
 10
-166.5128205754
 20
-121.7679184631
 10
-167.2312292616
 20
-122.0768745065
 10
-167.590221934
 20
-122.4926593937
 10
-167.6127611287
 20
-122.5663075534
  0
LWPOLYLINE
  5
205
330
1F
100
AcDbEntity
  8
0
  6
PHANTOM
 62
     8
370
     0
100
AcDbPolyline
 90
        6
 70
   128
 43
0.0
 10
-166.3527216227
 20
122.1935262021
 10
-166.328755952
 20
122.1137675982
 10
-165.9739574086
 20
121.7162837015
 10
-165.2586652414
 20
121.4209265209
 10
-164.2103677273
 20
121.2390464671
 10
-162.8693503518
 20
121.1776330886
  0
SPLINE
  5
207
330
1F
100
AcDbEntity
  8
0
  6
PHANTOM
 62
     8
370
     0
100
AcDbSpline
210
0.0
220
0.0
230
1.0
 70
     8
 71
     3
 72
    10
 73
     6
 74
     0
 42
0.000000001
 43
0.00000001
 40
0.0
 40
0.0
 40
0.0
 40
0.0
 40
0.4715410336641003
 40
0.9620105733584955
 40
1.0
 40
1.0
 40
1.0
 40
1.0
 10
-161.7178294193043
 20
-105.524978382884
 30
0.0
 10
-162.0397123416491
 20
-105.3686069012206
 30
0.0
 10
-162.6963991463438
 20
-105.0495869050965
 30
0.0
 10
-163.2072158722495
 20
-104.8581999517766
 30
0.0
 10
-163.4910542177686
 20
-104.8628762641777
 30
0.0
 10
-163.5114585569738
 20
-104.863212431105
 30
0.0
  0
LWPOLYLINE
  5
20A
330
1F
100
AcDbEntity
  8
0
  6
PHANTOM
 62
     8
370
     0
100
AcDbPolyline
 90
       10
 70
   128
 43
0.0
 10
-167.8583140756
 20
-106.4451000144
 10
-167.5298470288
 20
-106.7399229262
 10
-166.4119976918
 20
-108.0069243018
 10
-165.4512547318
 20
-109.5397864151
 10
-164.6750025504
 20
-111.2948175466
 10
-164.1053669427
 20
-113.2219934132
 10
-163.7585844369
 20
-115.2663830288
 10
-163.6445394995
 20
-117.3697144216
 10
-163.7664827943
 20
-119.4720355811
 10
-164.1209385277
 20
-121.5134232919
  0
LWPOLYLINE
  5
20B
330
1F
100
AcDbEntity
  8
0
  6
PHANTOM
 62
     8
370
     0
100
AcDbPolyline
 90
       10
 70
   128
 43
0.0
 10
-156.6289726618
 20
-121.5134232919
 10
-156.2657989361
 20
-119.394769826
 10
-156.1529302708
 20
-117.212958444
 10
-156.2938262907
 20
-115.034865532
 10
-156.684168283
 20
-112.9272534981
 10
-157.3119915737
 20
-110.9547243868
 10
-158.1580522664
 20
-109.1777397117
 10
-159.196417101
 20
-107.6507672024
 10
-160.3952583551
 20
-106.4206112729
 10
-161.7178294193
 20
-105.5249783829
  0
LWPOLYLINE
  5
20C
330
1F
100
AcDbEntity
  8
0
  6
PHANTOM
 62
     8
370
     0
100
AcDbPolyline
 90
       10
 70
   128
 43
0.0
 10
-162.8693503518
 20
121.1776330886
 10
-162.5359917006
 20
119.128159878
 10
-162.4357457429
 20
117.0232268057
 10
-162.5714698252
 20
114.9228315355
 10
-162.9392953554
 20
112.8868423885
 10
-163.52873807
 20
110.9732918948
 10
-164.3229968717
 20
109.2367226718
 10
-165.2994327164
 20
107.726632776
 10
-166.4302139025
 20
106.4860648424
 10
-166.5044617461
 20
106.4190750752
  0
LWPOLYLINE
  5
20D
330
1F
100
AcDbEntity
  8
0
  6
PHANTOM
 62
     8
370
     0
100
AcDbPolyline
 90
       10
 70
   128
 43
0.0
 10
-160.6305230982
 20
105.3107619692
 10
-159.2988751609
 20
106.1751935822
 10
-158.0874918874
 20
107.3770164754
 10
-157.0335043222
 20
108.879392647
 10
-156.1692190522
 20
110.6362716044
 10
-155.5211279528
 20
112.5938018936
 10
-155.109096165
 20
114.6919817418
 10
-154.9457531933
 20
116.8664982176
 10
-155.0361057894
 20
119.0506985369
 10
-155.377384486
 20
121.1776330886
  0
LWPOLYLINE
  5
215
330
1F
100
AcDbEntity
  8
0
  6
PHANTOM
 62
     8
370
     0
100
AcDbPolyline
 90
       11
 70
   128
 43
0.0
 10
-127.6787668874
 20
-111.830879211
 10
-124.6444228723
 20
-112.5682937517
 10
-121.5814082536
 20
-112.9494764119
 10
-118.5080425205
 20
-112.9721473879
 10
-115.4427070711
 20
-112.6361710877
 10
-112.4037352751
 20
-111.9435569414
 10
-109.4093028248
 20
-110.8984473836
 10
-106.4773190284
 20
-109.5070930777
 10
-103.6253196972
 20
-107.7778155315
 10
-100.8703622655
 20
-105.7209573275
 10
-99.7888595286
 20
-104.8
  0
LWPOLYLINE
  5
21A
330
1F
100
AcDbEntity
  8
0
  6
PHANTOM
 62
     8
370
     0
100
AcDbPolyline
 90
        3
 70
   128
 43
0.0
 10
-139.7163522496
 20
-122.6173075783
 10
-136.8498560036
 20
-122.9402477126
 10
-134.8346359223
 20
-123.0064008013
  0
LWPOLYLINE
  5
21B
330
1F
100
AcDbEntity
  8
0
  6
PHANTOM
 62
     8
370
     0
100
AcDbPolyline
 90
        3
 70
   128
 43
0.0
 10
-134.2931541837
 20
121.9904165928
 10
-135.5868584493
 20
121.9631610725
 10
-138.4064217623
 20
121.7144027309
  0
LWPOLYLINE
  5
21D
330
1F
100
AcDbEntity
  8
0
  6
PHANTOM
 62
     8
370
     0
100
AcDbPolyline
 90
       30
 70
   128
 43
0.0
 10
134.3444485203
 20
-121.5903737539
 10
132.1622987027
 20
-121.5164496948
 10
128.8115707907
 20
-121.0994662057
 10
125.4896670524
 20
-120.316978668
 10
122.2140552748
 20
-119.173101688
 10
119.0019598245
 20
-117.6738501898
 10
115.8702710764
 20
-115.8271077872
 10
112.8354565971
 20
-113.6425853282
 10
109.9134745531
 20
-111.1317698323
 10
107.1196897964
 20
-108.3078640872
 10
104.4687930709
 20
-105.185717224
 10
101.9747237627
 20
-101.7817466346
 10
99.6505966019
 20
-98.1138516435
 10
97.5086327008
 20
-94.2013193864
 10
95.5600952901
 20
-90.0647233913
 10
93.8152304935
 20
-85.7258153955
 10
92.2832134493
 20
-81.2074109667
 10
90.9721000645
 20
-76.5332695309
 10
89.8887846535
 20
-71.7279694362
 10
89.0389636857
 20
-66.816778711
 10
88.4271058311
 20
-61.8255221953
 10
88.0564284624
 20
-56.7804457446
 10
87.928880737
 20
-51.7080782192
 10
88.0451333476
 20
-46.6350919858
 10
88.4045749954
 20
-41.5881626647
 10
89.0053156045
 20
-36.5938288592
 10
89.8441962608
 20
-31.6783526062
 10
90.9168058223
 20
-26.8675812807
 10
92.217504115
 20
-22.1868116809
 10
92.9859663711
 20
-19.8
  0
LWPOLYLINE
  5
21E
330
1F
100
AcDbEntity
  8
0
  6
PHANTOM
 62
     8
370
     0
100
AcDbPolyline
 90
       31
 70
   128
 43
0.0
 10
149.0055400435
 20
-110.5917952044
 10
145.9639584959
 20
-111.2577851051
 10
142.8973838629
 20
-111.5669122897
 10
139.8241569256
 20
-111.5173279091
 10
136.762658252
 20
-111.1093285208
 10
133.7311982645
 20
-110.3453543159
 10
130.7479077284
 20
-109.2299745239
 10
127.8306293136
 20
-107.7698600853
 10
124.9968108801
 20
-105.9737437534
 10
122.263401125
 20
-103.8523678646
 10
119.6467482138
 20
-101.4184200903
 10
117.162502005
 20
-98.6864575534
 10
114.8255204498
 20
-95.6728197639
 10
112.6497807287
 20
-92.3955308948
 10
110.648295656
 20
-88.8741919816
 10
108.8330358519
 20
-85.129863691
 10
107.2148581474
 20
-81.1849403602
 10
105.8034406515
 20
-77.0630160589
 10
104.6072248674
 20
-72.7887434765
 10
103.6333652049
 20
-68.3876864774
 10
102.8876861912
 20
-63.8861672073
 10
102.3746476347
 20
-59.3111086631
 10
102.097317952
 20
-54.6898736709
 10
102.0573558154
 20
-50.0501012319
 10
102.2550002334
 20
-45.4195412173
 10
102.6890691204
 20
-40.8258884001
 10
103.3569663675
 20
-36.2966168161
 10
104.2546973685
 20
-31.8588154455
 10
105.3768929121
 20
-27.539026197
 10
106.7168412935
 20
-23.3630851642
 10
108.0809964452
 20
-19.8
  0
LWPOLYLINE
  5
21F
330
1F
100
AcDbEntity
  8
0
  6
PHANTOM
 62
     8
370
     0
100
AcDbPolyline
 90
       31
 70
   128
 43
0.0
 10
94.0191017169
 20
20.2
 10
92.5901921783
 20
24.5597473284
 10
91.3440135403
 20
29.1454976425
 10
90.3159003084
 20
33.852894036
 10
89.5110075234
 20
38.6583332526
 10
88.9333709811
 20
43.5377204414
 10
88.5858869967
 20
48.4665899709
 10
88.4702978821
 20
53.420228101
 10
88.5871832104
 20
58.3737968999
 10
88.9359569092
 20
63.3024587835
 10
89.5148701999
 20
68.181501053
 10
90.3210203654
 20
72.986459806
 10
91.3503653055
 20
77.6932426009
 10
92.5977438035
 20
82.2782492581
 10
94.0569014054
 20
86.7184901931
 10
95.72052178
 20
90.991701688
 10
97.5802634037
 20
95.0764575238
 10
99.6268013856
 20
98.9522764131
 10
101.849874223
 20
102.5997246947
 10
104.2383352536
 20
106.0005137756
 10
106.7802085457
 20
109.1375918314
 10
109.4627489463
 20
111.9952293057
 10
112.2725059867
 20
114.5590977792
 10
115.1953913237
 20
116.8163418133
 10
118.2167493799
 20
118.7556434087
 10
121.3214308282
 20
120.3672787544
 10
124.4938685512
 20
121.6431669839
 10
127.7181556963
 20
122.5769106931
 10
130.9781254338
 20
123.1638280175
 10
134.2574320186
 20
123.4009761073
 10
134.8010698438
 20
123.406382457
  0
LWPOLYLINE
  5
220
330
1F
100
AcDbEntity
  8
0
  6
PHANTOM
 62
     8
370
     0
100
AcDbPolyline
 90
        8
 70
   128
 43
0.0
 10
145.6587940833
 20
121.7718669374
 10
146.8138290015
 20
121.2646825388
 10
147.9874753328
 20
120.3590084335
 10
148.9591148103
 20
119.1401761312
 10
149.6914078738
 20
117.6550246737
 10
150.1562129116
 20
115.9606275987
 10
150.3356677267
 20
114.1220996355
 10
150.2228759712
 20
112.2100943828
  0
LWPOLYLINE
  5
222
330
1F
100
AcDbEntity
  8
0
  6
PHANTOM
 62
     8
370
     0
100
AcDbPolyline
 90
       32
 70
   128
 43
0.0
 10
109.2268734595
 20
20.2
 10
108.4796199773
 20
21.9638582989
 10
106.971448602
 20
26.0069215611
 10
105.6747317672
 20
30.2138575199
 10
104.5972249665
 20
34.5595050424
 10
103.7453726269
 20
39.01787338
 10
103.1242695657
 20
43.5622976156
 10
102.737630519
 20
48.1655981429
 10
102.5877679242
 20
52.8002432246
 10
102.67557809
 20
57.4385136553
 10
103.0005358351
 20
62.0526685471
 10
103.56069763
 20
66.615111244
 10
104.3527132202
 20
71.0985543738
 10
105.3718456643
 20
75.4761830503
 10
106.6119996646
 20
79.7218152498
 10
108.0657580224
 20
83.8100584021
 10
109.7244259994
 20
87.7164612605
 10
111.5780833198
 20
91.4176601411
 10
113.6156435017
 20
94.8915186581
 10
115.8249201648
 20
98.1172601188
 10
118.1926999145
 20
101.0755917859
 10
120.7048213704
 20
103.7488202653
 10
123.346259863
 20
106.1209573275
 10
126.1012172948
 20
108.1778155315
 10
128.953216626
 20
109.9070930777
 10
131.8852004223
 20
111.2984473836
 10
134.8796328726
 20
112.3435569414
 10
137.9186046686
 20
113.0361710877
 10
140.9839401181
 20
113.3721473879
 10
144.0573058511
 20
113.3494764119
 10
147.1203204698
 20
112.9682937517
 10
150.154664485
 20
112.230879211
  0
LWPOLYLINE
  5
223
330
1F
100
AcDbEntity
  8
0
  6
PHANTOM
 62
     8
370
     0
100
AcDbPolyline
 90
       30
 70
   128
 43
0.0
 10
85.4940005053
 20
-19.8
 10
84.7255382492
 20
-22.1868116809
 10
83.4248399564
 20
-26.8675812807
 10
82.3522303949
 20
-31.6783526062
 10
81.5133497387
 20
-36.5938288592
 10
80.9126091296
 20
-41.5881626647
 10
80.5531674817
 20
-46.6350919858
 10
80.4369148711
 20
-51.7080782192
 10
80.5644625965
 20
-56.7804457446
 10
80.9351399652
 20
-61.8255221953
 10
81.5469978199
 20
-66.816778711
 10
82.3968187877
 20
-71.7279694362
 10
83.4801341986
 20
-76.5332695309
 10
84.7912475835
 20
-81.2074109667
 10
86.3232646276
 20
-85.7258153955
 10
88.0681294242
 20
-90.0647233913
 10
90.0166668349
 20
-94.2013193864
 10
92.1586307361
 20
-98.1138516435
 10
94.4827578968
 20
-101.7817466346
 10
96.976827205
 20
-105.185717224
 10
99.6277239306
 20
-108.3078640872
 10
102.4215086873
 20
-111.1317698323
 10
105.3434907313
 20
-113.6425853282
 10
108.3783052106
 20
-115.8271077872
 10
111.5099939587
 20
-117.6738501898
 10
114.7220894089
 20
-119.173101688
 10
117.9977011866
 20
-120.316978668
 10
121.3196049248
 20
-121.0994662057
 10
124.6703328368
 20
-121.5164496948
 10
126.8011883178
 20
-121.5904165928
  0
LWPOLYLINE
  5
224
330
1F
100
AcDbEntity
  8
0
  6
PHANTOM
 62
     8
370
     0
100
AcDbPolyline
 90
       31
 70
   128
 43
0.0
 10
127.3426700564
 20
123.4064008013
 10
126.7654661528
 20
123.4009761073
 10
123.486159568
 20
123.1638280175
 10
120.2261898305
 20
122.5769106931
 10
117.0019026854
 20
121.6431669839
 10
113.8294649624
 20
120.3672787544
 10
110.7247835141
 20
118.7556434087
 10
107.7034254578
 20
116.8163418133
 10
104.7805401208
 20
114.5590977792
 10
101.9707830805
 20
111.9952293057
 10
99.2882426798
 20
109.1375918314
 10
96.7463693878
 20
106.0005137756
 10
94.3579083571
 20
102.5997246947
 10
92.1348355198
 20
98.9522764131
 10
90.0882975379
 20
95.0764575238
 10
88.2285559141
 20
90.991701688
 10
86.5649355395
 20
86.7184901931
 10
85.1057779377
 20
82.2782492581
 10
83.8583994397
 20
77.6932426009
 10
82.8290544996
 20
72.986459806
 10
82.022904334
 20
68.181501053
 10
81.4439910434
 20
63.3024587835
 10
81.0952173445
 20
58.3737968999
 10
80.9783320163
 20
53.420228101
 10
81.0939211308
 20
48.4665899709
 10
81.4414051153
 20
43.5377204414
 10
82.0190416576
 20
38.6583332526
 10
82.8239344426
 20
33.852894036
 10
83.8520476744
 20
29.1454976425
 10
85.0982263125
 20
24.5597473284
 10
86.527135851
 20
20.2
  0
LWPOLYLINE
  5
225
330
1F
100
AcDbEntity
  8
0
  6
PHANTOM
 62
     8
370
     0
100
AcDbPolyline
 90
        9
 70
   128
 43
0.0
 10
149.0055400435
 20
-110.5917952044
 10
148.6268116766
 20
-108.6733622122
 10
147.9747255817
 20
-106.8286535241
 10
147.0743410618
 20
-105.1285602604
 10
145.960259389
 20
-103.6384160518
 10
144.6752940974
 20
-102.4154863044
 10
143.2688256823
 20
-101.5067675228
 10
141.7949039362
 20
-100.9471812601
 10
140.3101708453
 20
-100.7582321024
  0
LWPOLYLINE
  5
227
330
1F
100
AcDbEntity
  8
0
  6
PHANTOM
 62
     8
370
     0
100
AcDbPolyline
 90
        9
 70
   128
 43
0.0
 10
141.358021503
 20
102.4267994761
 10
142.8447005412
 20
102.6151821191
 10
144.3243853477
 20
103.1730906088
 10
145.7402124651
 20
104.0790848348
 10
147.0377724512
 20
105.2983479471
 10
148.1672008036
 20
106.7840243481
 10
149.0850942239
 20
108.4790203269
 10
149.7561785829
 20
110.3181981384
 10
150.154664485
 20
112.230879211
  0
LWPOLYLINE
  5
233
330
1F
100
AcDbEntity
  8
0
  6
PHANTOM
 62
     8
370
     0
100
AcDbPolyline
 90
        3
 70
   128
 43
0.0
 10
132.8182049795
 20
-100.7582321024
 10
131.3797180038
 20
-100.9471812601
 10
131.3575451744
 20
-100.9532116256
  0
LWPOLYLINE
  5
234
330
1F
100
AcDbEntity
  8
0
  6
PHANTOM
 62
     8
370
     0
100
AcDbPolyline
 90
        3
 70
   128
 43
0.0
 10
133.8660556371
 20
102.4267994761
 10
132.4295146088
 20
102.6151821191
 10
132.2901528892
 20
102.6547734289
  0
SPLINE
  5
236
330
1F
100
AcDbEntity
  8
0
  6
PHANTOM
 62
     8
370
     0
100
AcDbSpline
210
0.0
220
0.0
230
1.0
 70
     8
 71
     3
 72
    11
 73
     7
 74
     0
 42
0.000000001
 43
0.00000001
 40
0.0
 40
0.0
 40
0.0
 40
0.0
 40
0.0558627690692616
 40
0.4408867551276633
 40
0.835779859911011
 40
1.0
 40
1.0
 40
1.0
 40
1.0
 10
114.6238387372556
 20
-19.79999999999891
 30
0.0
 10
114.6434326311754
 20
-19.86869937310774
 30
0.0
 10
114.7980738789079
 20
-20.41089669332485
 30
0.0
 10
114.9032902886697
 20
-21.5576104761131
 30
0.0
 10
115.070730780367
 20
-22.93941188099604
 30
0.0
 10
115.1941178453812
 20
-23.80136393787516
 30
0.0
 10
115.2303585198557
 20
-24.05453248437061
 30
0.0
  0
SPLINE
  5
237
330
1F
100
AcDbEntity
  8
0
  6
PHANTOM
 62
     8
370
     0
100
AcDbSpline
210
0.0
220
0.0
230
1.0
 70
     8
 71
     3
 72
    11
 73
     7
 74
     0
 42
0.000000001
 43
0.00000001
 40
0.0
 40
0.0
 40
0.0
 40
0.0
 40
0.2073566223583403
 40
0.46339555255314
 40
0.7257669424469217
 40
1.0
 40
1.0
 40
1.0
 40
1.0
 10
115.489126626494
 20
26.12227996056837
 30
0.0
 10
115.4192089500348
 20
25.65130234941354
 30
0.0
 10
115.2629586217475
 20
24.59877300224812
 30
0.0
 10
115.0699988766033
 20
23.0804715396414
 30
0.0
 10
114.8597246834965
 20
21.54286595487764
 30
0.0
 10
114.3794959527016
 20
20.65417020601512
 30
0.0
 10
114.1340738474668
 20
20.20000000000109
 30
0.0
  0
LWPOLYLINE
  5
23A
330
1F
100
AcDbEntity
  8
0
  6
PHANTOM
 62
     8
370
     0
100
AcDbPolyline
 90
       11
 70
   128
 43
0.0
 10
115.2303585199
 20
-24.0545324844
 10
116.2951875967
 20
-30.3070121277
 10
117.6011302439
 20
-36.4544113299
 10
119.1436881833
 20
-42.4755555684
 10
120.9175481227
 20
-48.3497052017
 10
122.9166000576
 20
-54.0566269068
 10
125.1339583164
 20
-59.5766633717
 10
127.5619852787
 20
-64.8908010051
 10
130.1923176822
 20
-69.9807354275
 10
133.0158954299
 20
-74.8289345201
 10
136.0229927973
 20
-79.4186988143
  0
LWPOLYLINE
  5
23B
330
1F
100
AcDbEntity
  8
0
  6
PHANTOM
 62
     8
370
     0
100
AcDbPolyline
 90
       11
 70
   128
 43
0.0
 10
136.8502452631
 20
80.9909141128
 10
133.7961753682
 20
76.4724009696
 10
130.9229374433
 20
71.6911699469
 10
128.2404282658
 20
66.6636898442
 10
125.7578876541
 20
61.4072776582
 10
123.4838666408
 20
55.9400389347
 10
121.4261980198
 20
50.2808054053
 10
119.5919693657
 20
44.4490701212
 10
117.9874986211
 20
38.4649203107
 10
116.6183123351
 20
32.3489681891
 10
115.4891266265
 20
26.1222799606
  0
LWPOLYLINE
  5
23D
330
1F
100
AcDbEntity
  8
0
  6
PHANTOM
 62
     8
370
     0
100
AcDbPolyline
 90
        8
 70
   128
 43
0.0
 10
111.8015532894
 20
-23.3335158328
 10
111.8249634436
 20
-23.4087153853
 10
112.004571059
 20
-23.5988853825
 10
112.3499130462
 20
-23.7591241938
 10
112.8550805081
 20
-23.8866900888
 10
113.5114298894
 20
-23.9794003795
 10
114.3077308702
 20
-24.0356687673
 10
115.2303585199
 20
-24.0545324844
  0
LWPOLYLINE
  5
23E
330
1F
100
AcDbEntity
  8
0
  6
PHANTOM
 62
     8
370
     0
100
AcDbPolyline
 90
        8
 70
   128
 43
0.0
 10
112.0542630663
 20
25.3609311062
 10
112.0768414208
 20
25.4320563227
 10
112.2584779325
 20
25.6353024546
 10
112.6055294844
 20
25.806559325
 10
113.1120579285
 20
25.9428966816
 10
113.7693964225
 20
26.0419817542
 10
114.5662977225
 20
26.1021191698
 10
115.4891266265
 20
26.1222799606
  0
LWPOLYLINE
  5
23F
330
1F
100
AcDbEntity
  8
0
  6
PHANTOM
 62
     8
370
     0
100
AcDbPolyline
 90
       11
 70
   128
 43
0.0
 10
161.1349639513
 20
-90.5773579627
 10
160.8304440714
 20
-93.4505673392
 10
160.2828763262
 20
-96.2404176446
 10
159.5014184384
 20
-98.9002504036
 10
158.4991397951
 20
-101.385581602
 10
157.2928028705
 20
-103.6548456534
 10
155.9025828835
 20
-105.670090557
 10
154.3517303811
 20
-107.3976126214
 10
152.6661823866
 20
-108.8085201367
 10
150.8741286202
 20
-109.8792165704
 10
149.0055400435
 20
-110.5917952044
  0
LWPOLYLINE
  5
240
330
1F
100
AcDbEntity
  8
0
  6
PHANTOM
 62
     8
370
     0
100
AcDbPolyline
 90
       14
 70
   128
 43
0.0
 10
140.3101708453
 20
-100.7582321024
 10
141.6583589814
 20
-100.2009922154
 10
142.9252429296
 20
-99.309273559
 10
144.0747122416
 20
-98.1084931105
 10
145.0740031805
 20
-96.6328771465
 10
145.8946325976
 20
-94.924485679
 10
146.5132097978
 20
-93.0320136039
 10
146.9121032529
 20
-91.0094027328
 10
147.0799431594
 20
-88.91430427
 10
147.0119455161
 20
-86.8064355598
 10
146.7100484843
 20
-84.7458779416
 10
146.1828571437
 20
-82.7913642294
 10
145.4453982182
 20
-80.99860463
 10
144.5186917649
 20
-79.4186988143
  0
LWPOLYLINE
  5
242
330
1F
100
AcDbEntity
  8
0
  6
PHANTOM
 62
     8
370
     0
100
AcDbPolyline
 90
       14
 70
   128
 43
0.0
 10
145.3459442307
 20
80.9909141128
 10
146.2888328865
 20
82.548842181
 10
147.0446922528
 20
84.3240472992
 10
147.5919777987
 20
86.2659301579
 10
147.9150900475
 20
88.3191405725
 10
148.0048192146
 20
90.4251551485
 10
147.8586077175
 20
92.5239453959
 10
147.480623075
 20
94.5556887421
 10
146.881639119
 20
96.4624736765
 10
146.0787289046
 20
98.1899504228
 10
145.0947780701
 20
99.6888800907
 10
143.9578325197
 20
100.9165381494
 10
142.700299021
 20
101.8379322199
 10
141.358021503
 20
102.4267994761
  0
LWPOLYLINE
  5
243
330
1F
100
AcDbEntity
  8
0
  6
PHANTOM
 62
     8
370
     0
100
AcDbPolyline
 90
       11
 70
   128
 43
0.0
 10
150.154664485
 20
112.230879211
 10
152.0156772445
 20
111.4744578028
 10
153.7964709799
 20
110.3617612912
 10
155.4672630467
 20
108.9113988192
 10
157.0001105082
 20
107.1476267782
 10
158.3693774637
 20
105.0999431359
 10
159.5521637927
 20
102.8025941012
 10
160.5286881448
 20
100.2940013782
 10
161.28261877
 20
97.6161195877
 10
161.8013466575
 20
94.8137346025
 10
162.0761964124
 20
91.9337145324
  0
LWPOLYLINE
  5
245
330
1F
100
AcDbEntity
  8
0
  6
PHANTOM
 62
     8
370
     0
100
AcDbPolyline
 90
       11
 70
   128
 43
0.0
 10
164.0852601333
 20
-123.9737962275
 10
163.5886445874
 20
-121.1622950803
 10
163.3365014918
 20
-118.2775434562
 10
163.3330477798
 20
-115.3677869949
 10
163.5783412125
 20
-112.4816895257
 10
164.0682794129
 20
-109.6675191966
 10
164.7946684758
 20
-106.9723412198
 10
165.7453600051
 20
-104.4412307359
 10
166.9044542887
 20
-102.1165189609
 10
168.2525662104
 20
-100.0370852232
 10
169.7671494543
 20
-98.2377067321
  0
LWPOLYLINE
  5
247
330
1F
100
AcDbEntity
  8
0
  6
PHANTOM
 62
     8
370
     0
100
AcDbPolyline
 90
       11
 70
   128
 43
0.0
 10
150.2228759712
 20
112.2100943828
 10
152.1021825085
 20
111.8436447866
 10
153.9968925135
 20
111.8857734471
 10
155.8682364705
 20
112.3356183286
 10
157.6779229797
 20
113.1839747147
 10
159.3889222743
 20
114.4134835553
 10
160.9662239236
 20
115.9989866667
 10
162.3775532148
 20
117.9080415183
 10
163.5940315583
 20
120.1015850706
 10
164.5907674003
 20
122.5347330823
 10
165.3473655533
 20
125.157698531
  0
LWPOLYLINE
  5
249
330
1F
100
AcDbEntity
  8
0
  6
PHANTOM
 62
     8
370
     0
100
AcDbPolyline
 90
       11
 70
   128
 43
0.0
 10
170.7863413133
 20
99.390198114
 10
169.2904998134
 20
101.2249652058
 10
167.9639978375
 20
103.3358399696
 10
166.8290202889
 20
105.6875193652
 10
165.9045489467
 20
108.2406730475
 10
165.2060450071
 20
110.9526011423
 10
164.7451905051
 20
113.7779483736
 10
164.5296929396
 20
116.6694626029
 10
164.5631563706
 20
119.5787850903
 10
164.8450211435
 20
122.4572592642
 10
165.3705732489
 20
125.2567444715
  0
LWPOLYLINE
  5
24A
330
1F
100
AcDbEntity
  8
0
  6
PHANTOM
 62
     8
370
     0
100
AcDbPolyline
 90
        8
 70
   128
 43
0.0
 10
145.3656093797
 20
121.8113263517
 10
146.4044672846
 20
121.9357190397
 10
147.5521856206
 20
122.3733317349
 10
148.6299789541
 20
123.1124045659
 10
149.6034213541
 20
124.1293307157
 10
150.4414199758
 20
125.3916284194
 10
151.1172082009
 20
126.8589784689
 10
151.6092005936
 20
128.4845120538
  0
LWPOLYLINE
  5
24C
330
1F
100
AcDbEntity
  8
0
  6
PHANTOM
 62
     8
370
     0
100
AcDbPolyline
 90
       10
 70
   128
 43
0.0
 10
139.4449074242
 20
-86.1102849751
 10
139.5924490337
 20
-88.2873746422
 10
139.4862399997
 20
-90.4699480212
 10
139.1295358173
 20
-92.5911053695
 10
138.5332701019
 20
-94.5858294549
 10
137.7157194547
 20
-96.3929784486
 10
136.7019432519
 20
-97.957160031
 10
135.5230155311
 20
-99.230429264
 10
134.2150725164
 20
-100.173758189
 10
132.8182049795
 20
-100.7582321024
  0
SPLINE
  5
24D
330
1F
100
AcDbEntity
  8
0
  6
PHANTOM
 62
     8
370
     0
100
AcDbSpline
210
0.0
220
0.0
230
1.0
 70
     8
 71
     3
 72
    16
 73
    12
 74
     0
 42
0.000000001
 43
0.00000001
 40
0.0
 40
0.0
 40
0.0
 40
0.0
 40
0.1249999999999987
 40
0.1249999999999987
 40
0.2499999999999974
 40
0.2499999999999974
 40
0.4999999999999983
 40
0.4999999999999983
 40
0.7499999999999992
 40
0.7499999999999992
 40
1.0
 40
1.0
 40
1.0
 40
1.0
 10
136.0229927972561
 20
-79.41869881431572
 30
0.0
 10
136.1819354947893
 20
-79.64746047349068
 30
0.0
 10
136.3466282706162
 20
-79.88440786598052
 30
0.0
 10
136.6855710790703
 20
-80.37438966821118
 30
0.0
 10
136.8602013318372
 20
-80.62805664363871
 30
0.0
 10
137.3820300663464
 20
-81.39952968992236
 30
0.0
 10
137.7305582238203
 20
-81.9318616412445
 30
0.0
 10
138.3822103171667
 20
-83.04390938212087
 30
0.0
 10
138.6872266958245
 20
-83.62807202022414
 30
0.0
 10
139.175826520584
 20
-84.83444267348482
 30
0.0
 10
139.3619210809586
 20
-85.45745187533883
 30
0.0
 10
139.4449074242398
 20
-86.11028497512687
 30
0.0
  0
SPLINE
  5
24E
330
1F
100
AcDbEntity
  8
0
  6
PHANTOM
 62
     8
370
     0
100
AcDbSpline
210
0.0
220
0.0
230
1.0
 70
     8
 71
     3
 72
    16
 73
    12
 74
     0
 42
0.000000001
 43
0.00000001
 40
0.0
 40
0.0
 40
0.0
 40
0.0
 40
0.250000000000001
 40
0.250000000000001
 40
0.500000000000002
 40
0.500000000000002
 40
0.750000000000003
 40
0.750000000000003
 40
0.8750000000000014
 40
0.8750000000000014
 40
1.0
 40
1.0
 40
1.0
 40
1.0
 10
140.3408812211034
 20
87.62483928308158
 30
0.0
 10
140.2511915240793
 20
86.97417891347426
 30
0.0
 10
140.0587044604163
 20
86.35387084901835
 30
0.0
 10
139.557554084873
 20
85.15409643227424
 30
0.0
 10
139.2465684505459
 20
84.5742167944586
 30
0.0
 10
138.5835835609193
 20
83.47188680595518
 30
0.0
 10
138.2295645639855
 20
82.94492038908656
 30
0.0
 10
137.699618741636
 20
82.182413245776
 30
0.0
 10
137.5223705127513
 20
81.93201638367651
 30
0.0
 10
137.178571165479
 20
81.44915243606832
 30
0.0
 10
137.0115043073529
 20
81.21587828330755
 30
0.0
 10
136.8502452631091
 20
80.99091411275666
 30
0.0
  0
LWPOLYLINE
  5
24F
330
1F
100
AcDbEntity
  8
0
  6
PHANTOM
 62
     8
370
     0
100
AcDbPolyline
 90
       10
 70
   128
 43
0.0
 10
133.8660556371
 20
102.4267994761
 10
135.2567257725
 20
101.8095570778
 10
136.5547810708
 20
100.8355937269
 10
137.7204338363
 20
99.5347631264
 10
138.7179547459
 20
97.9469380398
 10
139.5167680156
 20
96.1207881202
 10
140.0923886028
 20
94.1122880996
 10
140.4271727163
 20
91.9830020633
 10
140.5108586296
 20
89.7981964025
 10
140.3408812211
 20
87.6248392831
  0
LWPOLYLINE
  5
252
330
1F
100
AcDbEntity
  8
0
  6
PHANTOM
 62
     8
370
     0
100
AcDbPolyline
 90
       33
 70
   128
 43
0.0
 10
239.1955835074
 20
-124.8567444715
 10
238.0568111563
 20
-129.1666338703
 10
236.7008422637
 20
-133.3307705886
 10
235.1357867018
 20
-137.3242494701
 10
233.3710048629
 20
-141.1231860407
 10
231.4170516762
 20
-144.7048593583
 10
229.2856134797
 20
-148.0478479039
 10
226.989438126
 20
-151.1321577009
 10
224.5422587393
 20
-153.9393418963
 10
221.9587115789
 20
-156.4526110892
 10
219.254248502
 20
-158.6569337456
 10
216.445044548
 20
-160.5391261005
 10
213.5479011979
 20
-162.0879310079
 10
210.5801458866
 20
-163.2940852686
 10
207.5595283699
 20
-164.1503750318
 10
204.5041145655
 20
-164.6516789407
 10
201.4321785032
 20
-164.7949987623
 10
198.3620930303
 20
-164.5794773194
 10
195.3122199258
 20
-164.0064036175
 10
192.3008000813
 20
-163.0792051355
 10
189.3458444045
 20
-161.8034273261
 10
186.4650260984
 20
-160.186700449
 10
183.6755749597
 20
-158.2386939362
 10
180.9941743305
 20
-155.9710585594
 10
178.4368613167
 20
-153.3973567488
 10
176.0189308726
 20
-150.5329814778
 10
173.7548443233
 20
-147.3950641997
 10
171.658142874
 20
-144.0023723869
 10
169.7413666216
 20
-140.3751972846
 10
168.0159795535
 20
-136.5352325521
 10
166.4923009841
 20
-132.5054445155
 10
165.1794438351
 20
-128.3099348093
 10
164.0852601333
 20
-123.9737962275
  0
LWPOLYLINE
  5
254
330
1F
100
AcDbEntity
  8
0
  6
PHANTOM
 62
     8
370
     0
100
AcDbPolyline
 90
       21
 70
   128
 43
0.0
 10
194.2851270203
 20
-174.7967968795
 10
193.8886429479
 20
-174.794695657
 10
190.545425568
 20
-174.5730562566
 10
187.2215053168
 20
-173.9879161873
 10
183.9341982215
 20
-173.0423237476
 10
180.700629572
 20
-171.7412050195
 10
177.5376447069
 20
-170.0913382064
 10
174.4617212573
 20
-168.1013183214
 10
171.4888833058
 20
-165.7815124116
 10
168.6346179095
 20
-163.1440055509
 10
165.9137944192
 20
-160.2025378824
 10
163.3405870177
 20
-156.9724330391
 10
160.9284008789
 20
-153.4705183145
 10
158.6898023331
 20
-149.7150370015
 10
156.6364534029
 20
-145.7255533527
 10
154.7790510494
 20
-141.5228506605
 10
153.1272714461
 20
-137.1288229861
 10
151.6897195709
 20
-132.5663611017
 10
150.4738843781
 20
-127.8592332411
 10
149.4860997848
 20
-123.0319612781
 10
148.797164814
 20
-118.6115419655
  0
LWPOLYLINE
  5
255
330
1F
100
AcDbEntity
  8
0
  6
PHANTOM
 62
     8
370
     0
100
AcDbPolyline
 90
        6
 70
   128
 43
0.0
 10
139.4449074242
 20
-86.1102849751
 10
138.108284632
 20
-86.0740691754
 10
137.0730019862
 20
-85.9668135291
 10
136.3788448183
 20
-85.7926398105
 10
136.0524891989
 20
-85.558241418
 10
136.0295030944
 20
-85.4865354697
  0
LWPOLYLINE
  5
256
330
1F
100
AcDbEntity
  8
0
  6
PHANTOM
 62
     8
370
     0
100
AcDbPolyline
 90
        6
 70
   128
 43
0.0
 10
136.9189376062
 20
86.9517464995
 10
136.9425384382
 20
87.0280727416
 10
137.2714096322
 20
87.2814605698
 10
137.9674360407
 20
87.4697447121
 10
139.0038697592
 20
87.5856895144
 10
140.3408812211
 20
87.6248392831
  0
LWPOLYLINE
  5
257
330
1F
100
AcDbEntity
  8
0
  6
PHANTOM
 62
     8
370
     0
100
AcDbPolyline
 90
       21
 70
   128
 43
0.0
 10
141.6288165414
 20
-120.8487772697
 10
141.9941339189
 20
-123.0319612781
 10
142.9819185123
 20
-127.8592332411
 10
144.197753705
 20
-132.5663611017
 10
145.6353055803
 20
-137.1288229861
 10
147.2870851836
 20
-141.5228506605
 10
149.1444875371
 20
-145.7255533527
 10
151.1978364673
 20
-149.7150370015
 10
153.436435013
 20
-153.4705183145
 10
155.8486211519
 20
-156.9724330391
 10
158.4218285533
 20
-160.2025378824
 10
161.1426520436
 20
-163.1440055509
 10
163.9969174399
 20
-165.7815124116
 10
166.9697553914
 20
-168.1013183214
 10
170.0456788411
 20
-170.0913382064
 10
173.2086637062
 20
-171.7412050195
 10
176.4422323556
 20
-173.0423237476
 10
179.729539451
 20
-173.9879161873
 10
183.0534597021
 20
-174.5730562566
 10
186.3966770821
 20
-174.794695657
 10
186.7576649078
 20
-174.7968173942
  0
LWPOLYLINE
  5
259
330
1F
100
AcDbEntity
  8
0
  6
PHANTOM
 62
     8
370
     0
100
AcDbPolyline
 90
       33
 70
   128
 43
0.0
 10
165.3705732489
 20
125.2567444715
 10
166.5093455999
 20
129.5666338703
 10
167.8653144926
 20
133.7307705886
 10
169.4303700545
 20
137.7242494701
 10
171.1951518933
 20
141.5231860407
 10
173.1491050801
 20
145.1048593583
 10
175.2805432766
 20
148.4478479039
 10
177.5767186303
 20
151.5321577009
 10
180.023898017
 20
154.3393418963
 10
182.6074451774
 20
156.8526110892
 10
185.3119082543
 20
159.0569337456
 10
188.1211122082
 20
160.9391261005
 10
191.0182555583
 20
162.4879310079
 10
193.9860108697
 20
163.6940852686
 10
197.0066283864
 20
164.5503750318
 10
200.0620421908
 20
165.0516789407
 10
203.1339782531
 20
165.1949987623
 10
206.204063726
 20
164.9794773194
 10
209.2539368305
 20
164.4064036175
 10
212.265356675
 20
163.4792051355
 10
215.2203123517
 20
162.203427326
 10
218.1011306579
 20
160.586700449
 10
220.8905817966
 20
158.6386939362
 10
223.5719824258
 20
156.3710585594
 10
226.1292954395
 20
153.7973567488
 10
228.5472258837
 20
150.9329814778
 10
230.811312433
 20
147.7950641997
 10
232.9080138822
 20
144.4023723869
 10
234.8247901347
 20
140.7751972846
 10
236.5501772027
 20
136.9352325521
 10
238.0738557722
 20
132.9054445155
 10
239.3867129212
 20
128.7099348093
 10
240.480896623
 20
124.3737962275
  0
LWPOLYLINE
  5
25A
330
1F
100
AcDbEntity
  8
0
  6
PHANTOM
 62
     8
370
     0
100
AcDbPolyline
 90
       18
 70
   128
 43
0.0
 10
151.6092005936
 20
128.4845120538
 10
152.8419270285
 20
133.2070248406
 10
154.2980849587
 20
137.7822496947
 10
155.9700173723
 20
142.1861284076
 10
157.8489326363
 20
146.3955037717
 10
159.9249507257
 20
150.388241349
 10
162.1871551768
 20
154.1433458627
 10
164.6236504899
 20
157.6410715974
 10
167.22162468
 20
160.8630262298
 10
169.9674166469
 20
163.792267542
 10
172.8465880106
 20
166.41339251
 10
175.8439990331
 20
168.7126182985
 10
178.9438882293
 20
170.6778547359
 10
182.1299552459
 20
172.2987678891
 10
185.3854465754
 20
173.5668344028
 10
188.6932436517
 20
174.4753863187
 10
192.0359528659
 20
175.019646138
 10
195.3245601519
 20
175.1968163433
  0
LWPOLYLINE
  5
25B
330
1F
100
AcDbEntity
  8
0
  6
PHANTOM
 62
     8
370
     0
100
AcDbPolyline
 90
        6
 70
   128
 43
0.0
 10
140.6263254923
 20
127.4355524775
 10
140.6490842175
 20
127.5101109327
 10
141.0075958608
 20
127.923842881
 10
141.72564711
 20
128.2312734532
 10
142.7756436585
 20
128.4205882648
 10
144.1172347277
 20
128.4845120538
  0
LWPOLYLINE
  5
25C
330
1F
100
AcDbEntity
  8
0
  6
PHANTOM
 62
     8
370
     0
100
AcDbPolyline
 90
        3
 70
   128
 43
0.0
 10
173.171225769
 20
-104.8454465971
 10
171.8061384253
 20
-104.3915754756
 10
170.7113540291
 20
-104.2824300223
  0
LWPOLYLINE
  5
25D
330
1F
100
AcDbEntity
  8
0
  6
PHANTOM
 62
     8
370
     0
100
AcDbPolyline
 90
        5
 70
   128
 43
0.0
 10
166.3530792597
 20
-121.7951397222
 10
166.3094261626
 20
-122.1981031276
 10
165.9167108733
 20
-122.7506775471
 10
165.1657019125
 20
-123.3502557315
 10
164.0852601333
 20
-123.9737962275
  0
LWPOLYLINE
  5
25F
330
1F
100
AcDbEntity
  8
0
  6
PHANTOM
 62
     8
370
     0
100
AcDbPolyline
 90
       16
 70
   128
 43
0.0
 10
194.2182961882
 20
-154.7967950134
 10
195.4049562089
 20
-154.7663827099
 10
198.2224218708
 20
-154.4357482847
 10
201.0109596363
 20
-153.7436677596
 10
203.7502647552
 20
-152.695180522
 10
206.4203909647
 20
-151.2979211365
 10
209.0018957288
 20
-149.5620637536
 10
211.4759818088
 20
-147.5002480267
 10
213.8246341358
 20
-145.1274870764
 10
216.0307509872
 20
-142.4610581723
 10
218.0782685133
 20
-139.5203769285
 10
219.9522777057
 20
-136.3268559287
 10
221.6391329582
 20
-132.9037488107
 10
223.1265514266
 20
-129.2759809443
 10
224.4037024665
 20
-125.4699679377
 10
225.4612864969
 20
-121.5134232919
  0
LWPOLYLINE
  5
260
330
1F
100
AcDbEntity
  8
0
  6
PHANTOM
 62
     8
370
     0
100
AcDbPolyline
 90
        5
 70
   128
 43
0.0
 10
165.3705732489
 20
125.2567444715
 10
166.4444356187
 20
124.6044948659
 10
167.1891180132
 20
123.977310847
 10
167.5760027055
 20
123.3992947447
 10
167.6141701369
 20
122.9723005285
  0
LWPOLYLINE
  5
261
330
1F
100
AcDbEntity
  8
0
  6
PHANTOM
 62
     8
370
     0
100
AcDbPolyline
 90
        3
 70
   128
 43
0.0
 10
171.9381091372
 20
105.2342903496
 10
172.8876434447
 20
105.3192548981
 10
174.2572463415
 20
105.7409787749
  0
LWPOLYLINE
  5
262
330
1F
100
AcDbEntity
  8
0
  6
PHANTOM
 62
     8
370
     0
100
AcDbPolyline
 90
       18
 70
   128
 43
0.0
 10
187.663145242
 20
175.1963045142
 10
184.543987
 20
175.019646138
 10
181.2012777859
 20
174.4753863187
 10
177.8934807096
 20
173.5668344028
 10
174.6379893801
 20
172.2987678891
 10
171.4519223634
 20
170.6778547359
 10
168.3520331673
 20
168.7126182985
 10
165.3546221447
 20
166.41339251
 10
162.4754507811
 20
163.792267542
 10
159.7296588141
 20
160.8630262298
 10
157.1316846241
 20
157.6410715974
 10
154.6951893109
 20
154.1433458627
 10
152.4329848598
 20
150.388241349
 10
150.3569667704
 20
146.3955037717
 10
148.4780515065
 20
142.1861284076
 10
146.8061190928
 20
137.7822496947
 10
145.3499611626
 20
133.2070248406
 10
144.1172347277
 20
128.4845120538
  0
LWPOLYLINE
  5
264
330
1F
100
AcDbEntity
  8
0
  6
PHANTOM
 62
     8
370
     0
100
AcDbPolyline
 90
       16
 70
   128
 43
0.0
 10
226.7128746727
 20
121.1776330886
 10
225.6962251829
 20
125.1585610783
 10
224.458482777
 20
128.994137541
 10
223.008660082
 20
132.6564337094
 10
221.3573139884
 20
136.1187825572
 10
219.5164687802
 20
139.3559729758
 10
217.4995285801
 20
142.3444333484
 10
215.3211797474
 20
145.0624031873
 10
212.997283939
 20
147.4900915828
 10
210.5447626126
 20
149.6098213109
 10
207.9814738134
 20
151.4061575499
 10
205.3260821405
 20
152.8660202694
 10
202.5979228403
 20
153.9787794724
 10
199.816861017
 20
154.7363325978
 10
197.003146985
 20
155.133163519
 10
195.3639288364
 20
155.1967950134
  0
LWPOLYLINE
  5
266
330
1F
100
AcDbEntity
  8
0
  6
PHANTOM
 62
     8
370
     0
100
AcDbPolyline
 90
       15
 70
   128
 43
0.0
 10
217.969320631
 20
-121.5134232919
 10
216.9117366006
 20
-125.4699679377
 10
215.6345855607
 20
-129.2759809443
 10
214.1471670923
 20
-132.9037488107
 10
212.4603118399
 20
-136.3268559287
 10
210.5863026474
 20
-139.5203769285
 10
208.5387851214
 20
-142.4610581723
 10
206.33266827
 20
-145.1274870764
 10
203.9840159429
 20
-147.5002480267
 10
201.5099298629
 20
-149.5620637536
 10
198.9284250988
 20
-151.2979211365
 10
196.2582988893
 20
-152.695180522
 10
193.5189937705
 20
-153.7436677596
 10
190.7304560049
 20
-154.4357482847
 10
190.4392688679
 20
-154.4868970184
  0
LWPOLYLINE
  5
26A
330
1F
100
AcDbEntity
  8
0
  6
PHANTOM
 62
     8
370
     0
100
AcDbPolyline
 90
       15
 70
   128
 43
0.0
 10
191.8160334363
 20
154.8352712564
 10
192.3248951512
 20
154.7363325978
 10
195.1059569744
 20
153.9787794724
 10
197.8341162746
 20
152.8660202694
 10
200.4895079476
 20
151.4061575499
 10
203.0527967467
 20
149.6098213109
 10
205.5053180731
 20
147.4900915828
 10
207.8292138816
 20
145.0624031873
 10
210.0075627143
 20
142.3444333484
 10
212.0245029143
 20
139.3559729758
 10
213.8653481225
 20
136.1187825572
 10
215.5166942161
 20
132.6564337094
 10
216.9665169112
 20
128.994137541
 10
218.2042593171
 20
125.1585610783
 10
219.2209088069
 20
121.1776330886
  0
LWPOLYLINE
  5
26B
330
1F
100
AcDbEntity
  8
0
  6
PHANTOM
 62
     8
370
     0
100
AcDbPolyline
 90
        6
 70
   128
 43
0.0
 10
217.969320631
 20
-121.5134232919
 10
216.6276552403
 20
-121.5776642709
 10
215.5774385833
 20
-121.7679184631
 10
214.8590298971
 20
-122.0768745065
 10
214.5000372247
 20
-122.4926593937
 10
214.4774980301
 20
-122.5663075534
  0
LWPOLYLINE
  5
26C
330
1F
100
AcDbEntity
  8
0
  6
PHANTOM
 62
     8
370
     0
100
AcDbPolyline
 90
        6
 70
   128
 43
0.0
 10
219.2209088069
 20
121.1776330886
 10
217.8798914314
 20
121.2390464671
 10
216.8315939173
 20
121.4209265209
 10
216.1163017501
 20
121.7162837015
 10
215.7615032067
 20
122.1137675982
 10
215.7377875307
 20
122.1924111944
  0
LWPOLYLINE
  5
275
330
1F
100
AcDbEntity
  8
0
  6
PHANTOM
 62
     8
370
     0
100
AcDbPolyline
 90
        8
 70
   128
 43
0.0
 10
254.4114922713
 20
-111.830879211
 10
252.5504795118
 20
-111.0744578028
 10
250.7696857764
 20
-109.9617612912
 10
249.0988937096
 20
-108.5113988192
 10
247.5660462481
 20
-106.7476267782
 10
246.1967792926
 20
-104.6999431359
 10
245.0139929636
 20
-102.4025941012
 10
244.5679887248
 20
-101.347951023
  0
LWPOLYLINE
  5
278
330
1F
100
AcDbEntity
  8
0
  6
PHANTOM
 62
     8
370
     0
100
AcDbPolyline
 90
        8
 70
   128
 43
0.0
 10
245.8129329035
 20
101.2205512012
 10
246.0670169611
 20
101.785581602
 10
247.2733538858
 20
104.0548456534
 10
248.6635738728
 20
106.070090557
 10
250.2144263752
 20
107.7976126214
 10
251.8999743697
 20
109.2085201367
 10
253.6920281361
 20
110.2792165704
 10
255.5606167127
 20
110.9917952044
  0
LWPOLYLINE
  5
279
330
1F
100
AcDbEntity
  8
0
  6
PHANTOM
 62
     8
370
     0
100
AcDbPolyline
 90
       26
 70
   128
 43
0.0
 10
301.7633174657
 20
-46.7433917723
 10
301.8285262373
 20
-47.7655981429
 10
301.9783888321
 20
-52.4002432246
 10
301.8905786663
 20
-57.0385136553
 10
301.5656209212
 20
-61.6526685471
 10
301.0054591263
 20
-66.215111244
 10
300.2134435361
 20
-70.6985543738
 10
299.194311092
 20
-75.0761830503
 10
297.9541570917
 20
-79.3218152498
 10
296.5003987339
 20
-83.4100584021
 10
294.8417307569
 20
-87.3164612605
 10
292.9880734365
 20
-91.0176601411
 10
290.9505132546
 20
-94.4915186581
 10
288.7412365915
 20
-97.7172601188
 10
286.3734568418
 20
-100.6755917859
 10
283.8613353859
 20
-103.3488202653
 10
281.2198968932
 20
-105.7209573275
 10
278.4649394615
 20
-107.7778155315
 10
275.6129401303
 20
-109.5070930777
 10
272.680956334
 20
-110.8984473836
 10
269.6865238837
 20
-111.9435569414
 10
266.6475520876
 20
-112.6361710877
 10
263.5822166382
 20
-112.9721473879
 10
260.5088509052
 20
-112.9494764119
 10
257.4458362864
 20
-112.5682937517
 10
254.4114922713
 20
-111.830879211
  0
LWPOLYLINE
  5
27B
330
1F
100
AcDbEntity
  8
0
  6
PHANTOM
 62
     8
370
     0
100
AcDbPolyline
 90
        8
 70
   128
 43
0.0
 10
249.8255261733
 20
-102.2624333847
 10
250.9919421023
 20
-102.7730906088
 10
252.1666390033
 20
-103.6790848348
 10
253.1396923097
 20
-104.8983479471
 10
253.8737081287
 20
-106.3840243481
 10
254.3404786441
 20
-108.0790203269
 10
254.5220661267
 20
-109.9181981384
 10
254.4114922713
 20
-111.830879211
  0
LWPOLYLINE
  5
27C
330
1F
100
AcDbEntity
  8
0
  6
PHANTOM
 62
     8
370
     0
100
AcDbPolyline
 90
       25
 70
   128
 43
0.0
 10
255.5606167127
 20
110.9917952044
 10
258.6021982604
 20
111.6577851051
 10
261.6687728934
 20
111.9669122897
 10
264.7419998307
 20
111.9173279091
 10
267.8034985043
 20
111.5093285208
 10
270.8349584917
 20
110.7453543159
 10
273.8182490279
 20
109.6299745239
 10
276.7355274427
 20
108.1698600853
 10
279.5693458761
 20
106.3737437534
 10
282.3027556313
 20
104.2523678646
 10
284.9194085425
 20
101.8184200903
 10
287.4036547513
 20
99.0864575534
 10
289.7406363065
 20
96.0728197639
 10
291.9163760276
 20
92.7955308948
 10
293.9178611002
 20
89.2741919816
 10
295.7331209044
 20
85.529863691
 10
297.3512986088
 20
81.5849403602
 10
298.7627161047
 20
77.4630160589
 10
299.9589318889
 20
73.1887434765
 10
300.9327915514
 20
68.7876864774
 10
301.6784705651
 20
64.2861672073
 10
302.1915091216
 20
59.7111086631
 10
302.4688388043
 20
55.0898736709
 10
302.5088009409
 20
50.4501012319
 10
302.3197096194
 20
45.9457365216
  0
LWPOLYLINE
  5
27E
330
1F
100
AcDbEntity
  8
0
  6
PHANTOM
 62
     8
370
     0
100
AcDbPolyline
 90
        8
 70
   128
 43
0.0
 10
255.5606167127
 20
110.9917952044
 10
255.651433033
 20
109.0733622122
 10
255.4508472864
 20
107.2286535241
 10
254.9665678705
 20
105.5285602604
 10
254.2172053719
 20
104.0384160518
 10
253.2315573709
 20
102.8154863044
 10
252.0475017677
 20
101.9067675228
 10
250.8393486847
 20
101.3836302571
  0
LWPOLYLINE
  5
27F
330
1F
100
AcDbEntity
  8
0
  6
PHANTOM
 62
     8
370
     0
100
AcDbPolyline
 90
        3
 70
   128
 43
0.0
 10
242.3739069091
 20
-122.6173075783
 10
245.2404031551
 20
-122.9402477126
 10
247.2556232365
 20
-123.0064008013
  0
LWPOLYLINE
  5
280
330
1F
100
AcDbEntity
  8
0
  6
PHANTOM
 62
     8
370
     0
100
AcDbPolyline
 90
        3
 70
   128
 43
0.0
 10
247.7971049751
 20
121.9904165928
 10
246.5034007094
 20
121.9631610725
 10
243.6838373964
 20
121.7144027309
  0
LWPOLYLINE
  5
281
330
1F
100
AcDbEntity
  8
0
  6
PHANTOM
 62
     8
370
     0
100
AcDbPolyline
 90
       16
 70
   128
 43
0.0
 10
254.7029408096
 20
-103.0063553614
 10
256.6606648795
 20
-102.9229068446
 10
259.4723756192
 20
-102.4949318229
 10
262.2496828045
 20
-101.7066058387
 10
264.9723634606
 20
-100.563669091
 10
267.6205923759
 20
-99.074443879
 10
270.1750864596
 20
-97.2497740028
 10
272.6172451515
 20
-95.1029458045
 10
274.9292858619
 20
-92.6495914231
 10
277.0943734561
 20
-89.9075749698
 10
279.0967428388
 20
-86.8968624498
 10
280.9218137484
 20
-83.6393763798
 10
282.5562969228
 20
-80.1588361596
 10
283.9882908653
 20
-76.4805853584
 10
285.2073685056
 20
-72.6314071761
 10
285.4324598132
 20
-71.8151398455
  0
LWPOLYLINE
  5
282
330
1F
100
AcDbEntity
  8
0
  6
PHANTOM
 62
     8
370
     0
100
AcDbPolyline
 90
       15
 70
   128
 43
0.0
 10
285.6492744466
 20
71.9640394144
 10
284.7683313955
 20
74.7743273594
 10
283.3744471688
 20
78.4857973515
 10
281.7760591471
 20
82.0043411086
 10
279.9848060002
 20
85.3043383386
 10
278.013730746
 20
88.3617600965
 10
275.8771857779
 20
91.1543437521
 10
273.5907283576
 20
93.6617550949
 10
271.1710073353
 20
95.8657363977
 10
268.6356419205
 20
97.7502393608
 10
266.003093388
 20
99.3015419672
 10
263.2925306518
 20
100.5083484002
 10
260.5236906868
 20
101.361871293
 10
257.7167348137
 20
101.855895715
 10
255.228312995
 20
101.9903324469
  0
LWPOLYLINE
  5
283
330
1F
100
AcDbEntity
  8
0
  6
PHANTOM
 62
     8
370
     0
100
AcDbPolyline
 90
       11
 70
   128
 43
0.0
 10
273.3803323839
 20
-83.7355733455
 10
271.604776973
 20
-86.8968624498
 10
269.6024075902
 20
-89.9075749698
 10
267.4373199961
 20
-92.6495914231
 10
265.1252792856
 20
-95.1029458045
 10
262.6831205937
 20
-97.2497740028
 10
260.12862651
 20
-99.074443879
 10
257.4803975947
 20
-100.563669091
 10
254.7577169387
 20
-101.7066058387
 10
251.9804097533
 20
-102.4949318229
 10
251.1435508108
 20
-102.6606458047
  0
LWPOLYLINE
  5
284
330
1F
100
AcDbEntity
  8
0
  6
PHANTOM
 62
     8
370
     0
100
AcDbPolyline
 90
       11
 70
   128
 43
0.0
 10
251.4378844219
 20
101.6873522322
 10
253.0317248209
 20
101.361871293
 10
255.800564786
 20
100.5083484002
 10
258.5111275221
 20
99.3015419672
 10
261.1436760546
 20
97.7502393608
 10
263.6790414694
 20
95.8657363977
 10
266.0987624917
 20
93.6617550949
 10
268.385219912
 20
91.1543437521
 10
270.5217648802
 20
88.3617600965
 10
272.4928401344
 20
85.3043383386
 10
272.9685330532
 20
84.4826583431
  0
LINE
  5
285
330
1F
100
AcDbEntity
  8
0
  6
Continuous
 62
     7
370
    15
100
AcDbLine
 10
93.7053028461
 20
105.2
 30
0.0
 11
-179.8071807806
 21
105.2
 31
0.0
  0
LINE
  5
286
330
1F
100
AcDbEntity
  8
0
  6
Continuous
 62
     7
370
    15
100
AcDbLine
 10
-179.8071807806
 20
-104.8
 30
0.0
 11
94.3010852683
 21
-104.8
 31
0.0
  0
LINE
  5
287
330
1F
100
AcDbEntity
  8
0
  6
Continuous
 62
     7
370
    15
100
AcDbLine
 10
-459.7182524503
 20
33.6443781647
 30
0.0
 11
-459.7182524503
 21
33.3337953106
 31
0.0
  0
LINE
  5
288
330
1F
100
AcDbEntity
  8
0
  6
Continuous
 62
     7
370
    15
100
AcDbLine
 10
-452.4036696707
 20
31.3738587618
 30
0.0
 11
-452.4036696707
 21
31.6844416159
 31
0.0
  0
LINE
  5
289
330
1F
100
AcDbEntity
  8
0
  6
Continuous
 62
     7
370
    15
100
AcDbLine
 10
-450.75
 20
13.5
 30
0.0
 11
-450.75
 21
10.0
 31
0.0
  0
LINE
  5
28A
330
1F
100
AcDbEntity
  8
0
  6
Continuous
 62
     7
370
    15
100
AcDbLine
 10
-442.25
 20
10.0
 30
0.0
 11
-442.25
 21
13.5
 31
0.0
  0
LINE
  5
28B
330
1F
100
AcDbEntity
  8
0
  6
Continuous
 62
     7
370
    15
100
AcDbLine
 10
-452.3140102365
 20
31.3498345888
 30
0.0
 11
-452.3140102365
 21
31.6604174429
 31
0.0
  0
LINE
  5
28C
330
1F
100
AcDbEntity
  8
0
  6
Continuous
 62
     7
370
    15
100
AcDbLine
 10
458.3333261701
 20
33.2732882863
 30
0.0
 11
458.3333261701
 21
32.9627054322
 31
0.0
  0
LINE
  5
28D
330
1F
100
AcDbEntity
  8
0
  6
Continuous
 62
     7
370
    15
100
AcDbLine
 10
442.25
 20
13.5
 30
0.0
 11
442.25
 21
10.0
 31
0.0
  0
LINE
  5
28E
330
1F
100
AcDbEntity
  8
0
  6
Continuous
 62
     7
370
    15
100
AcDbLine
 10
450.75
 20
10.0
 30
0.0
 11
450.75
 21
13.5
 31
0.0
  0
LINE
  5
28F
330
1F
100
AcDbEntity
  8
0
  6
Continuous
 62
     7
370
    15
100
AcDbLine
 10
452.3140102365
 20
31.6604174429
 30
0.0
 11
452.3140102365
 21
31.3498345888
 31
0.0
  0
LINE
  5
290
330
1F
100
AcDbEntity
  8
0
  6
Continuous
 62
     7
370
    15
100
AcDbLine
 10
-458.3333261701
 20
-31.7732882863
 30
0.0
 11
-458.3333261701
 21
-31.4627054322
 31
0.0
  0
LINE
  5
291
330
1F
100
AcDbEntity
  8
0
  6
Continuous
 62
     7
370
    15
100
AcDbLine
 10
-442.25
 20
-12.0
 30
0.0
 11
-442.25
 21
-10.0
 31
0.0
  0
LINE
  5
292
330
1F
100
AcDbEntity
  8
0
  6
Continuous
 62
     7
370
    15
100
AcDbLine
 10
-450.75
 20
-10.0
 30
0.0
 11
-450.75
 21
-12.0
 31
0.0
  0
LINE
  5
293
330
1F
100
AcDbEntity
  8
0
  6
Continuous
 62
     7
370
    15
100
AcDbLine
 10
-452.3140102365
 20
-30.1604174429
 30
0.0
 11
-452.3140102365
 21
-29.8498345888
 31
0.0
  0
LINE
  5
294
330
1F
100
AcDbEntity
  8
0
  6
Continuous
 62
     7
370
    15
100
AcDbLine
 10
459.7182524503
 20
-33.6443781647
 30
0.0
 11
459.7182524503
 21
-33.3337953106
 31
0.0
  0
LINE
  5
295
330
1F
100
AcDbEntity
  8
0
  6
Continuous
 62
     7
370
    15
100
AcDbLine
 10
452.4036696707
 20
-31.3738587618
 30
0.0
 11
452.4036696707
 21
-31.6844416159
 31
0.0
  0
LINE
  5
296
330
1F
100
AcDbEntity
  8
0
  6
Continuous
 62
     7
370
    15
100
AcDbLine
 10
450.75
 20
-13.5
 30
0.0
 11
450.75
 21
-10.0
 31
0.0
  0
LINE
  5
297
330
1F
100
AcDbEntity
  8
0
  6
Continuous
 62
     7
370
    15
100
AcDbLine
 10
442.25
 20
-10.0
 30
0.0
 11
442.25
 21
-13.5
 31
0.0
  0
LINE
  5
298
330
1F
100
AcDbEntity
  8
0
  6
Continuous
 62
     7
370
    15
100
AcDbLine
 10
452.3140102365
 20
-31.3498345888
 30
0.0
 11
452.3140102365
 21
-31.6604174429
 31
0.0
  0
LINE
  5
299
330
1F
100
AcDbEntity
  8
0
  6
Continuous
 62
     7
370
    15
100
AcDbLine
 10
430.0
 20
10.4
 30
0.0
 11
430.0
 21
20.2
 31
0.0
  0
LINE
  5
29A
330
1F
100
AcDbEntity
  8
0
  6
Continuous
 62
     7
370
    15
100
AcDbLine
 10
-430.0
 20
20.2
 30
0.0
 11
-430.0
 21
10.4
 31
0.0
  0
LINE
  5
29B
330
1F
100
AcDbEntity
  8
0
  6
Continuous
 62
     7
370
    15
100
AcDbLine
 10
430.0
 20
-19.8
 30
0.0
 11
430.0
 21
-10.0
 31
0.0
  0
LINE
  5
29C
330
1F
100
AcDbEntity
  8
0
  6
Continuous
 62
     7
370
    15
100
AcDbLine
 10
-430.0
 20
-10.0
 30
0.0
 11
-430.0
 21
-19.8
 31
0.0
  0
LINE
  5
29D
330
1F
100
AcDbEntity
  8
0
  6
Continuous
 62
     7
370
    15
100
AcDbLine
 10
400.0
 20
10.0
 30
0.0
 11
400.0
 21
10.4
 31
0.0
  0
LINE
  5
29E
330
1F
100
AcDbEntity
  8
0
  6
Continuous
 62
     7
370
    15
100
AcDbLine
 10
-400.0
 20
10.4
 30
0.0
 11
-400.0
 21
10.0
 31
0.0
  0
LINE
  5
29F
330
1F
100
AcDbEntity
  8
0
  6
Continuous
 62
     7
370
    15
100
AcDbLine
 10
-255.2890708409
 20
-121.5904165928
 30
0.0
 11
-247.7971049751
 21
-121.5904165928
 31
0.0
  0
LINE
  5
2A0
330
1F
100
AcDbEntity
  8
0
  6
Continuous
 62
     7
370
    15
100
AcDbLine
 10
-247.2556232365
 20
123.4064008013
 30
0.0
 11
-254.7475891023
 21
123.4064008013
 31
0.0
  0
LINE
  5
2A1
330
1F
100
AcDbEntity
  8
0
  6
Continuous
 62
     7
370
    15
100
AcDbLine
 10
-250.7555809698
 20
-100.959536564
 30
0.0
 11
-251.4867540175
 21
-101.1418366707
 31
0.0
  0
LINE
  5
2A2
330
1F
100
AcDbEntity
  8
0
  6
Continuous
 62
     7
370
    15
100
AcDbLine
 10
-250.9753725781
 20
102.9576986056
 30
0.0
 11
-249.8222807239
 21
102.6614478085
 31
0.0
  0
LINE
  5
2A3
330
1F
100
AcDbEntity
  8
0
  6
Continuous
 62
     7
370
    15
100
AcDbLine
 10
-269.75389274
 20
-32.5523005548
 30
0.0
 11
-269.7683748158
 21
-32.6002235806
 31
0.0
  0
LINE
  5
2A4
330
1F
100
AcDbEntity
  8
0
  6
Continuous
 62
     7
370
    15
100
AcDbLine
 10
-269.4287422572
 20
34.6740457334
 30
0.0
 11
-269.4182363637
 21
34.6248900058
 31
0.0
  0
LINE
  5
2A5
330
1F
100
AcDbEntity
  8
0
  6
Continuous
 62
     7
370
    15
100
AcDbLine
 10
-250.3017632368
 20
-76.2136269288
 30
0.0
 11
-250.226415173
 21
-76.2687172564
 31
0.0
  0
LINE
  5
2A6
330
1F
100
AcDbEntity
  8
0
  6
Continuous
 62
     7
370
    15
100
AcDbLine
 10
-249.3359401813
 20
77.9520156809
 30
0.0
 11
-249.4150496408
 21
77.8938931221
 31
0.0
  0
LINE
  5
2A7
330
1F
100
AcDbEntity
  8
0
  6
Continuous
 62
     7
370
    15
100
AcDbLine
 10
-195.3325942509
 20
-174.7968173942
 30
0.0
 11
-187.840628385
 21
-174.7968173942
 31
0.0
  0
LINE
  5
2A8
330
1F
100
AcDbEntity
  8
0
  6
Continuous
 62
     7
370
    15
100
AcDbLine
 10
-186.7576649078
 20
175.1968173942
 30
0.0
 11
-194.2496307737
 21
175.1968173942
 31
0.0
  0
LINE
  5
2A9
330
1F
100
AcDbEntity
  8
0
  6
Continuous
 62
     7
370
    15
100
AcDbLine
 10
-202.2830783781
 20
-109.8
 30
0.0
 11
-186.2954135447
 21
-109.8
 31
0.0
  0
LINE
  5
2AA
330
1F
100
AcDbEntity
  8
0
  6
Continuous
 62
     7
370
    15
100
AcDbLine
 10
-186.2954135447
 20
110.2
 30
0.0
 11
-202.2830783781
 21
110.2
 31
0.0
  0
LINE
  5
2AB
330
1F
100
AcDbEntity
  8
0
  6
Continuous
 62
     7
370
    15
100
AcDbLine
 10
-134.8346359223
 20
-123.0064008013
 30
0.0
 11
-127.3426700564
 21
-123.0064008013
 31
0.0
  0
LINE
  5
2AC
330
1F
100
AcDbEntity
  8
0
  6
Continuous
 62
     7
370
    15
100
AcDbLine
 10
-126.8011883178
 20
121.9904165928
 30
0.0
 11
-134.2931541837
 21
121.9904165928
 31
0.0
  0
LINE
  5
2AD
330
1F
100
AcDbEntity
  8
0
  6
Continuous
 62
     7
370
    15
100
AcDbLine
 10
126.8011883178
 20
-121.5904165928
 30
0.0
 11
134.2931541837
 21
-121.5904165928
 31
0.0
  0
LINE
  5
2AE
330
1F
100
AcDbEntity
  8
0
  6
Continuous
 62
     7
370
    15
100
AcDbLine
 10
134.8346359223
 20
123.4064008013
 30
0.0
 11
127.3426700564
 21
123.4064008013
 31
0.0
  0
LINE
  5
2AF
330
1F
100
AcDbEntity
  8
0
  6
Continuous
 62
     7
370
    15
100
AcDbLine
 10
131.3346781889
 20
-100.959536564
 30
0.0
 11
130.6035051412
 21
-101.1418366707
 31
0.0
  0
LINE
  5
2B0
330
1F
100
AcDbEntity
  8
0
  6
Continuous
 62
     7
370
    15
100
AcDbLine
 10
131.1148865806
 20
102.9576986056
 30
0.0
 11
132.2679784348
 21
102.6614478085
 31
0.0
  0
LINE
  5
2B1
330
1F
100
AcDbEntity
  8
0
  6
Continuous
 62
     7
370
    15
100
AcDbLine
 10
186.7576649078
 20
-174.7968173942
 30
0.0
 11
194.2496307737
 21
-174.7968173942
 31
0.0
  0
LINE
  5
2B2
330
1F
100
AcDbEntity
  8
0
  6
Continuous
 62
     7
370
    15
100
AcDbLine
 10
195.3325942509
 20
175.1968173942
 30
0.0
 11
187.840628385
 21
175.1968173942
 31
0.0
  0
LINE
  5
2B3
330
1F
100
AcDbEntity
  8
0
  6
Continuous
 62
     7
370
    15
100
AcDbLine
 10
186.2954135447
 20
-109.8
 30
0.0
 11
202.2830783781
 21
-109.8
 31
0.0
  0
LINE
  5
2B4
330
1F
100
AcDbEntity
  8
0
  6
Continuous
 62
     7
370
    15
100
AcDbLine
 10
202.2830783781
 20
110.2
 30
0.0
 11
186.2954135447
 21
110.2
 31
0.0
  0
LINE
  5
2B5
330
1F
100
AcDbEntity
  8
0
  6
Continuous
 62
     7
370
    15
100
AcDbLine
 10
247.2556232365
 20
-123.0064008013
 30
0.0
 11
254.7475891023
 21
-123.0064008013
 31
0.0
  0
LINE
  5
2B6
330
1F
100
AcDbEntity
  8
0
  6
Continuous
 62
     7
370
    15
100
AcDbLine
 10
255.2890708409
 20
121.9904165928
 30
0.0
 11
247.7971049751
 21
121.9904165928
 31
0.0
  0
LINE
  5
2B7
330
1F
100
AcDbEntity
  8
0
  6
Continuous
 62
     7
370
    15
100
AcDbLine
 10
-576.7249469216
 20
37.5088915805
 30
0.0
 11
-541.4409522551
 21
48.2962913145
 31
0.0
  0
LINE
  5
2B8
330
1F
100
AcDbEntity
  8
0
  6
Continuous
 62
     7
370
    15
100
AcDbLine
 10
-595.5
 20
0.75
 30
0.0
 11
-556.9926307359
 21
0.75
 31
0.0
  0
LINE
  5
2B9
330
1F
100
AcDbEntity
  8
0
  6
Continuous
 62
     7
370
    15
100
AcDbLine
 10
-503.397360572
 20
13.5
 30
0.0
 11
-434.5
 21
13.5
 31
0.0
  0
LINE
  5
2BA
330
1F
100
AcDbEntity
  8
0
  6
Continuous
 62
     7
370
    15
100
AcDbLine
 10
-434.5
 20
20.4379690282
 30
0.0
 11
-434.5
 21
13.5
 31
0.0
  0
LINE
  5
2BB
330
1F
100
AcDbEntity
  8
0
  6
Continuous
 62
     7
370
    15
100
AcDbLine
 10
-515.5590477449
 20
48.2962913145
 30
0.0
 11
-440.4294476392
 21
28.1653756385
 31
0.0
  0
LINE
  5
2BC
330
1F
100
AcDbEntity
  8
0
  6
Continuous
 62
     7
370
    15
100
AcDbLine
 10
-595.5
 20
-9.25
 30
0.0
 11
-595.5
 21
10.75
 31
0.0
  0
LINE
  5
2BD
330
1F
100
AcDbEntity
  8
0
  6
Continuous
 62
     7
370
    15
100
AcDbLine
 10
-462.827304302
 20
34.4774460976
 30
0.0
 11
-452.3140102365
 21
31.6604174429
 31
0.0
  0
LINE
  5
2BE
330
1F
100
AcDbEntity
  8
0
  6
Continuous
 62
     7
370
    15
100
AcDbLine
 10
-462.827304302
 20
34.1668632434
 30
0.0
 11
-462.827304302
 21
34.4774460976
 31
0.0
  0
LINE
  5
2BF
330
1F
100
AcDbEntity
  8
0
  6
Continuous
 62
     7
370
    15
100
AcDbLine
 10
541.4409522551
 20
48.2962913145
 30
0.0
 11
576.7249469216
 21
37.5088915805
 31
0.0
  0
LINE
  5
2C0
330
1F
100
AcDbEntity
  8
0
  6
Continuous
 62
     7
370
    15
100
AcDbLine
 10
595.5
 20
0.75
 30
0.0
 11
556.9926307359
 21
0.75
 31
0.0
  0
LINE
  5
2C1
330
1F
100
AcDbEntity
  8
0
  6
Continuous
 62
     7
370
    15
100
AcDbLine
 10
503.397360572
 20
13.5
 30
0.0
 11
434.5
 21
13.5
 31
0.0
  0
LINE
  5
2C2
330
1F
100
AcDbEntity
  8
0
  6
Continuous
 62
     7
370
    15
100
AcDbLine
 10
595.5
 20
10.75
 30
0.0
 11
595.5
 21
0.75
 31
0.0
  0
LINE
  5
2C3
330
1F
100
AcDbEntity
  8
0
  6
Continuous
 62
     7
370
    15
100
AcDbLine
 10
434.5
 20
13.5
 30
0.0
 11
434.5
 21
20.4379690281
 31
0.0
  0
LINE
  5
2C4
330
1F
100
AcDbEntity
  8
0
  6
Continuous
 62
     7
370
    15
100
AcDbLine
 10
440.4294476392
 20
28.1653756385
 30
0.0
 11
515.5590477449
 21
48.2962913145
 31
0.0
  0
LINE
  5
2C5
330
1F
100
AcDbEntity
  8
0
  6
Continuous
 62
     7
370
    15
100
AcDbLine
 10
459.5479925353
 20
33.2881743038
 30
0.0
 11
459.5479925353
 21
33.598757158
 31
0.0
  0
LINE
  5
2C6
330
1F
100
AcDbEntity
  8
0
  6
Continuous
 62
     7
370
    15
100
AcDbLine
 10
456.5939826008
 20
32.4966497274
 30
0.0
 11
456.5939826008
 21
32.8072325816
 31
0.0
  0
LINE
  5
2C7
330
1F
100
AcDbEntity
  8
0
  6
Continuous
 62
     7
370
    15
100
AcDbLine
 10
455.4244340784
 20
32.1832701454
 30
0.0
 11
455.4244340784
 21
32.4938529995
 31
0.0
  0
LINE
  5
2C8
330
1F
100
AcDbEntity
  8
0
  6
Continuous
 62
     7
370
    15
100
AcDbLine
 10
452.3140102365
 20
31.6604174429
 30
0.0
 11
462.827304302
 21
34.4774460976
 31
0.0
  0
LINE
  5
2C9
330
1F
100
AcDbEntity
  8
0
  6
Continuous
 62
     7
370
    15
100
AcDbLine
 10
452.5
 20
31.3996703957
 30
0.0
 11
452.5
 21
31.7102532499
 31
0.0
  0
LINE
  5
2CA
330
1F
100
AcDbEntity
  8
0
  6
Continuous
 62
     7
370
    15
100
AcDbLine
 10
462.827304302
 20
34.1668632434
 30
0.0
 11
462.827304302
 21
34.4774460976
 31
0.0
  0
LINE
  5
2CB
330
1F
100
AcDbEntity
  8
0
  6
Continuous
 62
     7
370
    15
100
AcDbLine
 10
-541.4409522551
 20
-46.7962913144
 30
0.0
 11
-576.7249469216
 21
-36.0088915805
 31
0.0
  0
LINE
  5
2CC
330
1F
100
AcDbEntity
  8
0
  6
Continuous
 62
     7
370
    15
100
AcDbLine
 10
-502.6467118871
 20
-12.0
 30
0.0
 11
-434.5
 21
-12.0
 31
0.0
  0
LINE
  5
2CD
330
1F
100
AcDbEntity
  8
0
  6
Continuous
 62
     7
370
    15
100
AcDbLine
 10
-440.4294476392
 20
-26.6653756385
 30
0.0
 11
-515.5590477449
 21
-46.7962913144
 31
0.0
  0
LINE
  5
2CE
330
1F
100
AcDbEntity
  8
0
  6
Continuous
 62
     7
370
    15
100
AcDbLine
 10
-434.5
 20
-12.0
 30
0.0
 11
-434.5
 21
-18.9379690281
 31
0.0
  0
LINE
  5
2CF
330
1F
100
AcDbEntity
  8
0
  6
Continuous
 62
     7
370
    15
100
AcDbLine
 10
-459.5479925353
 20
-31.7881743038
 30
0.0
 11
-459.5479925353
 21
-32.0987571579
 31
0.0
  0
LINE
  5
2D0
330
1F
100
AcDbEntity
  8
0
  6
Continuous
 62
     7
370
    15
100
AcDbLine
 10
-456.5939826008
 20
-30.9966497274
 30
0.0
 11
-456.5939826008
 21
-31.3072325816
 31
0.0
  0
LINE
  5
2D1
330
1F
100
AcDbEntity
  8
0
  6
Continuous
 62
     7
370
    15
100
AcDbLine
 10
-455.4244340784
 20
-30.6832701453
 30
0.0
 11
-455.4244340784
 21
-30.9938529995
 31
0.0
  0
LINE
  5
2D2
330
1F
100
AcDbEntity
  8
0
  6
Continuous
 62
     7
370
    15
100
AcDbLine
 10
-452.3140102365
 20
-30.1604174429
 30
0.0
 11
-462.827304302
 21
-32.9774460976
 31
0.0
  0
LINE
  5
2D3
330
1F
100
AcDbEntity
  8
0
  6
Continuous
 62
     7
370
    15
100
AcDbLine
 10
-452.5
 20
-29.8996703957
 30
0.0
 11
-452.5
 21
-30.2102532499
 31
0.0
  0
LINE
  5
2D4
330
1F
100
AcDbEntity
  8
0
  6
Continuous
 62
     7
370
    15
100
AcDbLine
 10
-462.827304302
 20
-32.6668632434
 30
0.0
 11
-462.827304302
 21
-32.9774460976
 31
0.0
  0
LINE
  5
2D5
330
1F
100
AcDbEntity
  8
0
  6
Continuous
 62
     7
370
    15
100
AcDbLine
 10
576.7249469216
 20
-37.5088915805
 30
0.0
 11
541.4409522551
 21
-48.2962913145
 31
0.0
  0
LINE
  5
2D6
330
1F
100
AcDbEntity
  8
0
  6
Continuous
 62
     7
370
    15
100
AcDbLine
 10
515.5590477449
 20
-48.2962913145
 30
0.0
 11
440.4294476392
 21
-28.1653756385
 31
0.0
  0
LINE
  5
2D7
330
1F
100
AcDbEntity
  8
0
  6
Continuous
 62
     7
370
    15
100
AcDbLine
 10
434.5
 20
-20.4379690281
 30
0.0
 11
434.5
 21
-13.5
 31
0.0
  0
LINE
  5
2D8
330
1F
100
AcDbEntity
  8
0
  6
Continuous
 62
     7
370
    15
100
AcDbLine
 10
503.397360572
 20
-13.5
 30
0.0
 11
434.5
 21
-13.5
 31
0.0
  0
LINE
  5
2D9
330
1F
100
AcDbEntity
  8
0
  6
Continuous
 62
     7
370
    15
100
AcDbLine
 10
595.5
 20
-0.75
 30
0.0
 11
595.5
 21
-10.75
 31
0.0
  0
LINE
  5
2DA
330
1F
100
AcDbEntity
  8
0
  6
Continuous
 62
     7
370
    15
100
AcDbLine
 10
595.5
 20
-0.75
 30
0.0
 11
556.9926307359
 21
-0.75
 31
0.0
  0
LINE
  5
2DB
330
1F
100
AcDbEntity
  8
0
  6
Continuous
 62
     7
370
    15
100
AcDbLine
 10
462.827304302
 20
-34.4774460976
 30
0.0
 11
452.3140102365
 21
-31.6604174429
 31
0.0
  0
LINE
  5
2DC
330
1F
100
AcDbEntity
  8
0
  6
Continuous
 62
     7
370
    15
100
AcDbLine
 10
462.827304302
 20
-34.1668632434
 30
0.0
 11
462.827304302
 21
-34.4774460976
 31
0.0
  0
LINE
  5
2DD
330
1F
100
AcDbEntity
  8
0
  6
Continuous
 62
     7
370
    15
100
AcDbLine
 10
500.0
 20
-10.0
 30
0.0
 11
500.0
 21
-0.3775
 31
0.0
  0
LINE
  5
2DE
330
1F
100
AcDbEntity
  8
0
  6
Continuous
 62
     7
370
    15
100
AcDbLine
 10
500.0
 20
0.3775
 30
0.0
 11
500.0
 21
10.0
 31
0.0
  0
LINE
  5
2DF
330
1F
100
AcDbEntity
  8
0
  6
Continuous
 62
     7
370
    15
100
AcDbLine
 10
500.0
 20
10.0
 30
0.0
 11
-500.0
 21
10.0
 31
0.0
  0
LINE
  5
2E0
330
1F
100
AcDbEntity
  8
0
  6
Continuous
 62
     7
370
    15
100
AcDbLine
 10
-500.0
 20
-10.0
 30
0.0
 11
-500.0
 21
-0.3775
 31
0.0
  0
LINE
  5
2E1
330
1F
100
AcDbEntity
  8
0
  6
Continuous
 62
     7
370
    15
100
AcDbLine
 10
-500.0
 20
0.3775
 30
0.0
 11
-500.0
 21
10.0
 31
0.0
  0
LINE
  5
2E2
330
1F
100
AcDbEntity
  8
0
  6
Continuous
 62
     7
370
    15
100
AcDbLine
 10
500.0
 20
-10.0
 30
0.0
 11
-500.0
 21
-10.0
 31
0.0
  0
LINE
  5
2E3
330
1F
100
AcDbEntity
  8
0
  6
Continuous
 62
     7
370
    15
100
AcDbLine
 10
430.0
 20
10.4
 30
0.0
 11
-430.0
 21
10.4
 31
0.0
  0
LINE
  5
2E4
330
1F
100
AcDbEntity
  8
0
  6
Continuous
 62
     7
370
    15
100
AcDbLine
 10
430.0
 20
20.2
 30
0.0
 11
-430.0
 21
20.2
 31
0.0
  0
LINE
  5
2E5
330
1F
100
AcDbEntity
  8
0
  6
Continuous
 62
     7
370
    15
100
AcDbLine
 10
430.0
 20
-19.8
 30
0.0
 11
-430.0
 21
-19.8
 31
0.0
  0
LINE
  5
2E6
330
1F
100
AcDbEntity
  8
0
  6
Continuous
 62
     7
370
    15
100
AcDbLine
 10
-194.2496307737
 20
175.1968173942
 30
0.0
 11
-194.4271139167
 21
175.1963045142
 31
0.0
  0
LINE
  5
2E7
330
1F
100
AcDbEntity
  8
0
  6
Continuous
 62
     7
370
    15
100
AcDbLine
 10
-126.9668276239
 20
121.9899698803
 30
0.0
 11
-126.8011883178
 21
121.9904165928
 31
0.0
  0
LINE
  5
2E8
330
1F
100
AcDbEntity
  8
0
  6
Continuous
 62
     7
370
    15
100
AcDbLine
 10
187.840628385
 20
175.1968173942
 30
0.0
 11
187.663145242
 21
175.1963045142
 31
0.0
  0
LINE
  5
2E9
330
1F
100
AcDbEntity
  8
0
  6
Continuous
 62
     7
370
    15
100
AcDbLine
 10
186.2954135447
 20
110.2
 30
0.0
 11
186.0766511419
 21
110.1995041485
 31
0.0
  0
LINE
  5
2EA
330
1F
100
AcDbEntity
  8
0
  6
Continuous
 62
     7
370
    15
100
AcDbLine
 10
255.1234315348
 20
121.9899698803
 30
0.0
 11
255.2890708409
 21
121.9904165928
 31
0.0
  0
LINE
  5
2EB
330
1F
100
AcDbEntity
  8
0
  6
Continuous
 62
     7
370
    15
100
AcDbLine
 10
-2028.5
 20
28.5
 30
0.0
 11
-2028.5
 21
-28.5
 31
0.0
  0
LINE
  5
2EC
330
1F
100
AcDbEntity
  8
0
  6
Continuous
 62
     7
370
    15
100
AcDbLine
 10
-528.5
 20
-1528.5
 30
0.0
 11
528.5
 21
-1528.5
 31
0.0
  0
LINE
  5
2ED
330
1F
100
AcDbEntity
  8
0
  6
Continuous
 62
     7
370
    15
100
AcDbLine
 10
528.5
 20
1528.5
 30
0.0
 11
-528.5
 21
1528.5
 31
0.0
  0
LINE
  5
2EE
330
1F
100
AcDbEntity
  8
0
  6
Continuous
 62
     7
370
    15
100
AcDbLine
 10
2028.5
 20
-28.5
 30
0.0
 11
2028.5
 21
28.5
 31
0.0
  0
LINE
  5
2EF
330
1F
100
AcDbEntity
  8
0
  6
PHANTOM
 62
     8
370
     0
100
AcDbLine
 10
-517.6296001057
 20
40.5688847041
 30
0.0
 11
-515.5590477449
 21
48.2962913145
 31
0.0
  0
LINE
  5
2F0
330
1F
100
AcDbEntity
  8
0
  6
PHANTOM
 62
     8
370
     0
100
AcDbLine
 10
-539.2413365
 20
40.6032472863
 30
0.0
 11
-573.9459832914
 21
29.992971973
 31
0.0
  0
LINE
  5
2F1
330
1F
100
AcDbEntity
  8
0
  6
PHANTOM
 62
     8
370
     0
100
AcDbLine
 10
-587.5
 20
10.5071651426
 30
0.0
 11
-587.5
 21
-9.0071651426
 31
0.0
  0
LINE
  5
2F2
330
1F
100
AcDbEntity
  8
0
  6
PHANTOM
 62
     8
370
     0
100
AcDbLine
 10
-442.5
 20
20.4379690282
 30
0.0
 11
-517.6296001057
 21
40.5688847041
 31
0.0
  0
LINE
  5
2F3
330
1F
100
AcDbEntity
  8
0
  6
PHANTOM
 62
     8
370
     0
100
AcDbLine
 10
-442.5
 20
13.5
 30
0.0
 11
-442.5
 21
20.4379690282
 31
0.0
  0
LINE
  5
2F4
330
1F
100
AcDbEntity
  8
0
  6
PHANTOM
 62
     8
370
     0
100
AcDbLine
 10
-442.5
 20
20.4379690282
 30
0.0
 11
-434.5
 21
20.4379690282
 31
0.0
  0
LINE
  5
2F5
330
1F
100
AcDbEntity
  8
0
  6
PHANTOM
 62
     8
370
     0
100
AcDbLine
 10
-442.5
 20
20.4379690282
 30
0.0
 11
-440.4294476392
 21
28.1653756385
 31
0.0
  0
LINE
  5
2F6
330
1F
100
AcDbEntity
  8
0
  6
PHANTOM
 62
     8
370
     0
100
AcDbLine
 10
573.9459832914
 20
29.992971973
 30
0.0
 11
539.2413365
 21
40.6032472863
 31
0.0
  0
LINE
  5
2F7
330
1F
100
AcDbEntity
  8
0
  6
PHANTOM
 62
     8
370
     0
100
AcDbLine
 10
515.5590477449
 20
48.2962913145
 30
0.0
 11
517.6296001057
 21
40.5688847041
 31
0.0
  0
LINE
  5
2F8
330
1F
100
AcDbEntity
  8
0
  6
PHANTOM
 62
     8
370
     0
100
AcDbLine
 10
442.5
 20
20.4379690281
 30
0.0
 11
442.5
 21
13.5
 31
0.0
  0
LINE
  5
2F9
330
1F
100
AcDbEntity
  8
0
  6
PHANTOM
 62
     8
370
     0
100
AcDbLine
 10
517.6296001057
 20
40.5688847041
 30
0.0
 11
442.5
 21
20.4379690281
 31
0.0
  0
LINE
  5
2FA
330
1F
100
AcDbEntity
  8
0
  6
PHANTOM
 62
     8
370
     0
100
AcDbLine
 10
587.5
 20
0.75
 30
0.0
 11
587.5
 21
10.5071651426
 31
0.0
  0
LINE
  5
2FB
330
1F
100
AcDbEntity
  8
0
  6
PHANTOM
 62
     8
370
     0
100
AcDbLine
 10
442.5
 20
20.4379690281
 30
0.0
 11
434.5
 21
20.4379690281
 31
0.0
  0
LINE
  5
2FC
330
1F
100
AcDbEntity
  8
0
  6
PHANTOM
 62
     8
370
     0
100
AcDbLine
 10
440.4294476392
 20
28.1653756385
 30
0.0
 11
442.5
 21
20.4379690281
 31
0.0
  0
LINE
  5
2FD
330
1F
100
AcDbEntity
  8
0
  6
PHANTOM
 62
     8
370
     0
100
AcDbLine
 10
-515.5590477449
 20
-46.7962913144
 30
0.0
 11
-517.6296001057
 21
-39.0688847041
 31
0.0
  0
LINE
  5
2FE
330
1F
100
AcDbEntity
  8
0
  6
PHANTOM
 62
     8
370
     0
100
AcDbLine
 10
-573.9459832914
 20
-28.492971973
 30
0.0
 11
-539.2413365
 21
-39.1032472863
 31
0.0
  0
LINE
  5
2FF
330
1F
100
AcDbEntity
  8
0
  6
PHANTOM
 62
     8
370
     0
100
AcDbLine
 10
-442.5
 20
-18.9379690281
 30
0.0
 11
-442.5
 21
-12.0
 31
0.0
  0
LINE
  5
300
330
1F
100
AcDbEntity
  8
0
  6
PHANTOM
 62
     8
370
     0
100
AcDbLine
 10
-517.6296001057
 20
-39.0688847041
 30
0.0
 11
-442.5
 21
-18.9379690281
 31
0.0
  0
LINE
  5
301
330
1F
100
AcDbEntity
  8
0
  6
PHANTOM
 62
     8
370
     0
100
AcDbLine
 10
-440.4294476392
 20
-26.6653756385
 30
0.0
 11
-442.5
 21
-18.9379690281
 31
0.0
  0
LINE
  5
302
330
1F
100
AcDbEntity
  8
0
  6
PHANTOM
 62
     8
370
     0
100
AcDbLine
 10
-442.5
 20
-18.9379690281
 30
0.0
 11
-434.5
 21
-18.9379690281
 31
0.0
  0
LINE
  5
303
330
1F
100
AcDbEntity
  8
0
  6
PHANTOM
 62
     8
370
     0
100
AcDbLine
 10
517.6296001057
 20
-40.5688847041
 30
0.0
 11
515.5590477449
 21
-48.2962913145
 31
0.0
  0
LINE
  5
304
330
1F
100
AcDbEntity
  8
0
  6
PHANTOM
 62
     8
370
     0
100
AcDbLine
 10
539.2413365
 20
-40.6032472863
 30
0.0
 11
573.9459832914
 21
-29.992971973
 31
0.0
  0
LINE
  5
305
330
1F
100
AcDbEntity
  8
0
  6
PHANTOM
 62
     8
370
     0
100
AcDbLine
 10
442.5
 20
-20.4379690281
 30
0.0
 11
440.4294476392
 21
-28.1653756385
 31
0.0
  0
LINE
  5
306
330
1F
100
AcDbEntity
  8
0
  6
PHANTOM
 62
     8
370
     0
100
AcDbLine
 10
442.5
 20
-20.4379690281
 30
0.0
 11
517.6296001057
 21
-40.5688847041
 31
0.0
  0
LINE
  5
307
330
1F
100
AcDbEntity
  8
0
  6
PHANTOM
 62
     8
370
     0
100
AcDbLine
 10
442.5
 20
-13.5
 30
0.0
 11
442.5
 21
-20.4379690281
 31
0.0
  0
LINE
  5
308
330
1F
100
AcDbEntity
  8
0
  6
PHANTOM
 62
     8
370
     0
100
AcDbLine
 10
442.5
 20
-20.4379690281
 30
0.0
 11
434.5
 21
-20.4379690281
 31
0.0
  0
LINE
  5
309
330
1F
100
AcDbEntity
  8
0
  6
PHANTOM
 62
     8
370
     0
100
AcDbLine
 10
587.5
 20
-10.5071651426
 30
0.0
 11
587.5
 21
-0.75
 31
0.0
  0
LINE
  5
30A
330
1F
100
AcDbEntity
  8
0
  6
PHANTOM
 62
     8
370
     0
100
AcDbLine
 10
-231.8673831875
 20
112.2100943828
 30
0.0
 11
-231.9355946737
 21
112.230879211
 31
0.0
  0
LINE
  5
30B
330
1F
100
AcDbEntity
  8
0
  6
PHANTOM
 62
     8
370
     0
100
AcDbLine
 10
-249.2720541792
 20
-100.7582321024
 30
0.0
 11
-251.6006020106
 21
-101.2793357377
 31
0.0
  0
LINE
  5
30C
330
1F
100
AcDbEntity
  8
0
  6
PHANTOM
 62
     8
370
     0
100
AcDbLine
 10
-249.2720541792
 20
-100.7582321024
 30
0.0
 11
-241.7800883134
 21
-100.7582321024
 31
0.0
  0
LINE
  5
30D
330
1F
100
AcDbEntity
  8
0
  6
PHANTOM
 62
     8
370
     0
100
AcDbLine
 10
-250.9201583061
 20
103.071358113
 30
0.0
 11
-248.2242035216
 21
102.4267994761
 31
0.0
  0
LINE
  5
30E
330
1F
100
AcDbEntity
  8
0
  6
PHANTOM
 62
     8
370
     0
100
AcDbLine
 10
-248.2242035216
 20
102.4267994761
 30
0.0
 11
-240.7322376557
 21
102.4267994761
 31
0.0
  0
LINE
  5
30F
330
1F
100
AcDbEntity
  8
0
  6
PHANTOM
 62
     8
370
     0
100
AcDbLine
 10
-265.8561675371
 20
-24.0545324844
 30
0.0
 11
-257.3604685695
 21
-24.0545324844
 31
0.0
  0
LINE
  5
310
330
1F
100
AcDbEntity
  8
0
  6
PHANTOM
 62
     8
370
     0
100
AcDbLine
 10
-265.5973994305
 20
26.1222799606
 30
0.0
 11
-257.1017004629
 21
26.1222799606
 31
0.0
  0
LINE
  5
311
330
1F
100
AcDbEntity
  8
0
  6
PHANTOM
 62
     8
370
     0
100
AcDbLine
 10
-245.0635332597
 20
-79.4186988143
 30
0.0
 11
-236.5678342921
 21
-79.4186988143
 31
0.0
  0
LINE
  5
312
330
1F
100
AcDbEntity
  8
0
  6
PHANTOM
 62
     8
370
     0
100
AcDbLine
 10
-244.2362807939
 20
80.9909141128
 30
0.0
 11
-235.7405818263
 21
80.9909141128
 31
0.0
  0
LINE
  5
313
330
1F
100
AcDbEntity
  8
0
  6
PHANTOM
 62
     8
370
     0
100
AcDbLine
 10
-216.7196859098
 20
125.2567444715
 30
0.0
 11
-216.7428936054
 21
125.157698531
 31
0.0
  0
LINE
  5
314
330
1F
100
AcDbEntity
  8
0
  6
PHANTOM
 62
     8
370
     0
100
AcDbLine
 10
-237.973024431
 20
128.4845120538
 30
0.0
 11
-230.4810585652
 21
128.4845120538
 31
0.0
  0
LINE
  5
315
330
1F
100
AcDbEntity
  8
0
  6
PHANTOM
 62
     8
370
     0
100
AcDbLine
 10
-212.2497722328
 20
-104.8454465971
 30
0.0
 11
-207.9153002879
 21
-104.8454465971
 31
0.0
  0
LINE
  5
316
330
1F
100
AcDbEntity
  8
0
  6
PHANTOM
 62
     8
370
     0
100
AcDbLine
 10
-164.1209385277
 20
-121.5134232919
 30
0.0
 11
-156.6289726618
 21
-121.5134232919
 31
0.0
  0
LINE
  5
317
330
1F
100
AcDbEntity
  8
0
  6
PHANTOM
 62
     8
370
     0
100
AcDbLine
 10
-210.9898501405
 20
105.7409787749
 30
0.0
 11
-206.8292797155
 21
105.7409787749
 31
0.0
  0
LINE
  5
318
330
1F
100
AcDbEntity
  8
0
  6
PHANTOM
 62
     8
370
     0
100
AcDbLine
 10
-162.8693503518
 20
121.1776330886
 30
0.0
 11
-155.377384486
 21
121.1776330886
 31
0.0
  0
LINE
  5
319
330
1F
100
AcDbEntity
  8
0
  6
PHANTOM
 62
     8
370
     0
100
AcDbLine
 10
-163.3866547806
 20
-104.8
 30
0.0
 11
-163.5750174015
 21
-104.8880730399
 31
0.0
  0
LINE
  5
31A
330
1F
100
AcDbEntity
  8
0
  6
PHANTOM
 62
     8
370
     0
100
AcDbLine
 10
-160.9169728094
 20
105.2
 30
0.0
 11
-160.6305230982
 21
105.3107619692
 31
0.0
  0
LINE
  5
31B
330
1F
100
AcDbEntity
  8
0
  6
PHANTOM
 62
     8
370
     0
100
AcDbLine
 10
-160.6305230982
 20
105.3107619692
 30
0.0
 11
-159.4654726988
 21
105.2
 31
0.0
  0
LINE
  5
31C
330
1F
100
AcDbEntity
  8
0
  6
PHANTOM
 62
     8
370
     0
100
AcDbLine
 10
150.2228759712
 20
112.2100943828
 30
0.0
 11
150.154664485
 21
112.230879211
 31
0.0
  0
LINE
  5
31D
330
1F
100
AcDbEntity
  8
0
  6
PHANTOM
 62
     8
370
     0
100
AcDbLine
 10
132.8182049795
 20
-100.7582321024
 30
0.0
 11
130.4896571481
 21
-101.2793357377
 31
0.0
  0
LINE
  5
31E
330
1F
100
AcDbEntity
  8
0
  6
PHANTOM
 62
     8
370
     0
100
AcDbLine
 10
140.3101708453
 20
-100.7582321024
 30
0.0
 11
132.8182049795
 21
-100.7582321024
 31
0.0
  0
LINE
  5
31F
330
1F
100
AcDbEntity
  8
0
  6
PHANTOM
 62
     8
370
     0
100
AcDbLine
 10
141.358021503
 20
102.4267994761
 30
0.0
 11
133.8660556371
 21
102.4267994761
 31
0.0
  0
LINE
  5
320
330
1F
100
AcDbEntity
  8
0
  6
PHANTOM
 62
     8
370
     0
100
AcDbLine
 10
131.1701008527
 20
103.071358113
 30
0.0
 11
133.8660556371
 21
102.4267994761
 31
0.0
  0
LINE
  5
321
330
1F
100
AcDbEntity
  8
0
  6
PHANTOM
 62
     8
370
     0
100
AcDbLine
 10
123.7260574875
 20
-24.0545324844
 30
0.0
 11
115.2303585199
 21
-24.0545324844
 31
0.0
  0
LINE
  5
322
330
1F
100
AcDbEntity
  8
0
  6
PHANTOM
 62
     8
370
     0
100
AcDbLine
 10
123.9848255941
 20
26.1222799606
 30
0.0
 11
115.4891266265
 21
26.1222799606
 31
0.0
  0
LINE
  5
323
330
1F
100
AcDbEntity
  8
0
  6
PHANTOM
 62
     8
370
     0
100
AcDbLine
 10
144.5186917649
 20
-79.4186988143
 30
0.0
 11
136.0229927973
 21
-79.4186988143
 31
0.0
  0
LINE
  5
324
330
1F
100
AcDbEntity
  8
0
  6
PHANTOM
 62
     8
370
     0
100
AcDbLine
 10
145.3459442307
 20
80.9909141128
 30
0.0
 11
136.8502452631
 21
80.9909141128
 31
0.0
  0
LINE
  5
325
330
1F
100
AcDbEntity
  8
0
  6
PHANTOM
 62
     8
370
     0
100
AcDbLine
 10
165.3705732489
 20
125.2567444715
 30
0.0
 11
165.3473655533
 21
125.157698531
 31
0.0
  0
LINE
  5
326
330
1F
100
AcDbEntity
  8
0
  6
PHANTOM
 62
     8
370
     0
100
AcDbLine
 10
144.1172347277
 20
128.4845120538
 30
0.0
 11
151.6092005936
 21
128.4845120538
 31
0.0
  0
LINE
  5
327
330
1F
100
AcDbEntity
  8
0
  6
PHANTOM
 62
     8
370
     0
100
AcDbLine
 10
173.171225769
 20
-104.8454465971
 30
0.0
 11
169.8404869259
 21
-104.8454465971
 31
0.0
  0
LINE
  5
328
330
1F
100
AcDbEntity
  8
0
  6
PHANTOM
 62
     8
370
     0
100
AcDbLine
 10
225.4612864969
 20
-121.5134232919
 30
0.0
 11
217.969320631
 21
-121.5134232919
 31
0.0
  0
LINE
  5
329
330
1F
100
AcDbEntity
  8
0
  6
PHANTOM
 62
     8
370
     0
100
AcDbLine
 10
174.2572463415
 20
105.7409787749
 30
0.0
 11
171.1138164562
 21
105.7409787749
 31
0.0
  0
LINE
  5
32A
330
1F
100
AcDbEntity
  8
0
  6
PHANTOM
 62
     8
370
     0
100
AcDbLine
 10
226.7128746727
 20
121.1776330886
 30
0.0
 11
219.2209088069
 21
121.1776330886
 31
0.0
  0
ARC
  5
32B
330
1F
100
AcDbEntity
  8
0
  6
Continuous
 62
     7
370
    15
100
AcDbCircle
 10
-202.283078378
 20
0.1999999998
 30
0.0
 40
110.0000000002081
100
AcDbArc
 50
114.311782045
 51
127.1111312299
  0
ARC
  5
32C
330
1F
100
AcDbEntity
  8
0
  6
Continuous
 62
     7
370
    15
100
AcDbCircle
 10
-202.2830783779
 20
0.1999999999
 30
0.0
 40
110.0000000002746
100
AcDbArc
 50
157.5732440396
 51
169.5243183036
  0
ARC
  5
32D
330
1F
100
AcDbEntity
  8
0
  6
Continuous
 62
     7
370
    15
100
AcDbCircle
 10
-202.2830783776
 20
0.2000000001
 30
0.0
 40
110.0000000005202
100
AcDbArc
 50
190.4756816964
 51
201.7369919119
  0
ARC
  5
32E
330
1F
100
AcDbEntity
  8
0
  6
Continuous
 62
     7
370
    15
100
AcDbCircle
 10
-202.2830783779
 20
0.2000000004
 30
0.0
 40
110.0000000004757
100
AcDbArc
 50
233.4670596174
 51
244.8919482796
  0
ARC
  5
32F
330
1F
100
AcDbEntity
  8
0
  6
Continuous
 62
     7
370
    15
100
AcDbCircle
 10
-202.2830783773
 20
0.200000015
 30
0.0
 40
110.0000000150001
100
AcDbArc
 50
263.4287299258
 51
269.9999999996
  0
ARC
  5
330
330
1F
100
AcDbEntity
  8
0
  6
Continuous
 62
     7
370
    15
100
AcDbCircle
 10
202.2830783781
 20
0.2
 30
0.0
 40
110.0000000000022
100
AcDbArc
 50
270.0
 51
349.5243183036
  0
ARC
  5
331
330
1F
100
AcDbEntity
  8
0
  6
Continuous
 62
     7
370
    15
100
AcDbCircle
 10
202.2830783781
 20
0.2
 30
0.0
 40
110.0000000000056
100
AcDbArc
 50
10.4756816964
 51
90.0
  0
ARC
  5
332
330
1F
100
AcDbEntity
  8
0
  6
Continuous
 62
     7
370
    15
100
AcDbCircle
 10
-528.5
 20
0.0
 30
0.0
 40
49.9999999999999
100
AcDbArc
 50
75.0
 51
105.0
  0
ARC
  5
333
330
1F
100
AcDbEntity
  8
0
  6
Continuous
 62
     7
370
    15
100
AcDbCircle
 10
-564.5494345771
 20
9.0
 30
0.0
 40
30.9999999999999
100
AcDbArc
 50
113.1262482605
 51
176.7638404555
  0
ARC
  5
334
330
1F
100
AcDbEntity
  8
0
  6
Continuous
 62
     7
370
    15
100
AcDbCircle
 10
-442.5
 20
20.4379690282
 30
0.0
 40
8.00000000000017
100
AcDbArc
 50
0.0
 51
75.0
  0
ARC
  5
335
330
1F
100
AcDbEntity
  8
0
  6
Continuous
 62
     7
370
    15
100
AcDbCircle
 10
528.5
 20
0.0
 30
0.0
 40
49.9999999999998
100
AcDbArc
 50
75.0
 51
105.0
  0
ARC
  5
336
330
1F
100
AcDbEntity
  8
0
  6
Continuous
 62
     7
370
    15
100
AcDbCircle
 10
564.5494345771
 20
9.0
 30
0.0
 40
31.00000000000001
100
AcDbArc
 50
3.2361595445
 51
66.8737517395
  0
ARC
  5
337
330
1F
100
AcDbEntity
  8
0
  6
Continuous
 62
     7
370
    15
100
AcDbCircle
 10
442.5
 20
20.4379690281
 30
0.0
 40
8.0
100
AcDbArc
 50
105.0
 51
180.0
  0
ARC
  5
338
330
1F
100
AcDbEntity
  8
0
  6
Continuous
 62
     7
370
    15
100
AcDbCircle
 10
-528.5
 20
1.5
 30
0.0
 40
49.99999999999989
100
AcDbArc
 50
255.0
 51
285.0
  0
ARC
  5
339
330
1F
100
AcDbEntity
  8
0
  6
Continuous
 62
     7
370
    15
100
AcDbCircle
 10
-564.5494345771
 20
-7.5
 30
0.0
 40
31.00000000000004
100
AcDbArc
 50
183.2361595445
 51
246.8737517395
  0
ARC
  5
33A
330
1F
100
AcDbEntity
  8
0
  6
Continuous
 62
     7
370
    15
100
AcDbCircle
 10
-442.5
 20
-18.9379690281
 30
0.0
 40
7.99999999999991
100
AcDbArc
 50
285.0
 51
0.0
  0
ARC
  5
33B
330
1F
100
AcDbEntity
  8
0
  6
Continuous
 62
     7
370
    15
100
AcDbCircle
 10
528.5
 20
0.0
 30
0.0
 40
50.00000000000004
100
AcDbArc
 50
255.0
 51
285.0
  0
ARC
  5
33C
330
1F
100
AcDbEntity
  8
0
  6
Continuous
 62
     7
370
    15
100
AcDbCircle
 10
564.5494345771
 20
-9.0
 30
0.0
 40
30.99999999999991
100
AcDbArc
 50
293.1262482605
 51
356.7638404555
  0
ARC
  5
33D
330
1F
100
AcDbEntity
  8
0
  6
Continuous
 62
     7
370
    15
100
AcDbCircle
 10
442.5
 20
-20.4379690281
 30
0.0
 40
7.999999999999963
100
AcDbArc
 50
180.0
 51
255.0
  0
ARC
  5
33E
330
1F
100
AcDbEntity
  8
0
  6
Continuous
 62
     7
370
    15
100
AcDbCircle
 10
-96.8276743279
 20
0.7683098529
 30
0.0
 40
152.4958469013898
100
AcDbArc
 50
170.8782204058
 51
172.6792171542
  0
ARC
  5
33F
330
1F
100
AcDbEntity
  8
0
  6
Continuous
 62
     7
370
    15
100
AcDbCircle
 10
-169.2407510905
 20
38.8408788088
 30
0.0
 40
69.21221229283489
100
AcDbArc
 50
123.6174337715
 51
137.5141692645
  0
ARC
  5
340
330
1F
100
AcDbEntity
  8
0
  6
Continuous
 62
     7
370
    15
100
AcDbCircle
 10
-176.3014179196
 20
49.094452785
 30
0.0
 40
56.76477985521828
100
AcDbArc
 50
114.0198401021
 51
123.4125842338
  0
ARC
  5
341
330
1F
100
AcDbEntity
  8
0
  6
Continuous
 62
     7
370
    15
100
AcDbCircle
 10
-179.6224905727
 20
57.0909968524
 30
0.0
 40
48.10935765870722
100
AcDbArc
 50
90.219957113
 51
114.2836766763
  0
ARC
  5
342
330
1F
100
AcDbEntity
  8
0
  6
Continuous
 62
     7
370
    15
100
AcDbCircle
 10
-179.600949986
 20
-56.5088327506
 30
0.0
 40
48.29160760888674
100
AcDbArc
 50
244.42988681
 51
269.7553158688
  0
ARC
  5
343
330
1F
100
AcDbEntity
  8
0
  6
Continuous
 62
     7
370
    15
100
AcDbCircle
 10
-175.8296031003
 20
-47.852221108
 30
0.0
 40
57.72911074338218
100
AcDbArc
 50
235.4739613581
 51
244.7617318799
  0
ARC
  5
344
330
1F
100
AcDbEntity
  8
0
  6
Continuous
 62
     7
370
    15
100
AcDbCircle
 10
-168.3443894392
 20
-37.4104914747
 30
0.0
 40
70.57463769359141
100
AcDbArc
 50
221.5551207246
 51
235.272085328
  0
ARC
  5
345
330
1F
100
AcDbEntity
  8
0
  6
Continuous
 62
     7
370
    15
100
AcDbCircle
 10
-156.1471645244
 20
-26.1836760586
 30
0.0
 40
87.14979072807725
100
AcDbArc
 50
214.7027186345
 51
221.7591357891
  0
ARC
  5
346
330
1F
100
AcDbEntity
  8
0
  6
Continuous
 62
     7
370
    15
100
AcDbCircle
 10
-157.447527637
 20
27.6246444103
 30
0.0
 40
85.48513967625219
100
AcDbArc
 50
137.3089986492
 51
144.4567810268
  0
ARC
  5
347
330
1F
100
AcDbEntity
  8
0
  6
Continuous
 62
     7
370
    15
100
AcDbCircle
 10
214.3606965338
 20
-39.292929003
 30
0.0
 40
73.9125920440545
100
AcDbArc
 50
223.935838271
 51
232.8913677816
  0
ARC
  5
348
330
1F
100
AcDbEntity
  8
0
  6
Continuous
 62
     7
370
    15
100
AcDbCircle
 10
213.4194864393
 20
40.7735924928
 30
0.0
 40
72.48097348882678
100
AcDbArc
 50
126.0292187228
 51
135.1023843132
  0
ARC
  5
349
330
1F
100
AcDbEntity
  8
0
  6
Continuous
 62
     7
370
    15
100
AcDbCircle
 10
-528.5
 20
28.5
 30
0.0
 40
1500.000000000005
100
AcDbArc
 50
90.0
 51
180.0
  0
ARC
  5
34A
330
1F
100
AcDbEntity
  8
0
  6
Continuous
 62
     7
370
    15
100
AcDbCircle
 10
528.5
 20
-28.5
 30
0.0
 40
1500.000000000004
100
AcDbArc
 50
270.0
 51
0.0
  0
ARC
  5
34B
330
1F
100
AcDbEntity
  8
0
  6
Continuous
 62
     7
370
    15
100
AcDbCircle
 10
-528.5
 20
-28.5
 30
0.0
 40
1500.000000000005
100
AcDbArc
 50
180.0
 51
270.0
  0
ARC
  5
34C
330
1F
100
AcDbEntity
  8
0
  6
Continuous
 62
     7
370
    15
100
AcDbCircle
 10
528.5
 20
28.5
 30
0.0
 40
1500.000000000005
100
AcDbArc
 50
0.0
 51
90.0
  0
ARC
  5
34D
330
1F
100
AcDbEntity
  8
0
  6
PHANTOM
 62
     8
370
     0
100
AcDbCircle
 10
-528.5
 20
0.0
 30
0.0
 40
41.99999999999968
100
AcDbArc
 50
75.0
 51
104.817799992
  0
ARC
  5
34E
330
1F
100
AcDbEntity
  8
0
  6
PHANTOM
 62
     8
370
     0
100
AcDbCircle
 10
-564.5494345771
 20
9.0
 30
0.0
 40
23.00000000000013
100
AcDbArc
 50
114.1135041269
 51
176.2427772689
  0
ARC
  5
34F
330
1F
100
AcDbEntity
  8
0
  6
PHANTOM
 62
     8
370
     0
100
AcDbCircle
 10
528.5
 20
0.0
 30
0.0
 40
41.99999999999957
100
AcDbArc
 50
75.182200008
 51
105.0
  0
ARC
  5
350
330
1F
100
AcDbEntity
  8
0
  6
PHANTOM
 62
     8
370
     0
100
AcDbCircle
 10
564.5494345771
 20
9.0
 30
0.0
 40
22.9999999999999
100
AcDbArc
 50
3.7572227311
 51
65.8864958731
  0
ARC
  5
351
330
1F
100
AcDbEntity
  8
0
  6
PHANTOM
 62
     8
370
     0
100
AcDbCircle
 10
-528.5
 20
1.5
 30
0.0
 40
41.99999999999949
100
AcDbArc
 50
255.182200008
 51
285.0
  0
ARC
  5
352
330
1F
100
AcDbEntity
  8
0
  6
PHANTOM
 62
     8
370
     0
100
AcDbCircle
 10
-564.5494345771
 20
-7.5
 30
0.0
 40
22.99999999999992
100
AcDbArc
 50
183.7572227311
 51
245.8864958731
  0
ARC
  5
353
330
1F
100
AcDbEntity
  8
0
  6
PHANTOM
 62
     8
370
     0
100
AcDbCircle
 10
528.5
 20
0.0
 30
0.0
 40
41.9999999999995
100
AcDbArc
 50
255.0
 51
284.817799992
  0
ARC
  5
354
330
1F
100
AcDbEntity
  8
0
  6
PHANTOM
 62
     8
370
     0
100
AcDbCircle
 10
564.5494345771
 20
-9.0
 30
0.0
 40
23.00000000000014
100
AcDbArc
 50
294.1135041269
 51
356.2427772689
  0
ARC
  5
355
330
1F
100
AcDbEntity
  8
0
  6
PHANTOM
 62
     8
370
     0
100
AcDbCircle
 10
-242.3793237628
 20
-78.9751642229
 30
0.0
 40
32.95452973679473
100
AcDbArc
 50
286.3821937622
 51
312.5932138172
  0
ARC
  5
356
330
1F
100
AcDbEntity
  8
0
  6
PHANTOM
 62
     8
370
     0
100
AcDbCircle
 10
-247.8119204956
 20
-79.3155675283
 30
0.0
 40
22.27489312017397
100
AcDbArc
 50
270.1943912019
 51
285.711318925
  0
ARC
  5
357
330
1F
100
AcDbEntity
  8
0
  6
PHANTOM
 62
     8
370
     0
100
AcDbCircle
 10
-247.2777418548
 20
81.0499498779
 30
0.0
 40
22.35650518218486
100
AcDbArc
 50
72.9756254012
 51
89.828887929
  0
ARC
  5
358
330
1F
100
AcDbEntity
  8
0
  6
PHANTOM
 62
     8
370
     0
100
AcDbCircle
 10
-281.7749829025
 20
-26.3205911828
 30
0.0
 40
16.07929428367103
100
AcDbArc
 50
8.1016784169
 51
23.9241683989
  0
ARC
  5
359
330
1F
100
AcDbEntity
  8
0
  6
PHANTOM
 62
     8
370
     0
100
AcDbCircle
 10
-280.2002048619
 20
28.2005130812
 30
0.0
 40
14.74994845320627
100
AcDbArc
 50
327.1521806931
 51
351.9002071176
  0
ARC
  5
35A
330
1F
100
AcDbEntity
  8
0
  6
PHANTOM
 62
     8
370
     0
100
AcDbCircle
 10
-258.3592543399
 20
28.1357241324
 30
0.0
 40
52.19981282284332
100
AcDbArc
 50
271.0963583693
 51
281.8477642162
  0
ARC
  5
35B
330
1F
100
AcDbEntity
  8
0
  6
PHANTOM
 62
     8
370
     0
100
AcDbCircle
 10
-258.1013007675
 20
-22.683393277
 30
0.0
 40
48.81590868699281
100
AcDbArc
 50
77.3309088647
 51
88.826675905
  0
ARC
  5
35C
330
1F
100
AcDbEntity
  8
0
  6
PHANTOM
 62
     8
370
     0
100
AcDbCircle
 10
-237.5752183961
 20
-64.5327854086
 30
0.0
 40
14.91996114795812
100
AcDbArc
 50
273.8715116191
 51
310.9610943146
  0
ARC
  5
35D
330
1F
100
AcDbEntity
  8
0
  6
PHANTOM
 62
     8
370
     0
100
AcDbCircle
 10
-236.7459265106
 20
66.3728960217
 30
0.0
 40
14.65254827138326
100
AcDbArc
 50
48.3326445438
 51
86.0657151731
  0
ARC
  5
35E
330
1F
100
AcDbEntity
  8
0
  6
PHANTOM
 62
     8
370
     0
100
AcDbCircle
 10
-141.3056007157
 20
-7.0876913834
 30
0.0
 40
132.9308552738895
100
AcDbArc
 50
194.7691389775
 51
206.3993241412
  0
ARC
  5
35F
330
1F
100
AcDbEntity
  8
0
  6
PHANTOM
 62
     8
370
     0
100
AcDbCircle
 10
-142.9335124481
 20
8.1082330187
 30
0.0
 40
131.1916958259748
100
AcDbArc
 50
152.861871159
 51
164.5948251638
  0
ARC
  5
360
330
1F
100
AcDbEntity
  8
0
  6
PHANTOM
 62
     8
370
     0
100
AcDbCircle
 10
-202.2641657177
 20
-61.0619940356
 30
0.0
 40
48.73800963386878
100
AcDbArc
 50
257.9423053125
 51
269.9777665182
  0
ARC
  5
361
330
1F
100
AcDbEntity
  8
0
  6
PHANTOM
 62
     8
370
     0
100
AcDbCircle
 10
-202.2666373959
 20
61.5291805982
 30
0.0
 40
48.67082217867573
100
AcDbArc
 50
90.0193544894
 51
100.7210170729
  0
ARC
  5
362
330
1F
100
AcDbEntity
  8
0
  6
PHANTOM
 62
     8
370
     0
100
AcDbCircle
 10
-235.9246149672
 20
-27.4698616655
 30
0.0
 40
58.64549462882069
100
AcDbArc
 50
270.7535011244
 51
284.5850869659
  0
ARC
  5
363
330
1F
100
AcDbEntity
  8
0
  6
PHANTOM
 62
     8
370
     0
100
AcDbCircle
 10
-131.6372023438
 20
-104.8759541054
 30
0.0
 40
88.45407778819565
100
AcDbArc
 50
178.9373669131
 51
192.4687361713
  0
ARC
  5
364
330
1F
100
AcDbEntity
  8
0
  6
PHANTOM
 62
     8
370
     0
100
AcDbCircle
 10
-235.0363952197
 20
33.3254069716
 30
0.0
 40
54.30501969518122
100
AcDbArc
 50
74.2336571445
 51
89.1780874451
  0
ARC
  5
365
330
1F
100
AcDbEntity
  8
0
  6
PHANTOM
 62
     8
370
     0
100
AcDbCircle
 10
-231.3487748776
 20
94.8717888246
 30
0.0
 40
33.62392146197416
100
AcDbArc
 50
64.2535414486
 51
88.5212313037
  0
ARC
  5
366
330
1F
100
AcDbEntity
  8
0
  6
PHANTOM
 62
     8
370
     0
100
AcDbCircle
 10
-247.2504095451
 20
130.1409301979
 30
0.0
 40
9.424096541470881
100
AcDbArc
 50
309.3724918027
 51
349.8768711016
  0
ARC
  5
367
330
1F
100
AcDbEntity
  8
0
  6
PHANTOM
 62
     8
370
     0
100
AcDbCircle
 10
-228.6353451049
 20
-104.9218245949
 30
0.0
 40
88.02762878120264
100
AcDbArc
 50
346.9111313948
 51
0.079293711
  0
ARC
  5
368
330
1F
100
AcDbEntity
  8
0
  6
PHANTOM
 62
     8
370
     0
100
AcDbCircle
 10
-227.8340963334
 20
105.2994566191
 30
0.0
 40
88.30931519368042
100
AcDbArc
 50
359.9354717482
 51
12.4738877547
  0
ARC
  5
369
330
1F
100
AcDbEntity
  8
0
  6
PHANTOM
 62
     8
370
     0
100
AcDbCircle
 10
-157.4980890104
 20
-154.9655062665
 30
0.0
 40
33.46337129703481
100
AcDbArc
 50
64.1255920107
 51
88.5117369568
  0
ARC
  5
36A
330
1F
100
AcDbEntity
  8
0
  6
PHANTOM
 62
     8
370
     0
100
AcDbCircle
 10
-156.2342508253
 20
156.1208738843
 30
0.0
 40
34.95374511018832
100
AcDbArc
 50
271.4047062278
 51
294.7340494963
  0
ARC
  5
36B
330
1F
100
AcDbEntity
  8
0
  6
PHANTOM
 62
     8
370
     0
100
AcDbCircle
 10
-208.745886786
 20
-95.3136864348
 30
0.0
 40
9.567879896948764
100
AcDbArc
 50
274.9801080841
 51
330.1863355691
  0
ARC
  5
36C
330
1F
100
AcDbEntity
  8
0
  6
PHANTOM
 62
     8
370
     0
100
AcDbCircle
 10
-207.6488645299
 20
96.3336895878
 30
0.0
 40
9.44292375898252
100
AcDbArc
 50
29.2219004625
 51
85.0208314259
  0
ARC
  5
36D
330
1F
100
AcDbEntity
  8
0
  6
PHANTOM
 62
     8
370
     0
100
AcDbCircle
 10
-186.081553009
 20
-59.2156262357
 30
0.0
 40
50.58451370190892
100
AcDbArc
 50
244.4290096358
 51
269.8407070576
  0
ARC
  5
36E
330
1F
100
AcDbEntity
  8
0
  6
PHANTOM
 62
     8
370
     0
100
AcDbCircle
 10
-186.0998796381
 20
59.7938408983
 30
0.0
 40
50.40682004072208
100
AcDbArc
 50
90.3054924115
 51
114.2828774496
  0
ARC
  5
36F
330
1F
100
AcDbEntity
  8
0
  6
PHANTOM
 62
     8
370
     0
100
AcDbCircle
 10
-161.8854562412
 20
-98.0645658088
 30
0.0
 40
7.462295526630051
100
AcDbArc
 50
271.2871531675
 51
295.4986434344
  0
ARC
  5
370
330
1F
100
AcDbEntity
  8
0
  6
PHANTOM
 62
     8
370
     0
100
AcDbCircle
 10
-174.1930441194
 20
-117.363465523
 30
0.0
 40
32.18286963843051
100
AcDbArc
 50
346.5359979854
 51
22.9779854282
  0
ARC
  5
371
330
1F
100
AcDbEntity
  8
0
  6
PHANTOM
 62
     8
370
     0
100
AcDbCircle
 10
-122.5042285957
 20
-97.5830337465
 30
0.0
 40
15.1583952617605
100
AcDbArc
 50
208.4312283674
 51
250.039970305
  0
ARC
  5
372
330
1F
100
AcDbEntity
  8
0
  6
PHANTOM
 62
     8
370
     0
100
AcDbCircle
 10
-117.6058088609
 20
-80.1449822728
 30
0.0
 40
33.24846685462843
100
AcDbArc
 50
227.8626362748
 51
252.3645208281
  0
ARC
  5
373
330
1F
100
AcDbEntity
  8
0
  6
PHANTOM
 62
     8
370
     0
100
AcDbCircle
 10
-173.0662344046
 20
117.2007438341
 30
0.0
 40
32.264337408528
100
AcDbArc
 50
338.1640257769
 51
12.8454161798
  0
ARC
  5
374
330
1F
100
AcDbEntity
  8
0
  6
PHANTOM
 62
     8
370
     0
100
AcDbCircle
 10
-117.4918271328
 20
79.9853378436
 30
0.0
 40
32.29678782322375
100
AcDbArc
 50
106.2504379811
 51
128.6736989743
  0
ARC
  5
375
330
1F
100
AcDbEntity
  8
0
  6
PHANTOM
 62
     8
370
     0
100
AcDbCircle
 10
-122.124124277
 20
97.4488957634
 30
0.0
 40
14.24144359272914
100
AcDbArc
 50
108.019756519
 51
147.0256216204
  0
ARC
  5
376
330
1F
100
AcDbEntity
  8
0
  6
PHANTOM
 62
     8
370
     0
100
AcDbCircle
 10
-127.193710028
 20
-90.8769628662
 30
0.0
 40
32.12975002635082
100
AcDbArc
 50
247.7489901005
 51
269.7471258203
  0
ARC
  5
377
330
1F
100
AcDbEntity
  8
0
  6
PHANTOM
 62
     8
370
     0
100
AcDbCircle
 10
-126.6996493168
 20
90.1518359213
 30
0.0
 40
31.83925498876378
100
AcDbArc
 50
90.480801735
 51
111.0171225542
  0
ARC
  5
378
330
1F
100
AcDbEntity
  8
0
  6
PHANTOM
 62
     8
370
     0
100
AcDbCircle
 10
-119.3189534372
 20
83.4391861996
 30
0.0
 40
28.48052490647686
100
AcDbArc
 50
49.8233877194
 51
104.665746936
  0
ARC
  5
379
330
1F
100
AcDbEntity
  8
0
  6
PHANTOM
 62
     8
370
     0
100
AcDbCircle
 10
-137.8103894862
 20
-110.1123911183
 30
0.0
 40
10.2763309507581
100
AcDbArc
 50
350.3733242744
 51
31.1281574691
  0
ARC
  5
37A
330
1F
100
AcDbEntity
  8
0
  6
PHANTOM
 62
     8
370
     0
100
AcDbCircle
 10
-137.4683872035
 20
109.4261151421
 30
0.0
 40
11.05022583151914
100
AcDbArc
 50
337.5147212833
 51
8.1455126114
  0
ARC
  5
37B
330
1F
100
AcDbEntity
  8
0
  6
PHANTOM
 62
     8
370
     0
100
AcDbCircle
 10
139.7109353959
 20
-78.9751642229
 30
0.0
 40
32.9545297368235
100
AcDbArc
 50
286.3821937622
 51
312.5932138172
  0
ARC
  5
37C
330
1F
100
AcDbEntity
  8
0
  6
PHANTOM
 62
     8
370
     0
100
AcDbCircle
 10
134.2783386631
 20
-79.3155675282
 30
0.0
 40
22.27489312019052
100
AcDbArc
 50
270.1943912019
 51
285.7113189249
  0
ARC
  5
37D
330
1F
100
AcDbEntity
  8
0
  6
PHANTOM
 62
     8
370
     0
100
AcDbCircle
 10
134.8125173039
 20
81.0499498779
 30
0.0
 40
22.35650518218649
100
AcDbArc
 50
72.9756254012
 51
89.828887929
  0
ARC
  5
37E
330
1F
100
AcDbEntity
  8
0
  6
PHANTOM
 62
     8
370
     0
100
AcDbCircle
 10
202.3065469389
 20
-61.0189364617
 30
0.0
 40
48.78106918367124
100
AcDbArc
 50
257.9476368175
 51
269.9724350131
  0
ARC
  5
37F
330
1F
100
AcDbEntity
  8
0
  6
PHANTOM
 62
     8
370
     0
100
AcDbCircle
 10
263.2605560406
 20
-7.0876913834
 30
0.0
 40
132.9308552738881
100
AcDbArc
 50
194.7691389775
 51
206.3993241412
  0
ARC
  5
380
330
1F
100
AcDbEntity
  8
0
  6
PHANTOM
 62
     8
370
     0
100
AcDbCircle
 10
261.6326443082
 20
8.1082330187
 30
0.0
 40
131.1916958259743
100
AcDbArc
 50
152.861871159
 51
164.5948251638
  0
ARC
  5
381
330
1F
100
AcDbEntity
  8
0
  6
PHANTOM
 62
     8
370
     0
100
AcDbCircle
 10
202.2995193604
 20
61.5291805983
 30
0.0
 40
48.67082217858582
100
AcDbArc
 50
90.0193544894
 51
100.7210170729
  0
ARC
  5
382
330
1F
100
AcDbEntity
  8
0
  6
PHANTOM
 62
     8
370
     0
100
AcDbCircle
 10
107.8072421221
 20
-26.3205911828
 30
0.0
 40
16.07929428369272
100
AcDbArc
 50
8.1016784169
 51
23.9241683989
  0
ARC
  5
383
330
1F
100
AcDbEntity
  8
0
  6
PHANTOM
 62
     8
370
     0
100
AcDbCircle
 10
109.3820201626
 20
28.2005130812
 30
0.0
 40
14.74994845320623
100
AcDbArc
 50
327.1521806931
 51
351.9002071176
  0
ARC
  5
384
330
1F
100
AcDbEntity
  8
0
  6
PHANTOM
 62
     8
370
     0
100
AcDbCircle
 10
135.6235973325
 20
-75.2732529296
 30
0.0
 40
4.164641439620852
100
AcDbArc
 50
218.8570942363
 51
275.5032103103
  0
ARC
  5
385
330
1F
100
AcDbEntity
  8
0
  6
PHANTOM
 62
     8
370
     0
100
AcDbCircle
 10
136.4655358822
 20
76.8074285228
 30
0.0
 40
4.201137106707895
100
AcDbArc
 50
84.7459113609
 51
140.6447403814
  0
ARC
  5
386
330
1F
100
AcDbEntity
  8
0
  6
PHANTOM
 62
     8
370
     0
100
AcDbCircle
 10
250.4530568149
 20
-104.8759541054
 30
0.0
 40
88.45407778812303
100
AcDbArc
 50
178.9373669131
 51
192.4687361713
  0
ARC
  5
387
330
1F
100
AcDbEntity
  8
0
  6
PHANTOM
 62
     8
370
     0
100
AcDbCircle
 10
150.7414842811
 20
94.8717888246
 30
0.0
 40
33.62392146197358
100
AcDbArc
 50
64.2535414486
 51
88.5212313037
  0
ARC
  5
388
330
1F
100
AcDbEntity
  8
0
  6
PHANTOM
 62
     8
370
     0
100
AcDbCircle
 10
134.7087414644
 20
130.2283323075
 30
0.0
 40
9.56873317440365
100
AcDbArc
 50
308.9323878423
 51
349.4996520574
  0
ARC
  5
389
330
1F
100
AcDbEntity
  8
0
  6
PHANTOM
 62
     8
370
     0
100
AcDbCircle
 10
153.3916440415
 20
-104.9107597472
 30
0.0
 40
88.09176087743586
100
AcDbArc
 50
346.9134409207
 51
0.4820041917
  0
ARC
  5
38A
330
1F
100
AcDbEntity
  8
0
  6
PHANTOM
 62
     8
370
     0
100
AcDbCircle
 10
154.1130999413
 20
105.2759541054
 30
0.0
 40
88.45407778826208
100
AcDbArc
 50
358.9373669131
 51
12.4687361712
  0
ARC
  5
38B
330
1F
100
AcDbEntity
  8
0
  6
PHANTOM
 62
     8
370
     0
100
AcDbCircle
 10
224.5921701483
 20
-154.9655062665
 30
0.0
 40
33.46337129703225
100
AcDbArc
 50
64.1255920107
 51
88.5117369568
  0
ARC
  5
38C
330
1F
100
AcDbEntity
  8
0
  6
PHANTOM
 62
     8
370
     0
100
AcDbCircle
 10
225.8560083334
 20
156.1208738843
 30
0.0
 40
34.95374511024463
100
AcDbArc
 50
271.4047062278
 51
294.7340494963
  0
ARC
  5
38D
330
1F
100
AcDbEntity
  8
0
  6
PHANTOM
 62
     8
370
     0
100
AcDbCircle
 10
186.4528111286
 20
-59.7699957443
 30
0.0
 40
50.03025184645895
100
AcDbArc
 50
249.0394965637
 51
269.8197444185
  0
ARC
  5
38E
330
1F
100
AcDbEntity
  8
0
  6
PHANTOM
 62
     8
370
     0
100
AcDbCircle
 10
186.4619651649
 20
60.1922159979
 30
0.0
 40
50.00877258117786
100
AcDbArc
 50
90.4414642593
 51
109.4400719604
  0
ARC
  5
38F
330
1F
100
AcDbEntity
  8
0
  6
PHANTOM
 62
     8
370
     0
100
AcDbCircle
 10
208.0453478412
 20
-117.3733026333
 30
0.0
 40
32.03652733679412
100
AcDbArc
 50
346.4914232205
 51
24.4590220649
  0
ARC
  5
390
330
1F
100
AcDbEntity
  8
0
  6
PHANTOM
 62
     8
370
     0
100
AcDbCircle
 10
209.3721318571
 20
-117.3088472541
 30
0.0
 40
16.62947253163336
100
AcDbArc
 50
345.3544378797
 51
34.7701019267
  0
ARC
  5
391
330
1F
100
AcDbEntity
  8
0
  6
PHANTOM
 62
     8
370
     0
100
AcDbCircle
 10
210.099727871
 20
117.2135242992
 30
0.0
 40
17.07954347020957
100
AcDbArc
 50
327.1318556684
 51
13.4205554683
  0
ARC
  5
392
330
1F
100
AcDbEntity
  8
0
  6
PHANTOM
 62
     8
370
     0
100
AcDbCircle
 10
209.2782046821
 20
117.2119804793
 30
0.0
 40
32.01405299501572
100
AcDbArc
 50
335.775556332
 51
12.9269448933
  0
ARC
  5
393
330
1F
100
AcDbEntity
  8
0
  6
PHANTOM
 62
     8
370
     0
100
AcDbCircle
 10
201.097860397
 20
-117.3564488401
 30
0.0
 40
17.37603542297633
100
AcDbArc
 50
346.1585429215
 51
29.1003206163
  0
ARC
  5
394
330
1F
100
AcDbEntity
  8
0
  6
PHANTOM
 62
     8
370
     0
100
AcDbCircle
 10
202.2242367399
 20
117.1934639927
 30
0.0
 40
17.45738997489114
100
AcDbArc
 50
332.4325809833
 51
13.1924451532
  0
ARC
  5
395
330
1F
100
AcDbEntity
  8
0
  6
PHANTOM
 62
     8
370
     0
100
AcDbCircle
 10
264.5925929424
 20
-79.9025644686
 30
0.0
 40
33.51226780096898
100
AcDbArc
 50
226.396245222
 51
252.3138841228
  0
ARC
  5
396
330
1F
100
AcDbEntity
  8
0
  6
PHANTOM
 62
     8
370
     0
100
AcDbCircle
 10
264.8552213604
 20
79.3751642229
 30
0.0
 40
32.95452973685067
100
AcDbArc
 50
106.3821937622
 51
132.5932138172
  0
ARC
  5
397
330
1F
100
AcDbEntity
  8
0
  6
PHANTOM
 62
     8
370
     0
100
AcDbCircle
 10
254.8965491307
 20
-90.8769628663
 30
0.0
 40
32.12975002633647
100
AcDbArc
 50
247.7489901005
 51
269.7471258203
  0
ARC
  5
398
330
1F
100
AcDbEntity
  8
0
  6
PHANTOM
 62
     8
370
     0
100
AcDbCircle
 10
255.390609842
 20
90.1518359211
 30
0.0
 40
31.83925498902826
100
AcDbArc
 50
90.4808017351
 51
111.0171225541
  0
ENDSEC
  0
SECTION
  2
OBJECTS
  0
DICTIONARY
  5
C
330
0
100
AcDbDictionary
281
     1
  3
ACAD_GROUP
350
D
  3
ACAD_LAYOUT
350
1A
  3
ACAD_MLINESTYLE
350
17
  3
ACAD_PLOTSETTINGS
350
19
  3
ACAD_PLOTSTYLENAME
350
E
  3
ACAD_SCALELIST
350
47
  0
DICTIONARY
  5
D
102
{ACAD_REACTORS
330
C
102
}
330
C
100
AcDbDictionary
281
     1
  0
DICTIONARY
  5
1A
102
{ACAD_REACTORS
330
C
102
}
330
C
100
AcDbDictionary
281
     1
  3
Layout1
350
1E
  3
Layout2
350
26
  3
Model
350
22
  0
DICTIONARY
  5
17
102
{ACAD_REACTORS
330
C
102
}
330
C
100
AcDbDictionary
281
     1
  3
Standard
350
18
  0
DICTIONARY
  5
19
102
{ACAD_REACTORS
330
C
102
}
330
C
100
AcDbDictionary
281
     1
  0
ACDBDICTIONARYWDFLT
  5
E
102
{ACAD_REACTORS
330
C
102
}
330
C
100
AcDbDictionary
281
     1
  3
Normal
350
F
100
AcDbDictionaryWithDefault
340
F
  0
DICTIONARY
  5
47
102
{ACAD_REACTORS
330
C
102
}
330
C
100
AcDbDictionary
281
     1
  3
A0
350
48
  3
A1
350
49
  3
A2
350
4A
  3
A3
350
4B
  3
A4
350
4C
  3
A5
350
4D
  3
A6
350
4E
  3
A7
350
4F
  3
A8
350
50
  3
A9
350
51
  3
B0
350
52
  3
B1
350
53
  3
B2
350
54
  3
B3
350
55
  3
B4
350
56
  3
B5
350
57
  3
B6
350
58
  3
B7
350
59
  3
B8
350
5A
  3
B9
350
5B
  3
C0
350
5C
  3
C1
350
5D
  3
C2
350
5E
  3
C3
350
5F
  3
C4
350
60
  3
C5
350
61
  3
C6
350
62
  3
C7
350
63
  3
C8
350
64
  3
C9
350
65
  3
D0
350
66
  3
D1
350
67
  3
D2
350
68
  0
LAYOUT
  5
1E
102
{ACAD_REACTORS
330
1A
102
}
330
1A
100
AcDbPlotSettings
  1

  2
none_device
  4

  6

 40
0.0
 41
0.0
 42
0.0
 43
0.0
 44
0.0
 45
0.0
 46
0.0
 47
0.0
 48
0.0
 49
0.0
140
0.0
141
0.0
142
1.0
143
1.0
 70
   688
 72
     1
 73
     0
 74
     5
  7

 75
    16
147
1.0
148
0.0
149
0.0
100
AcDbLayout
  1
Layout1
 70
     1
 71
     1
 10
0.0
 20
0.0
 11
420.0
 21
297.0
 12
0.0
 22
0.0
 32
0.0
 14
1.0000000000E+20
 24
1.0000000000E+20
 34
1.0000000000E+20
 15
-1.0000000000E+20
 25
-1.0000000000E+20
 35
-1.0000000000E+20
146
0.0
 13
0.0
 23
0.0
 33
0.0
 16
1.0
 26
0.0
 36
0.0
 17
0.0
 27
1.0
 37
0.0
 76
     0
330
1B
  0
LAYOUT
  5
26
102
{ACAD_REACTORS
330
1A
102
}
330
1A
100
AcDbPlotSettings
  1

  2
none_device
  4

  6

 40
0.0
 41
0.0
 42
0.0
 43
0.0
 44
0.0
 45
0.0
 46
0.0
 47
0.0
 48
0.0
 49
0.0
140
0.0
141
0.0
142
1.0
143
1.0
 70
   688
 72
     1
 73
     0
 74
     5
  7

 75
    16
147
1.0
148
0.0
149
0.0
100
AcDbLayout
  1
Layout2
 70
     1
 71
     2
 10
0.0
 20
0.0
 11
0.0
 21
0.0
 12
0.0
 22
0.0
 32
0.0
 14
0.0
 24
0.0
 34
0.0
 15
0.0
 25
0.0
 35
0.0
146
0.0
 13
0.0
 23
0.0
 33
0.0
 16
1.0
 26
0.0
 36
0.0
 17
0.0
 27
1.0
 37
0.0
 76
     0
330
23
  0
LAYOUT
  5
22
102
{ACAD_REACTORS
330
1A
102
}
330
1A
100
AcDbPlotSettings
  1

  2
none_device
  4
ANSI_A_(11.00_x_8.50_Inches)
  6

 40
6.35
 41
19.05
 42
6.35000508
 43
19.05000254
 44
279.4
 45
215.9
 46
133.34999746
 47
88.89999873
 48
0.0
 49
0.0
140
0.0
141
0.0
142
0.0026842494
143
1.0
 70
  1696
 72
     0
 73
     0
 74
     0
  7

 75
     0
147
0.0179189148
148
-1300.4909072572
149
0.0
100
AcDbLayout
  1
Model
 70
     1
 71
     0
 10
0.0
 20
0.0
 11
420.0
 21
297.0
 12
0.0
 22
0.0
 32
0.0
 14
-2028.5
 24
-1528.5
 34
0.0
 15
2028.5
 25
1528.5
 35
0.0
146
0.0
 13
0.0
 23
0.0
 33
0.0
 16
1.0
 26
0.0
 36
0.0
 17
0.0
 27
1.0
 37
0.0
 76
     0
330
1F
331
29
  0
MLINESTYLE
  5
18
102
{ACAD_REACTORS
330
17
102
}
330
17
100
AcDbMlineStyle
  2
Standard
 70
     0
  3

 62
   256
 51
90.0
 52
90.0
 71
     2
 49
0.5
 62
   256
  6
BYLAYER
 49
-0.5
 62
   256
  6
BYLAYER
  0
ACDBPLACEHOLDER
  5
F
102
{ACAD_REACTORS
330
E
102
}
330
E
  0
SCALE
  5
48
102
{ACAD_REACTORS
330
47
102
}
330
47
100
AcDbScale
 70
     0
300
1:1
140
1.0
141
1.0
290
     1
  0
SCALE
  5
49
102
{ACAD_REACTORS
330
47
102
}
330
47
100
AcDbScale
 70
     0
300
1:2
140
1.0
141
2.0
290
     0
  0
SCALE
  5
4A
102
{ACAD_REACTORS
330
47
102
}
330
47
100
AcDbScale
 70
     0
300
1:4
140
1.0
141
4.0
290
     0
  0
SCALE
  5
4B
102
{ACAD_REACTORS
330
47
102
}
330
47
100
AcDbScale
 70
     0
300
1:5
140
1.0
141
5.0
290
     0
  0
SCALE
  5
4C
102
{ACAD_REACTORS
330
47
102
}
330
47
100
AcDbScale
 70
     0
300
1:8
140
1.0
141
8.0
290
     0
  0
SCALE
  5
4D
102
{ACAD_REACTORS
330
47
102
}
330
47
100
AcDbScale
 70
     0
300
1:10
140
1.0
141
10.0
290
     0
  0
SCALE
  5
4E
102
{ACAD_REACTORS
330
47
102
}
330
47
100
AcDbScale
 70
     0
300
1:16
140
1.0
141
16.0
290
     0
  0
SCALE
  5
4F
102
{ACAD_REACTORS
330
47
102
}
330
47
100
AcDbScale
 70
     0
300
1:20
140
1.0
141
20.0
290
     0
  0
SCALE
  5
50
102
{ACAD_REACTORS
330
47
102
}
330
47
100
AcDbScale
 70
     0
300
1:30
140
1.0
141
30.0
290
     0
  0
SCALE
  5
51
102
{ACAD_REACTORS
330
47
102
}
330
47
100
AcDbScale
 70
     0
300
1:40
140
1.0
141
40.0
290
     0
  0
SCALE
  5
52
102
{ACAD_REACTORS
330
47
102
}
330
47
100
AcDbScale
 70
     0
300
1:50
140
1.0
141
50.0
290
     0
  0
SCALE
  5
53
102
{ACAD_REACTORS
330
47
102
}
330
47
100
AcDbScale
 70
     0
300
1:100
140
1.0
141
100.0
290
     0
  0
SCALE
  5
54
102
{ACAD_REACTORS
330
47
102
}
330
47
100
AcDbScale
 70
     0
300
2:1
140
2.0
141
1.0
290
     0
  0
SCALE
  5
55
102
{ACAD_REACTORS
330
47
102
}
330
47
100
AcDbScale
 70
     0
300
4:1
140
4.0
141
1.0
290
     0
  0
SCALE
  5
56
102
{ACAD_REACTORS
330
47
102
}
330
47
100
AcDbScale
 70
     0
300
8:1
140
8.0
141
1.0
290
     0
  0
SCALE
  5
57
102
{ACAD_REACTORS
330
47
102
}
330
47
100
AcDbScale
 70
     0
300
10:1
140
10.0
141
1.0
290
     0
  0
SCALE
  5
58
102
{ACAD_REACTORS
330
47
102
}
330
47
100
AcDbScale
 70
     0
300
100:1
140
100.0
141
1.0
290
     0
  0
SCALE
  5
59
102
{ACAD_REACTORS
330
47
102
}
330
47
100
AcDbScale
 70
     0
300
1/128" = 1'-0"
140
0.0078125
141
12.0
290
     0
  0
SCALE
  5
5A
102
{ACAD_REACTORS
330
47
102
}
330
47
100
AcDbScale
 70
     0
300
1/64" = 1'-0"
140
0.015625
141
12.0
290
     0
  0
SCALE
  5
5B
102
{ACAD_REACTORS
330
47
102
}
330
47
100
AcDbScale
 70
     0
300
1/32" = 1'-0"
140
0.03125
141
12.0
290
     0
  0
SCALE
  5
5C
102
{ACAD_REACTORS
330
47
102
}
330
47
100
AcDbScale
 70
     0
300
1/16" = 1'-0"
140
0.0625
141
12.0
290
     0
  0
SCALE
  5
5D
102
{ACAD_REACTORS
330
47
102
}
330
47
100
AcDbScale
 70
     0
300
3/32" = 1'-0"
140
0.09375
141
12.0
290
     0
  0
SCALE
  5
5E
102
{ACAD_REACTORS
330
47
102
}
330
47
100
AcDbScale
 70
     0
300
1/8" = 1'-0"
140
0.125
141
12.0
290
     0
  0
SCALE
  5
5F
102
{ACAD_REACTORS
330
47
102
}
330
47
100
AcDbScale
 70
     0
300
3/16" = 1'-0"
140
0.1875
141
12.0
290
     0
  0
SCALE
  5
60
102
{ACAD_REACTORS
330
47
102
}
330
47
100
AcDbScale
 70
     0
300
1/4" = 1'-0"
140
0.25
141
12.0
290
     0
  0
SCALE
  5
61
102
{ACAD_REACTORS
330
47
102
}
330
47
100
AcDbScale
 70
     0
300
3/8" = 1'-0"
140
0.375
141
12.0
290
     0
  0
SCALE
  5
62
102
{ACAD_REACTORS
330
47
102
}
330
47
100
AcDbScale
 70
     0
300
1/2" = 1'-0"
140
0.5
141
12.0
290
     0
  0
SCALE
  5
63
102
{ACAD_REACTORS
330
47
102
}
330
47
100
AcDbScale
 70
     0
300
3/4" = 1'-0"
140
0.75
141
12.0
290
     0
  0
SCALE
  5
64
102
{ACAD_REACTORS
330
47
102
}
330
47
100
AcDbScale
 70
     0
300
1" = 1'-0"
140
1.0
141
12.0
290
     0
  0
SCALE
  5
65
102
{ACAD_REACTORS
330
47
102
}
330
47
100
AcDbScale
 70
     0
300
1-1/2" = 1'-0"
140
1.5
141
12.0
290
     0
  0
SCALE
  5
66
102
{ACAD_REACTORS
330
47
102
}
330
47
100
AcDbScale
 70
     0
300
3" = 1'-0"
140
3.0
141
12.0
290
     0
  0
SCALE
  5
67
102
{ACAD_REACTORS
330
47
102
}
330
47
100
AcDbScale
 70
     0
300
6" = 1'-0"
140
6.0
141
12.0
290
     0
  0
SCALE
  5
68
102
{ACAD_REACTORS
330
47
102
}
330
47
100
AcDbScale
 70
     0
300
1'-0" = 1'-0"
140
12.0
141
12.0
290
     0
  0
ENDSEC
  0
EOF
