  0
SECTION
  2
HEADER
  9
$ACADVER
  1
AC1015
  9
$ACADMAINTVER
 70
     6
  9
$DWGCODEPAGE
  3
ANSI_1251
  9
$INSBASE
 10
0.0
 20
0.0
 30
0.0
  9
$EXTMIN
 10
0.0
 20
0.0
 30
0.0
  9
$EXTMAX
 10
10500.0
 20
7425.0
 30
0.0
  9
$LIMMIN
 10
0.0
 20
0.0
  9
$LIMMAX
 10
10500.0
 20
7425.0
  9
$ORTHOMODE
 70
     0
  9
$REGENMODE
 70
     1
  9
$FILLMODE
 70
     1
  9
$QTEXTMODE
 70
     0
  9
$MIRRTEXT
 70
     1
  9
$LTSCALE
 40
25.0
  9
$ATTMODE
 70
     1
  9
$TEXTSIZE
 40
75.0
  9
$TRACEWID
 40
1.0
  9
$TEXTSTYLE
  7
Standard
  9
$CLAYER
  8
0
  9
$CELTYPE
  6
ByLayer
  9
$CECOLOR
 62
   256
  9
$CELTSCALE
 40
1.0
  9
$DISPSILH
 70
     0
  9
$DIMSCALE
 40
1.0
  9
$DIMASZ
 40
75.0
  9
$DIMEXO
 40
0.0
  9
$DIMDLI
 40
3.75
  9
$DIMRND
 40
0.0
  9
$DIMDLE
 40
0.0
  9
$DIMEXE
 40
25.0
  9
$DIMTP
 40
0.0
  9
$DIMTM
 40
0.0
  9
$DIMTXT
 40
75.0
  9
$DIMCEN
 40
2.5
  9
$DIMTSZ
 40
0.0
  9
$DIMTOL
 70
     0
  9
$DIMLIM
 70
     0
  9
$DIMTIH
 70
     1
  9
$DIMTOH
 70
     1
  9
$DIMSE1
 70
     0
  9
$DIMSE2
 70
     0
  9
$DIMTAD
 70
     1
  9
$DIMZIN
 70
     0
  9
$DIMBLK
  1

  9
$DIMASO
 70
     1
  9
$DIMSHO
 70
     1
  9
$DIMPOST
  1

  9
$DIMAPOST
  1

  9
$DIMALT
 70
     0
  9
$DIMALTD
 70
     3
  9
$DIMALTF
 40
0.0393700787
  9
$DIMLFAC
 40
1.0
  9
$DIMTOFL
 70
     1
  9
$DIMTVP
 40
0.0
  9
$DIMTIX
 70
     0
  9
$DIMSOXD
 70
     0
  9
$DIMSAH
 70
     0
  9
$DIMBLK1
  1

  9
$DIMBLK2
  1

  9
$DIMSTYLE
  2
ISO-25
  9
$DIMCLRD
 70
     0
  9
$DIMCLRE
 70
     0
  9
$DIMCLRT
 70
     0
  9
$DIMTFAC
 40
1.0
  9
$DIMGAP
 40
38.1
  9
$DIMJUST
 70
     0
  9
$DIMSD1
 70
     0
  9
$DIMSD2
 70
     0
  9
$DIMTOLJ
 70
     0
  9
$DIMTZIN
 70
     0
  9
$DIMALTZ
 70
     0
  9
$DIMALTTZ
 70
     0
  9
$DIMUPT
 70
     0
  9
$DIMDEC
 70
     0
  9
$DIMTDEC
 70
     2
  9
$DIMALTU
 70
     2
  9
$DIMALTTD
 70
     3
  9
$DIMTXSTY
  7
Standard
  9
$DIMAUNIT
 70
     0
  9
$DIMADEC
 70
     0
  9
$DIMALTRND
 40
0.0
  9
$DIMAZIN
 70
     0
  9
$DIMDSEP
 70
    44
  9
$DIMATFIT
 70
     3
  9
$DIMFRAC
 70
     0
  9
$DIMLDRBLK
  1

  9
$DIMLUNIT
 70
     2
  9
$DIMLWD
 70
    -2
  9
$DIMLWE
 70
    -2
  9
$DIMTMOVE
 70
     0
  9
$LUNITS
 70
     2
  9
$LUPREC
 70
     2
  9
$SKETCHINC
 40
1.0
  9
$FILLETRAD
 40
10.0
  9
$AUNITS
 70
     1
  9
$AUPREC
 70
     2
  9
$MENU
  1
.
  9
$ELEVATION
 40
0.0
  9
$PELEVATION
 40
0.0
  9
$THICKNESS
 40
0.0
  9
$LIMCHECK
 70
     0
  9
$CHAMFERA
 40
0.0
  9
$CHAMFERB
 40
0.0
  9
$CHAMFERC
 40
0.0
  9
$CHAMFERD
 40
0.0
  9
$SKPOLY
 70
     0
  9
$TDCREATE
 40
2459788.724255451
  9
$TDUCREATE
 40
2459788.599255451
  9
$TDUPDATE
 40
2459788.724256204
  9
$TDUUPDATE
 40
2459788.599256204
  9
$TDINDWG
 40
0.0000000116
  9
$TDUSRTIMER
 40
0.0000000116
  9
$USRTIMER
 70
     1
  9
$ANGBASE
 50
0.0
  9
$ANGDIR
 70
     0
  9
$PDMODE
 70
     0
  9
$PDSIZE
 40
-1.0
  9
$PLINEWID
 40
0.0
  9
$SPLFRAME
 70
     0
  9
$SPLINETYPE
 70
     6
  9
$SPLINESEGS
 70
     8
  9
$HANDSEED
  5
245
  9
$SURFTAB1
 70
     6
  9
$SURFTAB2
 70
     6
  9
$SURFTYPE
 70
     6
  9
$SURFU
 70
     6
  9
$SURFV
 70
     6
  9
$UCSBASE
  2

  9
$UCSNAME
  2

  9
$UCSORG
 10
0.0
 20
0.0
 30
0.0
  9
$UCSXDIR
 10
1.0
 20
0.0
 30
0.0
  9
$UCSYDIR
 10
0.0
 20
1.0
 30
0.0
  9
$UCSORTHOREF
  2

  9
$UCSORTHOVIEW
 70
     0
  9
$UCSORGTOP
 10
0.0
 20
0.0
 30
0.0
  9
$UCSORGBOTTOM
 10
0.0
 20
0.0
 30
0.0
  9
$UCSORGLEFT
 10
0.0
 20
0.0
 30
0.0
  9
$UCSORGRIGHT
 10
0.0
 20
0.0
 30
0.0
  9
$UCSORGFRONT
 10
0.0
 20
0.0
 30
0.0
  9
$UCSORGBACK
 10
0.0
 20
0.0
 30
0.0
  9
$PUCSBASE
  2

  9
$PUCSNAME
  2

  9
$PUCSORG
 10
0.0
 20
0.0
 30
0.0
  9
$PUCSXDIR
 10
1.0
 20
0.0
 30
0.0
  9
$PUCSYDIR
 10
0.0
 20
1.0
 30
0.0
  9
$PUCSORTHOREF
  2

  9
$PUCSORTHOVIEW
 70
     0
  9
$PUCSORGTOP
 10
0.0
 20
0.0
 30
0.0
  9
$PUCSORGBOTTOM
 10
0.0
 20
0.0
 30
0.0
  9
$PUCSORGLEFT
 10
0.0
 20
0.0
 30
0.0
  9
$PUCSORGRIGHT
 10
0.0
 20
0.0
 30
0.0
  9
$PUCSORGFRONT
 10
0.0
 20
0.0
 30
0.0
  9
$PUCSORGBACK
 10
0.0
 20
0.0
 30
0.0
  9
$USERI1
 70
     0
  9
$USERI2
 70
     0
  9
$USERI3
 70
     0
  9
$USERI4
 70
     0
  9
$USERI5
 70
     0
  9
$USERR1
 40
0.0
  9
$USERR2
 40
0.0
  9
$USERR3
 40
0.0
  9
$USERR4
 40
0.0
  9
$USERR5
 40
0.0
  9
$WORLDVIEW
 70
     1
  9
$SHADEDGE
 70
     3
  9
$SHADEDIF
 70
    70
  9
$TILEMODE
 70
     1
  9
$MAXACTVP
 70
    64
  9
$PINSBASE
 10
0.0
 20
0.0
 30
0.0
  9
$PLIMCHECK
 70
     0
  9
$PEXTMIN
 10
1.0000000000E+20
 20
1.0000000000E+20
 30
1.0000000000E+20
  9
$PEXTMAX
 10
-1.0000000000E+20
 20
-1.0000000000E+20
 30
-1.0000000000E+20
  9
$PLIMMIN
 10
0.0
 20
0.0
  9
$PLIMMAX
 10
420.0
 20
297.0
  9
$UNITMODE
 70
     0
  9
$VISRETAIN
 70
     1
  9
$PLINEGEN
 70
     0
  9
$PSLTSCALE
 70
     1
  9
$TREEDEPTH
 70
  3020
  9
$CMLSTYLE
  2
Standard
  9
$CMLJUST
 70
     0
  9
$CMLSCALE
 40
20.0
  9
$PROXYGRAPHICS
 70
     1
  9
$MEASUREMENT
 70
     1
  9
$CELWEIGHT
370
    -1
  9
$ENDCAPS
280
     0
  9
$JOINSTYLE
280
     0
  9
$LWDISPLAY
290
     1
  9
$INSUNITS
 70
     4
  9
$HYPERLINKBASE
  1

  9
$STYLESHEET
  1

  9
$XEDIT
290
     1
  9
$CEPSNTYPE
380
     0
  9
$PSTYLEMODE
290
     1
  9
$FINGERPRINTGUID
  2
{E9C32010-3A89-4864-A466-FFA64CB250D0}
  9
$VERSIONGUID
  2
{FAEB1C32-E019-11D5-929B-00C0DF256EC4}
  9
$EXTNAMES
290
     1
  9
$PSVPSCALE
 40
0.0
  9
$OLESTARTUP
290
     0
  0
ENDSEC
  0
SECTION
  2
CLASSES
  0
CLASS
  1
ACDBDICTIONARYWDFLT
  2
AcDbDictionaryWithDefault
  3
ObjectDBX Classes
 90
        0
280
     0
281
     0
  0
CLASS
  1
VISUALSTYLE
  2
AcDbVisualStyle
  3
ObjectDBX Classes
 90
     4095
280
     0
281
     0
  0
CLASS
  1
MATERIAL
  2
AcDbMaterial
  3
ObjectDBX Classes
 90
     1153
280
     0
281
     0
  0
CLASS
  1
SCALE
  2
AcDbScale
  3
ObjectDBX Classes
 90
     1153
280
     0
281
     0
  0
CLASS
  1
SUN
  2
AcDbSun
  3
SCENEOE
 90
     1153
280
     0
281
     0
  0
CLASS
  1
ACDBPLACEHOLDER
  2
AcDbPlaceHolder
  3
ObjectDBX Classes
 90
        0
280
     0
281
     0
  0
CLASS
  1
LAYOUT
  2
AcDbLayout
  3
ObjectDBX Classes
 90
        0
280
     0
281
     0
  0
ENDSEC
  0
SECTION
  2
TABLES
  0
TABLE
  2
VPORT
  5
8
330
0
100
AcDbSymbolTable
 70
     1
  0
VPORT
  5
29
330
8
100
AcDbSymbolTableRecord
100
AcDbViewportTableRecord
  2
*Active
 70
     0
 10
0.0
 20
0.0
 11
1.0
 21
1.0
 12
5250.0
 22
3712.5
 13
0.0
 23
0.0
 14
10.0
 24
10.0
 15
10.0
 25
10.0
 16
0.0
 26
0.0
 36
1.0
 17
0.0
 27
0.0
 37
0.0
 40
7425.0
 41
1.4141414141
 42
50.0
 43
0.0
 44
0.0
 50
0.0
 51
0.0
 71
     0
 72
  2000
 73
     1
 74
     3
 75
     0
 76
     0
 77
     0
 78
     0
281
     0
 65
     1
110
0.0
120
0.0
130
0.0
111
1.0
121
0.0
131
0.0
112
0.0
122
1.0
132
0.0
 79
     0
146
0.0
  0
ENDTAB
  0
TABLE
  2
LTYPE
  5
5
330
0
100
AcDbSymbolTable
 70
     6
  0
LTYPE
  5
14
330
5
100
AcDbSymbolTableRecord
100
AcDbLinetypeTableRecord
  2
ByBlock
 70
     0
  3

 72
    65
 73
     0
 40
0.0
  0
LTYPE
  5
15
330
5
100
AcDbSymbolTableRecord
100
AcDbLinetypeTableRecord
  2
ByLayer
 70
     0
  3

 72
    65
 73
     0
 40
0.0
  0
LTYPE
  5
16
330
5
100
AcDbSymbolTableRecord
100
AcDbLinetypeTableRecord
  2
Continuous
 70
     0
  3
Solid line
 72
    65
 73
     0
 40
0.0
  0
LTYPE
  5
6A
330
5
100
AcDbSymbolTableRecord
100
AcDbLinetypeTableRecord
  2
HIDDEN
 70
     0
  3
Hidden __ __ __ __ __ __ __ __ __ __ __ __ __ __
 72
    65
 73
     2
 40
1.905
 49
1.27
 74
     0
 49
-0.635
 74
     0
  0
LTYPE
  5
6B
330
5
100
AcDbSymbolTableRecord
100
AcDbLinetypeTableRecord
  2
PHANTOM
 70
     0
  3
Phantom ______  __  __  ______  __  __  ______
 72
    65
 73
     6
 40
12.7
 49
6.35
 74
     0
 49
-1.27
 74
     0
 49
1.27
 74
     0
 49
-1.27
 74
     0
 49
1.27
 74
     0
 49
-1.27
 74
     0
  0
LTYPE
  5
6C
330
5
100
AcDbSymbolTableRecord
100
AcDbLinetypeTableRecord
  2
CENTER
 70
     0
  3
Center ____ _ ____ _ ____ _ ____ _ ____ _ ____
 72
    65
 73
     4
 40
10.16
 49
6.35
 74
     0
 49
-1.27
 74
     0
 49
1.27
 74
     0
 49
-1.27
 74
     0
  0
LTYPE
  5
6D
330
5
100
AcDbSymbolTableRecord
100
AcDbLinetypeTableRecord
  2
CENTERX2
 70
     0
  3
Center (2x) ________  __  ________  __  _____
 72
    65
 73
     4
 40
20.32
 49
12.7
 74
     0
 49
-2.54
 74
     0
 49
2.54
 74
     0
 49
-2.54
 74
     0
  0
LTYPE
  5
6E
330
5
100
AcDbSymbolTableRecord
100
AcDbLinetypeTableRecord
  2
DOT2
 70
     0
  3
Dot (.5x) ........................................
 72
    65
 73
     2
 40
0.635
 49
0.0
 74
     0
 49
-0.635
 74
     0
  0
ENDTAB
  0
TABLE
  2
LAYER
  5
2
330
0
100
AcDbSymbolTable
 70
     5
  0
LAYER
  5
10
330
2
100
AcDbSymbolTableRecord
100
AcDbLayerTableRecord
  2
0
 70
     0
 62
     7
  6
Continuous
370
    -3
390
F
  0
LAYER
  5
6F
330
2
100
AcDbSymbolTableRecord
100
AcDbLayerTableRecord
  2
К
 70
     0
 62
     1
  6
Continuous
370
    -3
390
F
  0
LAYER
  5
70
330
2
100
AcDbSymbolTableRecord
100
AcDbLayerTableRecord
  2
С
 70
     0
 62
     5
  6
Continuous
370
    -3
390
F
  0
LAYER
  5
71
330
2
100
AcDbSymbolTableRecord
100
AcDbLayerTableRecord
  2
Р
 70
     0
 62
    42
  6
Continuous
370
    -3
390
F
  0
LAYER
  5
72
330
2
100
AcDbSymbolTableRecord
100
AcDbLayerTableRecord
  2
FORMAT
 70
     0
 62
     7
  6
Continuous
370
    -3
390
F
  0
ENDTAB
  0
TABLE
  2
STYLE
  5
3
330
0
100
AcDbSymbolTable
 70
     1
  0
STYLE
  5
11
330
3
100
AcDbSymbolTableRecord
100
AcDbTextStyleTableRecord
  2
Standard
 70
     0
 40
0.0
 41
1.0
 50
0.0
 71
     0
 42
75.0
  3
txt
  4

  0
ENDTAB
  0
TABLE
  2
VIEW
  5
6
330
0
100
AcDbSymbolTable
 70
     0
  0
ENDTAB
  0
TABLE
  2
UCS
  5
7
330
0
100
AcDbSymbolTable
 70
     0
  0
ENDTAB
  0
TABLE
  2
APPID
  5
9
330
0
100
AcDbSymbolTable
 70
     1
  0
APPID
  5
12
330
9
100
AcDbSymbolTableRecord
100
AcDbRegAppTableRecord
  2
ACAD
 70
     0
  0
ENDTAB
  0
TABLE
  2
DIMSTYLE
  5
A
330
0
100
AcDbSymbolTable
 70
     1
100
AcDbDimStyleTable
  0
DIMSTYLE
105
27
330
A
100
AcDbSymbolTableRecord
100
AcDbDimStyleTableRecord
  2
ISO-25
 70
     0
 41
2.5
 42
0.625
 43
3.75
 44
1.25
 73
     0
 74
     0
 77
     1
 78
     8
140
2.5
141
2.5
143
0.0393700787
147
0.625
171
     3
172
     1
178
     0
271
     2
272
     2
274
     3
278
    44
283
     0
284
     8
340
11
  0
ENDTAB
  0
TABLE
  2
BLOCK_RECORD
  5
1
330
0
100
AcDbSymbolTable
 70
     1
  0
BLOCK_RECORD
  5
1F
330
1
100
AcDbSymbolTableRecord
100
AcDbBlockTableRecord
  2
*Model_Space
340
22
  0
BLOCK_RECORD
  5
1B
330
1
100
AcDbSymbolTableRecord
100
AcDbBlockTableRecord
  2
*Paper_Space
340
1E
  0
BLOCK_RECORD
  5
23
330
1
100
AcDbSymbolTableRecord
100
AcDbBlockTableRecord
  2
*Paper_Space0
340
26
  0
ENDTAB
  0
ENDSEC
  0
SECTION
  2
BLOCKS
  0
BLOCK
  5
20
330
1F
100
AcDbEntity
  8
0
100
AcDbBlockBegin
  2
*Model_Space
 70
     0
 10
0.0
 20
0.0
 30
0.0
  3
*Model_Space
  1
*Model_Space
  0
ENDBLK
  5
21
330
1F
100
AcDbEntity
  8
0
100
AcDbBlockEnd
  0
BLOCK
  5
1C
330
1B
100
AcDbEntity
 67
     1
  8
0
100
AcDbBlockBegin
  2
*Paper_Space
 70
     0
 10
0.0
 20
0.0
 30
0.0
  3
*Paper_Space
  1
*Paper_Space
  0
ENDBLK
  5
1D
330
1B
100
AcDbEntity
 67
     1
  8
0
100
AcDbBlockEnd
  0
BLOCK
  5
24
330
23
100
AcDbEntity
  8
0
100
AcDbBlockBegin
  2
*Paper_Space0
 70
     0
 10
0.0
 20
0.0
 30
0.0
  3
*Paper_Space0
  1
*Paper_Space0
  0
ENDBLK
  5
25
330
23
100
AcDbEntity
  8
0
100
AcDbBlockEnd
  0
ENDSEC
  0
SECTION
  2
ENTITIES
  0
ARC
  5
73
330
1F
100
AcDbEntity
  8
0
  6
Continuous
 62
     7
370
    15
100
AcDbCircle
 10
5542.3347787681
 20
3823.0688069363
 30
0.0
 40
6.538500000000066
100
AcDbArc
 50
154.1580672363
 51
162.0432066363
  0
ARC
  5
74
330
1F
100
AcDbEntity
  8
0
  6
Continuous
 62
     7
370
    15
100
AcDbCircle
 10
5546.2578787681
 20
3823.0688069363
 30
0.0
 40
6.538500000000485
100
AcDbArc
 50
17.9567933637
 51
25.8419327637
  0
ARC
  5
75
330
1F
100
AcDbEntity
  8
0
  6
Continuous
 62
     7
370
    15
100
AcDbCircle
 10
5544.2963287681
 20
3825.9188730106
 30
0.0
 40
7.846199999972669
100
AcDbArc
 50
0.0
 51
90.0
  0
ARC
  5
76
330
1F
100
AcDbEntity
  8
0
  6
Continuous
 62
     7
370
    15
100
AcDbCircle
 10
5544.2963287681
 20
3825.9188730106
 30
0.0
 40
7.846199999972669
100
AcDbArc
 50
90.0
 51
180.0
  0
ARC
  5
77
330
1F
100
AcDbEntity
  8
0
  6
Continuous
 62
     7
370
    15
100
AcDbCircle
 10
4642.3347787681
 20
3823.0688069363
 30
0.0
 40
6.538499999999717
100
AcDbArc
 50
154.1580672363
 51
162.0432066363
  0
ARC
  5
78
330
1F
100
AcDbEntity
  8
0
  6
Continuous
 62
     7
370
    15
100
AcDbCircle
 10
4646.2578787681
 20
3823.0688069363
 30
0.0
 40
6.538499999999717
100
AcDbArc
 50
17.9567933637
 51
25.8419327637
  0
ARC
  5
79
330
1F
100
AcDbEntity
  8
0
  6
Continuous
 62
     7
370
    15
100
AcDbCircle
 10
4644.2963287681
 20
3825.9188730106
 30
0.0
 40
7.846199999972669
100
AcDbArc
 50
0.0
 51
90.0
  0
ARC
  5
7A
330
1F
100
AcDbEntity
  8
0
  6
Continuous
 62
     7
370
    15
100
AcDbCircle
 10
4644.2963287681
 20
3825.9188730106
 30
0.0
 40
7.846199999972669
100
AcDbArc
 50
90.0
 51
180.0
  0
LINE
  5
7B
330
1F
100
AcDbEntity
  8
0
  6
Continuous
 62
     7
370
    15
100
AcDbLine
 10
4634.2963204235
 20
3827.4572731894
 30
0.0
 11
4634.2963204235
 21
3825.4572765869
 31
0.0
  0
LINE
  5
7C
330
1F
100
AcDbEntity
  8
0
  6
Continuous
 62
     7
370
    15
100
AcDbLine
 10
4654.2963311523
 20
3825.4572765869
 30
0.0
 11
4654.2963311523
 21
3827.4572731894
 31
0.0
  0
LINE
  5
7D
330
1F
100
AcDbEntity
  8
0
  6
Continuous
 62
     7
370
    15
100
AcDbLine
 10
5554.2963371128
 20
3643.4572728318
 30
0.0
 11
5554.2963371128
 21
3645.4572694343
 31
0.0
  0
LINE
  5
7E
330
1F
100
AcDbEntity
  8
0
  6
Continuous
 62
     7
370
    15
100
AcDbLine
 10
5534.2963263839
 20
3645.4572694343
 30
0.0
 11
5534.2963263839
 21
3643.4572728318
 31
0.0
  0
LINE
  5
7F
330
1F
100
AcDbEntity
  8
0
  6
Continuous
 62
     7
370
    15
100
AcDbLine
 10
5534.2963263839
 20
3827.4572731894
 30
0.0
 11
5534.2963263839
 21
3825.4572765869
 31
0.0
  0
LINE
  5
80
330
1F
100
AcDbEntity
  8
0
  6
Continuous
 62
     7
370
    15
100
AcDbLine
 10
5554.2963371128
 20
3825.4572765869
 30
0.0
 11
5554.2963371128
 21
3827.4572731894
 31
0.0
  0
LINE
  5
81
330
1F
100
AcDbEntity
  8
0
  6
Continuous
 62
     7
370
    15
100
AcDbLine
 10
4654.2963311523
 20
3643.4572728318
 30
0.0
 11
4654.2963311523
 21
3645.4572694343
 31
0.0
  0
LINE
  5
82
330
1F
100
AcDbEntity
  8
0
  6
Continuous
 62
     7
370
    15
100
AcDbLine
 10
4634.2963204235
 20
3645.4572694343
 30
0.0
 11
4634.2963204235
 21
3643.4572728318
 31
0.0
  0
LINE
  5
83
330
1F
100
AcDbEntity
  8
0
  6
Continuous
 62
     7
370
    15
100
AcDbLine
 10
5552.7963266224
 20
3834.168599729
 30
0.0
 11
5552.2963330597
 21
3834.4572724742
 31
0.0
  0
LINE
  5
84
330
1F
100
AcDbEntity
  8
0
  6
Continuous
 62
     7
370
    15
100
AcDbLine
 10
5536.2963304371
 20
3834.4572724742
 30
0.0
 11
5535.7963368744
 21
3834.168599729
 31
0.0
  0
LINE
  5
85
330
1F
100
AcDbEntity
  8
0
  6
Continuous
 62
     7
370
    15
100
AcDbLine
 10
4635.7963309139
 20
3636.7459462923
 30
0.0
 11
4636.2963244766
 21
3636.4572735471
 31
0.0
  0
LINE
  5
86
330
1F
100
AcDbEntity
  8
0
  6
Continuous
 62
     7
370
    15
100
AcDbLine
 10
4652.2963270992
 20
3636.4572735471
 30
0.0
 11
4652.7963206619
 21
3636.7459462923
 31
0.0
  0
LINE
  5
87
330
1F
100
AcDbEntity
  8
0
  6
Continuous
 62
     7
370
    15
100
AcDbLine
 10
4652.7963206619
 20
3834.168599729
 30
0.0
 11
4652.2963270992
 21
3834.4572724742
 31
0.0
  0
LINE
  5
88
330
1F
100
AcDbEntity
  8
0
  6
Continuous
 62
     7
370
    15
100
AcDbLine
 10
4636.2963244766
 20
3834.4572724742
 30
0.0
 11
4635.7963309139
 21
3834.168599729
 31
0.0
  0
LINE
  5
89
330
1F
100
AcDbEntity
  8
0
  6
Continuous
 62
     7
370
    15
100
AcDbLine
 10
5535.7963368744
 20
3636.7459462923
 30
0.0
 11
5536.2963304371
 21
3636.4572735471
 31
0.0
  0
LINE
  5
8A
330
1F
100
AcDbEntity
  8
0
  6
Continuous
 62
     7
370
    15
100
AcDbLine
 10
5552.2963330597
 20
3636.4572735471
 30
0.0
 11
5552.7963266224
 21
3636.7459462923
 31
0.0
  0
LINE
  5
8B
330
1F
100
AcDbEntity
  8
0
  6
Continuous
 62
     7
370
    15
100
AcDbLine
 10
5427.5463149399
 20
4175.4572706264
 30
0.0
 11
4761.0463425964
 21
4175.4572706264
 31
0.0
  0
LINE
  5
8C
330
1F
100
AcDbEntity
  8
0
  6
Continuous
 62
     7
370
    15
100
AcDbLine
 10
4761.0463425964
 20
4141.9572846931
 30
0.0
 11
5427.5463149399
 21
4141.9572846931
 31
0.0
  0
ARC
  5
8D
330
1F
100
AcDbEntity
  8
0
  6
Continuous
 62
     7
370
    15
100
AcDbCircle
 10
4761.0463287681
 20
4041.9572730106
 30
0.0
 40
100.0000000000009
100
AcDbArc
 50
90.0
 51
180.0
  0
ARC
  5
8E
330
1F
100
AcDbEntity
  8
0
  6
Continuous
 62
     7
370
    15
100
AcDbCircle
 10
4761.0463287681
 20
4041.9572730106
 30
0.0
 40
133.5000000000009
100
AcDbArc
 50
90.0
 51
180.0
  0
ARC
  5
8F
330
1F
100
AcDbEntity
  8
0
  6
Continuous
 62
     7
370
    15
100
AcDbCircle
 10
5427.5463287681
 20
4041.9572730106
 30
0.0
 40
100.0000000000018
100
AcDbArc
 50
0.0
 51
90.0
  0
ARC
  5
90
330
1F
100
AcDbEntity
  8
0
  6
Continuous
 62
     7
370
    15
100
AcDbCircle
 10
5427.5463287681
 20
4041.9572730106
 30
0.0
 40
133.5000000000009
100
AcDbArc
 50
0.0
 51
90.0
  0
LINE
  5
91
330
1F
100
AcDbEntity
  8
0
  6
Continuous
 62
     7
370
    15
100
AcDbLine
 10
4661.0463187546
 20
3825.4572765869
 30
0.0
 11
4661.0463187546
 21
4041.9572608513
 31
0.0
  0
LINE
  5
92
330
1F
100
AcDbEntity
  8
0
  6
Continuous
 62
     7
370
    15
100
AcDbLine
 10
4627.5463328212
 20
4041.9572608513
 30
0.0
 11
4627.5463328212
 21
3825.4572765869
 31
0.0
  0
LINE
  5
93
330
1F
100
AcDbEntity
  8
0
  6
Continuous
 62
     7
370
    15
100
AcDbLine
 10
5561.046324715
 20
3825.4572765869
 30
0.0
 11
5561.046324715
 21
4041.9572608513
 31
0.0
  0
LINE
  5
94
330
1F
100
AcDbEntity
  8
0
  6
Continuous
 62
     7
370
    15
100
AcDbLine
 10
5527.5463387817
 20
4041.9572608513
 30
0.0
 11
5527.5463387817
 21
3825.4572765869
 31
0.0
  0
LINE
  5
95
330
1F
100
AcDbEntity
  8
0
  6
Continuous
 62
     7
370
    15
100
AcDbLine
 10
5527.5463387817
 20
3645.4572694343
 30
0.0
 11
5527.5463387817
 21
3428.95728517
 31
0.0
  0
LINE
  5
96
330
1F
100
AcDbEntity
  8
0
  6
Continuous
 62
     7
370
    15
100
AcDbLine
 10
5561.046324715
 20
3428.95728517
 30
0.0
 11
5561.046324715
 21
3645.4572694343
 31
0.0
  0
LINE
  5
97
330
1F
100
AcDbEntity
  8
0
  6
Continuous
 62
     7
370
    15
100
AcDbLine
 10
4627.5463328212
 20
3645.4572694343
 30
0.0
 11
4627.5463328212
 21
3428.95728517
 31
0.0
  0
LINE
  5
98
330
1F
100
AcDbEntity
  8
0
  6
Continuous
 62
     7
370
    15
100
AcDbLine
 10
4661.0463187546
 20
3428.95728517
 30
0.0
 11
4661.0463187546
 21
3645.4572694343
 31
0.0
  0
ARC
  5
99
330
1F
100
AcDbEntity
  8
0
  6
Continuous
 62
     7
370
    15
100
AcDbCircle
 10
4761.0463287681
 20
3428.9572730106
 30
0.0
 40
100.0000000000009
100
AcDbArc
 50
180.0
 51
270.0
  0
ARC
  5
9A
330
1F
100
AcDbEntity
  8
0
  6
Continuous
 62
     7
370
    15
100
AcDbCircle
 10
4761.0463287681
 20
3428.9572730106
 30
0.0
 40
133.5000000000009
100
AcDbArc
 50
180.0
 51
270.0
  0
ARC
  5
9B
330
1F
100
AcDbEntity
  8
0
  6
Continuous
 62
     7
370
    15
100
AcDbCircle
 10
5427.5463287681
 20
3428.9572730106
 30
0.0
 40
100.0000000000009
100
AcDbArc
 50
270.0
 51
0.0
  0
ARC
  5
9C
330
1F
100
AcDbEntity
  8
0
  6
Continuous
 62
     7
370
    15
100
AcDbCircle
 10
5427.5463287681
 20
3428.9572730106
 30
0.0
 40
133.5000000000009
100
AcDbArc
 50
270.0
 51
0.0
  0
LINE
  5
9D
330
1F
100
AcDbEntity
  8
0
  6
Continuous
 62
     7
370
    15
100
AcDbLine
 10
4761.0463425964
 20
3295.4572753948
 30
0.0
 11
5427.5463149399
 21
3295.4572753948
 31
0.0
  0
LINE
  5
9E
330
1F
100
AcDbEntity
  8
0
  6
Continuous
 62
     7
370
    15
100
AcDbLine
 10
5427.5463149399
 20
3328.9572613281
 30
0.0
 11
4761.0463425964
 21
3328.9572613281
 31
0.0
  0
LINE
  5
9F
330
1F
100
AcDbEntity
  8
0
  6
Continuous
 62
     7
370
    15
100
AcDbLine
 10
4491.7963073105
 20
3731.4572728206
 30
0.0
 11
4492.0722172111
 21
3731.4572728206
 31
0.0
  0
LINE
  5
A0
330
1F
100
AcDbEntity
  8
0
  6
Continuous
 62
     7
370
    15
100
AcDbLine
 10
4492.0722172111
 20
3739.4572732006
 30
0.0
 11
4491.7963073105
 21
3739.4572732006
 31
0.0
  0
LINE
  5
A1
330
1F
100
AcDbEntity
  8
0
  6
Continuous
 62
     7
370
    15
100
AcDbLine
 10
5696.7963502258
 20
3637.4572755736
 30
0.0
 11
5696.5204403251
 21
3637.4572755736
 31
0.0
  0
LINE
  5
A2
330
1F
100
AcDbEntity
  8
0
  6
Continuous
 62
     7
370
    15
100
AcDbLine
 10
5696.5204403251
 20
3629.4572742623
 30
0.0
 11
5696.7963502258
 21
3629.4572742623
 31
0.0
  0
LINE
  5
A3
330
1F
100
AcDbEntity
  8
0
  6
Continuous
 62
     7
370
    15
100
AcDbLine
 10
5696.7963502258
 20
3841.4572717589
 30
0.0
 11
5696.5204403251
 21
3841.4572717589
 31
0.0
  0
LINE
  5
A4
330
1F
100
AcDbEntity
  8
0
  6
Continuous
 62
     7
370
    15
100
AcDbLine
 10
5696.5204403251
 20
3833.4572704476
 30
0.0
 11
5696.7963502258
 21
3833.4572704476
 31
0.0
  0
LINE
  5
A5
330
1F
100
AcDbEntity
  8
0
  6
Continuous
 62
     7
370
    15
100
AcDbLine
 10
4491.7963073105
 20
3833.4572704476
 30
0.0
 11
4492.0722172111
 21
3833.4572704476
 31
0.0
  0
LINE
  5
A6
330
1F
100
AcDbEntity
  8
0
  6
Continuous
 62
     7
370
    15
100
AcDbLine
 10
4492.0722172111
 20
3841.4572717589
 30
0.0
 11
4491.7963073105
 21
3841.4572717589
 31
0.0
  0
LINE
  5
A7
330
1F
100
AcDbEntity
  8
0
  6
Continuous
 62
     7
370
    15
100
AcDbLine
 10
4491.7963073105
 20
3629.4572742623
 30
0.0
 11
4492.0722172111
 21
3629.4572742623
 31
0.0
  0
LINE
  5
A8
330
1F
100
AcDbEntity
  8
0
  6
Continuous
 62
     7
370
    15
100
AcDbLine
 10
4492.0722172111
 20
3637.4572755736
 30
0.0
 11
4491.7963073105
 21
3637.4572755736
 31
0.0
  0
LINE
  5
A9
330
1F
100
AcDbEntity
  8
0
  6
Continuous
 62
     7
370
    15
100
AcDbLine
 10
5696.7963502258
 20
3739.4572732006
 30
0.0
 11
5696.5204403251
 21
3739.4572732006
 31
0.0
  0
LINE
  5
AA
330
1F
100
AcDbEntity
  8
0
  6
Continuous
 62
     7
370
    15
100
AcDbLine
 10
5696.5204403251
 20
3731.4572728206
 30
0.0
 11
5696.7963502258
 21
3731.4572728206
 31
0.0
  0
ARC
  5
AB
330
1F
100
AcDbEntity
  8
0
  6
Continuous
 62
     7
370
    15
100
AcDbCircle
 10
5650.9463287681
 20
3837.4572730106
 30
0.0
 40
18.0
100
AcDbArc
 50
90.0
 51
270.0
  0
LINE
  5
AC
330
1F
100
AcDbEntity
  8
0
  6
Continuous
 62
     7
370
    15
100
AcDbLine
 10
5654.4963047355
 20
3855.4572703284
 30
0.0
 11
5650.9463116974
 21
3855.4572703284
 31
0.0
  0
LINE
  5
AD
330
1F
100
AcDbEntity
  8
0
  6
Continuous
 62
     7
370
    15
100
AcDbLine
 10
5650.9463116974
 20
3819.4572718781
 30
0.0
 11
5654.4963047355
 21
3819.4572718781
 31
0.0
  0
ARC
  5
AE
330
1F
100
AcDbEntity
  8
0
  6
Continuous
 62
     7
370
    15
100
AcDbCircle
 10
5650.9463287681
 20
3633.4572730106
 30
0.0
 40
18.0
100
AcDbArc
 50
90.0
 51
270.0
  0
LINE
  5
AF
330
1F
100
AcDbEntity
  8
0
  6
Continuous
 62
     7
370
    15
100
AcDbLine
 10
5654.4963047355
 20
3651.4572741431
 30
0.0
 11
5650.9463116974
 21
3651.4572741431
 31
0.0
  0
LINE
  5
B0
330
1F
100
AcDbEntity
  8
0
  6
Continuous
 62
     7
370
    15
100
AcDbLine
 10
5650.9463116974
 20
3615.4572756928
 30
0.0
 11
5654.4963047355
 21
3615.4572756928
 31
0.0
  0
ARC
  5
B1
330
1F
100
AcDbEntity
  8
0
  6
Continuous
 62
     7
370
    15
100
AcDbCircle
 10
4537.6463287681
 20
3837.4572730106
 30
0.0
 40
18.0
100
AcDbArc
 50
270.0
 51
90.0
  0
LINE
  5
B2
330
1F
100
AcDbEntity
  8
0
  6
Continuous
 62
     7
370
    15
100
AcDbLine
 10
4534.0963528007
 20
3819.4572718781
 30
0.0
 11
4537.6463458389
 21
3819.4572718781
 31
0.0
  0
LINE
  5
B3
330
1F
100
AcDbEntity
  8
0
  6
Continuous
 62
     7
370
    15
100
AcDbLine
 10
4537.6463458389
 20
3855.4572703284
 30
0.0
 11
4534.0963528007
 21
3855.4572703284
 31
0.0
  0
LINE
  5
B4
330
1F
100
AcDbEntity
  8
0
  6
Continuous
 62
     7
370
    15
100
AcDbLine
 10
4534.0963528007
 20
3615.4572756928
 30
0.0
 11
4537.6463458389
 21
3615.4572756928
 31
0.0
  0
LINE
  5
B5
330
1F
100
AcDbEntity
  8
0
  6
Continuous
 62
     7
370
    15
100
AcDbLine
 10
4537.6463458389
 20
3651.4572741431
 30
0.0
 11
4534.0963528007
 21
3651.4572741431
 31
0.0
  0
ARC
  5
B6
330
1F
100
AcDbEntity
  8
0
  6
Continuous
 62
     7
370
    15
100
AcDbCircle
 10
4537.6463287681
 20
3633.4572730106
 30
0.0
 40
18.0
100
AcDbArc
 50
270.0
 51
90.0
  0
ARC
  5
B7
330
1F
100
AcDbEntity
  8
0
  6
Continuous
 62
     7
370
    15
100
AcDbCircle
 10
5650.9463287681
 20
3735.4572730106
 30
0.0
 40
18.0
100
AcDbArc
 50
90.0
 51
159.5838244237
  0
ARC
  5
B8
330
1F
100
AcDbEntity
  8
0
  6
Continuous
 62
     7
370
    15
100
AcDbCircle
 10
5650.9463287681
 20
3735.4572730106
 30
0.0
 40
17.99999999999955
100
AcDbArc
 50
200.4161755763
 51
270.0
  0
LINE
  5
B9
330
1F
100
AcDbEntity
  8
0
  6
Continuous
 62
     7
370
    15
100
AcDbLine
 10
5654.4963047355
 20
3753.4572722358
 30
0.0
 11
5650.9463116974
 21
3753.4572722358
 31
0.0
  0
LINE
  5
BA
330
1F
100
AcDbEntity
  8
0
  6
Continuous
 62
     7
370
    15
100
AcDbLine
 10
5650.9463116974
 20
3717.4572737855
 30
0.0
 11
5654.4963047355
 21
3717.4572737855
 31
0.0
  0
LINE
  5
BB
330
1F
100
AcDbEntity
  8
0
  6
Continuous
 62
     7
370
    15
100
AcDbLine
 10
4534.0963528007
 20
3717.4572737855
 30
0.0
 11
4537.6463458389
 21
3717.4572737855
 31
0.0
  0
LINE
  5
BC
330
1F
100
AcDbEntity
  8
0
  6
Continuous
 62
     7
370
    15
100
AcDbLine
 10
4537.6463458389
 20
3753.4572722358
 30
0.0
 11
4534.0963528007
 21
3753.4572722358
 31
0.0
  0
ARC
  5
BD
330
1F
100
AcDbEntity
  8
0
  6
Continuous
 62
     7
370
    15
100
AcDbCircle
 10
4537.6463287681
 20
3735.4572730106
 30
0.0
 40
17.99999999999981
100
AcDbArc
 50
270.0
 51
339.5838244237
  0
ARC
  5
BE
330
1F
100
AcDbEntity
  8
0
  6
Continuous
 62
     7
370
    15
100
AcDbCircle
 10
4537.6463287681
 20
3735.4572730106
 30
0.0
 40
18.0
100
AcDbArc
 50
20.4161755763
 51
90.0
  0
LINE
  5
BF
330
1F
100
AcDbEntity
  8
0
  6
Continuous
 62
     7
370
    15
100
AcDbLine
 10
4533.9463279098
 20
3605.457277779
 30
0.0
 11
4533.9463279098
 21
3610.4572730106
 31
0.0
  0
LINE
  5
C0
330
1F
100
AcDbEntity
  8
0
  6
Continuous
 62
     7
370
    15
100
AcDbLine
 10
4491.9463322014
 20
3610.4572730106
 30
0.0
 11
4491.9463322014
 21
3605.457277779
 31
0.0
  0
LINE
  5
C1
330
1F
100
AcDbEntity
  8
0
  6
Continuous
 62
     7
370
    15
100
AcDbLine
 10
6306.2963411659
 20
3481.4572649044
 30
0.0
 11
6301.2963459343
 21
3481.4572649044
 31
0.0
  0
LINE
  5
C2
330
1F
100
AcDbEntity
  8
0
  6
Continuous
 62
     7
370
    15
100
AcDbLine
 10
6301.2963459343
 20
3439.4572691959
 30
0.0
 11
6306.2963411659
 21
3439.4572691959
 31
0.0
  0
LINE
  5
C3
330
1F
100
AcDbEntity
  8
0
  6
Continuous
 62
     7
370
    15
100
AcDbLine
 10
4491.9463322014
 20
3865.4572682423
 30
0.0
 11
4491.9463322014
 21
3860.4572730106
 31
0.0
  0
LINE
  5
C4
330
1F
100
AcDbEntity
  8
0
  6
Continuous
 62
     7
370
    15
100
AcDbLine
 10
4533.9463279098
 20
3860.4572730106
 30
0.0
 11
4533.9463279098
 21
3865.4572682423
 31
0.0
  0
LINE
  5
C5
330
1F
100
AcDbEntity
  8
0
  6
Continuous
 62
     7
370
    15
100
AcDbLine
 10
5654.6463296264
 20
3865.4572682423
 30
0.0
 11
5654.6463296264
 21
3860.4572730106
 31
0.0
  0
LINE
  5
C6
330
1F
100
AcDbEntity
  8
0
  6
Continuous
 62
     7
370
    15
100
AcDbLine
 10
5696.6463253349
 20
3860.4572730106
 30
0.0
 11
5696.6463253349
 21
3865.4572682423
 31
0.0
  0
LINE
  5
C7
330
1F
100
AcDbEntity
  8
0
  6
Continuous
 62
     7
370
    15
100
AcDbLine
 10
6306.2963411659
 20
4031.4572768253
 30
0.0
 11
6301.2963459343
 21
4031.4572768253
 31
0.0
  0
LINE
  5
C8
330
1F
100
AcDbEntity
  8
0
  6
Continuous
 62
     7
370
    15
100
AcDbLine
 10
6301.2963459343
 20
3989.4572811169
 30
0.0
 11
6306.2963411659
 21
3989.4572811169
 31
0.0
  0
LINE
  5
C9
330
1F
100
AcDbEntity
  8
0
  6
Continuous
 62
     7
370
    15
100
AcDbLine
 10
5696.6463253349
 20
3605.457277779
 30
0.0
 11
5696.6463253349
 21
3610.4572730106
 31
0.0
  0
LINE
  5
CA
330
1F
100
AcDbEntity
  8
0
  6
Continuous
 62
     7
370
    15
100
AcDbLine
 10
5654.6463296264
 20
3610.4572730106
 30
0.0
 11
5654.6463296264
 21
3605.457277779
 31
0.0
  0
LINE
  5
CB
330
1F
100
AcDbEntity
  8
0
  6
Continuous
 62
     7
370
    15
100
AcDbLine
 10
3882.2963163704
 20
3989.4572811169
 30
0.0
 11
3887.296311602
 21
3989.4572811169
 31
0.0
  0
LINE
  5
CC
330
1F
100
AcDbEntity
  8
0
  6
Continuous
 62
     7
370
    15
100
AcDbLine
 10
3887.296311602
 20
4031.4572768253
 30
0.0
 11
3882.2963163704
 21
4031.4572768253
 31
0.0
  0
LINE
  5
CD
330
1F
100
AcDbEntity
  8
0
  6
Continuous
 62
     7
370
    15
100
AcDbLine
 10
3882.2963163704
 20
3439.4572691959
 30
0.0
 11
3887.296311602
 21
3439.4572691959
 31
0.0
  0
LINE
  5
CE
330
1F
100
AcDbEntity
  8
0
  6
Continuous
 62
     7
370
    15
100
AcDbLine
 10
3887.296311602
 20
3481.4572649044
 30
0.0
 11
3882.2963163704
 21
3481.4572649044
 31
0.0
  0
LINE
  5
CF
330
1F
100
AcDbEntity
  8
0
  6
Continuous
 62
     7
370
    15
100
AcDbLine
 10
5654.4963047355
 20
3615.4572756928
 30
0.0
 11
5654.4963047355
 21
3610.4572730106
 31
0.0
  0
LINE
  5
D0
330
1F
100
AcDbEntity
  8
0
  6
Continuous
 62
     7
370
    15
100
AcDbLine
 10
5654.4963047355
 20
3717.4572737855
 30
0.0
 11
5654.4963047355
 21
3651.4572741431
 31
0.0
  0
LINE
  5
D1
330
1F
100
AcDbEntity
  8
0
  6
Continuous
 62
     7
370
    15
100
AcDbLine
 10
5654.4963047355
 20
3819.4572718781
 30
0.0
 11
5654.4963047355
 21
3753.4572722358
 31
0.0
  0
LINE
  5
D2
330
1F
100
AcDbEntity
  8
0
  6
Continuous
 62
     7
370
    15
100
AcDbLine
 10
5654.4963047355
 20
3860.4572730106
 30
0.0
 11
5654.4963047355
 21
3855.4572703284
 31
0.0
  0
LINE
  5
D3
330
1F
100
AcDbEntity
  8
0
  6
Continuous
 62
     7
370
    15
100
AcDbLine
 10
5696.7963502258
 20
3780.4572747988
 30
0.0
 11
5696.7963502258
 21
3792.4572730404
 31
0.0
  0
LINE
  5
D4
330
1F
100
AcDbEntity
  8
0
  6
Continuous
 62
     7
370
    15
100
AcDbLine
 10
5696.7963502258
 20
3678.4572729808
 30
0.0
 11
5696.7963502258
 21
3690.4572712225
 31
0.0
  0
LINE
  5
D5
330
1F
100
AcDbEntity
  8
0
  6
Continuous
 62
     7
370
    15
100
AcDbLine
 10
4534.0963528007
 20
3855.4572703284
 30
0.0
 11
4534.0963528007
 21
3860.4572730106
 31
0.0
  0
LINE
  5
D6
330
1F
100
AcDbEntity
  8
0
  6
Continuous
 62
     7
370
    15
100
AcDbLine
 10
4534.0963528007
 20
3753.4572722358
 30
0.0
 11
4534.0963528007
 21
3819.4572718781
 31
0.0
  0
LINE
  5
D7
330
1F
100
AcDbEntity
  8
0
  6
Continuous
 62
     7
370
    15
100
AcDbLine
 10
4534.0963528007
 20
3651.4572741431
 30
0.0
 11
4534.0963528007
 21
3717.4572737855
 31
0.0
  0
LINE
  5
D8
330
1F
100
AcDbEntity
  8
0
  6
Continuous
 62
     7
370
    15
100
AcDbLine
 10
4534.0963528007
 20
3610.4572730106
 30
0.0
 11
4534.0963528007
 21
3615.4572756928
 31
0.0
  0
LINE
  5
D9
330
1F
100
AcDbEntity
  8
0
  6
Continuous
 62
     7
370
    15
100
AcDbLine
 10
4491.7963073105
 20
3690.4572712225
 30
0.0
 11
4491.7963073105
 21
3678.4572729808
 31
0.0
  0
LINE
  5
DA
330
1F
100
AcDbEntity
  8
0
  6
Continuous
 62
     7
370
    15
100
AcDbLine
 10
4491.7963073105
 20
3792.4572730404
 30
0.0
 11
4491.7963073105
 21
3780.4572747988
 31
0.0
  0
ARC
  5
DB
330
1F
100
AcDbEntity
  8
0
  6
Continuous
 62
     7
370
    15
100
AcDbCircle
 10
4391.7963287681
 20
3581.6072730106
 30
0.0
 40
100.0000000000005
100
AcDbArc
 50
270.0
 51
0.0
  0
ARC
  5
DC
330
1F
100
AcDbEntity
  8
0
  6
Continuous
 62
     7
370
    15
100
AcDbCircle
 10
4391.7963287681
 20
3581.6072730106
 30
0.0
 40
142.3000000000002
100
AcDbArc
 50
270.0
 51
0.0
  0
ARC
  5
DD
330
1F
100
AcDbEntity
  8
0
  6
Continuous
 62
     7
370
    15
100
AcDbCircle
 10
4391.7963287681
 20
3889.3072730106
 30
0.0
 40
100.0
100
AcDbArc
 50
0.0
 51
90.0
  0
ARC
  5
DE
330
1F
100
AcDbEntity
  8
0
  6
Continuous
 62
     7
370
    15
100
AcDbCircle
 10
4391.7963287681
 20
3889.3072730106
 30
0.0
 40
142.3000000000002
100
AcDbArc
 50
0.0
 51
90.0
  0
LINE
  5
DF
330
1F
100
AcDbEntity
  8
0
  6
Continuous
 62
     7
370
    15
100
AcDbLine
 10
3887.296311602
 20
3439.3072741074
 30
0.0
 11
4089.7962972969
 21
3439.3072741074
 31
0.0
  0
LINE
  5
E0
330
1F
100
AcDbEntity
  8
0
  6
Continuous
 62
     7
370
    15
100
AcDbLine
 10
4349.7963473648
 20
3439.3072741074
 30
0.0
 11
4391.7963430732
 21
3439.3072741074
 31
0.0
  0
LINE
  5
E1
330
1F
100
AcDbEntity
  8
0
  6
Continuous
 62
     7
370
    15
100
AcDbLine
 10
4391.7963430732
 20
3481.607259993
 30
0.0
 11
3887.296311602
 21
3481.607259993
 31
0.0
  0
LINE
  5
E2
330
1F
100
AcDbEntity
  8
0
  6
Continuous
 62
     7
370
    15
100
AcDbLine
 10
4534.0963528007
 20
3860.4572730106
 30
0.0
 11
4534.0963528007
 21
3889.3072770876
 31
0.0
  0
LINE
  5
E3
330
1F
100
AcDbEntity
  8
0
  6
Continuous
 62
     7
370
    15
100
AcDbLine
 10
4534.0963528007
 20
3581.6072689337
 30
0.0
 11
4534.0963528007
 21
3610.4572730106
 31
0.0
  0
LINE
  5
E4
330
1F
100
AcDbEntity
  8
0
  6
Continuous
 62
     7
370
    15
100
AcDbLine
 10
4491.7963073105
 20
3588.4572731298
 30
0.0
 11
4491.7963073105
 21
3581.6072689337
 31
0.0
  0
LINE
  5
E5
330
1F
100
AcDbEntity
  8
0
  6
Continuous
 62
     7
370
    15
100
AcDbLine
 10
4491.7963073105
 20
3889.3072770876
 30
0.0
 11
4491.7963073105
 21
3882.4572728914
 31
0.0
  0
LINE
  5
E6
330
1F
100
AcDbEntity
  8
0
  6
Continuous
 62
     7
370
    15
100
AcDbLine
 10
3887.296311602
 20
3989.3072860283
 30
0.0
 11
4391.7963430732
 21
3989.3072860283
 31
0.0
  0
LINE
  5
E7
330
1F
100
AcDbEntity
  8
0
  6
Continuous
 62
     7
370
    15
100
AcDbLine
 10
4391.7963430732
 20
4031.6072719139
 30
0.0
 11
4349.7963473648
 21
4031.6072719139
 31
0.0
  0
LINE
  5
E8
330
1F
100
AcDbEntity
  8
0
  6
Continuous
 62
     7
370
    15
100
AcDbLine
 10
4089.7962972969
 20
4031.6072719139
 30
0.0
 11
3887.296311602
 21
4031.6072719139
 31
0.0
  0
ARC
  5
E9
330
1F
100
AcDbEntity
  8
0
  6
Continuous
 62
     7
370
    15
100
AcDbCircle
 10
5796.7963287681
 20
3889.3072730106
 30
0.0
 40
100.0
100
AcDbArc
 50
90.0
 51
180.0
  0
ARC
  5
EA
330
1F
100
AcDbEntity
  8
0
  6
Continuous
 62
     7
370
    15
100
AcDbCircle
 10
5796.7963287681
 20
3889.3072730106
 30
0.0
 40
142.3000000000002
100
AcDbArc
 50
90.0
 51
180.0
  0
LINE
  5
EB
330
1F
100
AcDbEntity
  8
0
  6
Continuous
 62
     7
370
    15
100
AcDbLine
 10
6301.2963459343
 20
4031.6072719139
 30
0.0
 11
6098.7963602394
 21
4031.6072719139
 31
0.0
  0
LINE
  5
EC
330
1F
100
AcDbEntity
  8
0
  6
Continuous
 62
     7
370
    15
100
AcDbLine
 10
5838.7963101715
 20
4031.6072719139
 30
0.0
 11
5796.796314463
 21
4031.6072719139
 31
0.0
  0
LINE
  5
ED
330
1F
100
AcDbEntity
  8
0
  6
Continuous
 62
     7
370
    15
100
AcDbLine
 10
5796.796314463
 20
3989.3072860283
 30
0.0
 11
6301.2963459343
 21
3989.3072860283
 31
0.0
  0
LINE
  5
EE
330
1F
100
AcDbEntity
  8
0
  6
Continuous
 62
     7
370
    15
100
AcDbLine
 10
5654.4963047355
 20
3610.4572730106
 30
0.0
 11
5654.4963047355
 21
3581.6072689337
 31
0.0
  0
LINE
  5
EF
330
1F
100
AcDbEntity
  8
0
  6
Continuous
 62
     7
370
    15
100
AcDbLine
 10
5654.4963047355
 20
3889.3072770876
 30
0.0
 11
5654.4963047355
 21
3860.4572730106
 31
0.0
  0
LINE
  5
F0
330
1F
100
AcDbEntity
  8
0
  6
Continuous
 62
     7
370
    15
100
AcDbLine
 10
5696.7963502258
 20
3882.4572728914
 30
0.0
 11
5696.7963502258
 21
3889.3072770876
 31
0.0
  0
LINE
  5
F1
330
1F
100
AcDbEntity
  8
0
  6
Continuous
 62
     7
370
    15
100
AcDbLine
 10
5696.7963502258
 20
3581.6072689337
 30
0.0
 11
5696.7963502258
 21
3588.4572731298
 31
0.0
  0
ARC
  5
F2
330
1F
100
AcDbEntity
  8
0
  6
Continuous
 62
     7
370
    15
100
AcDbCircle
 10
5796.7963287681
 20
3581.6072730106
 30
0.0
 40
100.0000000000005
100
AcDbArc
 50
180.0
 51
270.0
  0
ARC
  5
F3
330
1F
100
AcDbEntity
  8
0
  6
Continuous
 62
     7
370
    15
100
AcDbCircle
 10
5796.7963287681
 20
3581.6072730106
 30
0.0
 40
142.3000000000002
100
AcDbArc
 50
180.0
 51
270.0
  0
LINE
  5
F4
330
1F
100
AcDbEntity
  8
0
  6
Continuous
 62
     7
370
    15
100
AcDbLine
 10
6301.2963459343
 20
3481.607259993
 30
0.0
 11
5796.796314463
 21
3481.607259993
 31
0.0
  0
LINE
  5
F5
330
1F
100
AcDbEntity
  8
0
  6
Continuous
 62
     7
370
    15
100
AcDbLine
 10
5796.796314463
 20
3439.3072741074
 30
0.0
 11
5838.7963101715
 21
3439.3072741074
 31
0.0
  0
LINE
  5
F6
330
1F
100
AcDbEntity
  8
0
  6
Continuous
 62
     7
370
    15
100
AcDbLine
 10
6098.7963602394
 20
3439.3072741074
 30
0.0
 11
6301.2963459343
 21
3439.3072741074
 31
0.0
  0
LINE
  5
F7
330
1F
100
AcDbEntity
  8
0
  6
Continuous
 62
     7
370
    15
100
AcDbLine
 10
5527.5463387817
 20
3835.902312581
 30
0.0
 11
5527.2963270992
 21
3835.4572745007
 31
0.0
  0
LINE
  5
F8
330
1F
100
AcDbEntity
  8
0
  6
Continuous
 62
     7
370
    15
100
AcDbLine
 10
5561.2963363975
 20
3835.4572745007
 30
0.0
 11
5561.046324715
 21
3835.902312581
 31
0.0
  0
LINE
  5
F9
330
1F
100
AcDbEntity
  8
0
  6
Continuous
 62
     7
370
    15
100
AcDbLine
 10
5561.2963363975
 20
3825.4572765869
 30
0.0
 11
5561.2963363975
 21
3835.4572745007
 31
0.0
  0
LINE
  5
FA
330
1F
100
AcDbEntity
  8
0
  6
Continuous
 62
     7
370
    15
100
AcDbLine
 10
5527.2963270992
 20
3835.4572745007
 30
0.0
 11
5527.2963270992
 21
3825.4572765869
 31
0.0
  0
LINE
  5
FB
330
1F
100
AcDbEntity
  8
0
  6
Continuous
 62
     7
370
    15
100
AcDbLine
 10
5454.2963430732
 20
3752.4572739345
 30
0.0
 11
5444.2963228077
 21
3752.4572739345
 31
0.0
  0
LINE
  5
FC
330
1F
100
AcDbEntity
  8
0
  6
Continuous
 62
     7
370
    15
100
AcDbLine
 10
5444.2963228077
 20
3718.4572720868
 30
0.0
 11
5454.2963430732
 21
3718.4572720868
 31
0.0
  0
ARC
  5
FD
330
1F
100
AcDbEntity
  8
0
  6
Continuous
 62
     7
370
    15
100
AcDbCircle
 10
5453.5532594612
 20
3735.4572730106
 30
0.0
 40
19.35693069306963
100
AcDbArc
 50
226.3238905733
 51
241.4305883429
  0
ARC
  5
FE
330
1F
100
AcDbEntity
  8
0
  6
Continuous
 62
     7
370
    15
100
AcDbCircle
 10
5453.5532594612
 20
3735.4572730106
 30
0.0
 40
19.35693069307003
100
AcDbArc
 50
118.5694116571
 51
133.6761094267
  0
ARC
  5
FF
330
1F
100
AcDbEntity
  8
0
  6
Continuous
 62
     7
370
    15
100
AcDbCircle
 10
4735.0393980751
 20
3735.4572730106
 30
0.0
 40
19.3569306930698
100
AcDbArc
 50
46.3238905733
 51
61.4305883429
  0
ARC
  5
100
330
1F
100
AcDbEntity
  8
0
  6
Continuous
 62
     7
370
    15
100
AcDbCircle
 10
4735.0393980751
 20
3735.4572730106
 30
0.0
 40
19.35693069306947
100
AcDbArc
 50
298.5694116571
 51
313.6761094267
  0
LINE
  5
101
330
1F
100
AcDbEntity
  8
0
  6
Continuous
 62
     7
370
    15
100
AcDbLine
 10
4734.296314463
 20
3718.4572720868
 30
0.0
 11
4744.2963347286
 21
3718.4572720868
 31
0.0
  0
LINE
  5
102
330
1F
100
AcDbEntity
  8
0
  6
Continuous
 62
     7
370
    15
100
AcDbLine
 10
4744.2963347286
 20
3752.4572739345
 30
0.0
 11
4734.296314463
 21
3752.4572739345
 31
0.0
  0
LINE
  5
103
330
1F
100
AcDbEntity
  8
0
  6
Continuous
 62
     7
370
    15
100
AcDbLine
 10
5561.2963363975
 20
3825.4572765869
 30
0.0
 11
5561.2963363975
 21
3835.4572745007
 31
0.0
  0
LINE
  5
104
330
1F
100
AcDbEntity
  8
0
  6
Continuous
 62
     7
370
    15
100
AcDbLine
 10
5527.2963270992
 20
3835.4572745007
 30
0.0
 11
5527.2963270992
 21
3825.4572765869
 31
0.0
  0
LINE
  5
105
330
1F
100
AcDbEntity
  8
0
  6
Continuous
 62
     7
370
    15
100
AcDbLine
 10
4661.2963304371
 20
3825.4572765869
 30
0.0
 11
4661.2963304371
 21
3835.4572745007
 31
0.0
  0
LINE
  5
106
330
1F
100
AcDbEntity
  8
0
  6
Continuous
 62
     7
370
    15
100
AcDbLine
 10
4627.2963211387
 20
3835.4572745007
 30
0.0
 11
4627.2963211387
 21
3825.4572765869
 31
0.0
  0
LINE
  5
107
330
1F
100
AcDbEntity
  8
0
  6
Continuous
 62
     7
370
    15
100
AcDbLine
 10
4627.5463328212
 20
3835.902312581
 30
0.0
 11
4627.2963211387
 21
3835.4572745007
 31
0.0
  0
LINE
  5
108
330
1F
100
AcDbEntity
  8
0
  6
Continuous
 62
     7
370
    15
100
AcDbLine
 10
4661.2963304371
 20
3835.4572745007
 30
0.0
 11
4661.0463187546
 21
3835.902312581
 31
0.0
  0
LINE
  5
109
330
1F
100
AcDbEntity
  8
0
  6
Continuous
 62
     7
370
    15
100
AcDbLine
 10
5561.046324715
 20
3635.0122334403
 30
0.0
 11
5561.2963363975
 21
3635.4572715205
 31
0.0
  0
LINE
  5
10A
330
1F
100
AcDbEntity
  8
0
  6
Continuous
 62
     7
370
    15
100
AcDbLine
 10
5527.2963270992
 20
3635.4572715205
 30
0.0
 11
5527.5463387817
 21
3635.0122334403
 31
0.0
  0
LINE
  5
10B
330
1F
100
AcDbEntity
  8
0
  6
Continuous
 62
     7
370
    15
100
AcDbLine
 10
5527.2963270992
 20
3645.4572694343
 30
0.0
 11
5527.2963270992
 21
3635.4572715205
 31
0.0
  0
LINE
  5
10C
330
1F
100
AcDbEntity
  8
0
  6
Continuous
 62
     7
370
    15
100
AcDbLine
 10
5561.2963363975
 20
3635.4572715205
 30
0.0
 11
5561.2963363975
 21
3645.4572694343
 31
0.0
  0
LINE
  5
10D
330
1F
100
AcDbEntity
  8
0
  6
Continuous
 62
     7
370
    15
100
AcDbLine
 10
4661.2963304371
 20
3825.4572765869
 30
0.0
 11
4661.2963304371
 21
3835.4572745007
 31
0.0
  0
LINE
  5
10E
330
1F
100
AcDbEntity
  8
0
  6
Continuous
 62
     7
370
    15
100
AcDbLine
 10
4627.2963211387
 20
3835.4572745007
 30
0.0
 11
4627.2963211387
 21
3825.4572765869
 31
0.0
  0
LINE
  5
10F
330
1F
100
AcDbEntity
  8
0
  6
Continuous
 62
     7
370
    15
100
AcDbLine
 10
4627.2963211387
 20
3635.4572715205
 30
0.0
 11
4627.5463328212
 21
3635.0122334403
 31
0.0
  0
LINE
  5
110
330
1F
100
AcDbEntity
  8
0
  6
Continuous
 62
     7
370
    15
100
AcDbLine
 10
4661.0463187546
 20
3635.0122334403
 30
0.0
 11
4661.2963304371
 21
3635.4572715205
 31
0.0
  0
LINE
  5
111
330
1F
100
AcDbEntity
  8
0
  6
Continuous
 62
     7
370
    15
100
AcDbLine
 10
4627.2963211387
 20
3645.4572694343
 30
0.0
 11
4627.2963211387
 21
3635.4572715205
 31
0.0
  0
LINE
  5
112
330
1F
100
AcDbEntity
  8
0
  6
Continuous
 62
     7
370
    15
100
AcDbLine
 10
4661.2963304371
 20
3635.4572715205
 30
0.0
 11
4661.2963304371
 21
3645.4572694343
 31
0.0
  0
ARC
  5
113
330
1F
100
AcDbEntity
  8
0
  6
Continuous
 62
     7
370
    15
100
AcDbCircle
 10
4735.0393980751
 20
3735.4572730106
 30
0.0
 40
19.35693069306994
100
AcDbArc
 50
314.947302905
 51
45.052697095
  0
LINE
  5
114
330
1F
100
AcDbEntity
  8
0
  6
Continuous
 62
     7
370
    15
100
AcDbLine
 10
4748.4069392532
 20
3721.7572730002
 30
0.0
 11
4748.7142309993
 21
3721.7572730002
 31
0.0
  0
LINE
  5
115
330
1F
100
AcDbEntity
  8
0
  6
Continuous
 62
     7
370
    15
100
AcDbLine
 10
4748.7142309993
 20
3749.1572730211
 30
0.0
 11
4748.4069392532
 21
3749.1572730211
 31
0.0
  0
ARC
  5
116
330
1F
100
AcDbEntity
  8
0
  6
Continuous
 62
     7
370
    15
100
AcDbCircle
 10
5453.5532594612
 20
3735.4572730106
 30
0.0
 40
19.35693069306994
100
AcDbArc
 50
134.947302905
 51
225.052697095
  0
LINE
  5
117
330
1F
100
AcDbEntity
  8
0
  6
Continuous
 62
     7
370
    15
100
AcDbLine
 10
5440.1857182831
 20
3749.1572730211
 30
0.0
 11
5439.8784265369
 21
3749.1572730211
 31
0.0
  0
LINE
  5
118
330
1F
100
AcDbEntity
  8
0
  6
Continuous
 62
     7
370
    15
100
AcDbLine
 10
5439.8784265369
 20
3721.7572730002
 30
0.0
 11
5440.1857182831
 21
3721.7572730002
 31
0.0
  0
LINE
  5
119
330
1F
100
AcDbEntity
  8
0
  6
Continuous
 62
     7
370
    15
100
AcDbLine
 10
4744.7413728088
 20
3718.7072725934
 30
0.0
 11
5443.8512847275
 21
3718.7072725934
 31
0.0
  0
LINE
  5
11A
330
1F
100
AcDbEntity
  8
0
  6
Continuous
 62
     7
370
    15
100
AcDbLine
 10
5443.8512847275
 20
3752.2072734279
 30
0.0
 11
4744.7413728088
 21
3752.2072734279
 31
0.0
  0
CIRCLE
  5
11B
330
1F
100
AcDbEntity
  8
0
  6
Continuous
 62
     7
370
    15
100
AcDbCircle
 10
4548.9463287681
 20
3765.4572730106
 30
0.0
 40
6.250000000000909
  0
SPLINE
  5
11C
330
1F
100
AcDbEntity
  8
0
  6
Continuous
 62
     7
370
    15
100
AcDbSpline
210
0.0
220
0.0
230
1.0
 70
     8
 71
     3
 72
    10
 73
     6
 74
     0
 42
0.000000001
 43
0.00000001
 40
0.0
 40
0.0
 40
0.0
 40
0.0
 40
0.265469753547991
 40
0.5367074873005633
 40
1.0
 40
1.0
 40
1.0
 40
1.0
 10
4556.446306452154
 20
3765.447642464653
 30
0.0
 10
4556.120976709755
 20
3764.884140955376
 30
0.0
 10
4555.463248639971
 20
3763.744894487211
 30
0.0
 10
4554.189818591948
 20
3761.539291000908
 30
0.0
 10
4553.279102948772
 20
3759.961847716756
 30
0.0
 10
4552.704684481024
 20
3758.966902081385
 30
0.0
  0
ARC
  5
11D
330
1F
100
AcDbEntity
  8
0
  6
Continuous
 62
     7
370
    15
100
AcDbCircle
 10
4548.9463287681
 20
3765.4572730106
 30
0.0
 40
7.500000000001796
100
AcDbArc
 50
299.9264348666
 51
300.0735651334
  0
SPLINE
  5
11E
330
1F
100
AcDbEntity
  8
0
  6
Continuous
 62
     7
370
    15
100
AcDbSpline
210
0.0
220
0.0
230
1.0
 70
    24
 71
     3
 72
    13
 73
     9
 74
     0
 42
0.000000001
 43
0.00000001
 40
0.0
 40
0.0
 40
0.0
 40
0.0
 40
0.1807360844437272
 40
0.362958809570923
 40
0.612752847721997
 40
0.8692832237924955
 40
0.9346171236052847
 40
0.9999999999999999
 40
0.9999999999999999
 40
0.9999999999999999
 40
0.9999999999999999
 10
4552.687995180487
 20
3758.957272205964
 30
0.0
 10
4552.245712096274
 20
3758.957272205964
 30
0.0
 10
4551.357507938074
 20
3758.957272205964
 30
0.0
 10
4549.819814128782
 20
3758.957272205964
 30
0.0
 10
4548.069059257762
 20
3758.957272205964
 30
0.0
 10
4546.635013297564
 20
3758.957272205964
 30
0.0
 10
4545.682659525293
 20
3758.957272205964
 30
0.0
 10
4545.364054055543
 20
3758.957272205964
 30
0.0
 10
4545.204691633581
 20
3758.957272205964
 30
0.0
  0
ARC
  5
11F
330
1F
100
AcDbEntity
  8
0
  6
Continuous
 62
     7
370
    15
100
AcDbCircle
 10
4548.9463287681
 20
3765.4572730106
 30
0.0
 40
7.499999999999074
100
AcDbArc
 50
239.9264348666
 51
240.0735651334
  0
SPLINE
  5
120
330
1F
100
AcDbEntity
  8
0
  6
Continuous
 62
     7
370
    15
100
AcDbSpline
210
0.0
220
0.0
230
1.0
 70
     8
 71
     3
 72
    10
 73
     6
 74
     0
 42
0.000000001
 43
0.00000001
 40
0.0
 40
0.0
 40
0.0
 40
0.0
 40
0.2654687236596586
 40
0.5367056174036485
 40
1.0
 40
1.0
 40
1.0
 40
1.0
 10
4545.188002333044
 20
3758.966902081385
 30
0.0
 10
4544.862672088273
 20
3759.530403312544
 30
0.0
 10
4544.204942742712
 20
3760.66964966898
 30
0.0
 10
4542.931517320773
 20
3762.875267051277
 30
0.0
 10
4542.020764308206
 20
3764.452700446126
 30
0.0
 10
4541.446320757269
 20
3765.447642464653
 30
0.0
  0
LINE
  5
121
330
1F
100
AcDbEntity
  8
0
  6
Continuous
 62
     7
370
    15
100
AcDbLine
 10
4541.4463207573
 20
3765.4669022155
 30
0.0
 11
4541.4463207573
 21
3765.4476424647
 31
0.0
  0
SPLINE
  5
122
330
1F
100
AcDbEntity
  8
0
  6
Continuous
 62
     7
370
    15
100
AcDbSpline
210
0.0
220
0.0
230
1.0
 70
     8
 71
     3
 72
    10
 73
     6
 74
     0
 42
0.000000001
 43
0.00000001
 40
0.0
 40
0.0
 40
0.0
 40
0.0
 40
0.2654727904705755
 40
0.5367055752256088
 40
1.0
 40
1.0
 40
1.0
 40
1.0
 10
4541.446320757269
 20
3765.466902215495
 30
0.0
 10
4541.771679078968
 20
3766.030399354966
 30
0.0
 10
4542.429455060047
 20
3767.169619897461
 30
0.0
 10
4543.702778458827
 20
3769.375294466695
 30
0.0
 10
4544.613546236443
 20
3770.952707698578
 30
0.0
 10
4545.188002333044
 20
3771.947642598763
 30
0.0
  0
ARC
  5
123
330
1F
100
AcDbEntity
  8
0
  6
Continuous
 62
     7
370
    15
100
AcDbCircle
 10
4548.9463287681
 20
3765.4572730106
 30
0.0
 40
7.500000000001007
100
AcDbArc
 50
119.9264348666
 51
120.0735651334
  0
SPLINE
  5
124
330
1F
100
AcDbEntity
  8
0
  6
Continuous
 62
     7
370
    15
100
AcDbSpline
210
0.0
220
0.0
230
1.0
 70
    24
 71
     3
 72
    10
 73
     6
 74
     0
 42
0.000000001
 43
0.00000001
 40
0.0
 40
0.0
 40
0.0
 40
0.0
 40
0.1309735806655204
 40
0.636701178216511
 40
1.0
 40
1.0
 40
1.0
 40
1.0
 10
4545.204691633581
 20
3771.957272474184
 30
0.0
 10
4545.523648471406
 20
3771.957272474184
 30
0.0
 10
4547.074191668063
 20
3771.957272474184
 30
0.0
 10
4549.654102165241
 20
3771.957272474184
 30
0.0
 10
4551.79358052348
 20
3771.957272474184
 30
0.0
 10
4552.687995180487
 20
3771.957272474184
 30
0.0
  0
ARC
  5
125
330
1F
100
AcDbEntity
  8
0
  6
Continuous
 62
     7
370
    15
100
AcDbCircle
 10
4548.9463287681
 20
3765.4572730106
 30
0.0
 40
7.499999999998965
100
AcDbArc
 50
59.9264348666
 51
60.0735651334
  0
SPLINE
  5
126
330
1F
100
AcDbEntity
  8
0
  6
Continuous
 62
     7
370
    15
100
AcDbSpline
210
0.0
220
0.0
230
1.0
 70
     8
 71
     3
 72
    11
 73
     7
 74
     0
 42
0.000000001
 43
0.00000001
 40
0.0
 40
0.0
 40
0.0
 40
0.0
 40
0.2652128244603321
 40
0.5361880467119129
 40
0.7659953917830261
 40
0.9999999999999999
 40
0.9999999999999999
 40
0.9999999999999999
 40
0.9999999999999999
 10
4552.704684481025
 20
3771.947642598763
 30
0.0
 10
4553.030206247642
 20
3771.383810138531
 30
0.0
 10
4553.688322538061
 20
3770.243894577737
 30
0.0
 10
4554.661899860475
 20
3768.557617375006
 30
0.0
 10
4555.59088914094
 20
3766.948624000594
 30
0.0
 10
4556.159452278987
 20
3765.963780256138
 30
0.0
 10
4556.446306452155
 20
3765.466902215495
 30
0.0
  0
LINE
  5
127
330
1F
100
AcDbEntity
  8
0
  6
Continuous
 62
     7
370
    15
100
AcDbLine
 10
4556.4463064522
 20
3765.4476424647
 30
0.0
 11
4556.4463064522
 21
3765.4669022155
 31
0.0
  0
CIRCLE
  5
128
330
1F
100
AcDbEntity
  8
0
  6
Continuous
 62
     7
370
    15
100
AcDbCircle
 10
4548.9463287681
 20
3705.4572730106
 30
0.0
 40
6.25
  0
SPLINE
  5
129
330
1F
100
AcDbEntity
  8
0
  6
Continuous
 62
     7
370
    15
100
AcDbSpline
210
0.0
220
0.0
230
1.0
 70
     8
 71
     3
 72
    10
 73
     6
 74
     0
 42
0.000000001
 43
0.00000001
 40
0.0
 40
0.0
 40
0.0
 40
0.0
 40
0.2654699617309331
 40
0.5367076961008526
 40
1.0
 40
1.0
 40
1.0
 40
1.0
 10
4556.446306452155
 20
3705.447643805757
 30
0.0
 10
4556.120976771503
 20
3704.884141638518
 30
0.0
 10
4555.463249086467
 20
3703.744894290326
 30
0.0
 10
4554.189818877879
 20
3701.539290935139
 30
0.0
 10
4553.279103000446
 20
3699.96184841166
 30
0.0
 10
4552.704684481025
 20
3698.96690342249
 30
0.0
  0
ARC
  5
12A
330
1F
100
AcDbEntity
  8
0
  6
Continuous
 62
     7
370
    15
100
AcDbCircle
 10
4548.9463287681
 20
3705.4572730106
 30
0.0
 40
7.500000000001402
100
AcDbArc
 50
299.9264348666
 51
300.0735651334
  0
SPLINE
  5
12B
330
1F
100
AcDbEntity
  8
0
  6
Continuous
 62
     7
370
    15
100
AcDbSpline
210
0.0
220
0.0
230
1.0
 70
    24
 71
     3
 72
    13
 73
     9
 74
     0
 42
0.000000001
 43
0.00000001
 40
0.0
 40
0.0
 40
0.0
 40
0.0
 40
0.1807360844437272
 40
0.362958809570923
 40
0.612752847721997
 40
0.8692832237924955
 40
0.9346171236052847
 40
0.9999999999999999
 40
0.9999999999999999
 40
0.9999999999999999
 40
0.9999999999999999
 10
4552.687995180487
 20
3698.957273547068
 30
0.0
 10
4552.245712096274
 20
3698.957273547068
 30
0.0
 10
4551.357507938074
 20
3698.957273547068
 30
0.0
 10
4549.819814128782
 20
3698.957273547068
 30
0.0
 10
4548.069059257762
 20
3698.957273547068
 30
0.0
 10
4546.635013297564
 20
3698.957273547068
 30
0.0
 10
4545.682659525293
 20
3698.957273547068
 30
0.0
 10
4545.364054055543
 20
3698.957273547068
 30
0.0
 10
4545.204691633581
 20
3698.957273547068
 30
0.0
  0
ARC
  5
12C
330
1F
100
AcDbEntity
  8
0
  6
Continuous
 62
     7
370
    15
100
AcDbCircle
 10
4548.9463287681
 20
3705.4572730106
 30
0.0
 40
7.499999999998965
100
AcDbArc
 50
239.9264348666
 51
240.0735651334
  0
SPLINE
  5
12D
330
1F
100
AcDbEntity
  8
0
  6
Continuous
 62
     7
370
    15
100
AcDbSpline
210
0.0
220
0.0
230
1.0
 70
     8
 71
     3
 72
    10
 73
     6
 74
     0
 42
0.000000001
 43
0.00000001
 40
0.0
 40
0.0
 40
0.0
 40
0.0
 40
0.265468724297953
 40
0.5367054064375109
 40
1.0
 40
1.0
 40
1.0
 40
1.0
 10
4545.188002333044
 20
3698.96690342249
 30
0.0
 10
4544.862672176543
 20
3699.530404704551
 30
0.0
 10
4544.204943269558
 20
3700.669650713349
 30
0.0
 10
4542.931516185442
 20
3702.875267086309
 30
0.0
 10
4542.020764029795
 20
3704.452701003713
 30
0.0
 10
4541.446320757269
 20
3705.447643805757
 30
0.0
  0
LINE
  5
12E
330
1F
100
AcDbEntity
  8
0
  6
Continuous
 62
     7
370
    15
100
AcDbLine
 10
4541.4463207573
 20
3705.4669035566
 30
0.0
 11
4541.4463207573
 21
3705.4476438058
 31
0.0
  0
SPLINE
  5
12F
330
1F
100
AcDbEntity
  8
0
  6
Continuous
 62
     7
370
    15
100
AcDbSpline
210
0.0
220
0.0
230
1.0
 70
     8
 71
     3
 72
    10
 73
     6
 74
     0
 42
0.000000001
 43
0.00000001
 40
0.0
 40
0.0
 40
0.0
 40
0.0
 40
0.265472582291085
 40
0.5367053664284477
 40
1.0
 40
1.0
 40
1.0
 40
1.0
 10
4541.446320757269
 20
3705.4669035566
 30
0.0
 10
4541.771679140707
 20
3706.030400038111
 30
0.0
 10
4542.429455506524
 20
3707.169619700573
 30
0.0
 10
4543.702778744732
 20
3709.375294400937
 30
0.0
 10
4544.613546288106
 20
3710.952708393487
 30
0.0
 10
4545.188002333044
 20
3711.947643939868
 30
0.0
  0
ARC
  5
130
330
1F
100
AcDbEntity
  8
0
  6
Continuous
 62
     7
370
    15
100
AcDbCircle
 10
4548.9463287681
 20
3705.4572730106
 30
0.0
 40
7.500000000001796
100
AcDbArc
 50
119.9264348666
 51
120.0735651334
  0
SPLINE
  5
131
330
1F
100
AcDbEntity
  8
0
  6
Continuous
 62
     7
370
    15
100
AcDbSpline
210
0.0
220
0.0
230
1.0
 70
    24
 71
     3
 72
    10
 73
     6
 74
     0
 42
0.000000001
 43
0.00000001
 40
0.0
 40
0.0
 40
0.0
 40
0.0
 40
0.1309735806655204
 40
0.636701178216511
 40
1.0
 40
1.0
 40
1.0
 40
1.0
 10
4545.204691633581
 20
3711.957273815289
 30
0.0
 10
4545.523648471406
 20
3711.957273815289
 30
0.0
 10
4547.074191668063
 20
3711.957273815289
 30
0.0
 10
4549.654102165241
 20
3711.957273815289
 30
0.0
 10
4551.79358052348
 20
3711.957273815289
 30
0.0
 10
4552.687995180487
 20
3711.957273815289
 30
0.0
  0
ARC
  5
132
330
1F
100
AcDbEntity
  8
0
  6
Continuous
 62
     7
370
    15
100
AcDbCircle
 10
4548.9463287681
 20
3705.4572730106
 30
0.0
 40
7.499999999999074
100
AcDbArc
 50
59.9264348666
 51
60.0735651334
  0
SPLINE
  5
133
330
1F
100
AcDbEntity
  8
0
  6
Continuous
 62
     7
370
    15
100
AcDbSpline
210
0.0
220
0.0
230
1.0
 70
     8
 71
     3
 72
    11
 73
     7
 74
     0
 42
0.000000001
 43
0.00000001
 40
0.0
 40
0.0
 40
0.0
 40
0.0
 40
0.2652128231210622
 40
0.536188256056263
 40
0.7659955999668967
 40
1.0
 40
1.0
 40
1.0
 40
1.0
 10
4552.704684481025
 20
3711.947643939868
 30
0.0
 10
4553.030206332793
 20
3711.383811527332
 30
0.0
 10
4553.688323055634
 20
3710.243895612152
 30
0.0
 10
4554.661899415075
 20
3708.55761722198
 30
0.0
 10
4555.590888738619
 20
3706.948623822148
 30
0.0
 10
4556.159452227641
 20
3705.963780942928
 30
0.0
 10
4556.446306452155
 20
3705.4669035566
 30
0.0
  0
LINE
  5
134
330
1F
100
AcDbEntity
  8
0
  6
Continuous
 62
     7
370
    15
100
AcDbLine
 10
4556.4463064522
 20
3705.4476438058
 30
0.0
 11
4556.4463064522
 21
3705.4669035566
 31
0.0
  0
CIRCLE
  5
135
330
1F
100
AcDbEntity
  8
0
  6
Continuous
 62
     7
370
    15
100
AcDbCircle
 10
5639.6463287681
 20
3765.4572730106
 30
0.0
 40
6.25
  0
SPLINE
  5
136
330
1F
100
AcDbEntity
  8
0
  6
Continuous
 62
     7
370
    15
100
AcDbSpline
210
0.0
220
0.0
230
1.0
 70
     8
 71
     3
 72
    10
 73
     6
 74
     0
 42
0.000000001
 43
0.00000001
 40
0.0
 40
0.0
 40
0.0
 40
0.0
 40
0.2654699617309331
 40
0.5367076961008526
 40
1.0
 40
1.0
 40
1.0
 40
1.0
 10
5632.146351084113
 20
3765.466902215495
 30
0.0
 10
5632.471680764765
 20
3766.030404382735
 30
0.0
 10
5633.129408449801
 20
3767.169651730928
 30
0.0
 10
5634.402838658389
 20
3769.375255086114
 30
0.0
 10
5635.313554535822
 20
3770.952697609593
 30
0.0
 10
5635.887973055243
 20
3771.947642598763
 30
0.0
  0
ARC
  5
137
330
1F
100
AcDbEntity
  8
0
  6
Continuous
 62
     7
370
    15
100
AcDbCircle
 10
5639.6463287681
 20
3765.4572730106
 30
0.0
 40
7.5000000000017
100
AcDbArc
 50
119.9264348666
 51
120.0735651334
  0
SPLINE
  5
138
330
1F
100
AcDbEntity
  8
0
  6
Continuous
 62
     7
370
    15
100
AcDbSpline
210
0.0
220
0.0
230
1.0
 70
    24
 71
     3
 72
    13
 73
     9
 74
     0
 42
0.000000001
 43
0.00000001
 40
0.0
 40
0.0
 40
0.0
 40
0.0
 40
0.1807360844437272
 40
0.362958809570923
 40
0.612752847721997
 40
0.8692832237924955
 40
0.9346171236052847
 40
0.9999999999999999
 40
0.9999999999999999
 40
0.9999999999999999
 40
0.9999999999999999
 10
5635.90466235578
 20
3771.957272474184
 30
0.0
 10
5636.346945439994
 20
3771.957272474184
 30
0.0
 10
5637.235149598192
 20
3771.957272474184
 30
0.0
 10
5638.772843407485
 20
3771.957272474184
 30
0.0
 10
5640.523598278505
 20
3771.957272474184
 30
0.0
 10
5641.957644238703
 20
3771.957272474184
 30
0.0
 10
5642.909998010973
 20
3771.957272474184
 30
0.0
 10
5643.228603480724
 20
3771.957272474184
 30
0.0
 10
5643.387965902685
 20
3771.957272474184
 30
0.0
  0
ARC
  5
139
330
1F
100
AcDbEntity
  8
0
  6
Continuous
 62
     7
370
    15
100
AcDbCircle
 10
5639.6463287681
 20
3765.4572730106
 30
0.0
 40
7.49999999999851
100
AcDbArc
 50
59.9264348666
 51
60.0735651334
  0
SPLINE
  5
13A
330
1F
100
AcDbEntity
  8
0
  6
Continuous
 62
     7
370
    15
100
AcDbSpline
210
0.0
220
0.0
230
1.0
 70
     8
 71
     3
 72
    10
 73
     6
 74
     0
 42
0.000000001
 43
0.00000001
 40
0.0
 40
0.0
 40
0.0
 40
0.0
 40
0.265468724297953
 40
0.5367054064375109
 40
1.0
 40
1.0
 40
1.0
 40
1.0
 10
5643.404655203222
 20
3771.947642598763
 30
0.0
 10
5643.729985359724
 20
3771.384141316701
 30
0.0
 10
5644.38771426671
 20
3770.244895307904
 30
0.0
 10
5645.661141350825
 20
3768.039278934944
 30
0.0
 10
5646.571893506471
 20
3766.461845017539
 30
0.0
 10
5647.146336778997
 20
3765.466902215495
 30
0.0
  0
LINE
  5
13B
330
1F
100
AcDbEntity
  8
0
  6
Continuous
 62
     7
370
    15
100
AcDbLine
 10
5647.146336779
 20
3765.4476424647
 30
0.0
 11
5647.146336779
 21
3765.4669022155
 31
0.0
  0
SPLINE
  5
13C
330
1F
100
AcDbEntity
  8
0
  6
Continuous
 62
     7
370
    15
100
AcDbSpline
210
0.0
220
0.0
230
1.0
 70
     8
 71
     3
 72
    10
 73
     6
 74
     0
 42
0.000000001
 43
0.00000001
 40
0.0
 40
0.0
 40
0.0
 40
0.0
 40
0.265472582291085
 40
0.5367053664284477
 40
1.0
 40
1.0
 40
1.0
 40
1.0
 10
5647.146336778997
 20
3765.447642464653
 30
0.0
 10
5646.82097839556
 20
3764.884145983142
 30
0.0
 10
5646.163202029742
 20
3763.744926320681
 30
0.0
 10
5644.889878791535
 20
3761.539251620316
 30
0.0
 10
5643.979111248161
 20
3759.961837627766
 30
0.0
 10
5643.404655203222
 20
3758.966902081385
 30
0.0
  0
ARC
  5
13D
330
1F
100
AcDbEntity
  8
0
  6
Continuous
 62
     7
370
    15
100
AcDbCircle
 10
5639.6463287681
 20
3765.4572730106
 30
0.0
 40
7.500000000001342
100
AcDbArc
 50
299.9264348666
 51
300.0735651334
  0
SPLINE
  5
13E
330
1F
100
AcDbEntity
  8
0
  6
Continuous
 62
     7
370
    15
100
AcDbSpline
210
0.0
220
0.0
230
1.0
 70
    24
 71
     3
 72
    10
 73
     6
 74
     0
 42
0.000000001
 43
0.00000001
 40
0.0
 40
0.0
 40
0.0
 40
0.0
 40
0.1309735806655204
 40
0.636701178216511
 40
1.0
 40
1.0
 40
1.0
 40
1.0
 10
5643.387965902685
 20
3758.957272205964
 30
0.0
 10
5643.069009064861
 20
3758.957272205964
 30
0.0
 10
5641.518465868204
 20
3758.957272205964
 30
0.0
 10
5638.938555371026
 20
3758.957272205964
 30
0.0
 10
5636.799077012787
 20
3758.957272205964
 30
0.0
 10
5635.90466235578
 20
3758.957272205964
 30
0.0
  0
ARC
  5
13F
330
1F
100
AcDbEntity
  8
0
  6
Continuous
 62
     7
370
    15
100
AcDbCircle
 10
5639.6463287681
 20
3765.4572730106
 30
0.0
 40
7.499999999999527
100
AcDbArc
 50
239.9264348666
 51
240.0735651334
  0
SPLINE
  5
140
330
1F
100
AcDbEntity
  8
0
  6
Continuous
 62
     7
370
    15
100
AcDbSpline
210
0.0
220
0.0
230
1.0
 70
     8
 71
     3
 72
    11
 73
     7
 74
     0
 42
0.000000001
 43
0.00000001
 40
0.0
 40
0.0
 40
0.0
 40
0.0
 40
0.2652128231210622
 40
0.536188256056263
 40
0.7659955999668967
 40
1.0
 40
1.0
 40
1.0
 40
1.0
 10
5635.887973055243
 20
3758.966902081385
 30
0.0
 10
5635.562451203474
 20
3759.530734493921
 30
0.0
 10
5634.904334480632
 20
3760.670650409101
 30
0.0
 10
5633.930758121192
 20
3762.356928799272
 30
0.0
 10
5633.001768797648
 20
3763.965922199105
 30
0.0
 10
5632.433205308626
 20
3764.950765078325
 30
0.0
 10
5632.146351084113
 20
3765.447642464653
 30
0.0
  0
LINE
  5
141
330
1F
100
AcDbEntity
  8
0
  6
Continuous
 62
     7
370
    15
100
AcDbLine
 10
5632.1463510841
 20
3765.4669022155
 30
0.0
 11
5632.1463510841
 21
3765.4476424647
 31
0.0
  0
CIRCLE
  5
142
330
1F
100
AcDbEntity
  8
0
  6
Continuous
 62
     7
370
    15
100
AcDbCircle
 10
5639.6463287681
 20
3705.4572730106
 30
0.0
 40
6.25
  0
SPLINE
  5
143
330
1F
100
AcDbEntity
  8
0
  6
Continuous
 62
     7
370
    15
100
AcDbSpline
210
0.0
220
0.0
230
1.0
 70
     8
 71
     3
 72
    10
 73
     6
 74
     0
 42
0.000000001
 43
0.00000001
 40
0.0
 40
0.0
 40
0.0
 40
0.0
 40
0.265469753547991
 40
0.5367074873005633
 40
1.0
 40
1.0
 40
1.0
 40
1.0
 10
5632.146351084113
 20
3705.4669035566
 30
0.0
 10
5632.471680826512
 20
3706.030405065877
 30
0.0
 10
5633.129408896296
 20
3707.169651534042
 30
0.0
 10
5634.402838944319
 20
3709.375255020344
 30
0.0
 10
5635.313554587495
 20
3710.952698304496
 30
0.0
 10
5635.887973055243
 20
3711.947643939868
 30
0.0
  0
ARC
  5
144
330
1F
100
AcDbEntity
  8
0
  6
Continuous
 62
     7
370
    15
100
AcDbCircle
 10
5639.6463287681
 20
3705.4572730106
 30
0.0
 40
7.500000000001796
100
AcDbArc
 50
119.9264348666
 51
120.0735651334
  0
SPLINE
  5
145
330
1F
100
AcDbEntity
  8
0
  6
Continuous
 62
     7
370
    15
100
AcDbSpline
210
0.0
220
0.0
230
1.0
 70
    24
 71
     3
 72
    13
 73
     9
 74
     0
 42
0.000000001
 43
0.00000001
 40
0.0
 40
0.0
 40
0.0
 40
0.0
 40
0.1807360844437272
 40
0.362958809570923
 40
0.612752847721997
 40
0.8692832237924955
 40
0.9346171236052847
 40
0.9999999999999999
 40
0.9999999999999999
 40
0.9999999999999999
 40
0.9999999999999999
 10
5635.90466235578
 20
3711.957273815289
 30
0.0
 10
5636.346945439994
 20
3711.957273815289
 30
0.0
 10
5637.235149598192
 20
3711.957273815289
 30
0.0
 10
5638.772843407485
 20
3711.957273815289
 30
0.0
 10
5640.523598278505
 20
3711.957273815289
 30
0.0
 10
5641.957644238703
 20
3711.957273815289
 30
0.0
 10
5642.909998010973
 20
3711.957273815289
 30
0.0
 10
5643.228603480724
 20
3711.957273815289
 30
0.0
 10
5643.387965902685
 20
3711.957273815289
 30
0.0
  0
ARC
  5
146
330
1F
100
AcDbEntity
  8
0
  6
Continuous
 62
     7
370
    15
100
AcDbCircle
 10
5639.6463287681
 20
3705.4572730106
 30
0.0
 40
7.499999999999074
100
AcDbArc
 50
59.9264348666
 51
60.0735651334
  0
SPLINE
  5
147
330
1F
100
AcDbEntity
  8
0
  6
Continuous
 62
     7
370
    15
100
AcDbSpline
210
0.0
220
0.0
230
1.0
 70
     8
 71
     3
 72
    10
 73
     6
 74
     0
 42
0.000000001
 43
0.00000001
 40
0.0
 40
0.0
 40
0.0
 40
0.0
 40
0.2654687236596586
 40
0.5367056174036485
 40
1.0
 40
1.0
 40
1.0
 40
1.0
 10
5643.404655203222
 20
3711.947643939868
 30
0.0
 10
5643.729985447993
 20
3711.384142708708
 30
0.0
 10
5644.387714793555
 20
3710.244896352272
 30
0.0
 10
5645.661140215494
 20
3708.039278969975
 30
0.0
 10
5646.571893228062
 20
3706.461845575127
 30
0.0
 10
5647.146336778997
 20
3705.4669035566
 30
0.0
  0
LINE
  5
148
330
1F
100
AcDbEntity
  8
0
  6
Continuous
 62
     7
370
    15
100
AcDbLine
 10
5647.146336779
 20
3705.4476438058
 30
0.0
 11
5647.146336779
 21
3705.4669035566
 31
0.0
  0
SPLINE
  5
149
330
1F
100
AcDbEntity
  8
0
  6
Continuous
 62
     7
370
    15
100
AcDbSpline
210
0.0
220
0.0
230
1.0
 70
     8
 71
     3
 72
    10
 73
     6
 74
     0
 42
0.000000001
 43
0.00000001
 40
0.0
 40
0.0
 40
0.0
 40
0.0
 40
0.2654727904705755
 40
0.5367055752256088
 40
1.0
 40
1.0
 40
1.0
 40
1.0
 10
5647.146336778997
 20
3705.447643805757
 30
0.0
 10
5646.820978457299
 20
3704.884146666287
 30
0.0
 10
5646.163202476219
 20
3703.744926123791
 30
0.0
 10
5644.889879077439
 20
3701.539251554557
 30
0.0
 10
5643.979111299824
 20
3699.961838322675
 30
0.0
 10
5643.404655203222
 20
3698.96690342249
 30
0.0
  0
ARC
  5
14A
330
1F
100
AcDbEntity
  8
0
  6
Continuous
 62
     7
370
    15
100
AcDbCircle
 10
5639.6463287681
 20
3705.4572730106
 30
0.0
 40
7.500000000001244
100
AcDbArc
 50
299.9264348666
 51
300.0735651334
  0
SPLINE
  5
14B
330
1F
100
AcDbEntity
  8
0
  6
Continuous
 62
     7
370
    15
100
AcDbSpline
210
0.0
220
0.0
230
1.0
 70
    24
 71
     3
 72
    10
 73
     6
 74
     0
 42
0.000000001
 43
0.00000001
 40
0.0
 40
0.0
 40
0.0
 40
0.0
 40
0.1309735806655204
 40
0.636701178216511
 40
1.0
 40
1.0
 40
1.0
 40
1.0
 10
5643.387965902685
 20
3698.957273547068
 30
0.0
 10
5643.069009064861
 20
3698.957273547068
 30
0.0
 10
5641.518465868204
 20
3698.957273547068
 30
0.0
 10
5638.938555371026
 20
3698.957273547068
 30
0.0
 10
5636.799077012787
 20
3698.957273547068
 30
0.0
 10
5635.90466235578
 20
3698.957273547068
 30
0.0
  0
ARC
  5
14C
330
1F
100
AcDbEntity
  8
0
  6
Continuous
 62
     7
370
    15
100
AcDbCircle
 10
5639.6463287681
 20
3705.4572730106
 30
0.0
 40
7.499999999999421
100
AcDbArc
 50
239.9264348666
 51
240.0735651334
  0
SPLINE
  5
14D
330
1F
100
AcDbEntity
  8
0
  6
Continuous
 62
     7
370
    15
100
AcDbSpline
210
0.0
220
0.0
230
1.0
 70
     8
 71
     3
 72
    11
 73
     7
 74
     0
 42
0.000000001
 43
0.00000001
 40
0.0
 40
0.0
 40
0.0
 40
0.0
 40
0.2652128244603321
 40
0.5361880467119129
 40
0.7659953917830261
 40
0.9999999999999999
 40
0.9999999999999999
 40
0.9999999999999999
 40
0.9999999999999999
 10
5635.887973055243
 20
3698.96690342249
 30
0.0
 10
5635.562451288624
 20
3699.530735882722
 30
0.0
 10
5634.904334998206
 20
3700.670651443515
 30
0.0
 10
5633.930757675792
 20
3702.356928646247
 30
0.0
 10
5633.001768395328
 20
3703.965922020659
 30
0.0
 10
5632.43320525728
 20
3704.950765765114
 30
0.0
 10
5632.146351084113
 20
3705.447643805757
 30
0.0
  0
LINE
  5
14E
330
1F
100
AcDbEntity
  8
0
  6
Continuous
 62
     7
370
    15
100
AcDbLine
 10
5632.1463510841
 20
3705.4669035566
 30
0.0
 11
5632.1463510841
 21
3705.4476438058
 31
0.0
  0
LINE
  5
14F
330
1F
100
AcDbEntity
  8
0
  6
Continuous
 62
     7
370
    15
100
AcDbLine
 10
5536.4501402229
 20
3825.9188698572
 30
0.0
 11
5552.1425232738
 21
3825.9188698572
 31
0.0
  0
LINE
  5
150
330
1F
100
AcDbEntity
  8
0
  6
Continuous
 62
     7
370
    15
100
AcDbLine
 10
4636.4501342624
 20
3825.9188698572
 30
0.0
 11
4652.1425173134
 21
3825.9188698572
 31
0.0
  0
LINE
  5
151
330
1F
100
AcDbEntity
  8
0
  6
Continuous
 62
     7
370
    15
100
AcDbLine
 10
4634.2963204235
 20
3827.4572731894
 30
0.0
 11
4636.6024241298
 21
3827.4572731894
 31
0.0
  0
LINE
  5
152
330
1F
100
AcDbEntity
  8
0
  6
Continuous
 62
     7
370
    15
100
AcDbLine
 10
4651.990227446
 20
3827.4572731894
 30
0.0
 11
4654.2963311523
 21
3827.4572731894
 31
0.0
  0
LINE
  5
153
330
1F
100
AcDbEntity
  8
0
  6
Continuous
 62
     7
370
    15
100
AcDbLine
 10
5554.2963371128
 20
3643.4572728318
 30
0.0
 11
5534.2963263839
 21
3643.4572728318
 31
0.0
  0
LINE
  5
154
330
1F
100
AcDbEntity
  8
0
  6
Continuous
 62
     7
370
    15
100
AcDbLine
 10
5534.2963263839
 20
3827.4572731894
 30
0.0
 11
5536.6024300903
 21
3827.4572731894
 31
0.0
  0
LINE
  5
155
330
1F
100
AcDbEntity
  8
0
  6
Continuous
 62
     7
370
    15
100
AcDbLine
 10
5551.9902334064
 20
3827.4572731894
 30
0.0
 11
5554.2963371128
 21
3827.4572731894
 31
0.0
  0
LINE
  5
156
330
1F
100
AcDbEntity
  8
0
  6
Continuous
 62
     7
370
    15
100
AcDbLine
 10
4654.2963311523
 20
3643.4572728318
 30
0.0
 11
4634.2963204235
 21
3643.4572728318
 31
0.0
  0
LINE
  5
157
330
1F
100
AcDbEntity
  8
0
  6
Continuous
 62
     7
370
    15
100
AcDbLine
 10
5536.2963304371
 20
3834.4572724742
 30
0.0
 11
5552.2963330597
 21
3834.4572724742
 31
0.0
  0
SPLINE
  5
158
330
1F
100
AcDbEntity
  8
0
  6
Continuous
 62
     7
370
    15
100
AcDbSpline
210
0.0
220
0.0
230
1.0
 70
     8
 71
     3
 72
    11
 73
     7
 74
     0
 42
0.000000001
 43
0.00000001
 40
0.0
 40
0.0
 40
0.0
 40
0.0
 40
0.1905895880079158
 40
0.4881478508939204
 40
0.7417250469933611
 40
1.0
 40
1.0
 40
1.0
 40
1.0
 10
5543.526969894766
 20
3833.608852509871
 30
0.0
 10
5543.043622431164
 20
3833.748867178546
 30
0.0
 10
5541.805648058805
 20
3834.107479946021
 30
0.0
 10
5539.856662168917
 20
3834.229933241036
 30
0.0
 10
5537.744967242949
 20
3833.997128457373
 30
0.0
 10
5536.449842530111
 20
3833.606509791451
 30
0.0
 10
5535.796336874365
 20
3833.409407917872
 30
0.0
  0
SPLINE
  5
159
330
1F
100
AcDbEntity
  8
0
  6
Continuous
 62
     7
370
    15
100
AcDbSpline
210
0.0
220
0.0
230
1.0
 70
    24
 71
     3
 72
    10
 73
     6
 74
     0
 42
0.000000001
 43
0.00000001
 40
0.0
 40
0.0
 40
0.0
 40
0.0
 40
0.2638272822708955
 40
0.7625643602311343
 40
1.0
 40
1.0
 40
1.0
 40
1.0
 10
5535.796336874365
 20
3833.409407917872
 30
0.0
 10
5535.796336874366
 20
3833.522682358227
 30
0.0
 10
5535.796336874365
 20
3833.850089934868
 30
0.0
 10
5535.796336874366
 20
3834.161629078829
 30
0.0
 10
5535.796336874365
 20
3834.125797082274
 30
0.0
 10
5535.796336874365
 20
3834.114240292921
 30
0.0
  0
SPLINE
  5
15A
330
1F
100
AcDbEntity
  8
0
  6
Continuous
 62
     7
370
    15
100
AcDbSpline
210
0.0
220
0.0
230
1.0
 70
    24
 71
     3
 72
    10
 73
     6
 74
     0
 42
0.000000001
 43
0.00000001
 40
0.0
 40
0.0
 40
0.0
 40
0.0
 40
0.2245905661849477
 40
0.736161183308755
 40
1.0
 40
1.0
 40
1.0
 40
1.0
 10
5552.796326622366
 20
3834.117168371096
 30
0.0
 10
5552.796326622366
 20
3834.128422167529
 30
0.0
 10
5552.796326622367
 20
3834.165309772558
 30
0.0
 10
5552.796326622366
 20
3833.855563896818
 30
0.0
 10
5552.796326622367
 20
3833.522675624108
 30
0.0
 10
5552.796326622366
 20
3833.409407917872
 30
0.0
  0
SPLINE
  5
15B
330
1F
100
AcDbEntity
  8
0
  6
Continuous
 62
     7
370
    15
100
AcDbSpline
210
0.0
220
0.0
230
1.0
 70
     8
 71
     3
 72
    11
 73
     7
 74
     0
 42
0.000000001
 43
0.00000001
 40
0.0
 40
0.0
 40
0.0
 40
0.0
 40
0.2954173362814126
 40
0.5972405879519082
 40
0.8544647135464368
 40
1.0
 40
1.0
 40
1.0
 40
1.0
 10
5552.796326622366
 20
3833.409407917872
 30
0.0
 10
5552.058506457247
 20
3833.629192711142
 30
0.0
 10
5550.566867020086
 20
3834.073528175026
 30
0.0
 10
5548.3582809596
 20
3834.22829089178
 30
0.0
 10
5546.54189640698
 20
3834.045000642384
 30
0.0
 10
5545.535832968651
 20
3833.750945348886
 30
0.0
 10
5545.172296509146
 20
3833.644689802542
 30
0.0
  0
LINE
  5
15C
330
1F
100
AcDbEntity
  8
0
  6
Continuous
 62
     7
370
    15
100
AcDbLine
 10
5535.7963368744
 20
3827.4572731894
 30
0.0
 11
5535.7963368744
 21
3833.4094079179
 31
0.0
  0
LINE
  5
15D
330
1F
100
AcDbEntity
  8
0
  6
Continuous
 62
     7
370
    15
100
AcDbLine
 10
5552.7963266224
 20
3827.4572731894
 30
0.0
 11
5552.7963266224
 21
3833.4094079179
 31
0.0
  0
LINE
  5
15E
330
1F
100
AcDbEntity
  8
0
  6
Continuous
 62
     7
370
    15
100
AcDbLine
 10
4644.2963406891
 20
3643.4572728318
 30
0.0
 11
4644.2963406891
 21
3637.5051381034
 31
0.0
  0
SPLINE
  5
15F
330
1F
100
AcDbEntity
  8
0
  6
Continuous
 62
     7
370
    15
100
AcDbSpline
210
0.0
220
0.0
230
1.0
 70
     8
 71
     3
 72
    11
 73
     7
 74
     0
 42
0.000000001
 43
0.00000001
 40
0.0
 40
0.0
 40
0.0
 40
0.0
 40
0.2646025171294523
 40
0.5349487254861666
 40
0.7653479021899712
 40
0.9999999999999999
 40
0.9999999999999999
 40
0.9999999999999999
 40
0.9999999999999999
 10
4635.7963309139
 20
3637.505138103381
 30
0.0
 10
4636.534068804328
 20
3637.28585871163
 30
0.0
 10
4638.025558562281
 20
3636.842540059884
 30
0.0
 10
4640.235385256346
 20
3636.680375877321
 30
0.0
 10
4642.347750583712
 20
3636.918412641216
 30
0.0
 10
4643.642862695276
 20
3637.308374208877
 30
0.0
 10
4644.296340689062
 20
3637.505138103381
 30
0.0
  0
LINE
  5
160
330
1F
100
AcDbEntity
  8
0
  6
Continuous
 62
     7
370
    15
100
AcDbLine
 10
4635.7963309139
 20
3643.4572728318
 30
0.0
 11
4635.7963309139
 21
3637.5051381034
 31
0.0
  0
LINE
  5
161
330
1F
100
AcDbEntity
  8
0
  6
Continuous
 62
     7
370
    15
100
AcDbLine
 10
4652.2963270992
 20
3636.4572735471
 30
0.0
 11
4636.2963244766
 21
3636.4572735471
 31
0.0
  0
SPLINE
  5
162
330
1F
100
AcDbEntity
  8
0
  6
Continuous
 62
     7
370
    15
100
AcDbSpline
210
0.0
220
0.0
230
1.0
 70
    24
 71
     3
 72
     9
 73
     5
 74
     0
 42
0.000000001
 43
0.00000001
 40
0.0
 40
0.0
 40
0.0
 40
0.0
 40
0.2736590992581728
 40
1.0
 40
1.0
 40
1.0
 40
1.0
 10
4635.7963309139
 20
3636.800305728331
 30
0.0
 10
4635.7963309139
 20
3636.791428494576
 30
0.0
 10
4635.7963309139
 20
3636.758989471796
 30
0.0
 10
4635.7963309139
 20
3637.191203428647
 30
0.0
 10
4635.7963309139
 20
3637.505138103381
 30
0.0
  0
SPLINE
  5
163
330
1F
100
AcDbEntity
  8
0
  6
Continuous
 62
     7
370
    15
100
AcDbSpline
210
0.0
220
0.0
230
1.0
 70
     8
 71
     3
 72
    11
 73
     7
 74
     0
 42
0.000000001
 43
0.00000001
 40
0.0
 40
0.0
 40
0.0
 40
0.0
 40
0.2646032521637028
 40
0.5349502115099573
 40
0.7653381135635992
 40
1.0
 40
1.0
 40
1.0
 40
1.0
 10
4644.296340689062
 20
3637.505138103381
 30
0.0
 10
4645.034083045924
 20
3637.285859512445
 30
0.0
 10
4646.525581833695
 20
3636.842542479713
 30
0.0
 10
4648.735308691232
 20
3636.680369089434
 30
0.0
 10
4650.847882322436
 20
3636.918434314814
 30
0.0
 10
4652.142874059925
 20
3637.308375604285
 30
0.0
 10
4652.796320661902
 20
3637.505138103381
 30
0.0
  0
SPLINE
  5
164
330
1F
100
AcDbEntity
  8
0
  6
Continuous
 62
     7
370
    15
100
AcDbSpline
210
0.0
220
0.0
230
1.0
 70
    24
 71
     3
 72
     9
 73
     5
 74
     0
 42
0.000000001
 43
0.00000001
 40
0.0
 40
0.0
 40
0.0
 40
0.0
 40
0.7263030768199558
 40
1.0
 40
1.0
 40
1.0
 40
1.0
 10
4652.796320661902
 20
3637.505138103381
 30
0.0
 10
4652.796320661902
 20
3637.192147767932
 30
0.0
 10
4652.796320661902
 20
3636.761211502564
 30
0.0
 10
4652.796320661902
 20
3636.789606128424
 30
0.0
 10
4652.796320661902
 20
3636.797377650156
 30
0.0
  0
LINE
  5
165
330
1F
100
AcDbEntity
  8
0
  6
Continuous
 62
     7
370
    15
100
AcDbLine
 10
4652.7963206619
 20
3643.4572728318
 30
0.0
 11
4652.7963206619
 21
3637.5051381034
 31
0.0
  0
LINE
  5
166
330
1F
100
AcDbEntity
  8
0
  6
Continuous
 62
     7
370
    15
100
AcDbLine
 10
4636.2963244766
 20
3834.4572724742
 30
0.0
 11
4652.2963270992
 21
3834.4572724742
 31
0.0
  0
SPLINE
  5
167
330
1F
100
AcDbEntity
  8
0
  6
Continuous
 62
     7
370
    15
100
AcDbSpline
210
0.0
220
0.0
230
1.0
 70
     8
 71
     3
 72
    11
 73
     7
 74
     0
 42
0.000000001
 43
0.00000001
 40
0.0
 40
0.0
 40
0.0
 40
0.0
 40
0.1905895894334796
 40
0.4881450077623758
 40
0.741725045061527
 40
1.0
 40
1.0
 40
1.0
 40
1.0
 10
4643.526963934301
 20
3833.608852509871
 30
0.0
 10
4643.043615890947
 20
3833.748867238919
 30
0.0
 10
4641.805647253327
 20
3834.107478069663
 30
0.0
 10
4639.856676859312
 20
3834.229932256701
 30
0.0
 10
4637.74496533808
 20
3833.997130865724
 30
0.0
 10
4636.449835520418
 20
3833.606509872457
 30
0.0
 10
4635.7963309139
 20
3833.409407917872
 30
0.0
  0
SPLINE
  5
168
330
1F
100
AcDbEntity
  8
0
  6
Continuous
 62
     7
370
    15
100
AcDbSpline
210
0.0
220
0.0
230
1.0
 70
    24
 71
     3
 72
    10
 73
     6
 74
     0
 42
0.000000001
 43
0.00000001
 40
0.0
 40
0.0
 40
0.0
 40
0.0
 40
0.2638272822708955
 40
0.7625643602311343
 40
1.0
 40
1.0
 40
1.0
 40
1.0
 10
4635.7963309139
 20
3833.409407917872
 30
0.0
 10
4635.7963309139
 20
3833.522682358227
 30
0.0
 10
4635.7963309139
 20
3833.850089934868
 30
0.0
 10
4635.7963309139
 20
3834.161629078829
 30
0.0
 10
4635.7963309139
 20
3834.125797082274
 30
0.0
 10
4635.7963309139
 20
3834.114240292921
 30
0.0
  0
SPLINE
  5
169
330
1F
100
AcDbEntity
  8
0
  6
Continuous
 62
     7
370
    15
100
AcDbSpline
210
0.0
220
0.0
230
1.0
 70
    24
 71
     3
 72
    10
 73
     6
 74
     0
 42
0.000000001
 43
0.00000001
 40
0.0
 40
0.0
 40
0.0
 40
0.0
 40
0.2245905661849477
 40
0.736161183308755
 40
1.0
 40
1.0
 40
1.0
 40
1.0
 10
4652.796320661902
 20
3834.117168371096
 30
0.0
 10
4652.796320661902
 20
3834.128422167529
 30
0.0
 10
4652.796320661902
 20
3834.165309772558
 30
0.0
 10
4652.796320661902
 20
3833.855563896818
 30
0.0
 10
4652.796320661902
 20
3833.522675624108
 30
0.0
 10
4652.796320661902
 20
3833.409407917872
 30
0.0
  0
SPLINE
  5
16A
330
1F
100
AcDbEntity
  8
0
  6
Continuous
 62
     7
370
    15
100
AcDbSpline
210
0.0
220
0.0
230
1.0
 70
     8
 71
     3
 72
    11
 73
     7
 74
     0
 42
0.000000001
 43
0.00000001
 40
0.0
 40
0.0
 40
0.0
 40
0.0
 40
0.2954181690126849
 40
0.5972422714716397
 40
0.8544671221372697
 40
1.0
 40
1.0
 40
1.0
 40
1.0
 10
4652.796320661902
 20
3833.409407917872
 30
0.0
 10
4652.058500349556
 20
3833.629192822951
 30
0.0
 10
4650.566860614749
 20
3834.073528512875
 30
0.0
 10
4648.358276711157
 20
3834.228289591622
 30
0.0
 10
4646.541893314537
 20
3834.045004716234
 30
0.0
 10
4645.535846358021
 20
3833.750945464707
 30
0.0
 10
4645.172320351005
 20
3833.644689802542
 30
0.0
  0
LINE
  5
16B
330
1F
100
AcDbEntity
  8
0
  6
Continuous
 62
     7
370
    15
100
AcDbLine
 10
4652.7963206619
 20
3827.4572731894
 30
0.0
 11
4652.7963206619
 21
3833.4094079179
 31
0.0
  0
LINE
  5
16C
330
1F
100
AcDbEntity
  8
0
  6
Continuous
 62
     7
370
    15
100
AcDbLine
 10
4635.7963309139
 20
3827.4572731894
 30
0.0
 11
4635.7963309139
 21
3833.4094079179
 31
0.0
  0
LINE
  5
16D
330
1F
100
AcDbEntity
  8
0
  6
Continuous
 62
     7
370
    15
100
AcDbLine
 10
5552.7963266224
 20
3643.4572728318
 30
0.0
 11
5552.7963266224
 21
3637.5051381034
 31
0.0
  0
SPLINE
  5
16E
330
1F
100
AcDbEntity
  8
0
  6
Continuous
 62
     7
370
    15
100
AcDbSpline
210
0.0
220
0.0
230
1.0
 70
     8
 71
     3
 72
    11
 73
     7
 74
     0
 42
0.000000001
 43
0.00000001
 40
0.0
 40
0.0
 40
0.0
 40
0.0
 40
0.2646051139289937
 40
0.5349488049085434
 40
0.7653387054762758
 40
1.0
 40
1.0
 40
1.0
 40
1.0
 10
5544.296316847204
 20
3637.505138103381
 30
0.0
 10
5545.034070942984
 20
3637.285859533481
 30
0.0
 10
5546.525579047243
 20
3636.842546828113
 30
0.0
 10
5548.735293625261
 20
3636.680369582597
 30
0.0
 10
5550.847884316446
 20
3636.918432019787
 30
0.0
 10
5552.142881099244
 20
3637.308375560016
 30
0.0
 10
5552.796326622366
 20
3637.505138103381
 30
0.0
  0
LINE
  5
16F
330
1F
100
AcDbEntity
  8
0
  6
Continuous
 62
     7
370
    15
100
AcDbLine
 10
5544.2963168472
 20
3643.4572728318
 30
0.0
 11
5544.2963168472
 21
3637.5051381034
 31
0.0
  0
LINE
  5
170
330
1F
100
AcDbEntity
  8
0
  6
Continuous
 62
     7
370
    15
100
AcDbLine
 10
5552.2963330597
 20
3636.4572735471
 30
0.0
 11
5536.2963304371
 21
3636.4572735471
 31
0.0
  0
SPLINE
  5
171
330
1F
100
AcDbEntity
  8
0
  6
Continuous
 62
     7
370
    15
100
AcDbSpline
210
0.0
220
0.0
230
1.0
 70
    24
 71
     3
 72
     9
 73
     5
 74
     0
 42
0.000000001
 43
0.00000001
 40
0.0
 40
0.0
 40
0.0
 40
0.0
 40
0.2736590992581728
 40
1.0
 40
1.0
 40
1.0
 40
1.0
 10
5535.796336874365
 20
3636.800305728331
 30
0.0
 10
5535.796336874365
 20
3636.791428494576
 30
0.0
 10
5535.796336874366
 20
3636.758989471796
 30
0.0
 10
5535.796336874365
 20
3637.191203428647
 30
0.0
 10
5535.796336874365
 20
3637.505138103381
 30
0.0
  0
SPLINE
  5
172
330
1F
100
AcDbEntity
  8
0
  6
Continuous
 62
     7
370
    15
100
AcDbSpline
210
0.0
220
0.0
230
1.0
 70
     8
 71
     3
 72
    11
 73
     7
 74
     0
 42
0.000000001
 43
0.00000001
 40
0.0
 40
0.0
 40
0.0
 40
0.0
 40
0.2646031852017099
 40
0.5349500761324365
 40
0.7653498345514108
 40
1.0
 40
1.0
 40
1.0
 40
1.0
 10
5535.796336874365
 20
3637.505138103381
 30
0.0
 10
5536.534074827467
 20
3637.285858661837
 30
0.0
 10
5538.025564712128
 20
3636.842539909423
 30
0.0
 10
5540.235390487981
 20
3636.680376456361
 30
0.0
 10
5542.347751594421
 20
3636.918409994655
 30
0.0
 10
5543.642849503217
 20
3637.308374018471
 30
0.0
 10
5544.296316847204
 20
3637.505138103381
 30
0.0
  0
SPLINE
  5
173
330
1F
100
AcDbEntity
  8
0
  6
Continuous
 62
     7
370
    15
100
AcDbSpline
210
0.0
220
0.0
230
1.0
 70
    24
 71
     3
 72
     9
 73
     5
 74
     0
 42
0.000000001
 43
0.00000001
 40
0.0
 40
0.0
 40
0.0
 40
0.0
 40
0.7263030768199558
 40
1.0
 40
1.0
 40
1.0
 40
1.0
 10
5552.796326622366
 20
3637.505138103381
 30
0.0
 10
5552.796326622366
 20
3637.192147767932
 30
0.0
 10
5552.796326622366
 20
3636.761211502564
 30
0.0
 10
5552.796326622366
 20
3636.789606128424
 30
0.0
 10
5552.796326622366
 20
3636.797377650156
 30
0.0
  0
LINE
  5
174
330
1F
100
AcDbEntity
  8
0
  6
Continuous
 62
     7
370
    15
100
AcDbLine
 10
5535.7963368744
 20
3643.4572728318
 30
0.0
 11
5535.7963368744
 21
3637.5051381034
 31
0.0
  0
LINE
  5
175
330
1F
100
AcDbEntity
  8
0
  6
Continuous
 62
     7
370
    15
100
AcDbLine
 10
5529.2963311523
 20
3825.4572765869
 30
0.0
 11
5536.2481400818
 21
3825.4572765869
 31
0.0
  0
LINE
  5
176
330
1F
100
AcDbEntity
  8
0
  6
Continuous
 62
     7
370
    15
100
AcDbLine
 10
5552.344523415
 20
3825.4572765869
 30
0.0
 11
5559.2963323444
 21
3825.4572765869
 31
0.0
  0
LINE
  5
177
330
1F
100
AcDbEntity
  8
0
  6
Continuous
 62
     7
370
    15
100
AcDbLine
 10
5569.2963228077
 20
3825.4572765869
 30
0.0
 11
5569.2963228077
 21
3821.9153525275
 31
0.0
  0
LINE
  5
178
330
1F
100
AcDbEntity
  8
0
  6
Continuous
 62
     7
370
    15
100
AcDbLine
 10
5559.2963323444
 20
3825.4572765869
 30
0.0
 11
5569.2963228077
 21
3825.4572765869
 31
0.0
  0
LINE
  5
179
330
1F
100
AcDbEntity
  8
0
  6
Continuous
 62
     7
370
    15
100
AcDbLine
 10
5519.2963406891
 20
3825.4572765869
 30
0.0
 11
5519.2963406891
 21
3821.9153525275
 31
0.0
  0
LINE
  5
17A
330
1F
100
AcDbEntity
  8
0
  6
Continuous
 62
     7
370
    15
100
AcDbLine
 10
5519.2963406891
 20
3825.4572765869
 30
0.0
 11
5529.2963311523
 21
3825.4572765869
 31
0.0
  0
LINE
  5
17B
330
1F
100
AcDbEntity
  8
0
  6
Continuous
 62
     7
370
    15
100
AcDbLine
 10
4669.2963168472
 20
3645.4572694343
 30
0.0
 11
4669.2963168472
 21
3648.9991934937
 31
0.0
  0
LINE
  5
17C
330
1F
100
AcDbEntity
  8
0
  6
Continuous
 62
     7
370
    15
100
AcDbLine
 10
4669.2963168472
 20
3645.4572694343
 30
0.0
 11
4659.2963263839
 21
3645.4572694343
 31
0.0
  0
LINE
  5
17D
330
1F
100
AcDbEntity
  8
0
  6
Continuous
 62
     7
370
    15
100
AcDbLine
 10
4629.2963251919
 20
3645.4572694343
 30
0.0
 11
4619.2963347286
 21
3645.4572694343
 31
0.0
  0
LINE
  5
17E
330
1F
100
AcDbEntity
  8
0
  6
Continuous
 62
     7
370
    15
100
AcDbLine
 10
4619.2963347286
 20
3645.4572694343
 30
0.0
 11
4619.2963347286
 21
3648.9991934937
 31
0.0
  0
LINE
  5
17F
330
1F
100
AcDbEntity
  8
0
  6
Continuous
 62
     7
370
    15
100
AcDbLine
 10
4659.2963263839
 20
3645.4572694343
 30
0.0
 11
4629.2963251919
 21
3645.4572694343
 31
0.0
  0
LINE
  5
180
330
1F
100
AcDbEntity
  8
0
  6
Continuous
 62
     7
370
    15
100
AcDbLine
 10
4659.2963263839
 20
3825.4572765869
 30
0.0
 11
4652.3445174545
 21
3825.4572765869
 31
0.0
  0
LINE
  5
181
330
1F
100
AcDbEntity
  8
0
  6
Continuous
 62
     7
370
    15
100
AcDbLine
 10
4636.2481341213
 20
3825.4572765869
 30
0.0
 11
4629.2963251919
 21
3825.4572765869
 31
0.0
  0
LINE
  5
182
330
1F
100
AcDbEntity
  8
0
  6
Continuous
 62
     7
370
    15
100
AcDbLine
 10
4619.2963347286
 20
3821.9153525275
 30
0.0
 11
4619.2963347286
 21
3825.4572765869
 31
0.0
  0
LINE
  5
183
330
1F
100
AcDbEntity
  8
0
  6
Continuous
 62
     7
370
    15
100
AcDbLine
 10
4629.2963251919
 20
3825.4572765869
 30
0.0
 11
4619.2963347286
 21
3825.4572765869
 31
0.0
  0
LINE
  5
184
330
1F
100
AcDbEntity
  8
0
  6
Continuous
 62
     7
370
    15
100
AcDbLine
 10
4669.2963168472
 20
3821.9153525275
 30
0.0
 11
4669.2963168472
 21
3825.4572765869
 31
0.0
  0
LINE
  5
185
330
1F
100
AcDbEntity
  8
0
  6
Continuous
 62
     7
370
    15
100
AcDbLine
 10
4669.2963168472
 20
3825.4572765869
 30
0.0
 11
4659.2963263839
 21
3825.4572765869
 31
0.0
  0
LINE
  5
186
330
1F
100
AcDbEntity
  8
0
  6
Continuous
 62
     7
370
    15
100
AcDbLine
 10
5569.2963228077
 20
3648.9991934937
 30
0.0
 11
5569.2963228077
 21
3645.4572694343
 31
0.0
  0
LINE
  5
187
330
1F
100
AcDbEntity
  8
0
  6
Continuous
 62
     7
370
    15
100
AcDbLine
 10
5559.2963323444
 20
3645.4572694343
 30
0.0
 11
5569.2963228077
 21
3645.4572694343
 31
0.0
  0
LINE
  5
188
330
1F
100
AcDbEntity
  8
0
  6
Continuous
 62
     7
370
    15
100
AcDbLine
 10
5519.2963406891
 20
3648.9991934937
 30
0.0
 11
5519.2963406891
 21
3645.4572694343
 31
0.0
  0
LINE
  5
189
330
1F
100
AcDbEntity
  8
0
  6
Continuous
 62
     7
370
    15
100
AcDbLine
 10
5519.2963406891
 20
3645.4572694343
 30
0.0
 11
5529.2963311523
 21
3645.4572694343
 31
0.0
  0
LINE
  5
18A
330
1F
100
AcDbEntity
  8
0
  6
Continuous
 62
     7
370
    15
100
AcDbLine
 10
5529.2963311523
 20
3645.4572694343
 30
0.0
 11
5559.2963323444
 21
3645.4572694343
 31
0.0
  0
SPLINE
  5
18B
330
1F
100
AcDbEntity
  8
0
  6
Continuous
 62
     7
370
    15
100
AcDbSpline
210
0.0
220
0.0
230
1.0
 70
     8
 71
     3
 72
    29
 73
    25
 74
     0
 42
0.000000001
 43
0.00000001
 40
0.0
 40
0.0
 40
0.0
 40
0.0
 40
0.0002167397558401
 40
0.0420296690091725
 40
0.0796870414403408
 40
0.1182901082308794
 40
0.1591179948852898
 40
0.200768069520965
 40
0.2619990732664456
 40
0.3249908675357306
 40
0.3723951189141603
 40
0.42077211212564
 40
0.4789928068385493
 40
0.50792695366285
 40
0.5379284722519566
 40
0.5726109089732325
 40
0.6082519416815121
 40
0.6664720356194689
 40
0.7262565264558848
 40
0.78711070881568
 40
0.8499173160955519
 40
0.8920191884283846
 40
0.9352249473916996
 40
1.0
 40
1.0
 40
1.0
 40
1.0
 10
5654.647104486823
 20
3855.456383709326
 30
0.0
 10
5654.646844956499
 20
3855.456680681581
 30
0.0
 10
5654.596517440228
 20
3855.514268850049
 30
0.0
 10
5654.767074739022
 20
3855.317046490132
 30
0.0
 10
5655.152874351423
 20
3854.864426366685
 30
0.0
 10
5655.791205141966
 20
3854.109730910041
 30
0.0
 10
5656.641208370136
 20
3853.088584396184
 30
0.0
 10
5657.841345521108
 20
3851.61208161485
 30
0.0
 10
5659.418899928171
 20
3849.589078346517
 30
0.0
 10
5661.152358179766
 20
3847.166153229481
 30
0.0
 10
5662.699277486362
 20
3844.660253823138
 30
0.0
 10
5664.022069289101
 20
3841.987494283007
 30
0.0
 10
5664.778793238681
 20
3839.336137804333
 30
0.0
 10
5664.867897820145
 20
3836.951785423703
 30
0.0
 10
5664.62215582361
 20
3835.066393299169
 30
0.0
 10
5664.047365755931
 20
3833.140175878484
 30
0.0
 10
5663.027651710243
 20
3830.842911615746
 30
0.0
 10
5661.554837436247
 20
3828.348896715191
 30
0.0
 10
5659.749731942428
 20
3825.769672879893
 30
0.0
 10
5657.973624058017
 20
3823.461330370982
 30
0.0
 10
5656.567373500383
 20
3821.734615392432
 30
0.0
 10
5655.584873109245
 20
3820.559295604768
 30
0.0
 10
5654.83557483515
 20
3819.677319469895
 30
0.0
 10
5654.717287381815
 20
3819.539779030066
 30
0.0
 10
5654.646329626441
 20
3819.457271878138
 30
0.0
  0
SPLINE
  5
18C
330
1F
100
AcDbEntity
  8
0
  6
Continuous
 62
     7
370
    15
100
AcDbSpline
210
0.0
220
0.0
230
1.0
 70
     8
 71
     3
 72
    29
 73
    25
 74
     0
 42
0.000000001
 43
0.00000001
 40
0.0
 40
0.0
 40
0.0
 40
0.0
 40
0.0002167397502589
 40
0.0420296592157329
 40
0.0796870552029325
 40
0.1182900826746712
 40
0.1591179682777318
 40
0.2007680418408853
 40
0.2619991174905496
 40
0.3249909101377471
 40
0.3723950645628867
 40
0.4207720565286212
 40
0.4789928668737006
 40
0.5079268904108434
 40
0.5379285295598224
 40
0.5726109653879986
 40
0.6082519971784939
 40
0.666472089617238
 40
0.726256491546918
 40
0.7871107482817501
 40
0.849917353944303
 40
0.8920192251929799
 40
0.9352249490597075
 40
1.0
 40
1.0
 40
1.0
 40
1.0
 10
5654.647104486823
 20
3651.456380073443
 30
0.0
 10
5654.646844956498
 20
3651.456677045631
 30
0.0
 10
5654.596517450393
 20
3651.514265189197
 30
0.0
 10
5654.767075032108
 20
3651.317057132509
 30
0.0
 10
5655.152873761032
 20
3650.864417147712
 30
0.0
 10
5655.791205677333
 20
3650.109738118613
 30
0.0
 10
5656.641208204362
 20
3649.088586967549
 30
0.0
 10
5657.841346614035
 20
3647.612086145177
 30
0.0
 10
5659.418898751644
 20
3645.589074056393
 30
0.0
 10
5661.152356061366
 20
3643.166149988826
 30
0.0
 10
5662.699279195231
 20
3640.660256932142
 30
0.0
 10
5664.02207035552
 20
3637.987495886821
 30
0.0
 10
5664.778792401622
 20
3635.336138839056
 30
0.0
 10
5664.867897470323
 20
3632.951784387231
 30
0.0
 10
5664.622156669594
 20
3631.066391963741
 30
0.0
 10
5664.047365746561
 20
3629.140172196529
 30
0.0
 10
5663.027651554512
 20
3626.842908257055
 30
0.0
 10
5661.554839419177
 20
3624.34889265877
 30
0.0
 10
5659.749728572499
 20
3621.769677600242
 30
0.0
 10
5657.973625861467
 20
3619.46132515074
 30
0.0
 10
5656.567373246101
 20
3617.734613058265
 30
0.0
 10
5655.584873514502
 20
3616.559289889116
 30
0.0
 10
5654.835574476333
 20
3615.677326904561
 30
0.0
 10
5654.717287261235
 20
3615.539784218307
 30
0.0
 10
5654.646329626441
 20
3615.457275692836
 30
0.0
  0
SPLINE
  5
18D
330
1F
100
AcDbEntity
  8
0
  6
Continuous
 62
     7
370
    15
100
AcDbSpline
210
0.0
220
0.0
230
1.0
 70
     8
 71
     3
 72
    29
 73
    25
 74
     0
 42
0.000000001
 43
0.00000001
 40
0.0
 40
0.0
 40
0.0
 40
0.0
 40
0.0002167394469413
 40
0.0420296003971082
 40
0.0796869436844695
 40
0.1182899171330011
 40
0.1591177455992653
 40
0.2007677608750071
 40
0.2620000326350005
 40
0.3249917371280068
 40
0.3723950260578435
 40
0.4207725399457454
 40
0.4789929545042784
 40
0.5079269375495516
 40
0.5379285347125812
 40
0.5726109220042426
 40
0.6082519039167109
 40
0.6664719148790446
 40
0.726255248648326
 40
0.7871094202203528
 40
0.8499174236477929
 40
0.8920175477279372
 40
0.9352250397094888
 40
1.0
 40
1.0
 40
1.0
 40
1.0
 10
4533.945553049445
 20
3819.458165947809
 30
0.0
 10
4533.945812579769
 20
3819.457868975622
 30
0.0
 10
4533.996140085908
 20
3819.400280832014
 30
0.0
 10
4533.82558246728
 20
3819.597488935671
 30
0.0
 10
4533.439783891927
 20
3820.050128725055
 30
0.0
 10
4532.801451400887
 20
3820.804808485486
 30
0.0
 10
4531.951451165228
 20
3821.825956720867
 30
0.0
 10
4530.751291845059
 20
3823.30248369948
 30
0.0
 10
4529.173782026072
 20
3825.325442983073
 30
0.0
 10
4527.440319883374
 20
3827.748364426987
 30
0.0
 10
4525.893352741178
 20
3830.254337093256
 30
0.0
 10
4524.570604384766
 20
3832.927009217245
 30
0.0
 10
4523.813862473658
 20
3835.578419120226
 30
0.0
 10
4523.724760523516
 20
3837.962760535325
 30
0.0
 10
4523.970500782519
 20
3839.848154495135
 30
0.0
 10
4524.54529153646
 20
3841.774373307412
 30
0.0
 10
4525.565007402865
 20
3844.071639842404
 30
0.0
 10
4527.037799307706
 20
3846.565624144856
 30
0.0
 10
4528.842944572044
 20
3849.144891334175
 30
0.0
 10
4530.619062282306
 20
3851.453258257472
 30
0.0
 10
4532.025230757734
 20
3853.179868318517
 30
0.0
 10
4533.007826480001
 20
3854.355306774765
 30
0.0
 10
4533.757058816297
 20
3855.237190335333
 30
0.0
 10
4533.875361936004
 20
3855.374751884773
 30
0.0
 10
4533.946327909827
 20
3855.457270328418
 30
0.0
  0
SPLINE
  5
18E
330
1F
100
AcDbEntity
  8
0
  6
Continuous
 62
     7
370
    15
100
AcDbSpline
210
0.0
220
0.0
230
1.0
 70
     8
 71
     3
 72
    29
 73
    25
 74
     0
 42
0.000000001
 43
0.00000001
 40
0.0
 40
0.0
 40
0.0
 40
0.0
 40
0.000216739452522
 40
0.0420296101904266
 40
0.0796869299216934
 40
0.1182899426888711
 40
0.1591177722063793
 40
0.2007677885545349
 40
0.2619999884118598
 40
0.3249916945267904
 40
0.3723950804112537
 40
0.4207725955447905
 40
0.4789928944705258
 40
0.5079270008027107
 40
0.5379284774059596
 40
0.5726108655906308
 40
0.608251848420791
 40
0.6664718608821864
 40
0.7262552835593401
 40
0.7871093807562785
 40
0.8499173858009129
 40
0.8920175109650604
 40
0.9352250380416487
 40
1.0
 40
1.0
 40
1.0
 40
1.0
 10
4533.945553049445
 20
3615.458162311926
 30
0.0
 10
4533.945812579768
 20
3615.457865339671
 30
0.0
 10
4533.996140096066
 20
3615.400277171159
 30
0.0
 10
4533.825582760368
 20
3615.597499578049
 30
0.0
 10
4533.439783301536
 20
3616.050119506081
 30
0.0
 10
4532.801451936252
 20
3616.804815694059
 30
0.0
 10
4531.951450999462
 20
3617.825959292232
 30
0.0
 10
4530.751292937939
 20
3619.30248822984
 30
0.0
 10
4529.173780849645
 20
3621.325438692906
 30
0.0
 10
4527.440317764876
 20
3623.748361186402
 30
0.0
 10
4525.893354450111
 20
3626.254340202248
 30
0.0
 10
4524.570605451158
 20
3628.927010821089
 30
0.0
 10
4523.813861636584
 20
3631.578420154997
 30
0.0
 10
4523.724760173694
 20
3633.962759498852
 30
0.0
 10
4523.970501628502
 20
3635.848153159706
 30
0.0
 10
4524.545291527093
 20
3637.774369625458
 30
0.0
 10
4525.565007247126
 20
3640.07163648371
 30
0.0
 10
4527.037801290692
 20
3642.565620088485
 30
0.0
 10
4528.842941202052
 20
3645.14489605441
 30
0.0
 10
4530.619064085775
 20
3647.453253037156
 30
0.0
 10
4532.025230503465
 20
3649.179865984298
 30
0.0
 10
4533.007826885239
 20
3650.355301059297
 30
0.0
 10
4533.757058457514
 20
3651.237197769889
 30
0.0
 10
4533.875361815439
 20
3651.374757072959
 30
0.0
 10
4533.946327909827
 20
3651.457274143115
 30
0.0
  0
SPLINE
  5
18F
330
1F
100
AcDbEntity
  8
0
  6
Continuous
 62
     7
370
    15
100
AcDbSpline
210
0.0
220
0.0
230
1.0
 70
     8
 71
     3
 72
    29
 73
    25
 74
     0
 42
0.000000001
 43
0.00000001
 40
0.0
 40
0.0
 40
0.0
 40
0.0
 40
0.0002167397579011
 40
0.0420296650532255
 40
0.0796870562367542
 40
0.1182900946507882
 40
0.1591179880513269
 40
0.2007680708244013
 40
0.261999084337249
 40
0.3249909005725687
 40
0.3723951105187494
 40
0.4207720975934132
 40
0.4789928660670797
 40
0.5079269092929569
 40
0.5379285082657214
 40
0.5726109090676123
 40
0.6082519556597382
 40
0.6664720378293979
 40
0.7262564855506812
 40
0.7871107254456996
 40
0.8499173333228134
 40
0.892019218062824
 40
0.9352249434529853
 40
0.9999999999999999
 40
0.9999999999999999
 40
0.9999999999999999
 40
0.9999999999999999
 10
5654.647104486823
 20
3753.456381891385
 30
0.0
 10
5654.646844956498
 20
3753.456678863602
 30
0.0
 10
5654.596517445259
 20
3753.514267018734
 30
0.0
 10
5654.76707494995
 20
3753.317052770635
 30
0.0
 10
5655.152873906154
 20
3752.864418659467
 30
0.0
 10
5655.791205590535
 20
3752.109735425929
 30
0.0
 10
5656.641208344304
 20
3751.088584558619
 30
0.0
 10
5657.841345456613
 20
3749.612081747618
 30
0.0
 10
5659.418900359562
 20
3747.589077588839
 30
0.0
 10
5661.152356841178
 20
3745.166150607854
 30
0.0
 10
5662.699278156333
 20
3742.660254178168
 30
0.0
 10
5664.022070102242
 20
3739.987493842176
 30
0.0
 10
5664.778792601703
 20
3737.336137553016
 30
0.0
 10
5664.867897515803
 20
3734.951784421361
 30
0.0
 10
5664.622156710425
 20
3733.066393155243
 30
0.0
 10
5664.047365054216
 20
3731.140175158346
 30
0.0
 10
5663.027652210752
 20
3728.842911097903
 30
0.0
 10
5661.554838129082
 20
3726.34889640867
 30
0.0
 10
5659.749729924582
 20
3723.769677313261
 30
0.0
 10
5657.973625364693
 20
3721.461327124985
 30
0.0
 10
5656.567373084881
 20
3719.73461556221
 30
0.0
 10
5655.584873649783
 20
3718.559289328438
 30
0.0
 10
5654.835574428825
 20
3717.677327367452
 30
0.0
 10
5654.717287244332
 20
3717.539783200741
 30
0.0
 10
5654.646329626441
 20
3717.457273785486
 30
0.0
  0
SPLINE
  5
190
330
1F
100
AcDbEntity
  8
0
  6
Continuous
 62
     7
370
    15
100
AcDbSpline
210
0.0
220
0.0
230
1.0
 70
     8
 71
     3
 72
    29
 73
    25
 74
     0
 42
0.000000001
 43
0.00000001
 40
0.0
 40
0.0
 40
0.0
 40
0.0
 40
0.0002167394545828
 40
0.042029606234452
 40
0.0796869447180231
 40
0.1182899291087054
 40
0.1591177653723001
 40
0.2007677898578105
 40
0.2619999994822604
 40
0.324991727563145
 40
0.3723950720146661
 40
0.4207725810114433
 40
0.478992953698179
 40
0.5079269564320623
 40
0.537928513418833
 40
0.572610865684142
 40
0.608251862398101
 40
0.6664718630911696
 40
0.7262552426524751
 40
0.7871093973845079
 40
0.8499174030263479
 40
0.8920175405980881
 40
0.9352250341029913
 40
0.9999999999999999
 40
0.9999999999999999
 40
0.9999999999999999
 40
0.9999999999999999
 10
4533.945553049445
 20
3717.458164129868
 30
0.0
 10
4533.945812579769
 20
3717.457867157651
 30
0.0
 10
4533.996140091028
 20
3717.400279002476
 30
0.0
 10
4533.825582549443
 20
3717.597493297546
 30
0.0
 10
4533.439783746804
 20
3718.050127213299
 30
0.0
 10
4532.801451487684
 20
3718.804811178171
 30
0.0
 10
4531.951451025295
 20
3719.825959129798
 30
0.0
 10
4530.751293002442
 20
3721.30248809707
 30
0.0
 10
4529.173780418231
 20
3723.325439450576
 30
0.0
 10
4527.440319103504
 20
3725.74836380798
 30
0.0
 10
4525.893353780111
 20
3728.254339847222
 30
0.0
 10
4524.570604638032
 20
3730.9270112619
 30
0.0
 10
4523.813862273573
 20
3733.578420406278
 30
0.0
 10
4523.724760478036
 20
3735.962760501195
 30
0.0
 10
4523.970500741688
 20
3737.848153303632
 30
0.0
 10
4524.545292228807
 20
3739.774370345596
 30
0.0
 10
4525.565006746621
 20
3742.071637001555
 30
0.0
 10
4527.037800597827
 20
3744.565620394986
 30
0.0
 10
4528.84294321993
 20
3747.144891621115
 30
0.0
 10
4530.619062779085
 20
3749.453256283215
 30
0.0
 10
4532.025230918975
 20
3751.179865814528
 30
0.0
 10
4533.007826344708
 20
3752.35530733548
 30
0.0
 10
4533.757058863811
 20
3753.237189872415
 30
0.0
 10
4533.875361952909
 20
3753.374752902337
 30
0.0
 10
4533.946327909827
 20
3753.457272235766
 30
0.0
  0
ARC
  5
191
330
1F
100
AcDbEntity
  8
0
  6
Continuous
 62
     7
370
    15
100
AcDbCircle
 10
4097.7963287681
 20
3469.4572730106
 30
0.0
 40
8.000000000000455
100
AcDbArc
 50
90.0
 51
180.0
  0
ARC
  5
192
330
1F
100
AcDbEntity
  8
0
  6
Continuous
 62
     7
370
    15
100
AcDbCircle
 10
4341.7963287681
 20
3469.4572730106
 30
0.0
 40
8.00000000000091
100
AcDbArc
 50
0.0
 51
90.0
  0
LINE
  5
193
330
1F
100
AcDbEntity
  8
0
  6
Continuous
 62
     7
370
    15
100
AcDbLine
 10
4089.7962972969
 20
3421.4572625202
 30
0.0
 11
4089.7962972969
 21
3469.457270388
 31
0.0
  0
LINE
  5
194
330
1F
100
AcDbEntity
  8
0
  6
Continuous
 62
     7
370
    15
100
AcDbLine
 10
4349.7963473648
 20
3469.457270388
 30
0.0
 11
4349.7963473648
 21
3421.4572625202
 31
0.0
  0
LINE
  5
195
330
1F
100
AcDbEntity
  8
0
  6
Continuous
 62
     7
370
    15
100
AcDbLine
 10
4097.7963135093
 20
3477.4572866005
 30
0.0
 11
4341.7963311523
 21
3477.4572866005
 31
0.0
  0
ARC
  5
196
330
1F
100
AcDbEntity
  8
0
  6
Continuous
 62
     7
370
    15
100
AcDbCircle
 10
4097.7963287681
 20
3421.4572730106
 30
0.0
 40
8.000000000000455
100
AcDbArc
 50
180.0
 51
270.0
  0
ARC
  5
197
330
1F
100
AcDbEntity
  8
0
  6
Continuous
 62
     7
370
    15
100
AcDbCircle
 10
4341.7963287681
 20
3421.4572730106
 30
0.0
 40
8.00000000000091
100
AcDbArc
 50
270.0
 51
0.0
  0
LINE
  5
198
330
1F
100
AcDbEntity
  8
0
  6
Continuous
 62
     7
370
    15
100
AcDbLine
 10
4341.7963311523
 20
3413.4572761101
 30
0.0
 11
4097.7963135093
 21
3413.4572761101
 31
0.0
  0
ARC
  5
199
330
1F
100
AcDbEntity
  8
0
  6
Continuous
 62
     7
370
    15
100
AcDbCircle
 10
5846.7963287681
 20
4049.4572730106
 30
0.0
 40
8.000000000000455
100
AcDbArc
 50
90.0
 51
180.0
  0
LINE
  5
19A
330
1F
100
AcDbEntity
  8
0
  6
Continuous
 62
     7
370
    15
100
AcDbLine
 10
6098.7963602394
 20
4049.457283501
 30
0.0
 11
6098.7963602394
 21
4001.4572756332
 31
0.0
  0
ARC
  5
19B
330
1F
100
AcDbEntity
  8
0
  6
Continuous
 62
     7
370
    15
100
AcDbCircle
 10
6090.7963287681
 20
4049.4572730106
 30
0.0
 40
8.000000000000455
100
AcDbArc
 50
0.0
 51
90.0
  0
LINE
  5
19C
330
1F
100
AcDbEntity
  8
0
  6
Continuous
 62
     7
370
    15
100
AcDbLine
 10
5838.7963101715
 20
4001.4572756332
 30
0.0
 11
5838.7963101715
 21
4049.457283501
 31
0.0
  0
LINE
  5
19D
330
1F
100
AcDbEntity
  8
0
  6
Continuous
 62
     7
370
    15
100
AcDbLine
 10
5846.7963263839
 20
4057.4572699112
 30
0.0
 11
6090.7963440269
 21
4057.4572699112
 31
0.0
  0
ARC
  5
19E
330
1F
100
AcDbEntity
  8
0
  6
Continuous
 62
     7
370
    15
100
AcDbCircle
 10
5846.7963287681
 20
4001.4572730106
 30
0.0
 40
8.000000000000455
100
AcDbArc
 50
180.0
 51
270.0
  0
LINE
  5
19F
330
1F
100
AcDbEntity
  8
0
  6
Continuous
 62
     7
370
    15
100
AcDbLine
 10
6090.7963440269
 20
3993.4572594208
 30
0.0
 11
5846.7963263839
 21
3993.4572594208
 31
0.0
  0
ARC
  5
1A0
330
1F
100
AcDbEntity
  8
0
  6
Continuous
 62
     7
370
    15
100
AcDbCircle
 10
6090.7963287681
 20
4001.4572730106
 30
0.0
 40
8.000000000000455
100
AcDbArc
 50
270.0
 51
0.0
  0
LINE
  5
1A1
330
1F
100
AcDbEntity
  8
0
  6
Continuous
 62
     7
370
    15
100
AcDbLine
 10
4089.7962972969
 20
4001.4572756332
 30
0.0
 11
4089.7962972969
 21
4049.457283501
 31
0.0
  0
ARC
  5
1A2
330
1F
100
AcDbEntity
  8
0
  6
Continuous
 62
     7
370
    15
100
AcDbCircle
 10
4097.7963287681
 20
4049.4572730106
 30
0.0
 40
8.000000000000455
100
AcDbArc
 50
90.0
 51
180.0
  0
ARC
  5
1A3
330
1F
100
AcDbEntity
  8
0
  6
Continuous
 62
     7
370
    15
100
AcDbCircle
 10
4341.7963287681
 20
4049.4572730106
 30
0.0
 40
8.00000000000091
100
AcDbArc
 50
0.0
 51
90.0
  0
LINE
  5
1A4
330
1F
100
AcDbEntity
  8
0
  6
Continuous
 62
     7
370
    15
100
AcDbLine
 10
4349.7963473648
 20
4049.457283501
 30
0.0
 11
4349.7963473648
 21
4001.4572756332
 31
0.0
  0
LINE
  5
1A5
330
1F
100
AcDbEntity
  8
0
  6
Continuous
 62
     7
370
    15
100
AcDbLine
 10
4097.7963135093
 20
4057.4572699112
 30
0.0
 11
4341.7963311523
 21
4057.4572699112
 31
0.0
  0
LINE
  5
1A6
330
1F
100
AcDbEntity
  8
0
  6
Continuous
 62
     7
370
    15
100
AcDbLine
 10
4341.7963311523
 20
3993.4572594208
 30
0.0
 11
4097.7963135093
 21
3993.4572594208
 31
0.0
  0
ARC
  5
1A7
330
1F
100
AcDbEntity
  8
0
  6
Continuous
 62
     7
370
    15
100
AcDbCircle
 10
4097.7963287681
 20
4001.4572730106
 30
0.0
 40
8.000000000000455
100
AcDbArc
 50
180.0
 51
270.0
  0
ARC
  5
1A8
330
1F
100
AcDbEntity
  8
0
  6
Continuous
 62
     7
370
    15
100
AcDbCircle
 10
4341.7963287681
 20
4001.4572730106
 30
0.0
 40
8.00000000000091
100
AcDbArc
 50
270.0
 51
0.0
  0
LINE
  5
1A9
330
1F
100
AcDbEntity
  8
0
  6
Continuous
 62
     7
370
    15
100
AcDbLine
 10
6098.7963602394
 20
3469.457270388
 30
0.0
 11
6098.7963602394
 21
3421.4572625202
 31
0.0
  0
ARC
  5
1AA
330
1F
100
AcDbEntity
  8
0
  6
Continuous
 62
     7
370
    15
100
AcDbCircle
 10
5846.7963287681
 20
3469.4572730106
 30
0.0
 40
8.000000000000455
100
AcDbArc
 50
90.0
 51
180.0
  0
LINE
  5
1AB
330
1F
100
AcDbEntity
  8
0
  6
Continuous
 62
     7
370
    15
100
AcDbLine
 10
5846.7963263839
 20
3477.4572866005
 30
0.0
 11
6090.7963440269
 21
3477.4572866005
 31
0.0
  0
LINE
  5
1AC
330
1F
100
AcDbEntity
  8
0
  6
Continuous
 62
     7
370
    15
100
AcDbLine
 10
5838.7963101715
 20
3421.4572625202
 30
0.0
 11
5838.7963101715
 21
3469.457270388
 31
0.0
  0
ARC
  5
1AD
330
1F
100
AcDbEntity
  8
0
  6
Continuous
 62
     7
370
    15
100
AcDbCircle
 10
6090.7963287681
 20
3469.4572730106
 30
0.0
 40
8.000000000000455
100
AcDbArc
 50
0.0
 51
90.0
  0
LINE
  5
1AE
330
1F
100
AcDbEntity
  8
0
  6
Continuous
 62
     7
370
    15
100
AcDbLine
 10
6090.7963440269
 20
3413.4572761101
 30
0.0
 11
5846.7963263839
 21
3413.4572761101
 31
0.0
  0
ARC
  5
1AF
330
1F
100
AcDbEntity
  8
0
  6
Continuous
 62
     7
370
    15
100
AcDbCircle
 10
6090.7963287681
 20
3421.4572730106
 30
0.0
 40
8.000000000000455
100
AcDbArc
 50
270.0
 51
0.0
  0
ARC
  5
1B0
330
1F
100
AcDbEntity
  8
0
  6
Continuous
 62
     7
370
    15
100
AcDbCircle
 10
5846.7963287681
 20
3421.4572730106
 30
0.0
 40
8.000000000000455
100
AcDbArc
 50
180.0
 51
270.0
  0
ARC
  5
1B1
330
1F
100
AcDbEntity
  8
0
  6
Continuous
 62
     7
370
    15
100
AcDbCircle
 10
4486.7963287681
 20
3882.4572730106
 30
0.0
 40
5.0
100
AcDbArc
 50
0.0
 51
90.0
  0
ARC
  5
1B2
330
1F
100
AcDbEntity
  8
0
  6
Continuous
 62
     7
370
    15
100
AcDbCircle
 10
4456.7963287681
 20
3882.4572730106
 30
0.0
 40
5.0
100
AcDbArc
 50
90.0
 51
180.0
  0
LINE
  5
1B3
330
1F
100
AcDbEntity
  8
0
  6
Continuous
 62
     7
370
    15
100
AcDbLine
 10
4456.7963406891
 20
3887.457268123
 30
0.0
 11
4486.7963120788
 21
3887.457268123
 31
0.0
  0
LINE
  5
1B4
330
1F
100
AcDbEntity
  8
0
  6
Continuous
 62
     7
370
    15
100
AcDbLine
 10
4491.7963073105
 20
3882.4572728914
 30
0.0
 11
4491.7963073105
 21
3792.4572730404
 31
0.0
  0
LINE
  5
1B5
330
1F
100
AcDbEntity
  8
0
  6
Continuous
 62
     7
370
    15
100
AcDbLine
 10
4451.7963454574
 20
3792.4572730404
 30
0.0
 11
4451.7963454574
 21
3882.4572728914
 31
0.0
  0
ARC
  5
1B6
330
1F
100
AcDbEntity
  8
0
  6
Continuous
 62
     7
370
    15
100
AcDbCircle
 10
4486.7963287681
 20
3792.4572730106
 30
0.0
 40
5.000000000000455
100
AcDbArc
 50
270.0
 51
0.0
  0
ARC
  5
1B7
330
1F
100
AcDbEntity
  8
0
  6
Continuous
 62
     7
370
    15
100
AcDbCircle
 10
4456.7963287681
 20
3792.4572730106
 30
0.0
 40
5.000000000000455
100
AcDbArc
 50
180.0
 51
270.0
  0
LINE
  5
1B8
330
1F
100
AcDbEntity
  8
0
  6
Continuous
 62
     7
370
    15
100
AcDbLine
 10
4486.7963120788
 20
3787.4572740835
 30
0.0
 11
4456.7963406891
 21
3787.4572740835
 31
0.0
  0
LINE
  5
1B9
330
1F
100
AcDbEntity
  8
0
  6
Continuous
 62
     7
370
    15
100
AcDbLine
 10
4491.7963073105
 20
3678.4572729808
 30
0.0
 11
4491.7963073105
 21
3588.4572731298
 31
0.0
  0
ARC
  5
1BA
330
1F
100
AcDbEntity
  8
0
  6
Continuous
 62
     7
370
    15
100
AcDbCircle
 10
4456.7963287681
 20
3678.4572730106
 30
0.0
 40
5.0
100
AcDbArc
 50
90.0
 51
180.0
  0
ARC
  5
1BB
330
1F
100
AcDbEntity
  8
0
  6
Continuous
 62
     7
370
    15
100
AcDbCircle
 10
4486.7963287681
 20
3678.4572730106
 30
0.0
 40
5.0
100
AcDbArc
 50
0.0
 51
90.0
  0
LINE
  5
1BC
330
1F
100
AcDbEntity
  8
0
  6
Continuous
 62
     7
370
    15
100
AcDbLine
 10
4451.7963454574
 20
3588.4572731298
 30
0.0
 11
4451.7963454574
 21
3678.4572729808
 31
0.0
  0
LINE
  5
1BD
330
1F
100
AcDbEntity
  8
0
  6
Continuous
 62
     7
370
    15
100
AcDbLine
 10
4456.7963406891
 20
3683.4572719377
 30
0.0
 11
4486.7963120788
 21
3683.4572719377
 31
0.0
  0
LINE
  5
1BE
330
1F
100
AcDbEntity
  8
0
  6
Continuous
 62
     7
370
    15
100
AcDbLine
 10
4486.7963120788
 20
3583.4572778982
 30
0.0
 11
4456.7963406891
 21
3583.4572778982
 31
0.0
  0
ARC
  5
1BF
330
1F
100
AcDbEntity
  8
0
  6
Continuous
 62
     7
370
    15
100
AcDbCircle
 10
4486.7963287681
 20
3588.4572730106
 30
0.0
 40
5.000000000000455
100
AcDbArc
 50
270.0
 51
0.0
  0
ARC
  5
1C0
330
1F
100
AcDbEntity
  8
0
  6
Continuous
 62
     7
370
    15
100
AcDbCircle
 10
4456.7963287681
 20
3588.4572730106
 30
0.0
 40
5.000000000000455
100
AcDbArc
 50
180.0
 51
270.0
  0
LINE
  5
1C1
330
1F
100
AcDbEntity
  8
0
  6
Continuous
 62
     7
370
    15
100
AcDbLine
 10
5696.7963502258
 20
3690.4572712225
 30
0.0
 11
5696.7963502258
 21
3780.4572747988
 31
0.0
  0
ARC
  5
1C2
330
1F
100
AcDbEntity
  8
0
  6
Continuous
 62
     7
370
    15
100
AcDbCircle
 10
5701.7963287681
 20
3780.4572730106
 30
0.0
 40
5.000000000000455
100
AcDbArc
 50
90.0
 51
180.0
  0
LINE
  5
1C3
330
1F
100
AcDbEntity
  8
0
  6
Continuous
 62
     7
370
    15
100
AcDbLine
 10
5736.7963120788
 20
3780.4572747988
 30
0.0
 11
5736.7963120788
 21
3690.4572712225
 31
0.0
  0
ARC
  5
1C4
330
1F
100
AcDbEntity
  8
0
  6
Continuous
 62
     7
370
    15
100
AcDbCircle
 10
5731.7963287681
 20
3780.4572730106
 30
0.0
 40
5.000000000000455
100
AcDbArc
 50
0.0
 51
90.0
  0
LINE
  5
1C5
330
1F
100
AcDbEntity
  8
0
  6
Continuous
 62
     7
370
    15
100
AcDbLine
 10
5701.7963454574
 20
3785.4572737557
 30
0.0
 11
5731.7963168472
 21
3785.4572737557
 31
0.0
  0
ARC
  5
1C6
330
1F
100
AcDbEntity
  8
0
  6
Continuous
 62
     7
370
    15
100
AcDbCircle
 10
5701.7963287681
 20
3690.4572730106
 30
0.0
 40
5.000000000000455
100
AcDbArc
 50
180.0
 51
270.0
  0
ARC
  5
1C7
330
1F
100
AcDbEntity
  8
0
  6
Continuous
 62
     7
370
    15
100
AcDbCircle
 10
5731.7963287681
 20
3690.4572730106
 30
0.0
 40
5.000000000000455
100
AcDbArc
 50
270.0
 51
0.0
  0
LINE
  5
1C8
330
1F
100
AcDbEntity
  8
0
  6
Continuous
 62
     7
370
    15
100
AcDbLine
 10
5731.7963168472
 20
3685.4572722656
 30
0.0
 11
5701.7963454574
 21
3685.4572722656
 31
0.0
  0
LINE
  5
1C9
330
1F
100
AcDbEntity
  8
0
  6
Continuous
 62
     7
370
    15
100
AcDbLine
 10
5696.7963502258
 20
3588.4572731298
 30
0.0
 11
5696.7963502258
 21
3678.4572729808
 31
0.0
  0
ARC
  5
1CA
330
1F
100
AcDbEntity
  8
0
  6
Continuous
 62
     7
370
    15
100
AcDbCircle
 10
5701.7963287681
 20
3678.4572730106
 30
0.0
 40
5.000000000000455
100
AcDbArc
 50
90.0
 51
180.0
  0
ARC
  5
1CB
330
1F
100
AcDbEntity
  8
0
  6
Continuous
 62
     7
370
    15
100
AcDbCircle
 10
5731.7963287681
 20
3678.4572730106
 30
0.0
 40
5.000000000000455
100
AcDbArc
 50
0.0
 51
90.0
  0
LINE
  5
1CC
330
1F
100
AcDbEntity
  8
0
  6
Continuous
 62
     7
370
    15
100
AcDbLine
 10
5701.7963454574
 20
3683.4572719377
 30
0.0
 11
5731.7963168472
 21
3683.4572719377
 31
0.0
  0
LINE
  5
1CD
330
1F
100
AcDbEntity
  8
0
  6
Continuous
 62
     7
370
    15
100
AcDbLine
 10
5736.7963120788
 20
3678.4572729808
 30
0.0
 11
5736.7963120788
 21
3588.4572731298
 31
0.0
  0
ARC
  5
1CE
330
1F
100
AcDbEntity
  8
0
  6
Continuous
 62
     7
370
    15
100
AcDbCircle
 10
5731.7963287681
 20
3588.4572730106
 30
0.0
 40
5.000000000000455
100
AcDbArc
 50
270.0
 51
0.0
  0
ARC
  5
1CF
330
1F
100
AcDbEntity
  8
0
  6
Continuous
 62
     7
370
    15
100
AcDbCircle
 10
5701.7963287681
 20
3588.4572730106
 30
0.0
 40
5.000000000000455
100
AcDbArc
 50
180.0
 51
270.0
  0
LINE
  5
1D0
330
1F
100
AcDbEntity
  8
0
  6
Continuous
 62
     7
370
    15
100
AcDbLine
 10
5731.7963168472
 20
3583.4572778982
 30
0.0
 11
5701.7963454574
 21
3583.4572778982
 31
0.0
  0
ARC
  5
1D1
330
1F
100
AcDbEntity
  8
0
  6
Continuous
 62
     7
370
    15
100
AcDbCircle
 10
5731.7963287681
 20
3882.4572730106
 30
0.0
 40
5.000000000000455
100
AcDbArc
 50
0.0
 51
90.0
  0
LINE
  5
1D2
330
1F
100
AcDbEntity
  8
0
  6
Continuous
 62
     7
370
    15
100
AcDbLine
 10
5701.7963454574
 20
3887.457268123
 30
0.0
 11
5731.7963168472
 21
3887.457268123
 31
0.0
  0
LINE
  5
1D3
330
1F
100
AcDbEntity
  8
0
  6
Continuous
 62
     7
370
    15
100
AcDbLine
 10
5696.7963502258
 20
3792.4572730404
 30
0.0
 11
5696.7963502258
 21
3882.4572728914
 31
0.0
  0
ARC
  5
1D4
330
1F
100
AcDbEntity
  8
0
  6
Continuous
 62
     7
370
    15
100
AcDbCircle
 10
5701.7963287681
 20
3882.4572730106
 30
0.0
 40
5.000000000000455
100
AcDbArc
 50
90.0
 51
180.0
  0
LINE
  5
1D5
330
1F
100
AcDbEntity
  8
0
  6
Continuous
 62
     7
370
    15
100
AcDbLine
 10
5736.7963120788
 20
3882.4572728914
 30
0.0
 11
5736.7963120788
 21
3792.4572730404
 31
0.0
  0
ARC
  5
1D6
330
1F
100
AcDbEntity
  8
0
  6
Continuous
 62
     7
370
    15
100
AcDbCircle
 10
5701.7963287681
 20
3792.4572730106
 30
0.0
 40
5.000000000000455
100
AcDbArc
 50
180.0
 51
270.0
  0
ARC
  5
1D7
330
1F
100
AcDbEntity
  8
0
  6
Continuous
 62
     7
370
    15
100
AcDbCircle
 10
5731.7963287681
 20
3792.4572730106
 30
0.0
 40
5.000000000000455
100
AcDbArc
 50
270.0
 51
0.0
  0
LINE
  5
1D8
330
1F
100
AcDbEntity
  8
0
  6
Continuous
 62
     7
370
    15
100
AcDbLine
 10
5731.7963168472
 20
3787.4572740835
 30
0.0
 11
5701.7963454574
 21
3787.4572740835
 31
0.0
  0
LINE
  5
1D9
330
1F
100
AcDbEntity
  8
0
  6
Continuous
 62
     7
370
    15
100
AcDbLine
 10
4491.7963073105
 20
3780.4572747988
 30
0.0
 11
4491.7963073105
 21
3690.4572712225
 31
0.0
  0
LINE
  5
1DA
330
1F
100
AcDbEntity
  8
0
  6
Continuous
 62
     7
370
    15
100
AcDbLine
 10
4451.7963454574
 20
3690.4572712225
 30
0.0
 11
4451.7963454574
 21
3780.4572747988
 31
0.0
  0
ARC
  5
1DB
330
1F
100
AcDbEntity
  8
0
  6
Continuous
 62
     7
370
    15
100
AcDbCircle
 10
4456.7963287681
 20
3780.4572730106
 30
0.0
 40
5.0
100
AcDbArc
 50
90.0
 51
180.0
  0
ARC
  5
1DC
330
1F
100
AcDbEntity
  8
0
  6
Continuous
 62
     7
370
    15
100
AcDbCircle
 10
4486.7963287681
 20
3780.4572730106
 30
0.0
 40
5.0
100
AcDbArc
 50
0.0
 51
90.0
  0
LINE
  5
1DD
330
1F
100
AcDbEntity
  8
0
  6
Continuous
 62
     7
370
    15
100
AcDbLine
 10
4456.7963406891
 20
3785.4572737557
 30
0.0
 11
4486.7963120788
 21
3785.4572737557
 31
0.0
  0
ARC
  5
1DE
330
1F
100
AcDbEntity
  8
0
  6
Continuous
 62
     7
370
    15
100
AcDbCircle
 10
4456.7963287681
 20
3690.4572730106
 30
0.0
 40
5.000000000000455
100
AcDbArc
 50
180.0
 51
270.0
  0
ARC
  5
1DF
330
1F
100
AcDbEntity
  8
0
  6
Continuous
 62
     7
370
    15
100
AcDbCircle
 10
4486.7963287681
 20
3690.4572730106
 30
0.0
 40
5.000000000000455
100
AcDbArc
 50
270.0
 51
0.0
  0
LINE
  5
1E0
330
1F
100
AcDbEntity
  8
0
  6
Continuous
 62
     7
370
    15
100
AcDbLine
 10
4486.7963120788
 20
3685.4572722656
 30
0.0
 11
4456.7963406891
 21
3685.4572722656
 31
0.0
  0
LINE
  5
1E1
330
1F
100
AcDbEntity
  8
0
  6
Continuous
 62
     7
370
    15
100
AcDbLine
 10
4533.9463279098
 20
3605.457277779
 30
0.0
 11
4491.9463322014
 21
3605.457277779
 31
0.0
  0
LINE
  5
1E2
330
1F
100
AcDbEntity
  8
0
  6
Continuous
 62
     7
370
    15
100
AcDbLine
 10
6306.2963411659
 20
3481.4572649044
 30
0.0
 11
6306.2963411659
 21
3439.4572691959
 31
0.0
  0
LINE
  5
1E3
330
1F
100
AcDbEntity
  8
0
  6
Continuous
 62
     7
370
    15
100
AcDbLine
 10
4491.9463322014
 20
3865.4572682423
 30
0.0
 11
4533.9463279098
 21
3865.4572682423
 31
0.0
  0
LINE
  5
1E4
330
1F
100
AcDbEntity
  8
0
  6
Continuous
 62
     7
370
    15
100
AcDbLine
 10
5654.6463296264
 20
3865.4572682423
 30
0.0
 11
5696.6463253349
 21
3865.4572682423
 31
0.0
  0
LINE
  5
1E5
330
1F
100
AcDbEntity
  8
0
  6
Continuous
 62
     7
370
    15
100
AcDbLine
 10
6306.2963411659
 20
4031.4572768253
 30
0.0
 11
6306.2963411659
 21
3989.4572811169
 31
0.0
  0
LINE
  5
1E6
330
1F
100
AcDbEntity
  8
0
  6
Continuous
 62
     7
370
    15
100
AcDbLine
 10
5696.6463253349
 20
3605.457277779
 30
0.0
 11
5654.6463296264
 21
3605.457277779
 31
0.0
  0
LINE
  5
1E7
330
1F
100
AcDbEntity
  8
0
  6
Continuous
 62
     7
370
    15
100
AcDbLine
 10
3882.2963163704
 20
3989.4572811169
 30
0.0
 11
3882.2963163704
 21
4031.4572768253
 31
0.0
  0
LINE
  5
1E8
330
1F
100
AcDbEntity
  8
0
  6
Continuous
 62
     7
370
    15
100
AcDbLine
 10
3882.2963163704
 20
3439.4572691959
 30
0.0
 11
3882.2963163704
 21
3481.4572649044
 31
0.0
  0
LWPOLYLINE
  5
1E9
330
1F
100
AcDbEntity
  8
0
  6
Continuous
 62
     7
370
    15
100
AcDbPolyline
 90
        3
 70
   128
 43
0.0
 10
5654.4963047355
 20
3782.5936617297
 10
5654.3338224739
 20
3783.6238758606
 10
5654.1463062614
 20
3786.457272057
  0
LWPOLYLINE
  5
1EA
330
1F
100
AcDbEntity
  8
0
  6
Continuous
 62
     7
370
    15
100
AcDbPolyline
 90
        3
 70
   128
 43
0.0
 10
5654.4963047355
 20
3688.3208842915
 10
5654.3338224739
 20
3687.2906701607
 10
5654.1463062614
 20
3684.4572739643
  0
LINE
  5
1EB
330
1F
100
AcDbEntity
  8
0
  6
Continuous
 62
     7
370
    15
100
AcDbLine
 10
5654.1463062614
 20
3684.4572739643
 30
0.0
 11
5637.6463100761
 21
3684.4572739643
 31
0.0
  0
ARC
  5
1EC
330
1F
100
AcDbEntity
  8
0
  6
Continuous
 62
     7
370
    15
100
AcDbCircle
 10
5637.6463287681
 20
3694.4572730106
 30
0.0
 40
10.0
100
AcDbArc
 50
180.0
 51
270.0
  0
LINE
  5
1ED
330
1F
100
AcDbEntity
  8
0
  6
Continuous
 62
     7
370
    15
100
AcDbLine
 10
5627.6463196129
 20
3776.4572741431
 30
0.0
 11
5627.6463196129
 21
3769.4098519129
 31
0.0
  0
LINE
  5
1EE
330
1F
100
AcDbEntity
  8
0
  6
Continuous
 62
     7
370
    15
100
AcDbLine
 10
5627.6463196129
 20
3701.5046941084
 30
0.0
 11
5627.6463196129
 21
3694.4572718781
 31
0.0
  0
LINE
  5
1EF
330
1F
100
AcDbEntity
  8
0
  6
Continuous
 62
     7
370
    15
100
AcDbLine
 10
5654.1463062614
 20
3786.457272057
 30
0.0
 11
5637.6463100761
 21
3786.457272057
 31
0.0
  0
ARC
  5
1F0
330
1F
100
AcDbEntity
  8
0
  6
Continuous
 62
     7
370
    15
100
AcDbCircle
 10
5637.6463287681
 20
3776.4572730106
 30
0.0
 40
10.00000000000045
100
AcDbArc
 50
90.0
 51
180.0
  0
ARC
  5
1F1
330
1F
100
AcDbEntity
  8
0
  6
Continuous
 62
     7
370
    15
100
AcDbCircle
 10
4550.9463287681
 20
3694.4572730106
 30
0.0
 40
10.00000000000045
100
AcDbArc
 50
270.0
 51
0.0
  0
LINE
  5
1F2
330
1F
100
AcDbEntity
  8
0
  6
Continuous
 62
     7
370
    15
100
AcDbLine
 10
4534.4463512748
 20
3684.4572739643
 30
0.0
 11
4550.9463474602
 21
3684.4572739643
 31
0.0
  0
LWPOLYLINE
  5
1F3
330
1F
100
AcDbEntity
  8
0
  6
Continuous
 62
     7
370
    15
100
AcDbPolyline
 90
        3
 70
   128
 43
0.0
 10
4534.0963528007
 20
3688.3208842915
 10
4534.2588350624
 20
3687.2906701607
 10
4534.4463512748
 20
3684.4572739643
  0
LWPOLYLINE
  5
1F4
330
1F
100
AcDbEntity
  8
0
  6
Continuous
 62
     7
370
    15
100
AcDbPolyline
 90
        3
 70
   128
 43
0.0
 10
4534.0963528007
 20
3782.5936617297
 10
4534.2588350624
 20
3783.6238758606
 10
4534.4463512748
 20
3786.457272057
  0
LINE
  5
1F5
330
1F
100
AcDbEntity
  8
0
  6
Continuous
 62
     7
370
    15
100
AcDbLine
 10
4534.4463512748
 20
3786.457272057
 30
0.0
 11
4550.9463474602
 21
3786.457272057
 31
0.0
  0
ARC
  5
1F6
330
1F
100
AcDbEntity
  8
0
  6
Continuous
 62
     7
370
    15
100
AcDbCircle
 10
4550.9463287681
 20
3776.4572730106
 30
0.0
 40
10.0
100
AcDbArc
 50
0.0
 51
90.0
  0
LINE
  5
1F7
330
1F
100
AcDbEntity
  8
0
  6
Continuous
 62
     7
370
    15
100
AcDbLine
 10
4560.9463379234
 20
3694.4572718781
 30
0.0
 11
4560.9463379234
 21
3701.5046941084
 31
0.0
  0
LINE
  5
1F8
330
1F
100
AcDbEntity
  8
0
  6
Continuous
 62
     7
370
    15
100
AcDbLine
 10
4560.9463379234
 20
3769.4098519129
 30
0.0
 11
4560.9463379234
 21
3776.4572741431
 31
0.0
  0
LINE
  5
1F9
330
1F
100
AcDbEntity
  8
0
  6
Continuous
 62
     7
370
    15
100
AcDbLine
 10
5696.7963502258
 20
3860.4572730106
 30
0.0
 11
5654.4963047355
 21
3860.4572730106
 31
0.0
  0
LINE
  5
1FA
330
1F
100
AcDbEntity
  8
0
  6
Continuous
 62
     7
370
    15
100
AcDbLine
 10
5696.7963502258
 20
3610.4572730106
 30
0.0
 11
5654.4963047355
 21
3610.4572730106
 31
0.0
  0
SPLINE
  5
1FB
330
1F
100
AcDbEntity
  8
0
  6
Continuous
 62
     7
370
    15
100
AcDbSpline
210
0.0
220
0.0
230
1.0
 70
     8
 71
     3
 72
    20
 73
    16
 74
     0
 42
0.000000001
 43
0.00000001
 40
0.0
 40
0.0
 40
0.0
 40
0.0
 40
0.1326435523261877
 40
0.2607592994550668
 40
0.3225785443317874
 40
0.382819564241862
 40
0.4418209937206164
 40
0.4998066602034884
 40
0.5581354433098258
 40
0.6169465099898395
 40
0.677291213324447
 40
0.7392911776740914
 40
0.8674183383809508
 40
0.9998568009572136
 40
1.0
 40
1.0
 40
1.0
 40
1.0
 10
5696.796350225806
 20
3730.457273122385
 30
0.0
 10
5696.772383569936
 20
3730.53087227277
 30
0.0
 10
5696.725268363164
 20
3730.67555825681
 30
0.0
 10
5696.455623593178
 20
3731.631948546424
 30
0.0
 10
5696.24549892353
 20
3732.645921238998
 30
0.0
 10
5696.109965921443
 20
3733.514749268107
 30
0.0
 10
5696.017977904089
 20
3734.462905839472
 30
0.0
 10
5695.985193974698
 20
3735.45596955664
 30
0.0
 10
5696.017755935591
 20
3736.447970007508
 30
0.0
 10
5696.109816587979
 20
3737.3982881159
 30
0.0
 10
5696.244502749099
 20
3738.265464894123
 30
0.0
 10
5696.459872080628
 20
3739.293783634319
 30
0.0
 10
5696.688842406346
 20
3740.144844462557
 30
0.0
 10
5696.851466035833
 20
3740.587752514649
 30
0.0
 10
5696.796231070154
 20
3740.4569903809
 30
0.0
 10
5696.796171411871
 20
3740.456849147096
 30
0.0
  0
SPLINE
  5
1FC
330
1F
100
AcDbEntity
  8
0
  6
Continuous
 62
     7
370
    15
100
AcDbSpline
210
0.0
220
0.0
230
1.0
 70
     8
 71
     3
 72
    21
 73
    17
 74
     0
 42
0.000000001
 43
0.00000001
 40
0.0
 40
0.0
 40
0.0
 40
0.0
 40
0.117137236325488
 40
0.2302760818198071
 40
0.2848685512445302
 40
0.338067436139715
 40
0.3901714235275142
 40
0.4413785586345295
 40
0.492888647495719
 40
0.5448244973093578
 40
0.5981148374444895
 40
0.6528667343751003
 40
0.7660157557650891
 40
0.8829719272914982
 40
0.999963862001988
 40
0.9999999999999999
 40
0.9999999999999999
 40
0.9999999999999999
 40
0.9999999999999999
 10
5696.796350225806
 20
3832.457275871649
 30
0.0
 10
5696.772383539174
 20
3832.530872146835
 30
0.0
 10
5696.725268250606
 20
3832.675552544101
 30
0.0
 10
5696.455623627165
 20
3833.631946703817
 30
0.0
 10
5696.245498834728
 20
3834.645920169073
 30
0.0
 10
5696.109965562521
 20
3835.514747639145
 30
0.0
 10
5696.017980222275
 20
3836.462914332704
 30
0.0
 10
5695.985184871015
 20
3837.455942274813
 30
0.0
 10
5696.017790373076
 20
3838.448079462105
 30
0.0
 10
5696.109685111159
 20
3839.397878421449
 30
0.0
 10
5696.245013980277
 20
3840.267059901963
 30
0.0
 10
5696.457018040056
 20
3841.284884801281
 30
0.0
 10
5696.713018457594
 20
3842.220172544284
 30
0.0
 10
5696.842558201245
 20
3842.52763635903
 30
0.0
 10
5696.745019636905
 20
3842.4534500181
 30
0.0
 10
5696.680677479006
 20
3842.075414156043
 30
0.0
 10
5696.680657610296
 20
3842.075297419444
 30
0.0
  0
SPLINE
  5
1FD
330
1F
100
AcDbEntity
  8
0
  6
Continuous
 62
     7
370
    15
100
AcDbSpline
210
0.0
220
0.0
230
1.0
 70
     8
 71
     3
 72
    20
 73
    16
 74
     0
 42
0.000000001
 43
0.00000001
 40
0.0
 40
0.0
 40
0.0
 40
0.0
 40
0.132643584893828
 40
0.2607594091443182
 40
0.3225786648354969
 40
0.3828194867401174
 40
0.4418212556253663
 40
0.499806600321964
 40
0.5581354392175196
 40
0.616946400014871
 40
0.6772911544727391
 40
0.7392912579355166
 40
0.8674183863635027
 40
0.9998568627402126
 40
1.0
 40
1.0
 40
1.0
 40
1.0
 10
5696.796350225806
 20
3628.457272235766
 30
0.0
 10
5696.772383567594
 20
3628.530871635479
 30
0.0
 10
5696.725268347966
 20
3628.675558135003
 30
0.0
 10
5696.455623534337
 20
3629.631950166068
 30
0.0
 10
5696.245499298989
 20
3630.645922724528
 30
0.0
 10
5696.109965229744
 20
3631.514748989151
 30
0.0
 10
5696.017978412036
 20
3632.462906354586
 30
0.0
 10
5695.985193893974
 20
3633.455969192295
 30
0.0
 10
5696.017755841392
 20
3634.447969189564
 30
0.0
 10
5696.109816805378
 20
3635.398280985243
 30
0.0
 10
5696.244502642883
 20
3636.265480012569
 30
0.0
 10
5696.459872986659
 20
3637.293686451897
 30
0.0
 10
5696.688831601937
 20
3638.145675637149
 30
0.0
 10
5696.851489829235
 20
3638.585940354253
 30
0.0
 10
5696.796231070124
 20
3638.456992131682
 30
0.0
 10
5696.796171411871
 20
3638.45685291709
 30
0.0
  0
LINE
  5
1FE
330
1F
100
AcDbEntity
  8
0
  6
Continuous
 62
     7
370
    15
100
AcDbLine
 10
4491.7963073105
 20
3610.4572730106
 30
0.0
 11
4534.0963528007
 21
3610.4572730106
 31
0.0
  0
SPLINE
  5
1FF
330
1F
100
AcDbEntity
  8
0
  6
Continuous
 62
     7
370
    15
100
AcDbSpline
210
0.0
220
0.0
230
1.0
 70
     8
 71
     3
 72
    20
 73
    16
 74
     0
 42
0.000000001
 43
0.00000001
 40
0.0
 40
0.0
 40
0.0
 40
0.0
 40
0.1326435523261877
 40
0.2607592994550668
 40
0.3225785443317874
 40
0.382819564241862
 40
0.4418209937206164
 40
0.4998066602034884
 40
0.5581354433098258
 40
0.6169465099898395
 40
0.677291213324447
 40
0.7392911776740914
 40
0.8674183383809508
 40
0.9998568009572136
 40
1.0
 40
1.0
 40
1.0
 40
1.0
 10
4491.796307310461
 20
3740.457272898868
 30
0.0
 10
4491.820273966331
 20
3740.383673748483
 30
0.0
 10
4491.867389173103
 20
3740.238987764442
 30
0.0
 10
4492.137033943089
 20
3739.282597474828
 30
0.0
 10
4492.347158612737
 20
3738.268624782254
 30
0.0
 10
4492.482691614824
 20
3737.399796753146
 30
0.0
 10
4492.574679632177
 20
3736.451640181781
 30
0.0
 10
4492.607463561569
 20
3735.458576464613
 30
0.0
 10
4492.574901600677
 20
3734.466576013745
 30
0.0
 10
4492.482840948288
 20
3733.516257905353
 30
0.0
 10
4492.348154787167
 20
3732.64908112713
 30
0.0
 10
4492.132785455638
 20
3731.620762386935
 30
0.0
 10
4491.903815129921
 20
3730.769701558695
 30
0.0
 10
4491.741191500434
 20
3730.326793506603
 30
0.0
 10
4491.796426466113
 20
3730.457555640353
 30
0.0
 10
4491.796486124395
 20
3730.457696874157
 30
0.0
  0
SPLINE
  5
200
330
1F
100
AcDbEntity
  8
0
  6
Continuous
 62
     7
370
    15
100
AcDbSpline
210
0.0
220
0.0
230
1.0
 70
     8
 71
     3
 72
    20
 73
    16
 74
     0
 42
0.000000001
 43
0.00000001
 40
0.0
 40
0.0
 40
0.0
 40
0.0
 40
0.1326434704006641
 40
0.2607592564158888
 40
0.322578493657546
 40
0.3828196683283825
 40
0.4418210066357496
 40
0.499806770368441
 40
0.5581355918561653
 40
0.6169465351017996
 40
0.6772912715502009
 40
0.7392910407757229
 40
0.8674183497375221
 40
0.9998567865889013
 40
1.0
 40
1.0
 40
1.0
 40
1.0
 10
4491.796307310461
 20
3638.457270149603
 30
0.0
 10
4491.820274009723
 20
3638.383673913873
 30
0.0
 10
4491.867389323121
 20
3638.238993594171
 30
0.0
 10
4492.137033796127
 20
3637.28259896452
 30
0.0
 10
4492.34715888846
 20
3636.268626436091
 30
0.0
 10
4492.482691285805
 20
3635.399796233096
 30
0.0
 10
4492.574679810758
 20
3634.45163948803
 30
0.0
 10
4492.607463494814
 20
3633.458575099521
 30
0.0
 10
4492.574901755906
 20
3632.466574621022
 30
0.0
 10
4492.482840717388
 20
3631.516256166859
 30
0.0
 10
4492.348155118791
 20
3630.649084156144
 30
0.0
 10
4492.132785018253
 20
3629.620744306995
 30
0.0
 10
4491.903813009723
 20
3628.76988880505
 30
0.0
 10
4491.741197040194
 20
3628.326374836504
 30
0.0
 10
4491.796426466106
 20
3628.457555219085
 30
0.0
 10
4491.796486124395
 20
3628.45769691886
 30
0.0
  0
SPLINE
  5
201
330
1F
100
AcDbEntity
  8
0
  6
Continuous
 62
     7
370
    15
100
AcDbSpline
210
0.0
220
0.0
230
1.0
 70
     8
 71
     3
 72
    21
 73
    17
 74
     0
 42
0.000000001
 43
0.00000001
 40
0.0
 40
0.0
 40
0.0
 40
0.0
 40
0.1171373100672853
 40
0.2302761628943382
 40
0.2848686358572982
 40
0.3380671967963579
 40
0.3901715522535912
 40
0.4413783053470069
 40
0.4928883975466588
 40
0.5448242507263542
 40
0.5981145943153294
 40
0.6528667736185072
 40
0.7660156091442745
 40
0.8829717882508251
 40
0.99996366461927
 40
1.0
 40
1.0
 40
1.0
 40
1.0
 10
4491.796307310461
 20
3842.457273785486
 30
0.0
 10
4491.820273956058
 20
3842.383674346471
 30
0.0
 10
4491.867389150886
 20
3842.238987769685
 30
0.0
 10
4492.137034114768
 20
3841.282596206731
 30
0.0
 10
4492.347158050586
 20
3840.26862271508
 30
0.0
 10
4492.482692993623
 20
3839.399799172768
 30
0.0
 10
4492.574676630496
 20
3838.451631897404
 30
0.0
 10
4492.607472801475
 20
3837.458605364501
 30
0.0
 10
4492.57486714432
 20
3836.466469188995
 30
0.0
 10
4492.482972278062
 20
3835.516674872889
 30
0.0
 10
4492.347643953047
 20
3834.647474167607
 30
0.0
 10
4492.135635559169
 20
3833.62974192567
 30
0.0
 10
4491.87968154486
 20
3832.693648233592
 30
0.0
 10
4491.749936872789
 20
3832.389681030397
 30
0.0
 10
4491.847987390964
 20
3832.455149953273
 30
0.0
 10
4491.911980057275
 20
3832.839133017117
 30
0.0
 10
4491.91199992597
 20
3832.839252237692
 30
0.0
  0
LINE
  5
202
330
1F
100
AcDbEntity
  8
0
  6
Continuous
 62
     7
370
    15
100
AcDbLine
 10
4491.7963073105
 20
3860.4572730106
 30
0.0
 11
4534.0963528007
 21
3860.4572730106
 31
0.0
  0
LINE
  5
203
330
1F
100
AcDbEntity
  8
0
  6
Continuous
 62
     7
370
    15
100
AcDbLine
 10
3887.296311602
 20
3439.3072741074
 30
0.0
 11
3887.296311602
 21
3481.607259993
 31
0.0
  0
SPLINE
  5
204
330
1F
100
AcDbEntity
  8
0
  6
Continuous
 62
     7
370
    15
100
AcDbSpline
210
0.0
220
0.0
230
1.0
 70
     8
 71
     3
 72
    10
 73
     6
 74
     0
 42
0.000000001
 43
0.00000001
 40
0.0
 40
0.0
 40
0.0
 40
0.0
 40
0.3179434930022688
 40
0.8399117111508166
 40
0.9999999999999999
 40
0.9999999999999999
 40
0.9999999999999999
 40
0.9999999999999999
 10
4491.811864122748
 20
3638.391004685775
 30
0.0
 10
4491.81055334413
 20
3638.394981269155
 30
0.0
 10
4491.807090658666
 20
3638.405486214296
 30
0.0
 10
4491.901507268961
 20
3638.037391714837
 30
0.0
 10
4491.985119728797
 20
3637.567553284583
 30
0.0
 10
4492.004744753242
 20
3637.457275573626
 30
0.0
  0
SPLINE
  5
205
330
1F
100
AcDbEntity
  8
0
  6
Continuous
 62
     7
370
    15
100
AcDbSpline
210
0.0
220
0.0
230
1.0
 70
     8
 71
     3
 72
    10
 73
     6
 74
     0
 42
0.000000001
 43
0.00000001
 40
0.0
 40
0.0
 40
0.0
 40
0.0
 40
0.0428611303570616
 40
0.5767651744584199
 40
1.0
 40
1.0
 40
1.0
 40
1.0
 10
4492.007784590124
 20
3629.457274262324
 30
0.0
 10
4492.002418707792
 20
3629.425160689721
 30
0.0
 10
4491.930212164606
 20
3628.993021122921
 30
0.0
 10
4491.825112446984
 20
3628.593789526832
 30
0.0
 10
4491.805139220961
 20
3628.499129648776
 30
0.0
 10
4491.796307310461
 20
3628.457272235766
 30
0.0
  0
SPLINE
  5
206
330
1F
100
AcDbEntity
  8
0
  6
Continuous
 62
     7
370
    15
100
AcDbSpline
210
0.0
220
0.0
230
1.0
 70
     8
 71
     3
 72
    10
 73
     6
 74
     0
 42
0.000000001
 43
0.00000001
 40
0.0
 40
0.0
 40
0.0
 40
0.0
 40
0.3179432245049266
 40
0.8399118463423869
 40
0.9999999999999999
 40
0.9999999999999999
 40
0.9999999999999999
 40
0.9999999999999999
 10
4491.811864122747
 20
3842.391008321658
 30
0.0
 10
4491.810553360368
 20
3842.394985281441
 30
0.0
 10
4491.807090714321
 20
3842.405491231487
 30
0.0
 10
4491.90150714973
 20
3842.037387840101
 30
0.0
 10
4491.985119725811
 20
3841.567549347888
 30
0.0
 10
4492.004744753242
 20
3841.457271758929
 30
0.0
  0
SPLINE
  5
207
330
1F
100
AcDbEntity
  8
0
  6
Continuous
 62
     7
370
    15
100
AcDbSpline
210
0.0
220
0.0
230
1.0
 70
     8
 71
     3
 72
    10
 73
     6
 74
     0
 42
0.000000001
 43
0.00000001
 40
0.0
 40
0.0
 40
0.0
 40
0.0
 40
0.0428595415302121
 40
0.5767650868458456
 40
1.0
 40
1.0
 40
1.0
 40
1.0
 10
4492.007784590125
 20
3833.457270447627
 30
0.0
 10
4492.002418700316
 20
3833.42515945267
 30
0.0
 10
4491.930209390763
 20
3832.993038619518
 30
0.0
 10
4491.825113386049
 20
3832.593776631885
 30
0.0
 10
4491.805139499987
 20
3832.499128173995
 30
0.0
 10
4491.796307310461
 20
3832.457275871649
 30
0.0
  0
SPLINE
  5
208
330
1F
100
AcDbEntity
  8
0
  6
Continuous
 62
     7
370
    15
100
AcDbSpline
210
0.0
220
0.0
230
1.0
 70
     8
 71
     3
 72
    10
 73
     6
 74
     0
 42
0.000000001
 43
0.00000001
 40
0.0
 40
0.0
 40
0.0
 40
0.0
 40
0.3179433893178872
 40
0.8399117735320077
 40
1.0
 40
1.0
 40
1.0
 40
1.0
 10
4491.811864122748
 20
3740.391007435039
 30
0.0
 10
4491.810553350804
 20
3740.394983430519
 30
0.0
 10
4491.807090681584
 20
3740.405486826808
 30
0.0
 10
4491.90150721676
 20
3740.037389383756
 30
0.0
 10
4491.985119727484
 20
3739.567550871163
 30
0.0
 10
4492.004744753242
 20
3739.457273200616
 30
0.0
  0
SPLINE
  5
209
330
1F
100
AcDbEntity
  8
0
  6
Continuous
 62
     7
370
    15
100
AcDbSpline
210
0.0
220
0.0
230
1.0
 70
     8
 71
     3
 72
    10
 73
     6
 74
     0
 42
0.000000001
 43
0.00000001
 40
0.0
 40
0.0
 40
0.0
 40
0.0
 40
0.0428603279539294
 40
0.5767652094728821
 40
1.0
 40
1.0
 40
1.0
 40
1.0
 10
4492.007784590125
 20
3731.457272820637
 30
0.0
 10
4492.002418703986
 20
3731.425160538663
 30
0.0
 10
4491.930210753413
 20
3730.993030223215
 30
0.0
 10
4491.8251129405
 20
3730.59378181162
 30
0.0
 10
4491.805139366636
 20
3730.499127871267
 30
0.0
 10
4491.796307310461
 20
3730.457273122385
 30
0.0
  0
LINE
  5
20A
330
1F
100
AcDbEntity
  8
0
  6
Continuous
 62
     7
370
    15
100
AcDbLine
 10
3887.296311602
 20
4031.6072719139
 30
0.0
 11
3887.296311602
 21
3989.3072860283
 31
0.0
  0
LINE
  5
20B
330
1F
100
AcDbEntity
  8
0
  6
Continuous
 62
     7
370
    15
100
AcDbLine
 10
6301.2963459343
 20
4031.6072719139
 30
0.0
 11
6301.2963459343
 21
3989.3072860283
 31
0.0
  0
SPLINE
  5
20C
330
1F
100
AcDbEntity
  8
0
  6
Continuous
 62
     7
370
    15
100
AcDbSpline
210
0.0
220
0.0
230
1.0
 70
     8
 71
     3
 72
    10
 73
     6
 74
     0
 42
0.000000001
 43
0.00000001
 40
0.0
 40
0.0
 40
0.0
 40
0.0
 40
0.3179434930022688
 40
0.8399117111508166
 40
0.9999999999999999
 40
0.9999999999999999
 40
0.9999999999999999
 40
0.9999999999999999
 10
5696.78079341352
 20
3832.523541335478
 30
0.0
 10
5696.782104192137
 20
3832.519564752097
 30
0.0
 10
5696.7855668776
 20
3832.509059806956
 30
0.0
 10
5696.691150267307
 20
3832.877154306415
 30
0.0
 10
5696.60753780747
 20
3833.34699273667
 30
0.0
 10
5696.587912783027
 20
3833.457270447627
 30
0.0
  0
SPLINE
  5
20D
330
1F
100
AcDbEntity
  8
0
  6
Continuous
 62
     7
370
    15
100
AcDbSpline
210
0.0
220
0.0
230
1.0
 70
     8
 71
     3
 72
    10
 73
     6
 74
     0
 42
0.000000001
 43
0.00000001
 40
0.0
 40
0.0
 40
0.0
 40
0.0
 40
0.0428484712830361
 40
0.5767595767743673
 40
1.0
 40
1.0
 40
1.0
 40
1.0
 10
5696.584872946143
 20
3841.457271758929
 30
0.0
 10
5696.590238886215
 20
3841.489385529769
 30
0.0
 10
5696.662466838167
 20
3841.921651240152
 30
0.0
 10
5696.767538796587
 20
3842.320718549312
 30
0.0
 10
5696.78751638591
 20
3842.41540473817
 30
0.0
 10
5696.796350225806
 20
3842.457273785486
 30
0.0
  0
SPLINE
  5
20E
330
1F
100
AcDbEntity
  8
0
  6
Continuous
 62
     7
370
    15
100
AcDbSpline
210
0.0
220
0.0
230
1.0
 70
     8
 71
     3
 72
    10
 73
     6
 74
     0
 42
0.000000001
 43
0.00000001
 40
0.0
 40
0.0
 40
0.0
 40
0.0
 40
0.3179432245049266
 40
0.8399118463423869
 40
0.9999999999999999
 40
0.9999999999999999
 40
0.9999999999999999
 40
0.9999999999999999
 10
5696.78079341352
 20
3628.523537699595
 30
0.0
 10
5696.782104175898
 20
3628.519560739812
 30
0.0
 10
5696.785566821945
 20
3628.509054789766
 30
0.0
 10
5696.691150386538
 20
3628.877158181151
 30
0.0
 10
5696.607537810455
 20
3629.346996673364
 30
0.0
 10
5696.587912783027
 20
3629.457274262324
 30
0.0
  0
SPLINE
  5
20F
330
1F
100
AcDbEntity
  8
0
  6
Continuous
 62
     7
370
    15
100
AcDbSpline
210
0.0
220
0.0
230
1.0
 70
     8
 71
     3
 72
    10
 73
     6
 74
     0
 42
0.000000001
 43
0.00000001
 40
0.0
 40
0.0
 40
0.0
 40
0.0
 40
0.0428468819416508
 40
0.5767594889424053
 40
1.0
 40
1.0
 40
1.0
 40
1.0
 10
5696.584872946143
 20
3637.457275573626
 30
0.0
 10
5696.590238893688
 20
3637.489386766841
 30
0.0
 10
5696.662469614424
 20
3637.921633748386
 30
0.0
 10
5696.767537856773
 20
3638.32073144296
 30
0.0
 10
5696.787516106655
 20
3638.415406212564
 30
0.0
 10
5696.796350225806
 20
3638.457270149603
 30
0.0
  0
SPLINE
  5
210
330
1F
100
AcDbEntity
  8
0
  6
Continuous
 62
     7
370
    15
100
AcDbSpline
210
0.0
220
0.0
230
1.0
 70
     8
 71
     3
 72
    10
 73
     6
 74
     0
 42
0.000000001
 43
0.00000001
 40
0.0
 40
0.0
 40
0.0
 40
0.0
 40
0.3179433893178872
 40
0.8399117735320077
 40
1.0
 40
1.0
 40
1.0
 40
1.0
 10
5696.78079341352
 20
3730.523538586214
 30
0.0
 10
5696.782104185463
 20
3730.519562590734
 30
0.0
 10
5696.785566854684
 20
3730.509059194445
 30
0.0
 10
5696.691150319507
 20
3730.877156637497
 30
0.0
 10
5696.607537808783
 20
3731.346995150089
 30
0.0
 10
5696.587912783027
 20
3731.457272820637
 30
0.0
  0
SPLINE
  5
211
330
1F
100
AcDbEntity
  8
0
  6
Continuous
 62
     7
370
    15
100
AcDbSpline
210
0.0
220
0.0
230
1.0
 70
     8
 71
     3
 72
    10
 73
     6
 74
     0
 42
0.000000001
 43
0.00000001
 40
0.0
 40
0.0
 40
0.0
 40
0.0
 40
0.0428476686248904
 40
0.5767596116812217
 40
0.9999999999999999
 40
0.9999999999999999
 40
0.9999999999999999
 40
0.9999999999999999
 10
5696.584872946143
 20
3739.457273200616
 30
0.0
 10
5696.590238890019
 20
3739.489385680838
 30
0.0
 10
5696.662468250572
 20
3739.921642142325
 30
0.0
 10
5696.767538302696
 20
3740.320726263879
 30
0.0
 10
5696.787516240121
 20
3740.415406515489
 30
0.0
 10
5696.796350225806
 20
3740.457272898868
 30
0.0
  0
LINE
  5
212
330
1F
100
AcDbEntity
  8
0
  6
Continuous
 62
     7
370
    15
100
AcDbLine
 10
6301.2963459343
 20
3439.3072741074
 30
0.0
 11
6301.2963459343
 21
3481.607259993
 31
0.0
  0
CIRCLE
  5
213
330
1F
100
AcDbEntity
  8
0
  6
Continuous
 62
     7
370
    15
100
AcDbCircle
 10
4548.9463287681
 20
3765.4572730106
 30
0.0
 40
8.50000000000091
  0
CIRCLE
  5
214
330
1F
100
AcDbEntity
  8
0
  6
Continuous
 62
     7
370
    15
100
AcDbCircle
 10
5639.6463287681
 20
3765.4572730106
 30
0.0
 40
8.50000000000091
  0
CIRCLE
  5
215
330
1F
100
AcDbEntity
  8
0
  6
Continuous
 62
     7
370
    15
100
AcDbCircle
 10
5639.6463287681
 20
3705.4572730106
 30
0.0
 40
8.5
  0
CIRCLE
  5
216
330
1F
100
AcDbEntity
  8
0
  6
Continuous
 62
     7
370
    15
100
AcDbCircle
 10
4548.9463287681
 20
3705.4572730106
 30
0.0
 40
8.5
  0
LINE
  5
217
330
1F
100
AcDbEntity
  8
0
  6
Continuous
 62
     7
370
    15
100
AcDbLine
 10
5561.2963363975
 20
3835.4572745007
 30
0.0
 11
5561.046324715
 21
3835.4572745007
 31
0.0
  0
LINE
  5
218
330
1F
100
AcDbEntity
  8
0
  6
Continuous
 62
     7
370
    15
100
AcDbLine
 10
5527.5463387817
 20
3835.4572745007
 30
0.0
 11
5527.2963270992
 21
3835.4572745007
 31
0.0
  0
LINE
  5
219
330
1F
100
AcDbEntity
  8
0
  6
Continuous
 62
     7
370
    15
100
AcDbLine
 10
5444.2963228077
 20
3752.4572739345
 30
0.0
 11
5444.2963228077
 21
3718.4572720868
 31
0.0
  0
LINE
  5
21A
330
1F
100
AcDbEntity
  8
0
  6
Continuous
 62
     7
370
    15
100
AcDbLine
 10
5440.1857182831
 20
3749.4572734428
 30
0.0
 11
5440.1857182831
 21
3721.4572725785
 31
0.0
  0
LINE
  5
21B
330
1F
100
AcDbEntity
  8
0
  6
Continuous
 62
     7
370
    15
100
AcDbLine
 10
4744.2963347286
 20
3718.4572720868
 30
0.0
 11
4744.2963347286
 21
3752.4572739345
 31
0.0
  0
LINE
  5
21C
330
1F
100
AcDbEntity
  8
0
  6
Continuous
 62
     7
370
    15
100
AcDbLine
 10
4748.4069392532
 20
3721.4572725785
 30
0.0
 11
4748.4069392532
 21
3749.4572734428
 31
0.0
  0
LINE
  5
21D
330
1F
100
AcDbEntity
  8
0
  6
Continuous
 62
     7
370
    15
100
AcDbLine
 10
4661.2963304371
 20
3835.4572745007
 30
0.0
 11
4661.0463187546
 21
3835.4572745007
 31
0.0
  0
LINE
  5
21E
330
1F
100
AcDbEntity
  8
0
  6
Continuous
 62
     7
370
    15
100
AcDbLine
 10
4627.5463328212
 20
3835.4572745007
 30
0.0
 11
4627.2963211387
 21
3835.4572745007
 31
0.0
  0
LINE
  5
21F
330
1F
100
AcDbEntity
  8
0
  6
Continuous
 62
     7
370
    15
100
AcDbLine
 10
5527.2963270992
 20
3635.4572715205
 30
0.0
 11
5527.5463387817
 21
3635.4572715205
 31
0.0
  0
LINE
  5
220
330
1F
100
AcDbEntity
  8
0
  6
Continuous
 62
     7
370
    15
100
AcDbLine
 10
5561.046324715
 20
3635.4572715205
 30
0.0
 11
5561.2963363975
 21
3635.4572715205
 31
0.0
  0
LINE
  5
221
330
1F
100
AcDbEntity
  8
0
  6
Continuous
 62
     7
370
    15
100
AcDbLine
 10
4661.0463187546
 20
3635.4572715205
 30
0.0
 11
4661.2963304371
 21
3635.4572715205
 31
0.0
  0
LINE
  5
222
330
1F
100
AcDbEntity
  8
0
  6
Continuous
 62
     7
370
    15
100
AcDbLine
 10
4627.2963211387
 20
3635.4572715205
 30
0.0
 11
4627.5463328212
 21
3635.4572715205
 31
0.0
  0
LINE
  5
223
330
1F
100
AcDbEntity
  8
0
  6
Continuous
 62
     7
370
    15
100
AcDbLine
 10
4748.7142309993
 20
3721.7572730002
 30
0.0
 11
4748.7142309993
 21
3749.1572730211
 31
0.0
  0
LINE
  5
224
330
1F
100
AcDbEntity
  8
0
  6
Continuous
 62
     7
370
    15
100
AcDbLine
 10
5439.8784265369
 20
3749.1572730211
 30
0.0
 11
5439.8784265369
 21
3721.7572730002
 31
0.0
  0
LWPOLYLINE
  5
225
330
1F
100
AcDbEntity
  8
0
  6
Continuous
 62
     7
370
    15
100
AcDbPolyline
 90
        3
 70
   128
 43
0.0
 10
5624.2963001579
 20
3687.1239410681
 10
5622.5598380417
 20
3688.5710077328
 10
5621.6007993072
 20
3689.3702091617
  0
LWPOLYLINE
  5
226
330
1F
100
AcDbEntity
  8
0
  6
Continuous
 62
     7
370
    15
100
AcDbPolyline
 90
        3
 70
   128
 43
0.0
 10
5621.6007993072
 20
3781.5443368596
 10
5622.5598380417
 20
3782.3435382885
 10
5624.2963001579
 20
3783.7906049532
  0
LINE
  5
227
330
1F
100
AcDbEntity
  8
0
  6
Continuous
 62
     7
370
    15
100
AcDbLine
 10
5624.2963001579
 20
3687.1239410681
 30
0.0
 11
5626.2963340133
 21
3685.4572722656
 31
0.0
  0
LINE
  5
228
330
1F
100
AcDbEntity
  8
0
  6
Continuous
 62
     7
370
    15
100
AcDbLine
 10
5626.2963340133
 20
3785.4572737557
 30
0.0
 11
5633.2874224037
 21
3785.4572737557
 31
0.0
  0
LINE
  5
229
330
1F
100
AcDbEntity
  8
0
  6
Continuous
 62
     7
370
    15
100
AcDbLine
 10
5626.2963340133
 20
3685.4572722656
 30
0.0
 11
5633.2874224037
 21
3685.4572722656
 31
0.0
  0
LINE
  5
22A
330
1F
100
AcDbEntity
  8
0
  6
Continuous
 62
     7
370
    15
100
AcDbLine
 10
5624.2963001579
 20
3783.7906049532
 30
0.0
 11
5626.2963340133
 21
3785.4572737557
 31
0.0
  0
LWPOLYLINE
  5
22B
330
1F
100
AcDbEntity
  8
0
  6
Continuous
 62
     7
370
    15
100
AcDbPolyline
 90
        3
 70
   128
 43
0.0
 10
4564.2963573784
 20
3783.7906049532
 10
4566.0328194946
 20
3782.3435382885
 10
4566.991858229
 20
3781.5443368596
  0
LWPOLYLINE
  5
22C
330
1F
100
AcDbEntity
  8
0
  6
Continuous
 62
     7
370
    15
100
AcDbPolyline
 90
        3
 70
   128
 43
0.0
 10
4566.991858229
 20
3689.3702091617
 10
4566.0328194946
 20
3688.5710077328
 10
4564.2963573784
 20
3687.1239410681
  0
LINE
  5
22D
330
1F
100
AcDbEntity
  8
0
  6
Continuous
 62
     7
370
    15
100
AcDbLine
 10
4564.2963573784
 20
3687.1239410681
 30
0.0
 11
4562.2963235229
 21
3685.4572722656
 31
0.0
  0
LINE
  5
22E
330
1F
100
AcDbEntity
  8
0
  6
Continuous
 62
     7
370
    15
100
AcDbLine
 10
4555.3052351326
 20
3685.4572722656
 30
0.0
 11
4562.2963235229
 21
3685.4572722656
 31
0.0
  0
LINE
  5
22F
330
1F
100
AcDbEntity
  8
0
  6
Continuous
 62
     7
370
    15
100
AcDbLine
 10
4555.3052351326
 20
3785.4572737557
 30
0.0
 11
4562.2963235229
 21
3785.4572737557
 31
0.0
  0
LINE
  5
230
330
1F
100
AcDbEntity
  8
0
  6
Continuous
 62
     7
370
    15
100
AcDbLine
 10
4562.2963235229
 20
3785.4572737557
 30
0.0
 11
4564.2963573784
 21
3783.7906049532
 31
0.0
  0
CIRCLE
  5
231
330
1F
100
AcDbEntity
  8
0
  6
Continuous
 62
     7
370
    15
100
AcDbCircle
 10
5544.2963287681
 20
3735.4572730106
 30
0.0
 40
90.0
  0
LINE
  5
232
330
1F
100
AcDbEntity
  8
0
  6
Continuous
 62
     7
370
    15
100
AcDbLine
 10
5454.2963430732
 20
3760.4572733832
 30
0.0
 11
5457.8382596821
 21
3760.4572733832
 31
0.0
  0
LINE
  5
233
330
1F
100
AcDbEntity
  8
0
  6
Continuous
 62
     7
370
    15
100
AcDbLine
 10
5454.2963430732
 20
3745.4572727871
 30
0.0
 11
5454.2963430732
 21
3760.4572733832
 31
0.0
  0
LINE
  5
234
330
1F
100
AcDbEntity
  8
0
  6
Continuous
 62
     7
370
    15
100
AcDbLine
 10
5454.2963430732
 20
3745.4572727871
 30
0.0
 11
5454.2963430732
 21
3725.4572732341
 31
0.0
  0
LINE
  5
235
330
1F
100
AcDbEntity
  8
0
  6
Continuous
 62
     7
370
    15
100
AcDbLine
 10
5457.8382596821
 20
3710.4572726381
 30
0.0
 11
5454.2963430732
 21
3710.4572726381
 31
0.0
  0
LINE
  5
236
330
1F
100
AcDbEntity
  8
0
  6
Continuous
 62
     7
370
    15
100
AcDbLine
 10
5454.2963430732
 20
3710.4572726381
 30
0.0
 11
5454.2963430732
 21
3725.4572732341
 31
0.0
  0
LINE
  5
237
330
1F
100
AcDbEntity
  8
0
  6
Continuous
 62
     7
370
    15
100
AcDbLine
 10
4730.7543978542
 20
3760.4572733832
 30
0.0
 11
4734.296314463
 21
3760.4572733832
 31
0.0
  0
LINE
  5
238
330
1F
100
AcDbEntity
  8
0
  6
Continuous
 62
     7
370
    15
100
AcDbLine
 10
4734.296314463
 20
3760.4572733832
 30
0.0
 11
4734.296314463
 21
3745.4572727871
 31
0.0
  0
LINE
  5
239
330
1F
100
AcDbEntity
  8
0
  6
Continuous
 62
     7
370
    15
100
AcDbLine
 10
4734.296314463
 20
3710.4572726381
 30
0.0
 11
4730.7543978542
 21
3710.4572726381
 31
0.0
  0
LINE
  5
23A
330
1F
100
AcDbEntity
  8
0
  6
Continuous
 62
     7
370
    15
100
AcDbLine
 10
4734.296314463
 20
3725.4572732341
 30
0.0
 11
4734.296314463
 21
3710.4572726381
 31
0.0
  0
LINE
  5
23B
330
1F
100
AcDbEntity
  8
0
  6
Continuous
 62
     7
370
    15
100
AcDbLine
 10
4734.296314463
 20
3725.4572732341
 30
0.0
 11
4734.296314463
 21
3745.4572727871
 31
0.0
  0
CIRCLE
  5
23C
330
1F
100
AcDbEntity
  8
0
  6
Continuous
 62
     7
370
    15
100
AcDbCircle
 10
4644.2963287681
 20
3735.4572730106
 30
0.0
 40
89.99999999999955
  0
LINE
  5
23D
330
1F
100
AcDbEntity
  8
0
  6
Continuous
 62
     7
370
    15
100
AcDbLine
 10
3882.2963163704
 20
1335.4571776432
 30
0.0
 11
6306.2963411659
 21
1335.4571776432
 31
0.0
  0
ARC
  5
23E
330
1F
100
AcDbEntity
  8
0
  6
Continuous
 62
     7
370
    15
100
AcDbCircle
 10
3882.2963287681
 20
2835.4572730106
 30
0.0
 40
1500.0
100
AcDbArc
 50
180.0
 51
270.0
  0
LINE
  5
23F
330
1F
100
AcDbEntity
  8
0
  6
Continuous
 62
     7
370
    15
100
AcDbLine
 10
2382.2964355797
 20
4635.4572491688
 30
0.0
 11
2382.2964355797
 21
2835.4572968525
 31
0.0
  0
ARC
  5
240
330
1F
100
AcDbEntity
  8
0
  6
Continuous
 62
     7
370
    15
100
AcDbCircle
 10
3882.2963287681
 20
4635.4572730106
 30
0.0
 40
1500.0
100
AcDbArc
 50
90.0
 51
180.0
  0
LINE
  5
241
330
1F
100
AcDbEntity
  8
0
  6
Continuous
 62
     7
370
    15
100
AcDbLine
 10
6306.2963411659
 20
6135.4573683781
 30
0.0
 11
3882.2963163704
 21
6135.4573683781
 31
0.0
  0
ARC
  5
242
330
1F
100
AcDbEntity
  8
0
  6
Continuous
 62
     7
370
    15
100
AcDbCircle
 10
6306.2963287681
 20
4635.4572730106
 30
0.0
 40
1500.0
100
AcDbArc
 50
0.0
 51
90.0
  0
LINE
  5
243
330
1F
100
AcDbEntity
  8
0
  6
Continuous
 62
     7
370
    15
100
AcDbLine
 10
7806.2962219566
 20
2835.4572968525
 30
0.0
 11
7806.2962219566
 21
4635.4572491688
 31
0.0
  0
ARC
  5
244
330
1F
100
AcDbEntity
  8
0
  6
Continuous
 62
     7
370
    15
100
AcDbCircle
 10
6306.2963287681
 20
2835.4572730106
 30
0.0
 40
1500.0
100
AcDbArc
 50
270.0
 51
0.0
  0
ENDSEC
  0
SECTION
  2
OBJECTS
  0
DICTIONARY
  5
C
330
0
100
AcDbDictionary
281
     1
  3
ACAD_GROUP
350
D
  3
ACAD_LAYOUT
350
1A
  3
ACAD_MLINESTYLE
350
17
  3
ACAD_PLOTSETTINGS
350
19
  3
ACAD_PLOTSTYLENAME
350
E
  3
ACAD_SCALELIST
350
47
  0
DICTIONARY
  5
D
102
{ACAD_REACTORS
330
C
102
}
330
C
100
AcDbDictionary
281
     1
  0
DICTIONARY
  5
1A
102
{ACAD_REACTORS
330
C
102
}
330
C
100
AcDbDictionary
281
     1
  3
Layout1
350
1E
  3
Layout2
350
26
  3
Model
350
22
  0
DICTIONARY
  5
17
102
{ACAD_REACTORS
330
C
102
}
330
C
100
AcDbDictionary
281
     1
  3
Standard
350
18
  0
DICTIONARY
  5
19
102
{ACAD_REACTORS
330
C
102
}
330
C
100
AcDbDictionary
281
     1
  0
ACDBDICTIONARYWDFLT
  5
E
102
{ACAD_REACTORS
330
C
102
}
330
C
100
AcDbDictionary
281
     1
  3
Normal
350
F
100
AcDbDictionaryWithDefault
340
F
  0
DICTIONARY
  5
47
102
{ACAD_REACTORS
330
C
102
}
330
C
100
AcDbDictionary
281
     1
  3
A0
350
48
  3
A1
350
49
  3
A2
350
4A
  3
A3
350
4B
  3
A4
350
4C
  3
A5
350
4D
  3
A6
350
4E
  3
A7
350
4F
  3
A8
350
50
  3
A9
350
51
  3
B0
350
52
  3
B1
350
53
  3
B2
350
54
  3
B3
350
55
  3
B4
350
56
  3
B5
350
57
  3
B6
350
58
  3
B7
350
59
  3
B8
350
5A
  3
B9
350
5B
  3
C0
350
5C
  3
C1
350
5D
  3
C2
350
5E
  3
C3
350
5F
  3
C4
350
60
  3
C5
350
61
  3
C6
350
62
  3
C7
350
63
  3
C8
350
64
  3
C9
350
65
  3
D0
350
66
  3
D1
350
67
  3
D2
350
68
  0
LAYOUT
  5
1E
102
{ACAD_REACTORS
330
1A
102
}
330
1A
100
AcDbPlotSettings
  1

  2
none_device
  4

  6

 40
0.0
 41
0.0
 42
0.0
 43
0.0
 44
0.0
 45
0.0
 46
0.0
 47
0.0
 48
0.0
 49
0.0
140
0.0
141
0.0
142
1.0
143
1.0
 70
   688
 72
     1
 73
     0
 74
     5
  7

 75
    16
147
1.0
148
0.0
149
0.0
100
AcDbLayout
  1
Layout1
 70
     1
 71
     1
 10
0.0
 20
0.0
 11
420.0
 21
297.0
 12
0.0
 22
0.0
 32
0.0
 14
1.0000000000E+20
 24
1.0000000000E+20
 34
1.0000000000E+20
 15
-1.0000000000E+20
 25
-1.0000000000E+20
 35
-1.0000000000E+20
146
0.0
 13
0.0
 23
0.0
 33
0.0
 16
1.0
 26
0.0
 36
0.0
 17
0.0
 27
1.0
 37
0.0
 76
     0
330
1B
  0
LAYOUT
  5
26
102
{ACAD_REACTORS
330
1A
102
}
330
1A
100
AcDbPlotSettings
  1

  2
none_device
  4

  6

 40
0.0
 41
0.0
 42
0.0
 43
0.0
 44
0.0
 45
0.0
 46
0.0
 47
0.0
 48
0.0
 49
0.0
140
0.0
141
0.0
142
1.0
143
1.0
 70
   688
 72
     1
 73
     0
 74
     5
  7

 75
    16
147
1.0
148
0.0
149
0.0
100
AcDbLayout
  1
Layout2
 70
     1
 71
     2
 10
0.0
 20
0.0
 11
0.0
 21
0.0
 12
0.0
 22
0.0
 32
0.0
 14
0.0
 24
0.0
 34
0.0
 15
0.0
 25
0.0
 35
0.0
146
0.0
 13
0.0
 23
0.0
 33
0.0
 16
1.0
 26
0.0
 36
0.0
 17
0.0
 27
1.0
 37
0.0
 76
     0
330
23
  0
LAYOUT
  5
22
102
{ACAD_REACTORS
330
1A
102
}
330
1A
100
AcDbPlotSettings
  1

  2
none_device
  4
Letter_(8.50_x_11.00_Inches)
  6

 40
6.35
 41
6.35
 42
6.35000508
 43
6.35000508
 44
215.9
 45
279.4
 46
0.0
 47
0.0
 48
0.0
 49
0.0
140
0.0
141
0.0
142
1.0
143
1.0
 70
  1712
 72
     1
 73
     0
 74
     0
  7

 75
     0
147
1.0
148
0.0
149
0.0
100
AcDbLayout
  1
Model
 70
     1
 71
     0
 10
0.0
 20
0.0
 11
10500.0
 21
7425.0
 12
0.0
 22
0.0
 32
0.0
 14
0.0
 24
0.0
 34
0.0
 15
10500.0
 25
7425.0
 35
0.0
146
0.0
 13
0.0
 23
0.0
 33
0.0
 16
1.0
 26
0.0
 36
0.0
 17
0.0
 27
1.0
 37
0.0
 76
     0
330
1F
331
29
  0
MLINESTYLE
  5
18
102
{ACAD_REACTORS
330
17
102
}
330
17
100
AcDbMlineStyle
  2
Standard
 70
     0
  3

 62
   256
 51
90.0
 52
90.0
 71
     2
 49
0.5
 62
   256
  6
BYLAYER
 49
-0.5
 62
   256
  6
BYLAYER
  0
ACDBPLACEHOLDER
  5
F
102
{ACAD_REACTORS
330
E
102
}
330
E
  0
SCALE
  5
48
102
{ACAD_REACTORS
330
47
102
}
330
47
100
AcDbScale
 70
     0
300
1:1
140
1.0
141
1.0
290
     1
  0
SCALE
  5
49
102
{ACAD_REACTORS
330
47
102
}
330
47
100
AcDbScale
 70
     0
300
1:2
140
1.0
141
2.0
290
     0
  0
SCALE
  5
4A
102
{ACAD_REACTORS
330
47
102
}
330
47
100
AcDbScale
 70
     0
300
1:4
140
1.0
141
4.0
290
     0
  0
SCALE
  5
4B
102
{ACAD_REACTORS
330
47
102
}
330
47
100
AcDbScale
 70
     0
300
1:5
140
1.0
141
5.0
290
     0
  0
SCALE
  5
4C
102
{ACAD_REACTORS
330
47
102
}
330
47
100
AcDbScale
 70
     0
300
1:8
140
1.0
141
8.0
290
     0
  0
SCALE
  5
4D
102
{ACAD_REACTORS
330
47
102
}
330
47
100
AcDbScale
 70
     0
300
1:10
140
1.0
141
10.0
290
     0
  0
SCALE
  5
4E
102
{ACAD_REACTORS
330
47
102
}
330
47
100
AcDbScale
 70
     0
300
1:16
140
1.0
141
16.0
290
     0
  0
SCALE
  5
4F
102
{ACAD_REACTORS
330
47
102
}
330
47
100
AcDbScale
 70
     0
300
1:20
140
1.0
141
20.0
290
     0
  0
SCALE
  5
50
102
{ACAD_REACTORS
330
47
102
}
330
47
100
AcDbScale
 70
     0
300
1:30
140
1.0
141
30.0
290
     0
  0
SCALE
  5
51
102
{ACAD_REACTORS
330
47
102
}
330
47
100
AcDbScale
 70
     0
300
1:40
140
1.0
141
40.0
290
     0
  0
SCALE
  5
52
102
{ACAD_REACTORS
330
47
102
}
330
47
100
AcDbScale
 70
     0
300
1:50
140
1.0
141
50.0
290
     0
  0
SCALE
  5
53
102
{ACAD_REACTORS
330
47
102
}
330
47
100
AcDbScale
 70
     0
300
1:100
140
1.0
141
100.0
290
     0
  0
SCALE
  5
54
102
{ACAD_REACTORS
330
47
102
}
330
47
100
AcDbScale
 70
     0
300
2:1
140
2.0
141
1.0
290
     0
  0
SCALE
  5
55
102
{ACAD_REACTORS
330
47
102
}
330
47
100
AcDbScale
 70
     0
300
4:1
140
4.0
141
1.0
290
     0
  0
SCALE
  5
56
102
{ACAD_REACTORS
330
47
102
}
330
47
100
AcDbScale
 70
     0
300
8:1
140
8.0
141
1.0
290
     0
  0
SCALE
  5
57
102
{ACAD_REACTORS
330
47
102
}
330
47
100
AcDbScale
 70
     0
300
10:1
140
10.0
141
1.0
290
     0
  0
SCALE
  5
58
102
{ACAD_REACTORS
330
47
102
}
330
47
100
AcDbScale
 70
     0
300
100:1
140
100.0
141
1.0
290
     0
  0
SCALE
  5
59
102
{ACAD_REACTORS
330
47
102
}
330
47
100
AcDbScale
 70
     0
300
1/128" = 1'-0"
140
0.0078125
141
12.0
290
     0
  0
SCALE
  5
5A
102
{ACAD_REACTORS
330
47
102
}
330
47
100
AcDbScale
 70
     0
300
1/64" = 1'-0"
140
0.015625
141
12.0
290
     0
  0
SCALE
  5
5B
102
{ACAD_REACTORS
330
47
102
}
330
47
100
AcDbScale
 70
     0
300
1/32" = 1'-0"
140
0.03125
141
12.0
290
     0
  0
SCALE
  5
5C
102
{ACAD_REACTORS
330
47
102
}
330
47
100
AcDbScale
 70
     0
300
1/16" = 1'-0"
140
0.0625
141
12.0
290
     0
  0
SCALE
  5
5D
102
{ACAD_REACTORS
330
47
102
}
330
47
100
AcDbScale
 70
     0
300
3/32" = 1'-0"
140
0.09375
141
12.0
290
     0
  0
SCALE
  5
5E
102
{ACAD_REACTORS
330
47
102
}
330
47
100
AcDbScale
 70
     0
300
1/8" = 1'-0"
140
0.125
141
12.0
290
     0
  0
SCALE
  5
5F
102
{ACAD_REACTORS
330
47
102
}
330
47
100
AcDbScale
 70
     0
300
3/16" = 1'-0"
140
0.1875
141
12.0
290
     0
  0
SCALE
  5
60
102
{ACAD_REACTORS
330
47
102
}
330
47
100
AcDbScale
 70
     0
300
1/4" = 1'-0"
140
0.25
141
12.0
290
     0
  0
SCALE
  5
61
102
{ACAD_REACTORS
330
47
102
}
330
47
100
AcDbScale
 70
     0
300
3/8" = 1'-0"
140
0.375
141
12.0
290
     0
  0
SCALE
  5
62
102
{ACAD_REACTORS
330
47
102
}
330
47
100
AcDbScale
 70
     0
300
1/2" = 1'-0"
140
0.5
141
12.0
290
     0
  0
SCALE
  5
63
102
{ACAD_REACTORS
330
47
102
}
330
47
100
AcDbScale
 70
     0
300
3/4" = 1'-0"
140
0.75
141
12.0
290
     0
  0
SCALE
  5
64
102
{ACAD_REACTORS
330
47
102
}
330
47
100
AcDbScale
 70
     0
300
1" = 1'-0"
140
1.0
141
12.0
290
     0
  0
SCALE
  5
65
102
{ACAD_REACTORS
330
47
102
}
330
47
100
AcDbScale
 70
     0
300
1-1/2" = 1'-0"
140
1.5
141
12.0
290
     0
  0
SCALE
  5
66
102
{ACAD_REACTORS
330
47
102
}
330
47
100
AcDbScale
 70
     0
300
3" = 1'-0"
140
3.0
141
12.0
290
     0
  0
SCALE
  5
67
102
{ACAD_REACTORS
330
47
102
}
330
47
100
AcDbScale
 70
     0
300
6" = 1'-0"
140
6.0
141
12.0
290
     0
  0
SCALE
  5
68
102
{ACAD_REACTORS
330
47
102
}
330
47
100
AcDbScale
 70
     0
300
1'-0" = 1'-0"
140
12.0
141
12.0
290
     0
  0
ENDSEC
  0
EOF
