  0
SECTION
  2
HEADER
  9
$ACADVER
  1
AC1015
  9
$ACADMAINTVER
 70
     6
  9
$DWGCODEPAGE
  3
ANSI_1251
  9
$INSBASE
 10
0.0
 20
0.0
 30
0.0
  9
$EXTMIN
 10
-3400.0
 20
-2125.0
 30
0.0
  9
$EXTMAX
 10
3400.0
 20
2125.0
 30
0.0
  9
$LIMMIN
 10
0.0
 20
0.0
  9
$LIMMAX
 10
420.0
 20
297.0
  9
$ORTHOMODE
 70
     0
  9
$REGENMODE
 70
     1
  9
$FILLMODE
 70
     1
  9
$QTEXTMODE
 70
     0
  9
$MIRRTEXT
 70
     1
  9
$LTSCALE
 40
1.0
  9
$ATTMODE
 70
     1
  9
$TEXTSIZE
 40
3.0
  9
$TRACEWID
 40
1.0
  9
$TEXTSTYLE
  7
Standard
  9
$CLAYER
  8
0
  9
$CELTYPE
  6
ByLayer
  9
$CECOLOR
 62
   256
  9
$CELTSCALE
 40
1.0
  9
$DISPSILH
 70
     0
  9
$DIMSCALE
 40
1.0
  9
$DIMASZ
 40
3.0
  9
$DIMEXO
 40
0.0
  9
$DIMDLI
 40
3.75
  9
$DIMRND
 40
0.0
  9
$DIMDLE
 40
0.0
  9
$DIMEXE
 40
2.0
  9
$DIMTP
 40
0.0
  9
$DIMTM
 40
0.0
  9
$DIMTXT
 40
3.0
  9
$DIMCEN
 40
2.5
  9
$DIMTSZ
 40
0.0
  9
$DIMTOL
 70
     0
  9
$DIMLIM
 70
     0
  9
$DIMTIH
 70
     1
  9
$DIMTOH
 70
     1
  9
$DIMSE1
 70
     0
  9
$DIMSE2
 70
     0
  9
$DIMTAD
 70
     1
  9
$DIMZIN
 70
     0
  9
$DIMBLK
  1

  9
$DIMASO
 70
     1
  9
$DIMSHO
 70
     1
  9
$DIMPOST
  1

  9
$DIMAPOST
  1

  9
$DIMALT
 70
     0
  9
$DIMALTD
 70
     3
  9
$DIMALTF
 40
0.0393700787
  9
$DIMLFAC
 40
1.0
  9
$DIMTOFL
 70
     1
  9
$DIMTVP
 40
0.0
  9
$DIMTIX
 70
     0
  9
$DIMSOXD
 70
     0
  9
$DIMSAH
 70
     0
  9
$DIMBLK1
  1

  9
$DIMBLK2
  1

  9
$DIMSTYLE
  2
ISO-25
  9
$DIMCLRD
 70
     0
  9
$DIMCLRE
 70
     0
  9
$DIMCLRT
 70
     0
  9
$DIMTFAC
 40
1.0
  9
$DIMGAP
 40
2.0
  9
$DIMJUST
 70
     0
  9
$DIMSD1
 70
     0
  9
$DIMSD2
 70
     0
  9
$DIMTOLJ
 70
     0
  9
$DIMTZIN
 70
     0
  9
$DIMALTZ
 70
     0
  9
$DIMALTTZ
 70
     0
  9
$DIMUPT
 70
     0
  9
$DIMDEC
 70
     2
  9
$DIMTDEC
 70
     2
  9
$DIMALTU
 70
     2
  9
$DIMALTTD
 70
     3
  9
$DIMTXSTY
  7
Standard
  9
$DIMAUNIT
 70
     0
  9
$DIMADEC
 70
     2
  9
$DIMALTRND
 40
0.0
  9
$DIMAZIN
 70
     0
  9
$DIMDSEP
 70
    44
  9
$DIMATFIT
 70
     3
  9
$DIMFRAC
 70
     0
  9
$DIMLDRBLK
  1

  9
$DIMLUNIT
 70
     2
  9
$DIMLWD
 70
    -2
  9
$DIMLWE
 70
    -2
  9
$DIMTMOVE
 70
     0
  9
$LUNITS
 70
     2
  9
$LUPREC
 70
     2
  9
$SKETCHINC
 40
1.0
  9
$FILLETRAD
 40
10.0
  9
$AUNITS
 70
     1
  9
$AUPREC
 70
     2
  9
$MENU
  1
.
  9
$ELEVATION
 40
0.0
  9
$PELEVATION
 40
0.0
  9
$THICKNESS
 40
0.0
  9
$LIMCHECK
 70
     0
  9
$CHAMFERA
 40
0.0
  9
$CHAMFERB
 40
0.0
  9
$CHAMFERC
 40
0.0
  9
$CHAMFERD
 40
0.0
  9
$SKPOLY
 70
     0
  9
$TDCREATE
 40
2459310.351217986
  9
$TDUCREATE
 40
2459310.226217986
  9
$TDUPDATE
 40
2459310.351291181
  9
$TDUUPDATE
 40
2459310.226291181
  9
$TDINDWG
 40
0.0000000116
  9
$TDUSRTIMER
 40
0.0000000116
  9
$USRTIMER
 70
     1
  9
$ANGBASE
 50
0.0
  9
$ANGDIR
 70
     0
  9
$PDMODE
 70
     0
  9
$PDSIZE
 40
-1.0
  9
$PLINEWID
 40
0.0
  9
$SPLFRAME
 70
     0
  9
$SPLINETYPE
 70
     6
  9
$SPLINESEGS
 70
     8
  9
$HANDSEED
  5
203
  9
$SURFTAB1
 70
     6
  9
$SURFTAB2
 70
     6
  9
$SURFTYPE
 70
     6
  9
$SURFU
 70
     6
  9
$SURFV
 70
     6
  9
$UCSBASE
  2

  9
$UCSNAME
  2

  9
$UCSORG
 10
0.0
 20
0.0
 30
0.0
  9
$UCSXDIR
 10
1.0
 20
0.0
 30
0.0
  9
$UCSYDIR
 10
0.0
 20
1.0
 30
0.0
  9
$UCSORTHOREF
  2

  9
$UCSORTHOVIEW
 70
     0
  9
$UCSORGTOP
 10
0.0
 20
0.0
 30
0.0
  9
$UCSORGBOTTOM
 10
0.0
 20
0.0
 30
0.0
  9
$UCSORGLEFT
 10
0.0
 20
0.0
 30
0.0
  9
$UCSORGRIGHT
 10
0.0
 20
0.0
 30
0.0
  9
$UCSORGFRONT
 10
0.0
 20
0.0
 30
0.0
  9
$UCSORGBACK
 10
0.0
 20
0.0
 30
0.0
  9
$PUCSBASE
  2

  9
$PUCSNAME
  2

  9
$PUCSORG
 10
0.0
 20
0.0
 30
0.0
  9
$PUCSXDIR
 10
1.0
 20
0.0
 30
0.0
  9
$PUCSYDIR
 10
0.0
 20
1.0
 30
0.0
  9
$PUCSORTHOREF
  2

  9
$PUCSORTHOVIEW
 70
     0
  9
$PUCSORGTOP
 10
0.0
 20
0.0
 30
0.0
  9
$PUCSORGBOTTOM
 10
0.0
 20
0.0
 30
0.0
  9
$PUCSORGLEFT
 10
0.0
 20
0.0
 30
0.0
  9
$PUCSORGRIGHT
 10
0.0
 20
0.0
 30
0.0
  9
$PUCSORGFRONT
 10
0.0
 20
0.0
 30
0.0
  9
$PUCSORGBACK
 10
0.0
 20
0.0
 30
0.0
  9
$USERI1
 70
     0
  9
$USERI2
 70
     0
  9
$USERI3
 70
     0
  9
$USERI4
 70
     0
  9
$USERI5
 70
     0
  9
$USERR1
 40
0.0
  9
$USERR2
 40
0.0
  9
$USERR3
 40
0.0
  9
$USERR4
 40
0.0
  9
$USERR5
 40
0.0
  9
$WORLDVIEW
 70
     1
  9
$SHADEDGE
 70
     3
  9
$SHADEDIF
 70
    70
  9
$TILEMODE
 70
     1
  9
$MAXACTVP
 70
    64
  9
$PINSBASE
 10
0.0
 20
0.0
 30
0.0
  9
$PLIMCHECK
 70
     0
  9
$PEXTMIN
 10
1.0000000000E+20
 20
1.0000000000E+20
 30
1.0000000000E+20
  9
$PEXTMAX
 10
-1.0000000000E+20
 20
-1.0000000000E+20
 30
-1.0000000000E+20
  9
$PLIMMIN
 10
0.0
 20
0.0
  9
$PLIMMAX
 10
420.0
 20
297.0
  9
$UNITMODE
 70
     0
  9
$VISRETAIN
 70
     1
  9
$PLINEGEN
 70
     0
  9
$PSLTSCALE
 70
     1
  9
$TREEDEPTH
 70
  3020
  9
$CMLSTYLE
  2
Standard
  9
$CMLJUST
 70
     0
  9
$CMLSCALE
 40
20.0
  9
$PROXYGRAPHICS
 70
     1
  9
$MEASUREMENT
 70
     1
  9
$CELWEIGHT
370
    -1
  9
$ENDCAPS
280
     0
  9
$JOINSTYLE
280
     0
  9
$LWDISPLAY
290
     1
  9
$INSUNITS
 70
     4
  9
$HYPERLINKBASE
  1

  9
$STYLESHEET
  1

  9
$XEDIT
290
     1
  9
$CEPSNTYPE
380
     0
  9
$PSTYLEMODE
290
     1
  9
$FINGERPRINTGUID
  2
{21863A71-F080-4280-AFBC-3EDA4C25C615}
  9
$VERSIONGUID
  2
{FAEB1C32-E019-11D5-929B-00C0DF256EC4}
  9
$EXTNAMES
290
     1
  9
$PSVPSCALE
 40
0.0
  9
$OLESTARTUP
290
     0
  0
ENDSEC
  0
SECTION
  2
CLASSES
  0
CLASS
  1
ACDBDICTIONARYWDFLT
  2
AcDbDictionaryWithDefault
  3
ObjectDBX Classes
 90
        0
280
     0
281
     0
  0
CLASS
  1
VISUALSTYLE
  2
AcDbVisualStyle
  3
ObjectDBX Classes
 90
     4095
280
     0
281
     0
  0
CLASS
  1
MATERIAL
  2
AcDbMaterial
  3
ObjectDBX Classes
 90
     1153
280
     0
281
     0
  0
CLASS
  1
SCALE
  2
AcDbScale
  3
ObjectDBX Classes
 90
     1153
280
     0
281
     0
  0
CLASS
  1
SUN
  2
AcDbSun
  3
SCENEOE
 90
     1153
280
     0
281
     0
  0
CLASS
  1
ACDBPLACEHOLDER
  2
AcDbPlaceHolder
  3
ObjectDBX Classes
 90
        0
280
     0
281
     0
  0
CLASS
  1
LAYOUT
  2
AcDbLayout
  3
ObjectDBX Classes
 90
        0
280
     0
281
     0
  0
ENDSEC
  0
SECTION
  2
TABLES
  0
TABLE
  2
VPORT
  5
8
330
0
100
AcDbSymbolTable
 70
     1
  0
VPORT
  5
29
330
8
100
AcDbSymbolTableRecord
100
AcDbViewportTableRecord
  2
*Active
 70
     0
 10
0.0
 20
0.0
 11
1.0
 21
1.0
 12
0.0
 22
0.0
 13
0.0
 23
0.0
 14
10.0
 24
10.0
 15
10.0
 25
10.0
 16
0.0
 26
0.0
 36
1.0
 17
0.0
 27
0.0
 37
0.0
 40
4335.0
 41
1.6
 42
50.0
 43
0.0
 44
0.0
 50
0.0
 51
0.0
 71
     0
 72
   100
 73
     1
 74
     3
 75
     0
 76
     0
 77
     0
 78
     0
281
     0
 65
     1
110
0.0
120
0.0
130
0.0
111
1.0
121
0.0
131
0.0
112
0.0
122
1.0
132
0.0
 79
     0
146
0.0
  0
ENDTAB
  0
TABLE
  2
LTYPE
  5
5
330
0
100
AcDbSymbolTable
 70
     6
  0
LTYPE
  5
14
330
5
100
AcDbSymbolTableRecord
100
AcDbLinetypeTableRecord
  2
ByBlock
 70
     0
  3

 72
    65
 73
     0
 40
0.0
  0
LTYPE
  5
15
330
5
100
AcDbSymbolTableRecord
100
AcDbLinetypeTableRecord
  2
ByLayer
 70
     0
  3

 72
    65
 73
     0
 40
0.0
  0
LTYPE
  5
16
330
5
100
AcDbSymbolTableRecord
100
AcDbLinetypeTableRecord
  2
Continuous
 70
     0
  3
Solid line
 72
    65
 73
     0
 40
0.0
  0
LTYPE
  5
6A
330
5
100
AcDbSymbolTableRecord
100
AcDbLinetypeTableRecord
  2
HIDDEN
 70
     0
  3
Hidden __ __ __ __ __ __ __ __ __ __ __ __ __ __
 72
    65
 73
     2
 40
1.905
 49
1.27
 74
     0
 49
-0.635
 74
     0
  0
LTYPE
  5
6B
330
5
100
AcDbSymbolTableRecord
100
AcDbLinetypeTableRecord
  2
PHANTOM
 70
     0
  3
Phantom ______  __  __  ______  __  __  ______
 72
    65
 73
     6
 40
12.7
 49
6.35
 74
     0
 49
-1.27
 74
     0
 49
1.27
 74
     0
 49
-1.27
 74
     0
 49
1.27
 74
     0
 49
-1.27
 74
     0
  0
LTYPE
  5
6C
330
5
100
AcDbSymbolTableRecord
100
AcDbLinetypeTableRecord
  2
CENTER
 70
     0
  3
Center ____ _ ____ _ ____ _ ____ _ ____ _ ____
 72
    65
 73
     4
 40
10.16
 49
6.35
 74
     0
 49
-1.27
 74
     0
 49
1.27
 74
     0
 49
-1.27
 74
     0
  0
LTYPE
  5
6D
330
5
100
AcDbSymbolTableRecord
100
AcDbLinetypeTableRecord
  2
CENTERX2
 70
     0
  3
Center (2x) ________  __  ________  __  _____
 72
    65
 73
     4
 40
20.32
 49
12.7
 74
     0
 49
-2.54
 74
     0
 49
2.54
 74
     0
 49
-2.54
 74
     0
  0
LTYPE
  5
6E
330
5
100
AcDbSymbolTableRecord
100
AcDbLinetypeTableRecord
  2
DOT2
 70
     0
  3
Dot (.5x) ........................................
 72
    65
 73
     2
 40
0.635
 49
0.0
 74
     0
 49
-0.635
 74
     0
  0
ENDTAB
  0
TABLE
  2
LAYER
  5
2
330
0
100
AcDbSymbolTable
 70
     1
  0
LAYER
  5
10
330
2
100
AcDbSymbolTableRecord
100
AcDbLayerTableRecord
  2
0
 70
     0
 62
     7
  6
Continuous
370
    -3
390
F
  0
ENDTAB
  0
TABLE
  2
STYLE
  5
3
330
0
100
AcDbSymbolTable
 70
     1
  0
STYLE
  5
11
330
3
100
AcDbSymbolTableRecord
100
AcDbTextStyleTableRecord
  2
Standard
 70
     0
 40
0.0
 41
1.0
 50
0.0
 71
     0
 42
3.0
  3
txt
  4

  0
ENDTAB
  0
TABLE
  2
VIEW
  5
6
330
0
100
AcDbSymbolTable
 70
     0
  0
ENDTAB
  0
TABLE
  2
UCS
  5
7
330
0
100
AcDbSymbolTable
 70
     0
  0
ENDTAB
  0
TABLE
  2
APPID
  5
9
330
0
100
AcDbSymbolTable
 70
     1
  0
APPID
  5
12
330
9
100
AcDbSymbolTableRecord
100
AcDbRegAppTableRecord
  2
ACAD
 70
     0
  0
ENDTAB
  0
TABLE
  2
DIMSTYLE
  5
A
330
0
100
AcDbSymbolTable
 70
     1
100
AcDbDimStyleTable
  0
DIMSTYLE
105
27
330
A
100
AcDbSymbolTableRecord
100
AcDbDimStyleTableRecord
  2
ISO-25
 70
     0
 41
2.5
 42
0.625
 43
3.75
 44
1.25
 73
     0
 74
     0
 77
     1
 78
     8
140
2.5
141
2.5
143
0.0393700787
147
0.625
171
     3
172
     1
178
     0
271
     2
272
     2
274
     3
278
    44
283
     0
284
     8
340
11
  0
ENDTAB
  0
TABLE
  2
BLOCK_RECORD
  5
1
330
0
100
AcDbSymbolTable
 70
     1
  0
BLOCK_RECORD
  5
1F
330
1
100
AcDbSymbolTableRecord
100
AcDbBlockTableRecord
  2
*Model_Space
340
22
  0
BLOCK_RECORD
  5
1B
330
1
100
AcDbSymbolTableRecord
100
AcDbBlockTableRecord
  2
*Paper_Space
340
1E
  0
BLOCK_RECORD
  5
23
330
1
100
AcDbSymbolTableRecord
100
AcDbBlockTableRecord
  2
*Paper_Space0
340
26
  0
ENDTAB
  0
ENDSEC
  0
SECTION
  2
BLOCKS
  0
BLOCK
  5
20
330
1F
100
AcDbEntity
  8
0
100
AcDbBlockBegin
  2
*Model_Space
 70
     0
 10
0.0
 20
0.0
 30
0.0
  3
*Model_Space
  1
*Model_Space
  0
ENDBLK
  5
21
330
1F
100
AcDbEntity
  8
0
100
AcDbBlockEnd
  0
BLOCK
  5
1C
330
1B
100
AcDbEntity
 67
     1
  8
0
100
AcDbBlockBegin
  2
*Paper_Space
 70
     0
 10
0.0
 20
0.0
 30
0.0
  3
*Paper_Space
  1
*Paper_Space
  0
ENDBLK
  5
1D
330
1B
100
AcDbEntity
 67
     1
  8
0
100
AcDbBlockEnd
  0
BLOCK
  5
24
330
23
100
AcDbEntity
  8
0
100
AcDbBlockBegin
  2
*Paper_Space0
 70
     0
 10
0.0
 20
0.0
 30
0.0
  3
*Paper_Space0
  1
*Paper_Space0
  0
ENDBLK
  5
25
330
23
100
AcDbEntity
  8
0
100
AcDbBlockEnd
  0
ENDSEC
  0
SECTION
  2
ENTITIES
  0
CIRCLE
  5
9A
330
1F
100
AcDbEntity
  8
0
  6
Continuous
 62
     7
370
    15
100
AcDbCircle
 10
1775.0
 20
-500.0
 30
0.0
 40
79.99999999999886
  0
CIRCLE
  5
9B
330
1F
100
AcDbEntity
  8
0
  6
Continuous
 62
     7
370
    15
100
AcDbCircle
 10
-1775.0
 20
500.0
 30
0.0
 40
80.00000000000006
  0
CIRCLE
  5
9C
330
1F
100
AcDbEntity
  8
0
  6
Continuous
 62
     7
370
    15
100
AcDbCircle
 10
410.0
 20
380.0000000001
 30
0.0
 40
10.00000000000004
  0
CIRCLE
  5
9D
330
1F
100
AcDbEntity
  8
0
  6
Continuous
 62
     7
370
    15
100
AcDbCircle
 10
0.0
 20
380.0000000001
 30
0.0
 40
9.999999999999984
  0
CIRCLE
  5
9E
330
1F
100
AcDbEntity
  8
0
  6
Continuous
 62
     7
370
    15
100
AcDbCircle
 10
-410.0
 20
380.0000000001
 30
0.0
 40
9.999999999999986
  0
CIRCLE
  5
9F
330
1F
100
AcDbEntity
  8
0
  6
Continuous
 62
     7
370
    15
100
AcDbCircle
 10
-820.0
 20
380.0000000001
 30
0.0
 40
10.00000000000004
  0
CIRCLE
  5
A0
330
1F
100
AcDbEntity
  8
0
  6
Continuous
 62
     7
370
    15
100
AcDbCircle
 10
-1230.0
 20
380.0000000001
 30
0.0
 40
9.999999999999588
  0
CIRCLE
  5
A1
330
1F
100
AcDbEntity
  8
0
  6
Continuous
 62
     7
370
    15
100
AcDbCircle
 10
410.0
 20
380.0000000001
 30
0.0
 40
5.400000000000034
  0
CIRCLE
  5
A2
330
1F
100
AcDbEntity
  8
0
  6
Continuous
 62
     7
370
    15
100
AcDbCircle
 10
410.0
 20
380.0000000001
 30
0.0
 40
8.500000000000057
  0
SPLINE
  5
A3
330
1F
100
AcDbEntity
  8
0
  6
Continuous
 62
     7
370
    15
100
AcDbSpline
210
0.0
220
0.0
230
1.0
 70
    24
 71
     3
 72
    10
 73
     6
 74
     0
 42
0.000000001
 43
0.00000001
 40
0.0
 40
0.0
 40
0.0
 40
0.0
 40
0.5
 40
0.5
 40
1.0
 40
1.0
 40
1.0
 40
1.0
 10
414.9074772881164
 20
371.5000000000546
 30
0.0
 10
415.3083200629567
 20
372.1942800519251
 30
0.0
 10
415.7123005956008
 20
372.8939948597333
 30
0.0
 10
416.529342589151
 20
374.3091531044795
 30
0.0
 10
416.94247224103
 20
375.0247146516475
 30
0.0
 10
417.3612159321723
 20
375.7500000000546
 30
0.0
  0
SPLINE
  5
A4
330
1F
100
AcDbEntity
  8
0
  6
Continuous
 62
     7
370
    15
100
AcDbSpline
210
0.0
220
0.0
230
1.0
 70
    24
 71
     3
 72
    10
 73
     6
 74
     0
 42
0.000000001
 43
0.00000001
 40
0.0
 40
0.0
 40
0.0
 40
0.0
 40
0.5
 40
0.5
 40
1.0
 40
1.0
 40
1.0
 40
1.0
 10
410.0000000000046
 20
371.5000000000546
 30
0.0
 10
410.8374873822888
 20
371.5000000000547
 30
0.0
 10
411.6637466860472
 20
371.5000000000546
 30
0.0
 10
413.2978306731475
 20
371.5000000000545
 30
0.0
 10
414.1057917384356
 20
371.5000000000546
 30
0.0
 10
414.9074772881164
 20
371.5000000000546
 30
0.0
  0
SPLINE
  5
A5
330
1F
100
AcDbEntity
  8
0
  6
Continuous
 62
     7
370
    15
100
AcDbSpline
210
0.0
220
0.0
230
1.0
 70
    24
 71
     3
 72
    10
 73
     6
 74
     0
 42
0.000000001
 43
0.00000001
 40
0.0
 40
0.0
 40
0.0
 40
0.0
 40
0.5
 40
0.5
 40
1.0
 40
1.0
 40
1.0
 40
1.0
 10
419.8149545762282
 20
380.0000000000546
 30
0.0
 10
419.4141118013877
 20
380.6942800519251
 30
0.0
 10
419.0101312687437
 20
381.3939948597333
 30
0.0
 10
418.1930892751935
 20
382.8091531044795
 30
0.0
 10
417.7799596233145
 20
383.5247146516475
 30
0.0
 10
417.3612159321723
 20
384.2500000000546
 30
0.0
  0
SPLINE
  5
A6
330
1F
100
AcDbEntity
  8
0
  6
Continuous
 62
     7
370
    15
100
AcDbSpline
210
0.0
220
0.0
230
1.0
 70
    24
 71
     3
 72
    10
 73
     6
 74
     0
 42
0.000000001
 43
0.00000001
 40
0.0
 40
0.0
 40
0.0
 40
0.0
 40
0.5
 40
0.5
 40
1.0
 40
1.0
 40
1.0
 40
1.0
 10
417.3612159321723
 20
375.7500000000546
 30
0.0
 10
417.7799596233145
 20
376.4752853484617
 30
0.0
 10
418.1930892751936
 20
377.1908468956296
 30
0.0
 10
419.0101312687437
 20
378.6060051403759
 30
0.0
 10
419.4141118013878
 20
379.305719948184
 30
0.0
 10
419.8149545762282
 20
380.0000000000546
 30
0.0
  0
SPLINE
  5
A7
330
1F
100
AcDbEntity
  8
0
  6
Continuous
 62
     7
370
    15
100
AcDbSpline
210
0.0
220
0.0
230
1.0
 70
    24
 71
     3
 72
    10
 73
     6
 74
     0
 42
0.000000001
 43
0.00000001
 40
0.0
 40
0.0
 40
0.0
 40
0.0
 40
0.5
 40
0.5
 40
1.0
 40
1.0
 40
1.0
 40
1.0
 10
402.6387840678369
 20
375.7500000000546
 30
0.0
 10
403.0575277589789
 20
375.0247146516474
 30
0.0
 10
403.4706574108582
 20
374.3091531044796
 30
0.0
 10
404.2876994044084
 20
372.8939948597331
 30
0.0
 10
404.6916799370524
 20
372.1942800519251
 30
0.0
 10
405.0925227118928
 20
371.5000000000546
 30
0.0
  0
SPLINE
  5
A8
330
1F
100
AcDbEntity
  8
0
  6
Continuous
 62
     7
370
    15
100
AcDbSpline
210
0.0
220
0.0
230
1.0
 70
    24
 71
     3
 72
    10
 73
     6
 74
     0
 42
0.000000001
 43
0.00000001
 40
0.0
 40
0.0
 40
0.0
 40
0.0
 40
0.5
 40
0.5
 40
1.0
 40
1.0
 40
1.0
 40
1.0
 10
405.0925227118928
 20
371.5000000000546
 30
0.0
 10
405.8942082615735
 20
371.5000000000547
 30
0.0
 10
406.7021693268617
 20
371.5000000000546
 30
0.0
 10
408.3362533139621
 20
371.5000000000545
 30
0.0
 10
409.1625126177203
 20
371.5000000000546
 30
0.0
 10
410.0000000000046
 20
371.5000000000546
 30
0.0
  0
SPLINE
  5
A9
330
1F
100
AcDbEntity
  8
0
  6
Continuous
 62
     7
370
    15
100
AcDbSpline
210
0.0
220
0.0
230
1.0
 70
    24
 71
     3
 72
    10
 73
     6
 74
     0
 42
0.000000001
 43
0.00000001
 40
0.0
 40
0.0
 40
0.0
 40
0.0
 40
0.5
 40
0.5
 40
1.0
 40
1.0
 40
1.0
 40
1.0
 10
400.185045423781
 20
380.0000000000546
 30
0.0
 10
400.5858881986214
 20
379.3057199481839
 30
0.0
 10
400.9898687312654
 20
378.6060051403759
 30
0.0
 10
401.8069107248155
 20
377.1908468956296
 30
0.0
 10
402.2200403766947
 20
376.4752853484617
 30
0.0
 10
402.6387840678369
 20
375.7500000000546
 30
0.0
  0
SPLINE
  5
AA
330
1F
100
AcDbEntity
  8
0
  6
Continuous
 62
     7
370
    15
100
AcDbSpline
210
0.0
220
0.0
230
1.0
 70
    24
 71
     3
 72
    10
 73
     6
 74
     0
 42
0.000000001
 43
0.00000001
 40
0.0
 40
0.0
 40
0.0
 40
0.0
 40
0.5
 40
0.5
 40
1.0
 40
1.0
 40
1.0
 40
1.0
 10
402.6387840678369
 20
384.2500000000546
 30
0.0
 10
402.2200403766947
 20
383.5247146516475
 30
0.0
 10
401.8069107248156
 20
382.8091531044796
 30
0.0
 10
400.9898687312654
 20
381.3939948597332
 30
0.0
 10
400.5858881986214
 20
380.6942800519251
 30
0.0
 10
400.185045423781
 20
380.0000000000546
 30
0.0
  0
SPLINE
  5
AB
330
1F
100
AcDbEntity
  8
0
  6
Continuous
 62
     7
370
    15
100
AcDbSpline
210
0.0
220
0.0
230
1.0
 70
    24
 71
     3
 72
    10
 73
     6
 74
     0
 42
0.000000001
 43
0.00000001
 40
0.0
 40
0.0
 40
0.0
 40
0.0
 40
0.5
 40
0.5
 40
1.0
 40
1.0
 40
1.0
 40
1.0
 10
417.3612159321723
 20
384.2500000000546
 30
0.0
 10
416.9424722410301
 20
384.9752853484617
 30
0.0
 10
416.5293425891511
 20
385.6908468956296
 30
0.0
 10
415.7123005956008
 20
387.106005140376
 30
0.0
 10
415.3083200629568
 20
387.8057199481841
 30
0.0
 10
414.9074772881164
 20
388.5000000000546
 30
0.0
  0
SPLINE
  5
AC
330
1F
100
AcDbEntity
  8
0
  6
Continuous
 62
     7
370
    15
100
AcDbSpline
210
0.0
220
0.0
230
1.0
 70
    24
 71
     3
 72
    10
 73
     6
 74
     0
 42
0.000000001
 43
0.00000001
 40
0.0
 40
0.0
 40
0.0
 40
0.0
 40
0.5
 40
0.5
 40
1.0
 40
1.0
 40
1.0
 40
1.0
 10
414.9074772881164
 20
388.5000000000546
 30
0.0
 10
414.1057917384355
 20
388.5000000000545
 30
0.0
 10
413.2978306731476
 20
388.5000000000546
 30
0.0
 10
411.6637466860471
 20
388.5000000000545
 30
0.0
 10
410.837487382289
 20
388.5000000000546
 30
0.0
 10
410.0000000000046
 20
388.5000000000546
 30
0.0
  0
SPLINE
  5
AD
330
1F
100
AcDbEntity
  8
0
  6
Continuous
 62
     7
370
    15
100
AcDbSpline
210
0.0
220
0.0
230
1.0
 70
    24
 71
     3
 72
    10
 73
     6
 74
     0
 42
0.000000001
 43
0.00000001
 40
0.0
 40
0.0
 40
0.0
 40
0.0
 40
0.5
 40
0.5
 40
1.0
 40
1.0
 40
1.0
 40
1.0
 10
410.0000000000046
 20
388.5000000000546
 30
0.0
 10
409.1625126177202
 20
388.5000000000545
 30
0.0
 10
408.3362533139621
 20
388.5000000000546
 30
0.0
 10
406.7021693268616
 20
388.5000000000545
 30
0.0
 10
405.8942082615736
 20
388.5000000000546
 30
0.0
 10
405.0925227118928
 20
388.5000000000546
 30
0.0
  0
SPLINE
  5
AE
330
1F
100
AcDbEntity
  8
0
  6
Continuous
 62
     7
370
    15
100
AcDbSpline
210
0.0
220
0.0
230
1.0
 70
    24
 71
     3
 72
    10
 73
     6
 74
     0
 42
0.000000001
 43
0.00000001
 40
0.0
 40
0.0
 40
0.0
 40
0.0
 40
0.5
 40
0.5
 40
1.0
 40
1.0
 40
1.0
 40
1.0
 10
405.0925227118928
 20
388.5000000000546
 30
0.0
 10
404.6916799370523
 20
387.805719948184
 30
0.0
 10
404.2876994044084
 20
387.106005140376
 30
0.0
 10
403.4706574108581
 20
385.6908468956296
 30
0.0
 10
403.0575277589791
 20
384.9752853484617
 30
0.0
 10
402.6387840678369
 20
384.2500000000546
 30
0.0
  0
CIRCLE
  5
AF
330
1F
100
AcDbEntity
  8
0
  6
Continuous
 62
     7
370
    15
100
AcDbCircle
 10
0.0
 20
380.0000000001
 30
0.0
 40
5.400000000000022
  0
CIRCLE
  5
B0
330
1F
100
AcDbEntity
  8
0
  6
Continuous
 62
     7
370
    15
100
AcDbCircle
 10
0.0
 20
380.0000000001
 30
0.0
 40
8.5
  0
SPLINE
  5
B1
330
1F
100
AcDbEntity
  8
0
  6
Continuous
 62
     7
370
    15
100
AcDbSpline
210
0.0
220
0.0
230
1.0
 70
    24
 71
     3
 72
    10
 73
     6
 74
     0
 42
0.000000001
 43
0.00000001
 40
0.0
 40
0.0
 40
0.0
 40
0.0
 40
0.5
 40
0.5
 40
1.0
 40
1.0
 40
1.0
 40
1.0
 10
0.0000000000044412
 20
371.5000000000546
 30
0.0
 10
0.8374873822887791
 20
371.5000000000547
 30
0.0
 10
1.663746686047028
 20
371.5000000000546
 30
0.0
 10
3.297830673147442
 20
371.5000000000545
 30
0.0
 10
4.105791738435351
 20
371.5000000000546
 30
0.0
 10
4.907477288116242
 20
371.5000000000546
 30
0.0
  0
SPLINE
  5
B2
330
1F
100
AcDbEntity
  8
0
  6
Continuous
 62
     7
370
    15
100
AcDbSpline
210
0.0
220
0.0
230
1.0
 70
    24
 71
     3
 72
    10
 73
     6
 74
     0
 42
0.000000001
 43
0.00000001
 40
0.0
 40
0.0
 40
0.0
 40
0.0
 40
0.5
 40
0.5
 40
1.0
 40
1.0
 40
1.0
 40
1.0
 10
4.907477288116241
 20
371.5000000000546
 30
0.0
 10
5.308320062956691
 20
372.1942800519251
 30
0.0
 10
5.712300595600659
 20
372.8939948597333
 30
0.0
 10
6.529342589150868
 20
374.3091531044795
 30
0.0
 10
6.942472241029984
 20
375.0247146516475
 30
0.0
 10
7.361215932172155
 20
375.7500000000546
 30
0.0
  0
SPLINE
  5
B3
330
1F
100
AcDbEntity
  8
0
  6
Continuous
 62
     7
370
    15
100
AcDbSpline
210
0.0
220
0.0
230
1.0
 70
    24
 71
     3
 72
    10
 73
     6
 74
     0
 42
0.000000001
 43
0.00000001
 40
0.0
 40
0.0
 40
0.0
 40
0.0
 40
0.5
 40
0.5
 40
1.0
 40
1.0
 40
1.0
 40
1.0
 10
-7.361215932163275
 20
375.7500000000546
 30
0.0
 10
-6.942472241021103
 20
375.0247146516474
 30
0.0
 10
-6.529342589141987
 20
374.3091531044796
 30
0.0
 10
-5.712300595591774
 20
372.8939948597331
 30
0.0
 10
-5.30832006294781
 20
372.1942800519251
 30
0.0
 10
-4.90747728810736
 20
371.5000000000546
 30
0.0
  0
SPLINE
  5
B4
330
1F
100
AcDbEntity
  8
0
  6
Continuous
 62
     7
370
    15
100
AcDbSpline
210
0.0
220
0.0
230
1.0
 70
    24
 71
     3
 72
    10
 73
     6
 74
     0
 42
0.000000001
 43
0.00000001
 40
0.0
 40
0.0
 40
0.0
 40
0.0
 40
0.5000000000000001
 40
0.5000000000000001
 40
1.0
 40
1.0
 40
1.0
 40
1.0
 10
-4.90747728810736
 20
371.5000000000546
 30
0.0
 10
-4.105791738426469
 20
371.5000000000546
 30
0.0
 10
-3.297830673138561
 20
371.5000000000546
 30
0.0
 10
-1.663746686038147
 20
371.5000000000545
 30
0.0
 10
-0.8374873822798982
 20
371.5000000000545
 30
0.0
 10
0.0000000000044404
 20
371.5000000000546
 30
0.0
  0
SPLINE
  5
B5
330
1F
100
AcDbEntity
  8
0
  6
Continuous
 62
     7
370
    15
100
AcDbSpline
210
0.0
220
0.0
230
1.0
 70
    24
 71
     3
 72
    10
 73
     6
 74
     0
 42
0.000000001
 43
0.00000001
 40
0.0
 40
0.0
 40
0.0
 40
0.0
 40
0.5
 40
0.5
 40
1.0
 40
1.0
 40
1.0
 40
1.0
 10
9.814954576228041
 20
380.0000000000546
 30
0.0
 10
9.414111801387598
 20
380.6942800519251
 30
0.0
 10
9.010131268743649
 20
381.3939948597331
 30
0.0
 10
8.193089275193444
 20
382.8091531044794
 30
0.0
 10
7.779959623314319
 20
383.5247146516475
 30
0.0
 10
7.361215932172152
 20
384.2500000000546
 30
0.0
  0
SPLINE
  5
B6
330
1F
100
AcDbEntity
  8
0
  6
Continuous
 62
     7
370
    15
100
AcDbSpline
210
0.0
220
0.0
230
1.0
 70
    24
 71
     3
 72
    10
 73
     6
 74
     0
 42
0.000000001
 43
0.00000001
 40
0.0
 40
0.0
 40
0.0
 40
0.0
 40
0.5
 40
0.5
 40
1.0
 40
1.0
 40
1.0
 40
1.0
 10
7.361215932172155
 20
375.7500000000546
 30
0.0
 10
7.779959623314323
 20
376.4752853484617
 30
0.0
 10
8.19308927519345
 20
377.1908468956297
 30
0.0
 10
9.01013126874365
 20
378.6060051403759
 30
0.0
 10
9.414111801387602
 20
379.305719948184
 30
0.0
 10
9.814954576228041
 20
380.0000000000546
 30
0.0
  0
SPLINE
  5
B7
330
1F
100
AcDbEntity
  8
0
  6
Continuous
 62
     7
370
    15
100
AcDbSpline
210
0.0
220
0.0
230
1.0
 70
    24
 71
     3
 72
    10
 73
     6
 74
     0
 42
0.000000001
 43
0.00000001
 40
0.0
 40
0.0
 40
0.0
 40
0.0
 40
0.5
 40
0.5
 40
1.0
 40
1.0
 40
1.0
 40
1.0
 10
7.361215932172153
 20
384.2500000000546
 30
0.0
 10
6.942472241029981
 20
384.9752853484617
 30
0.0
 10
6.529342589150825
 20
385.6908468956298
 30
0.0
 10
5.712300595600613
 20
387.106005140376
 30
0.0
 10
5.30832006295669
 20
387.8057199481841
 30
0.0
 10
4.90747728811624
 20
388.5000000000546
 30
0.0
  0
SPLINE
  5
B8
330
1F
100
AcDbEntity
  8
0
  6
Continuous
 62
     7
370
    15
100
AcDbSpline
210
0.0
220
0.0
230
1.0
 70
    24
 71
     3
 72
    10
 73
     6
 74
     0
 42
0.000000001
 43
0.00000001
 40
0.0
 40
0.0
 40
0.0
 40
0.0
 40
0.5000000000000001
 40
0.5000000000000001
 40
1.0
 40
1.0
 40
1.0
 40
1.0
 10
4.907477288116239
 20
388.5000000000546
 30
0.0
 10
4.105791738435348
 20
388.5000000000546
 30
0.0
 10
3.29783067314744
 20
388.5000000000547
 30
0.0
 10
1.663746686047027
 20
388.5000000000545
 30
0.0
 10
0.8374873822887771
 20
388.5000000000546
 30
0.0
 10
0.0000000000044391
 20
388.5000000000546
 30
0.0
  0
SPLINE
  5
B9
330
1F
100
AcDbEntity
  8
0
  6
Continuous
 62
     7
370
    15
100
AcDbSpline
210
0.0
220
0.0
230
1.0
 70
    24
 71
     3
 72
    10
 73
     6
 74
     0
 42
0.000000001
 43
0.00000001
 40
0.0
 40
0.0
 40
0.0
 40
0.0
 40
0.5
 40
0.5
 40
1.0
 40
1.0
 40
1.0
 40
1.0
 10
-4.90747728810736
 20
388.5000000000546
 30
0.0
 10
-5.308320062947809
 20
387.805719948184
 30
0.0
 10
-5.712300595591778
 20
387.106005140376
 30
0.0
 10
-6.52934258914199
 20
385.6908468956296
 30
0.0
 10
-6.942472241021104
 20
384.9752853484617
 30
0.0
 10
-7.361215932163276
 20
384.2500000000546
 30
0.0
  0
SPLINE
  5
BA
330
1F
100
AcDbEntity
  8
0
  6
Continuous
 62
     7
370
    15
100
AcDbSpline
210
0.0
220
0.0
230
1.0
 70
    24
 71
     3
 72
    10
 73
     6
 74
     0
 42
0.000000001
 43
0.00000001
 40
0.0
 40
0.0
 40
0.0
 40
0.0
 40
0.5
 40
0.5
 40
1.0
 40
1.0
 40
1.0
 40
1.0
 10
0.0000000000044392
 20
388.5000000000546
 30
0.0
 10
-0.8374873822798986
 20
388.5000000000545
 30
0.0
 10
-1.663746686038148
 20
388.5000000000546
 30
0.0
 10
-3.29783067313856
 20
388.5000000000545
 30
0.0
 10
-4.105791738426471
 20
388.5000000000546
 30
0.0
 10
-4.907477288107361
 20
388.5000000000546
 30
0.0
  0
SPLINE
  5
BB
330
1F
100
AcDbEntity
  8
0
  6
Continuous
 62
     7
370
    15
100
AcDbSpline
210
0.0
220
0.0
230
1.0
 70
    24
 71
     3
 72
    10
 73
     6
 74
     0
 42
0.000000001
 43
0.00000001
 40
0.0
 40
0.0
 40
0.0
 40
0.0
 40
0.5
 40
0.5
 40
1.0
 40
1.0
 40
1.0
 40
1.0
 10
-9.81495457621916
 20
380.0000000000546
 30
0.0
 10
-9.414111801378716
 20
379.305719948184
 30
0.0
 10
-9.010131268734767
 20
378.6060051403761
 30
0.0
 10
-8.193089275184562
 20
377.1908468956297
 30
0.0
 10
-7.779959623305443
 20
376.4752853484617
 30
0.0
 10
-7.361215932163275
 20
375.7500000000546
 30
0.0
  0
SPLINE
  5
BC
330
1F
100
AcDbEntity
  8
0
  6
Continuous
 62
     7
370
    15
100
AcDbSpline
210
0.0
220
0.0
230
1.0
 70
    24
 71
     3
 72
    10
 73
     6
 74
     0
 42
0.000000001
 43
0.00000001
 40
0.0
 40
0.0
 40
0.0
 40
0.0
 40
0.5
 40
0.5
 40
1.0
 40
1.0
 40
1.0
 40
1.0
 10
-7.361215932163276
 20
384.2500000000546
 30
0.0
 10
-7.779959623305443
 20
383.5247146516473
 30
0.0
 10
-8.193089275184569
 20
382.8091531044795
 30
0.0
 10
-9.010131268734767
 20
381.3939948597331
 30
0.0
 10
-9.41411180137872
 20
380.6942800519251
 30
0.0
 10
-9.81495457621916
 20
380.0000000000546
 30
0.0
  0
CIRCLE
  5
BD
330
1F
100
AcDbEntity
  8
0
  6
Continuous
 62
     7
370
    15
100
AcDbCircle
 10
-410.0
 20
380.0000000001
 30
0.0
 40
5.399999999999977
  0
CIRCLE
  5
BE
330
1F
100
AcDbEntity
  8
0
  6
Continuous
 62
     7
370
    15
100
AcDbCircle
 10
-410.0
 20
380.0000000001
 30
0.0
 40
8.499999999999886
  0
SPLINE
  5
BF
330
1F
100
AcDbEntity
  8
0
  6
Continuous
 62
     7
370
    15
100
AcDbSpline
210
0.0
220
0.0
230
1.0
 70
    24
 71
     3
 72
    10
 73
     6
 74
     0
 42
0.000000001
 43
0.00000001
 40
0.0
 40
0.0
 40
0.0
 40
0.0
 40
0.5
 40
0.5
 40
1.0
 40
1.0
 40
1.0
 40
1.0
 10
-409.9999999999953
 20
371.5000000000546
 30
0.0
 10
-409.1625126177109
 20
371.5000000000547
 30
0.0
 10
-408.3362533139527
 20
371.5000000000546
 30
0.0
 10
-406.7021693268522
 20
371.5000000000545
 30
0.0
 10
-405.8942082615643
 20
371.5000000000546
 30
0.0
 10
-405.0925227118835
 20
371.5000000000546
 30
0.0
  0
SPLINE
  5
C0
330
1F
100
AcDbEntity
  8
0
  6
Continuous
 62
     7
370
    15
100
AcDbSpline
210
0.0
220
0.0
230
1.0
 70
    24
 71
     3
 72
    10
 73
     6
 74
     0
 42
0.000000001
 43
0.00000001
 40
0.0
 40
0.0
 40
0.0
 40
0.0
 40
0.5
 40
0.5
 40
1.0
 40
1.0
 40
1.0
 40
1.0
 10
-405.0925227118835
 20
371.5000000000546
 30
0.0
 10
-404.691679937043
 20
372.1942800519251
 30
0.0
 10
-404.2876994043991
 20
372.8939948597333
 30
0.0
 10
-403.4706574108487
 20
374.3091531044795
 30
0.0
 10
-403.0575277589698
 20
375.0247146516475
 30
0.0
 10
-402.6387840678275
 20
375.7500000000546
 30
0.0
  0
SPLINE
  5
C1
330
1F
100
AcDbEntity
  8
0
  6
Continuous
 62
     7
370
    15
100
AcDbSpline
210
0.0
220
0.0
230
1.0
 70
    24
 71
     3
 72
    10
 73
     6
 74
     0
 42
0.000000001
 43
0.00000001
 40
0.0
 40
0.0
 40
0.0
 40
0.0
 40
0.5
 40
0.5
 40
1.0
 40
1.0
 40
1.0
 40
1.0
 10
-402.6387840678275
 20
384.2500000000546
 30
0.0
 10
-403.0575277589696
 20
384.9752853484617
 30
0.0
 10
-403.4706574108488
 20
385.6908468956296
 30
0.0
 10
-404.2876994043991
 20
387.106005140376
 30
0.0
 10
-404.691679937043
 20
387.8057199481841
 30
0.0
 10
-405.0925227118835
 20
388.5000000000546
 30
0.0
  0
SPLINE
  5
C2
330
1F
100
AcDbEntity
  8
0
  6
Continuous
 62
     7
370
    15
100
AcDbSpline
210
0.0
220
0.0
230
1.0
 70
    24
 71
     3
 72
    10
 73
     6
 74
     0
 42
0.000000001
 43
0.00000001
 40
0.0
 40
0.0
 40
0.0
 40
0.0
 40
0.5
 40
0.5
 40
1.0
 40
1.0
 40
1.0
 40
1.0
 10
-405.0925227118835
 20
388.5000000000546
 30
0.0
 10
-405.8942082615643
 20
388.5000000000545
 30
0.0
 10
-406.7021693268524
 20
388.5000000000546
 30
0.0
 10
-408.3362533139527
 20
388.5000000000545
 30
0.0
 10
-409.1625126177109
 20
388.5000000000546
 30
0.0
 10
-409.9999999999953
 20
388.5000000000546
 30
0.0
  0
SPLINE
  5
C3
330
1F
100
AcDbEntity
  8
0
  6
Continuous
 62
     7
370
    15
100
AcDbSpline
210
0.0
220
0.0
230
1.0
 70
    24
 71
     3
 72
    10
 73
     6
 74
     0
 42
0.000000001
 43
0.00000001
 40
0.0
 40
0.0
 40
0.0
 40
0.0
 40
0.5
 40
0.5
 40
1.0
 40
1.0
 40
1.0
 40
1.0
 10
-414.9074772881071
 20
388.5000000000546
 30
0.0
 10
-415.3083200629474
 20
387.805719948184
 30
0.0
 10
-415.7123005955914
 20
387.106005140376
 30
0.0
 10
-416.5293425891417
 20
385.6908468956296
 30
0.0
 10
-416.9424722410207
 20
384.9752853484617
 30
0.0
 10
-417.361215932163
 20
384.2500000000546
 30
0.0
  0
SPLINE
  5
C4
330
1F
100
AcDbEntity
  8
0
  6
Continuous
 62
     7
370
    15
100
AcDbSpline
210
0.0
220
0.0
230
1.0
 70
    24
 71
     3
 72
    10
 73
     6
 74
     0
 42
0.000000001
 43
0.00000001
 40
0.0
 40
0.0
 40
0.0
 40
0.0
 40
0.5
 40
0.5
 40
1.0
 40
1.0
 40
1.0
 40
1.0
 10
-409.9999999999953
 20
388.5000000000546
 30
0.0
 10
-410.8374873822797
 20
388.5000000000545
 30
0.0
 10
-411.6637466860379
 20
388.5000000000546
 30
0.0
 10
-413.2978306731382
 20
388.5000000000545
 30
0.0
 10
-414.1057917384263
 20
388.5000000000546
 30
0.0
 10
-414.9074772881071
 20
388.5000000000546
 30
0.0
  0
SPLINE
  5
C5
330
1F
100
AcDbEntity
  8
0
  6
Continuous
 62
     7
370
    15
100
AcDbSpline
210
0.0
220
0.0
230
1.0
 70
    24
 71
     3
 72
    10
 73
     6
 74
     0
 42
0.000000001
 43
0.00000001
 40
0.0
 40
0.0
 40
0.0
 40
0.0
 40
0.5
 40
0.5
 40
1.0
 40
1.0
 40
1.0
 40
1.0
 10
-400.1850454237717
 20
380.0000000000546
 30
0.0
 10
-400.585888198612
 20
380.6942800519251
 30
0.0
 10
-400.9898687312561
 20
381.3939948597333
 30
0.0
 10
-401.8069107248062
 20
382.8091531044795
 30
0.0
 10
-402.2200403766853
 20
383.5247146516475
 30
0.0
 10
-402.6387840678275
 20
384.2500000000546
 30
0.0
  0
SPLINE
  5
C6
330
1F
100
AcDbEntity
  8
0
  6
Continuous
 62
     7
370
    15
100
AcDbSpline
210
0.0
220
0.0
230
1.0
 70
    24
 71
     3
 72
    10
 73
     6
 74
     0
 42
0.000000001
 43
0.00000001
 40
0.0
 40
0.0
 40
0.0
 40
0.0
 40
0.5
 40
0.5
 40
1.0
 40
1.0
 40
1.0
 40
1.0
 10
-402.6387840678275
 20
375.7500000000546
 30
0.0
 10
-402.2200403766853
 20
376.4752853484617
 30
0.0
 10
-401.8069107248062
 20
377.1908468956296
 30
0.0
 10
-400.989868731256
 20
378.6060051403759
 30
0.0
 10
-400.5858881986121
 20
379.305719948184
 30
0.0
 10
-400.1850454237717
 20
380.0000000000546
 30
0.0
  0
SPLINE
  5
C7
330
1F
100
AcDbEntity
  8
0
  6
Continuous
 62
     7
370
    15
100
AcDbSpline
210
0.0
220
0.0
230
1.0
 70
    24
 71
     3
 72
    10
 73
     6
 74
     0
 42
0.000000001
 43
0.00000001
 40
0.0
 40
0.0
 40
0.0
 40
0.0
 40
0.5
 40
0.5
 40
1.0
 40
1.0
 40
1.0
 40
1.0
 10
-417.361215932163
 20
375.7500000000546
 30
0.0
 10
-416.9424722410208
 20
375.0247146516474
 30
0.0
 10
-416.5293425891418
 20
374.3091531044796
 30
0.0
 10
-415.7123005955914
 20
372.8939948597331
 30
0.0
 10
-415.3083200629475
 20
372.1942800519251
 30
0.0
 10
-414.9074772881071
 20
371.5000000000546
 30
0.0
  0
SPLINE
  5
C8
330
1F
100
AcDbEntity
  8
0
  6
Continuous
 62
     7
370
    15
100
AcDbSpline
210
0.0
220
0.0
230
1.0
 70
    24
 71
     3
 72
    10
 73
     6
 74
     0
 42
0.000000001
 43
0.00000001
 40
0.0
 40
0.0
 40
0.0
 40
0.0
 40
0.5
 40
0.5
 40
1.0
 40
1.0
 40
1.0
 40
1.0
 10
-414.9074772881071
 20
371.5000000000546
 30
0.0
 10
-414.1057917384261
 20
371.5000000000547
 30
0.0
 10
-413.2978306731383
 20
371.5000000000546
 30
0.0
 10
-411.6637466860378
 20
371.5000000000545
 30
0.0
 10
-410.8374873822797
 20
371.5000000000546
 30
0.0
 10
-409.9999999999953
 20
371.5000000000546
 30
0.0
  0
SPLINE
  5
C9
330
1F
100
AcDbEntity
  8
0
  6
Continuous
 62
     7
370
    15
100
AcDbSpline
210
0.0
220
0.0
230
1.0
 70
    24
 71
     3
 72
    10
 73
     6
 74
     0
 42
0.000000001
 43
0.00000001
 40
0.0
 40
0.0
 40
0.0
 40
0.0
 40
0.5
 40
0.5
 40
1.0
 40
1.0
 40
1.0
 40
1.0
 10
-417.361215932163
 20
384.2500000000546
 30
0.0
 10
-417.7799596233052
 20
383.5247146516475
 30
0.0
 10
-418.1930892751844
 20
382.8091531044796
 30
0.0
 10
-419.0101312687345
 20
381.3939948597332
 30
0.0
 10
-419.4141118013785
 20
380.6942800519251
 30
0.0
 10
-419.8149545762189
 20
380.0000000000546
 30
0.0
  0
SPLINE
  5
CA
330
1F
100
AcDbEntity
  8
0
  6
Continuous
 62
     7
370
    15
100
AcDbSpline
210
0.0
220
0.0
230
1.0
 70
    24
 71
     3
 72
    10
 73
     6
 74
     0
 42
0.000000001
 43
0.00000001
 40
0.0
 40
0.0
 40
0.0
 40
0.0
 40
0.5
 40
0.5
 40
1.0
 40
1.0
 40
1.0
 40
1.0
 10
-419.8149545762189
 20
380.0000000000546
 30
0.0
 10
-419.4141118013784
 20
379.3057199481839
 30
0.0
 10
-419.0101312687345
 20
378.6060051403759
 30
0.0
 10
-418.1930892751843
 20
377.1908468956296
 30
0.0
 10
-417.7799596233052
 20
376.4752853484617
 30
0.0
 10
-417.361215932163
 20
375.7500000000546
 30
0.0
  0
CIRCLE
  5
CB
330
1F
100
AcDbEntity
  8
0
  6
Continuous
 62
     7
370
    15
100
AcDbCircle
 10
-820.0
 20
380.0000000001
 30
0.0
 40
5.399999999999977
  0
CIRCLE
  5
CC
330
1F
100
AcDbEntity
  8
0
  6
Continuous
 62
     7
370
    15
100
AcDbCircle
 10
-820.0
 20
380.0000000001
 30
0.0
 40
8.5
  0
SPLINE
  5
CD
330
1F
100
AcDbEntity
  8
0
  6
Continuous
 62
     7
370
    15
100
AcDbSpline
210
0.0
220
0.0
230
1.0
 70
    24
 71
     3
 72
    10
 73
     6
 74
     0
 42
0.000000001
 43
0.00000001
 40
0.0
 40
0.0
 40
0.0
 40
0.0
 40
0.5
 40
0.5
 40
1.0
 40
1.0
 40
1.0
 40
1.0
 10
-819.9999999999955
 20
371.5000000000545
 30
0.0
 10
-819.1625126177111
 20
371.5000000000545
 30
0.0
 10
-818.3362533139527
 20
371.5000000000545
 30
0.0
 10
-816.7021693268521
 20
371.5000000000545
 30
0.0
 10
-815.8942082615647
 20
371.5000000000545
 30
0.0
 10
-815.0925227118836
 20
371.5000000000545
 30
0.0
  0
SPLINE
  5
CE
330
1F
100
AcDbEntity
  8
0
  6
Continuous
 62
     7
370
    15
100
AcDbSpline
210
0.0
220
0.0
230
1.0
 70
    24
 71
     3
 72
    10
 73
     6
 74
     0
 42
0.000000001
 43
0.00000001
 40
0.0
 40
0.0
 40
0.0
 40
0.0
 40
0.5
 40
0.5
 40
1.0
 40
1.0
 40
1.0
 40
1.0
 10
-815.0925227118836
 20
371.5000000000545
 30
0.0
 10
-814.6916799370432
 20
372.194280051925
 30
0.0
 10
-814.2876994043993
 20
372.8939948597331
 30
0.0
 10
-813.470657410849
 20
374.3091531044794
 30
0.0
 10
-813.0575277589699
 20
375.0247146516475
 30
0.0
 10
-812.6387840678276
 20
375.7500000000545
 30
0.0
  0
SPLINE
  5
CF
330
1F
100
AcDbEntity
  8
0
  6
Continuous
 62
     7
370
    15
100
AcDbSpline
210
0.0
220
0.0
230
1.0
 70
    24
 71
     3
 72
    10
 73
     6
 74
     0
 42
0.000000001
 43
0.00000001
 40
0.0
 40
0.0
 40
0.0
 40
0.0
 40
0.5
 40
0.5
 40
1.0
 40
1.0
 40
1.0
 40
1.0
 10
-810.1850454237718
 20
380.0000000000545
 30
0.0
 10
-810.5858881986122
 20
380.6942800519249
 30
0.0
 10
-810.9898687312564
 20
381.3939948597331
 30
0.0
 10
-811.8069107248064
 20
382.8091531044793
 30
0.0
 10
-812.2200403766856
 20
383.5247146516473
 30
0.0
 10
-812.6387840678276
 20
384.2500000000545
 30
0.0
  0
SPLINE
  5
D0
330
1F
100
AcDbEntity
  8
0
  6
Continuous
 62
     7
370
    15
100
AcDbSpline
210
0.0
220
0.0
230
1.0
 70
    24
 71
     3
 72
    10
 73
     6
 74
     0
 42
0.000000001
 43
0.00000001
 40
0.0
 40
0.0
 40
0.0
 40
0.0
 40
0.5
 40
0.5
 40
1.0
 40
1.0
 40
1.0
 40
1.0
 10
-812.6387840678276
 20
375.7500000000545
 30
0.0
 10
-812.2200403766853
 20
376.4752853484616
 30
0.0
 10
-811.8069107248065
 20
377.1908468956296
 30
0.0
 10
-810.9898687312561
 20
378.6060051403758
 30
0.0
 10
-810.5858881986123
 20
379.3057199481839
 30
0.0
 10
-810.1850454237718
 20
380.0000000000545
 30
0.0
  0
SPLINE
  5
D1
330
1F
100
AcDbEntity
  8
0
  6
Continuous
 62
     7
370
    15
100
AcDbSpline
210
0.0
220
0.0
230
1.0
 70
    24
 71
     3
 72
    10
 73
     6
 74
     0
 42
0.000000001
 43
0.00000001
 40
0.0
 40
0.0
 40
0.0
 40
0.0
 40
0.5
 40
0.5
 40
1.0
 40
1.0
 40
1.0
 40
1.0
 10
-829.8149545762191
 20
380.0000000000545
 30
0.0
 10
-829.4141118013785
 20
379.3057199481839
 30
0.0
 10
-829.0101312687345
 20
378.6060051403759
 30
0.0
 10
-828.1930892751843
 20
377.1908468956296
 30
0.0
 10
-827.7799596233054
 20
376.4752853484617
 30
0.0
 10
-827.3612159321632
 20
375.7500000000545
 30
0.0
  0
SPLINE
  5
D2
330
1F
100
AcDbEntity
  8
0
  6
Continuous
 62
     7
370
    15
100
AcDbSpline
210
0.0
220
0.0
230
1.0
 70
    24
 71
     3
 72
    10
 73
     6
 74
     0
 42
0.000000001
 43
0.00000001
 40
0.0
 40
0.0
 40
0.0
 40
0.0
 40
0.5
 40
0.5
 40
1.0
 40
1.0
 40
1.0
 40
1.0
 10
-827.3612159321632
 20
384.2500000000545
 30
0.0
 10
-827.7799596233053
 20
383.5247146516472
 30
0.0
 10
-828.1930892751845
 20
382.8091531044794
 30
0.0
 10
-829.0101312687344
 20
381.3939948597331
 30
0.0
 10
-829.4141118013787
 20
380.694280051925
 30
0.0
 10
-829.8149545762191
 20
380.0000000000545
 30
0.0
  0
SPLINE
  5
D3
330
1F
100
AcDbEntity
  8
0
  6
Continuous
 62
     7
370
    15
100
AcDbSpline
210
0.0
220
0.0
230
1.0
 70
    24
 71
     3
 72
    10
 73
     6
 74
     0
 42
0.000000001
 43
0.00000001
 40
0.0
 40
0.0
 40
0.0
 40
0.0
 40
0.5
 40
0.5
 40
1.0
 40
1.0
 40
1.0
 40
1.0
 10
-815.0925227118836
 20
388.5000000000545
 30
0.0
 10
-815.8942082615646
 20
388.5000000000545
 30
0.0
 10
-816.7021693268523
 20
388.5000000000545
 30
0.0
 10
-818.3362533139527
 20
388.5000000000545
 30
0.0
 10
-819.1625126177111
 20
388.5000000000545
 30
0.0
 10
-819.9999999999955
 20
388.5000000000545
 30
0.0
  0
SPLINE
  5
D4
330
1F
100
AcDbEntity
  8
0
  6
Continuous
 62
     7
370
    15
100
AcDbSpline
210
0.0
220
0.0
230
1.0
 70
    24
 71
     3
 72
    10
 73
     6
 74
     0
 42
0.000000001
 43
0.00000001
 40
0.0
 40
0.0
 40
0.0
 40
0.0
 40
0.5
 40
0.5
 40
1.0
 40
1.0
 40
1.0
 40
1.0
 10
-812.6387840678276
 20
384.2500000000545
 30
0.0
 10
-813.0575277589697
 20
384.9752853484615
 30
0.0
 10
-813.4706574108487
 20
385.6908468956294
 30
0.0
 10
-814.2876994043991
 20
387.1060051403757
 30
0.0
 10
-814.6916799370432
 20
387.8057199481839
 30
0.0
 10
-815.0925227118836
 20
388.5000000000545
 30
0.0
  0
SPLINE
  5
D5
330
1F
100
AcDbEntity
  8
0
  6
Continuous
 62
     7
370
    15
100
AcDbSpline
210
0.0
220
0.0
230
1.0
 70
    24
 71
     3
 72
    10
 73
     6
 74
     0
 42
0.000000001
 43
0.00000001
 40
0.0
 40
0.0
 40
0.0
 40
0.0
 40
0.5
 40
0.5
 40
1.0
 40
1.0
 40
1.0
 40
1.0
 10
-827.3612159321632
 20
375.7500000000545
 30
0.0
 10
-826.9424722410209
 20
375.0247146516473
 30
0.0
 10
-826.5293425891422
 20
374.3091531044795
 30
0.0
 10
-825.7123005955916
 20
372.893994859733
 30
0.0
 10
-825.3083200629476
 20
372.194280051925
 30
0.0
 10
-824.9074772881072
 20
371.5000000000545
 30
0.0
  0
SPLINE
  5
D6
330
1F
100
AcDbEntity
  8
0
  6
Continuous
 62
     7
370
    15
100
AcDbSpline
210
0.0
220
0.0
230
1.0
 70
    24
 71
     3
 72
    10
 73
     6
 74
     0
 42
0.000000001
 43
0.00000001
 40
0.0
 40
0.0
 40
0.0
 40
0.0
 40
0.5
 40
0.5
 40
1.0
 40
1.0
 40
1.0
 40
1.0
 10
-824.9074772881072
 20
371.5000000000545
 30
0.0
 10
-824.1057917384261
 20
371.5000000000545
 30
0.0
 10
-823.2978306731387
 20
371.5000000000545
 30
0.0
 10
-821.6637466860379
 20
371.5000000000545
 30
0.0
 10
-820.8374873822797
 20
371.5000000000545
 30
0.0
 10
-819.9999999999955
 20
371.5000000000545
 30
0.0
  0
SPLINE
  5
D7
330
1F
100
AcDbEntity
  8
0
  6
Continuous
 62
     7
370
    15
100
AcDbSpline
210
0.0
220
0.0
230
1.0
 70
    24
 71
     3
 72
    10
 73
     6
 74
     0
 42
0.000000001
 43
0.00000001
 40
0.0
 40
0.0
 40
0.0
 40
0.0
 40
0.5
 40
0.5
 40
1.0
 40
1.0
 40
1.0
 40
1.0
 10
-824.9074772881072
 20
388.5000000000545
 30
0.0
 10
-825.3083200629476
 20
387.8057199481838
 30
0.0
 10
-825.7123005955916
 20
387.1060051403758
 30
0.0
 10
-826.5293425891418
 20
385.6908468956295
 30
0.0
 10
-826.9424722410212
 20
384.9752853484616
 30
0.0
 10
-827.3612159321632
 20
384.2500000000545
 30
0.0
  0
SPLINE
  5
D8
330
1F
100
AcDbEntity
  8
0
  6
Continuous
 62
     7
370
    15
100
AcDbSpline
210
0.0
220
0.0
230
1.0
 70
    24
 71
     3
 72
    10
 73
     6
 74
     0
 42
0.000000001
 43
0.00000001
 40
0.0
 40
0.0
 40
0.0
 40
0.0
 40
0.5
 40
0.5
 40
1.0
 40
1.0
 40
1.0
 40
1.0
 10
-819.9999999999955
 20
388.5000000000545
 30
0.0
 10
-820.8374873822797
 20
388.5000000000545
 30
0.0
 10
-821.6637466860382
 20
388.5000000000545
 30
0.0
 10
-823.2978306731386
 20
388.5000000000545
 30
0.0
 10
-824.1057917384263
 20
388.5000000000545
 30
0.0
 10
-824.9074772881072
 20
388.5000000000545
 30
0.0
  0
CIRCLE
  5
D9
330
1F
100
AcDbEntity
  8
0
  6
Continuous
 62
     7
370
    15
100
AcDbCircle
 10
-1230.0
 20
380.0000000001
 30
0.0
 40
5.400000000000091
  0
CIRCLE
  5
DA
330
1F
100
AcDbEntity
  8
0
  6
Continuous
 62
     7
370
    15
100
AcDbCircle
 10
-1230.0
 20
380.0000000001
 30
0.0
 40
8.499999999999773
  0
SPLINE
  5
DB
330
1F
100
AcDbEntity
  8
0
  6
Continuous
 62
     7
370
    15
100
AcDbSpline
210
0.0
220
0.0
230
1.0
 70
    24
 71
     3
 72
    10
 73
     6
 74
     0
 42
0.000000001
 43
0.00000001
 40
0.0
 40
0.0
 40
0.0
 40
0.0
 40
0.5
 40
0.5
 40
1.0
 40
1.0
 40
1.0
 40
1.0
 10
-1222.638784067828
 20
375.7500000000544
 30
0.0
 10
-1222.220040376685
 20
376.4752853484615
 30
0.0
 10
-1221.806910724806
 20
377.1908468956295
 30
0.0
 10
-1220.989868731256
 20
378.6060051403758
 30
0.0
 10
-1220.585888198613
 20
379.3057199481839
 30
0.0
 10
-1220.185045423772
 20
380.0000000000543
 30
0.0
  0
SPLINE
  5
DC
330
1F
100
AcDbEntity
  8
0
  6
Continuous
 62
     7
370
    15
100
AcDbSpline
210
0.0
220
0.0
230
1.0
 70
    24
 71
     3
 72
    10
 73
     6
 74
     0
 42
0.000000001
 43
0.00000001
 40
0.0
 40
0.0
 40
0.0
 40
0.0
 40
0.5
 40
0.5
 40
1.0
 40
1.0
 40
1.0
 40
1.0
 10
-1220.185045423772
 20
380.0000000000543
 30
0.0
 10
-1220.585888198612
 20
380.6942800519249
 30
0.0
 10
-1220.989868731256
 20
381.393994859733
 30
0.0
 10
-1221.806910724806
 20
382.8091531044793
 30
0.0
 10
-1222.220040376685
 20
383.5247146516472
 30
0.0
 10
-1222.638784067828
 20
384.2500000000543
 30
0.0
  0
SPLINE
  5
DD
330
1F
100
AcDbEntity
  8
0
  6
Continuous
 62
     7
370
    15
100
AcDbSpline
210
0.0
220
0.0
230
1.0
 70
    24
 71
     3
 72
    10
 73
     6
 74
     0
 42
0.000000001
 43
0.00000001
 40
0.0
 40
0.0
 40
0.0
 40
0.0
 40
0.5
 40
0.5
 40
1.0
 40
1.0
 40
1.0
 40
1.0
 10
-1229.999999999995
 20
388.5000000000543
 30
0.0
 10
-1230.83748738228
 20
388.5000000000542
 30
0.0
 10
-1231.663746686038
 20
388.5000000000544
 30
0.0
 10
-1233.297830673139
 20
388.5000000000542
 30
0.0
 10
-1234.105791738426
 20
388.5000000000543
 30
0.0
 10
-1234.907477288107
 20
388.5000000000543
 30
0.0
  0
SPLINE
  5
DE
330
1F
100
AcDbEntity
  8
0
  6
Continuous
 62
     7
370
    15
100
AcDbSpline
210
0.0
220
0.0
230
1.0
 70
    24
 71
     3
 72
    10
 73
     6
 74
     0
 42
0.000000001
 43
0.00000001
 40
0.0
 40
0.0
 40
0.0
 40
0.0
 40
0.5
 40
0.5
 40
1.0
 40
1.0
 40
1.0
 40
1.0
 10
-1234.907477288107
 20
388.5000000000543
 30
0.0
 10
-1235.308320062948
 20
387.8057199481838
 30
0.0
 10
-1235.712300595592
 20
387.1060051403757
 30
0.0
 10
-1236.529342589141
 20
385.6908468956293
 30
0.0
 10
-1236.942472241021
 20
384.9752853484615
 30
0.0
 10
-1237.361215932163
 20
384.2500000000543
 30
0.0
  0
SPLINE
  5
DF
330
1F
100
AcDbEntity
  8
0
  6
Continuous
 62
     7
370
    15
100
AcDbSpline
210
0.0
220
0.0
230
1.0
 70
    24
 71
     3
 72
    10
 73
     6
 74
     0
 42
0.000000001
 43
0.00000001
 40
0.0
 40
0.0
 40
0.0
 40
0.0
 40
0.5
 40
0.5
 40
1.0
 40
1.0
 40
1.0
 40
1.0
 10
-1229.999999999995
 20
371.5000000000543
 30
0.0
 10
-1229.162512617711
 20
371.5000000000543
 30
0.0
 10
-1228.336253313953
 20
371.5000000000543
 30
0.0
 10
-1226.702169326853
 20
371.5000000000543
 30
0.0
 10
-1225.894208261565
 20
371.5000000000543
 30
0.0
 10
-1225.092522711884
 20
371.5000000000543
 30
0.0
  0
SPLINE
  5
E0
330
1F
100
AcDbEntity
  8
0
  6
Continuous
 62
     7
370
    15
100
AcDbSpline
210
0.0
220
0.0
230
1.0
 70
    24
 71
     3
 72
    10
 73
     6
 74
     0
 42
0.000000001
 43
0.00000001
 40
0.0
 40
0.0
 40
0.0
 40
0.0
 40
0.5
 40
0.5
 40
1.0
 40
1.0
 40
1.0
 40
1.0
 10
-1225.092522711884
 20
371.5000000000543
 30
0.0
 10
-1224.691679937044
 20
372.1942800519249
 30
0.0
 10
-1224.2876994044
 20
372.893994859733
 30
0.0
 10
-1223.470657410849
 20
374.3091531044793
 30
0.0
 10
-1223.05752775897
 20
375.0247146516473
 30
0.0
 10
-1222.638784067828
 20
375.7500000000544
 30
0.0
  0
SPLINE
  5
E1
330
1F
100
AcDbEntity
  8
0
  6
Continuous
 62
     7
370
    15
100
AcDbSpline
210
0.0
220
0.0
230
1.0
 70
    24
 71
     3
 72
    10
 73
     6
 74
     0
 42
0.000000001
 43
0.00000001
 40
0.0
 40
0.0
 40
0.0
 40
0.0
 40
0.5
 40
0.5
 40
1.0
 40
1.0
 40
1.0
 40
1.0
 10
-1234.907477288107
 20
371.5000000000543
 30
0.0
 10
-1234.105791738426
 20
371.5000000000543
 30
0.0
 10
-1233.297830673139
 20
371.5000000000543
 30
0.0
 10
-1231.663746686038
 20
371.5000000000543
 30
0.0
 10
-1230.83748738228
 20
371.5000000000543
 30
0.0
 10
-1229.999999999995
 20
371.5000000000543
 30
0.0
  0
SPLINE
  5
E2
330
1F
100
AcDbEntity
  8
0
  6
Continuous
 62
     7
370
    15
100
AcDbSpline
210
0.0
220
0.0
230
1.0
 70
    24
 71
     3
 72
    10
 73
     6
 74
     0
 42
0.000000001
 43
0.00000001
 40
0.0
 40
0.0
 40
0.0
 40
0.0
 40
0.5
 40
0.5
 40
1.0
 40
1.0
 40
1.0
 40
1.0
 10
-1237.361215932163
 20
375.7500000000544
 30
0.0
 10
-1236.942472241021
 20
375.0247146516473
 30
0.0
 10
-1236.529342589142
 20
374.3091531044792
 30
0.0
 10
-1235.712300595592
 20
372.8939948597329
 30
0.0
 10
-1235.308320062948
 20
372.1942800519249
 30
0.0
 10
-1234.907477288107
 20
371.5000000000543
 30
0.0
  0
SPLINE
  5
E3
330
1F
100
AcDbEntity
  8
0
  6
Continuous
 62
     7
370
    15
100
AcDbSpline
210
0.0
220
0.0
230
1.0
 70
    24
 71
     3
 72
    10
 73
     6
 74
     0
 42
0.000000001
 43
0.00000001
 40
0.0
 40
0.0
 40
0.0
 40
0.0
 40
0.5
 40
0.5
 40
1.0
 40
1.0
 40
1.0
 40
1.0
 10
-1239.814954576219
 20
380.0000000000543
 30
0.0
 10
-1239.414111801379
 20
379.3057199481838
 30
0.0
 10
-1239.010131268735
 20
378.6060051403759
 30
0.0
 10
-1238.193089275185
 20
377.1908468956293
 30
0.0
 10
-1237.779959623306
 20
376.4752853484615
 30
0.0
 10
-1237.361215932163
 20
375.7500000000544
 30
0.0
  0
SPLINE
  5
E4
330
1F
100
AcDbEntity
  8
0
  6
Continuous
 62
     7
370
    15
100
AcDbSpline
210
0.0
220
0.0
230
1.0
 70
    24
 71
     3
 72
    10
 73
     6
 74
     0
 42
0.000000001
 43
0.00000001
 40
0.0
 40
0.0
 40
0.0
 40
0.0
 40
0.5
 40
0.5
 40
1.0
 40
1.0
 40
1.0
 40
1.0
 10
-1237.361215932163
 20
384.2500000000543
 30
0.0
 10
-1237.779959623306
 20
383.5247146516471
 30
0.0
 10
-1238.193089275185
 20
382.8091531044793
 30
0.0
 10
-1239.010131268735
 20
381.3939948597329
 30
0.0
 10
-1239.414111801379
 20
380.6942800519249
 30
0.0
 10
-1239.814954576219
 20
380.0000000000543
 30
0.0
  0
SPLINE
  5
E5
330
1F
100
AcDbEntity
  8
0
  6
Continuous
 62
     7
370
    15
100
AcDbSpline
210
0.0
220
0.0
230
1.0
 70
    24
 71
     3
 72
    10
 73
     6
 74
     0
 42
0.000000001
 43
0.00000001
 40
0.0
 40
0.0
 40
0.0
 40
0.0
 40
0.5
 40
0.5
 40
1.0
 40
1.0
 40
1.0
 40
1.0
 10
-1225.092522711884
 20
388.5000000000543
 30
0.0
 10
-1225.894208261565
 20
388.5000000000542
 30
0.0
 10
-1226.702169326853
 20
388.5000000000544
 30
0.0
 10
-1228.336253313953
 20
388.5000000000542
 30
0.0
 10
-1229.162512617711
 20
388.5000000000543
 30
0.0
 10
-1229.999999999995
 20
388.5000000000543
 30
0.0
  0
SPLINE
  5
E6
330
1F
100
AcDbEntity
  8
0
  6
Continuous
 62
     7
370
    15
100
AcDbSpline
210
0.0
220
0.0
230
1.0
 70
    24
 71
     3
 72
    10
 73
     6
 74
     0
 42
0.000000001
 43
0.00000001
 40
0.0
 40
0.0
 40
0.0
 40
0.0
 40
0.5
 40
0.5
 40
1.0
 40
1.0
 40
1.0
 40
1.0
 10
-1222.638784067828
 20
384.2500000000543
 30
0.0
 10
-1223.05752775897
 20
384.9752853484615
 30
0.0
 10
-1223.470657410849
 20
385.6908468956294
 30
0.0
 10
-1224.287699404399
 20
387.1060051403758
 30
0.0
 10
-1224.691679937043
 20
387.8057199481839
 30
0.0
 10
-1225.092522711884
 20
388.5000000000543
 30
0.0
  0
CIRCLE
  5
E7
330
1F
100
AcDbEntity
  8
0
  6
Continuous
 62
     7
370
    15
100
AcDbCircle
 10
1230.0
 20
-380.0
 30
0.0
 40
9.999999999999648
  0
CIRCLE
  5
E8
330
1F
100
AcDbEntity
  8
0
  6
Continuous
 62
     7
370
    15
100
AcDbCircle
 10
820.0
 20
-380.0
 30
0.0
 40
9.999999999999755
  0
CIRCLE
  5
E9
330
1F
100
AcDbEntity
  8
0
  6
Continuous
 62
     7
370
    15
100
AcDbCircle
 10
410.0
 20
-380.0
 30
0.0
 40
9.999999999999988
  0
CIRCLE
  5
EA
330
1F
100
AcDbEntity
  8
0
  6
Continuous
 62
     7
370
    15
100
AcDbCircle
 10
0.0
 20
-380.0
 30
0.0
 40
10.00000000000004
  0
CIRCLE
  5
EB
330
1F
100
AcDbEntity
  8
0
  6
Continuous
 62
     7
370
    15
100
AcDbCircle
 10
-410.0
 20
-380.0
 30
0.0
 40
9.99999999999987
  0
CIRCLE
  5
EC
330
1F
100
AcDbEntity
  8
0
  6
Continuous
 62
     7
370
    15
100
AcDbCircle
 10
-820.0
 20
-380.0
 30
0.0
 40
9.999999999999817
  0
CIRCLE
  5
ED
330
1F
100
AcDbEntity
  8
0
  6
Continuous
 62
     7
370
    15
100
AcDbCircle
 10
-1230.0
 20
-380.0
 30
0.0
 40
9.999999999999982
  0
CIRCLE
  5
EE
330
1F
100
AcDbEntity
  8
0
  6
Continuous
 62
     7
370
    15
100
AcDbCircle
 10
1230.0
 20
380.0000000001
 30
0.0
 40
10.00000000000038
  0
CIRCLE
  5
EF
330
1F
100
AcDbEntity
  8
0
  6
Continuous
 62
     7
370
    15
100
AcDbCircle
 10
820.0
 20
380.0000000001
 30
0.0
 40
9.999999999999982
  0
CIRCLE
  5
F8
330
1F
100
AcDbEntity
  8
0
  6
Continuous
 62
     7
370
    15
100
AcDbCircle
 10
-1775.0
 20
-500.0
 30
0.0
 40
80.0
  0
SPLINE
  5
F9
330
1F
100
AcDbEntity
  8
0
  6
Continuous
 62
     7
370
    15
100
AcDbSpline
210
0.0
220
0.0
230
1.0
 70
    11
 71
     3
 72
   106
 73
   102
 74
     0
 42
0.000000001
 43
0.00000001
 40
0.0
 40
0.0
 40
0.0
 40
0.0
 40
0.0312499999999958
 40
0.0312499999999958
 40
0.046874999999992
 40
0.046874999999992
 40
0.0624999999999881
 40
0.0624999999999881
 40
0.0937499999999837
 40
0.0937499999999837
 40
0.1093749999999814
 40
0.1093749999999814
 40
0.1249999999999792
 40
0.1249999999999792
 40
0.1562499999999737
 40
0.1562499999999737
 40
0.1718749999999715
 40
0.1718749999999715
 40
0.1874999999999692
 40
0.1874999999999692
 40
0.203124999999967
 40
0.203124999999967
 40
0.2187499999999648
 40
0.2187499999999648
 40
0.2499999999999609
 40
0.2499999999999609
 40
0.265624999999959
 40
0.265624999999959
 40
0.2812499999999571
 40
0.2812499999999571
 40
0.3124999999999532
 40
0.3124999999999532
 40
0.3281249999999513
 40
0.3281249999999513
 40
0.3437499999999493
 40
0.3437499999999493
 40
0.3593749999999474
 40
0.3593749999999474
 40
0.3749999999999455
 40
0.3749999999999455
 40
0.4062499999999391
 40
0.4062499999999391
 40
0.4218749999999372
 40
0.4218749999999372
 40
0.4374999999999353
 40
0.4374999999999353
 40
0.4687499999999313
 40
0.4687499999999313
 40
0.4843749999999296
 40
0.4843749999999296
 40
0.4999999999999277
 40
0.4999999999999277
 40
0.5312499999999271
 40
0.5312499999999271
 40
0.5468749999999271
 40
0.5468749999999271
 40
0.562499999999927
 40
0.562499999999927
 40
0.593749999999927
 40
0.593749999999927
 40
0.6093749999999282
 40
0.6093749999999282
 40
0.6249999999999294
 40
0.6249999999999294
 40
0.656249999999933
 40
0.656249999999933
 40
0.6718749999999349
 40
0.6718749999999349
 40
0.6874999999999368
 40
0.6874999999999368
 40
0.7031249999999387
 40
0.7031249999999387
 40
0.7187499999999407
 40
0.7187499999999407
 40
0.7499999999999448
 40
0.7499999999999448
 40
0.7656249999999476
 40
0.7656249999999476
 40
0.7812499999999504
 40
0.7812499999999504
 40
0.8124999999999557
 40
0.8124999999999557
 40
0.8281249999999584
 40
0.8281249999999584
 40
0.843749999999961
 40
0.843749999999961
 40
0.8593749999999637
 40
0.8593749999999637
 40
0.8749999999999664
 40
0.8749999999999664
 40
0.9062499999999728
 40
0.9062499999999728
 40
0.9218749999999774
 40
0.9218749999999774
 40
0.9374999999999819
 40
0.9374999999999819
 40
0.9687499999999911
 40
0.9687499999999911
 40
0.9843749999999956
 40
0.9843749999999956
 40
1.0
 40
1.0
 40
1.0
 40
1.0
 10
820.0000000000045
 20
397.5000000000191
 30
0.0
 10
821.1597236727633
 20
397.500000000019
 30
0.0
 10
822.2993463138779
 20
397.3858643613027
 30
0.0
 10
823.9800341200464
 20
397.0509720153713
 30
0.0
 10
824.5354377368037
 20
396.9118538469388
 30
0.0
 10
825.636417722252
 20
396.5774482736312
 30
0.0
 10
826.1826852208133
 20
396.3814794600424
 30
0.0
 10
827.7705532181698
 20
395.7220344115941
 30
0.0
 10
828.7741447386807
 20
395.1845017122394
 30
0.0
 10
830.1986613950031
 20
394.2324798537229
 30
0.0
 10
830.6621511272775
 20
393.8887784151245
 30
0.0
 10
831.5495637816206
 20
393.1600611313016
 30
0.0
 10
831.9721677379275
 20
392.7765671007938
 30
0.0
 10
833.1786550248387
 20
391.5700873220173
 30
0.0
 10
833.9018258964454
 20
390.6916659176244
 30
0.0
 10
834.8615191365517
 20
389.2582865472806
 30
0.0
 10
835.1582888297446
 20
388.7637087994179
 30
0.0
 10
835.6975440270076
 20
387.7565084727007
 30
0.0
 10
835.9415166895757
 20
387.2417142859225
 30
0.0
 10
836.3786515634004
 20
386.1898427385237
 30
0.0
 10
836.5718148573858
 20
385.6527660286147
 30
0.0
 10
836.9063176765609
 20
384.5557912661694
 30
0.0
 10
837.0482144297442
 20
383.9925421317477
 30
0.0
 10
837.3867738856584
 20
382.2974171395974
 30
0.0
 10
837.4990225656046
 20
381.1598226607798
 30
0.0
 10
837.5004792751395
 20
379.4423531767451
 30
0.0
 10
837.4729467780339
 20
378.8680044500216
 30
0.0
 10
837.3599012569408
 20
377.7154625452004
 30
0.0
 10
837.2749893814461
 20
377.1446876993344
 30
0.0
 10
836.9394708650658
 20
375.4594501803145
 30
0.0
 10
836.6083786798796
 20
374.3669019634118
 30
0.0
 10
835.9490942520083
 20
372.7746002528267
 30
0.0
 10
835.7010489252053
 20
372.2504738922132
 30
0.0
 10
835.1606858309717
 20
371.2403369139276
 30
0.0
 10
834.8673619227767
 20
370.7514755783821
 30
0.0
 10
834.2352859153276
 20
369.8053793876907
 30
0.0
 10
833.8965328910863
 20
369.3481455208511
 30
0.0
 10
833.1730786636035
 20
368.4654593173169
 30
0.0
 10
832.7864669969239
 20
368.0381390274155
 30
0.0
 10
831.5687363560462
 20
366.8191895587278
 30
0.0
 10
830.6894656253592
 20
366.0974502578277
 30
0.0
 10
829.271266862539
 20
365.1468016260627
 30
0.0
 10
828.781862979184
 20
364.8520780992151
 30
0.0
 10
827.7685132140335
 20
364.3082551084717
 30
0.0
 10
827.2460711983507
 20
364.0603708329919
 30
0.0
 10
825.6611977869272
 20
363.4015017910624
 30
0.0
 10
824.5707591129641
 20
363.0685378143086
 30
0.0
 10
822.8835328576045
 20
362.729669924631
 30
0.0
 10
822.3101302405119
 20
362.6434921779411
 30
0.0
 10
821.1581313801223
 20
362.5287723038225
 30
0.0
 10
820.5802034475637
 20
362.5000111159599
 30
0.0
 10
818.8405992271424
 20
362.4999777777786
 30
0.0
 10
817.7009539684923
 20
362.614095051688
 30
0.0
 10
816.0202410152657
 20
362.9489635416322
 30
0.0
 10
815.4648291290472
 20
363.0880743881602
 30
0.0
 10
814.3638327914675
 20
363.4224663497068
 30
0.0
 10
813.817554765845
 20
363.6184296910554
 30
0.0
 10
812.2296555931483
 20
364.2778612383089
 30
0.0
 10
811.2260449109161
 20
364.8153877516738
 30
0.0
 10
809.8015012497646
 20
365.7674033465321
 30
0.0
 10
809.338003161711
 20
366.1111028181431
 30
0.0
 10
808.4505706366533
 20
366.839820560153
 30
0.0
 10
808.0279573597423
 20
367.2233153628885
 30
0.0
 10
806.8214436812859
 20
368.4297988547449
 30
0.0
 10
806.0982572853301
 20
369.3082245751601
 30
0.0
 10
805.1385433473272
 20
370.7416127635321
 30
0.0
 10
804.8417662516074
 20
371.2361954626913
 30
0.0
 10
804.302498358719
 20
372.2434052212921
 30
0.0
 10
804.0585200030088
 20
372.7582044059806
 30
0.0
 10
803.6213749518816
 20
373.8100864744964
 30
0.0
 10
803.4282071740249
 20
374.3471687077238
 30
0.0
 10
803.0936965681041
 20
375.444155033948
 30
0.0
 10
802.9517964698224
 20
376.0074102992314
 30
0.0
 10
802.613228792967
 20
377.7025554423628
 30
0.0
 10
802.5009774462374
 20
378.840163541082
 30
0.0
 10
802.4995207189546
 20
380.5576537193892
 30
0.0
 10
802.5270538835318
 20
381.1320093888854
 30
0.0
 10
802.6401021674976
 20
382.2845652738851
 30
0.0
 10
802.7250160492292
 20
382.8553465182727
 30
0.0
 10
803.0605425291392
 20
384.5406032141516
 30
0.0
 10
803.3916425218173
 20
385.6331634973462
 30
0.0
 10
804.0509428097436
 20
387.2254821306113
 30
0.0
 10
804.2989938554617
 20
387.7496132636483
 30
0.0
 10
804.8393690518633
 20
388.7597584978915
 30
0.0
 10
805.1326995204112
 20
389.248623610157
 30
0.0
 10
805.7647897292055
 20
390.1947266162001
 30
0.0
 10
806.1035503940093
 20
390.6519635219448
 30
0.0
 10
806.8270211090628
 20
391.5346549867626
 30
0.0
 10
807.2136422097791
 20
391.9619779999271
 30
0.0
 10
808.4313973746608
 20
393.1809288799056
 30
0.0
 10
809.3106858082799
 20
393.9026673585612
 30
0.0
 10
810.7289137435656
 20
394.8533113822865
 30
0.0
 10
811.218327791968
 20
395.1480328046874
 30
0.0
 10
812.231698947867
 20
395.6918502218401
 30
0.0
 10
812.7541491230484
 20
395.939729544569
 30
0.0
 10
814.3390490438771
 20
396.5985832470998
 30
0.0
 10
815.4295060967223
 20
396.931534860903
 30
0.0
 10
817.1167614631302
 20
397.2703794792259
 30
0.0
 10
817.6901744357897
 20
397.3565485929767
 30
0.0
 10
818.8421885744551
 20
397.4712491224962
 30
0.0
 10
819.4201381636248
 20
397.5000000000192
 30
0.0
 10
820.0000000000043
 20
397.5000000000191
 30
0.0
  0
SPLINE
  5
FA
330
1F
100
AcDbEntity
  8
0
  6
Continuous
 62
     7
370
    15
100
AcDbSpline
210
0.0
220
0.0
230
1.0
 70
    11
 71
     3
 72
   106
 73
   102
 74
     0
 42
0.000000001
 43
0.00000001
 40
0.0
 40
0.0
 40
0.0
 40
0.0
 40
0.0312499999999981
 40
0.0312499999999981
 40
0.0468749999999971
 40
0.0468749999999971
 40
0.0624999999999962
 40
0.0624999999999962
 40
0.0937499999999954
 40
0.0937499999999954
 40
0.1093749999999949
 40
0.1093749999999949
 40
0.1249999999999945
 40
0.1249999999999945
 40
0.1562499999999937
 40
0.1562499999999937
 40
0.171874999999993
 40
0.171874999999993
 40
0.1874999999999922
 40
0.1874999999999922
 40
0.2031249999999915
 40
0.2031249999999915
 40
0.2187499999999908
 40
0.2187499999999908
 40
0.2499999999999895
 40
0.2499999999999895
 40
0.2656249999999887
 40
0.2656249999999887
 40
0.2812499999999881
 40
0.2812499999999881
 40
0.3124999999999867
 40
0.3124999999999867
 40
0.3281249999999867
 40
0.3281249999999867
 40
0.3437499999999867
 40
0.3437499999999867
 40
0.3593749999999866
 40
0.3593749999999866
 40
0.3749999999999866
 40
0.3749999999999866
 40
0.4062499999999862
 40
0.4062499999999862
 40
0.421874999999986
 40
0.421874999999986
 40
0.4374999999999858
 40
0.4374999999999858
 40
0.4687499999999854
 40
0.4687499999999854
 40
0.4843749999999853
 40
0.4843749999999853
 40
0.4999999999999852
 40
0.4999999999999852
 40
0.531249999999985
 40
0.531249999999985
 40
0.546874999999985
 40
0.546874999999985
 40
0.5624999999999849
 40
0.5624999999999849
 40
0.5937499999999841
 40
0.5937499999999841
 40
0.6093749999999839
 40
0.6093749999999839
 40
0.6249999999999836
 40
0.6249999999999836
 40
0.6562499999999828
 40
0.6562499999999828
 40
0.6718749999999835
 40
0.6718749999999835
 40
0.687499999999984
 40
0.687499999999984
 40
0.7031249999999846
 40
0.7031249999999846
 40
0.7187499999999851
 40
0.7187499999999851
 40
0.7499999999999861
 40
0.7499999999999861
 40
0.7656249999999873
 40
0.7656249999999873
 40
0.7812499999999886
 40
0.7812499999999886
 40
0.8124999999999913
 40
0.8124999999999913
 40
0.828124999999992
 40
0.828124999999992
 40
0.8437499999999927
 40
0.8437499999999927
 40
0.8593749999999934
 40
0.8593749999999934
 40
0.8749999999999941
 40
0.8749999999999941
 40
0.9062499999999954
 40
0.9062499999999954
 40
0.9218749999999963
 40
0.9218749999999963
 40
0.937499999999997
 40
0.937499999999997
 40
0.9687499999999986
 40
0.9687499999999986
 40
0.9843749999999993
 40
0.9843749999999993
 40
1.0
 40
1.0
 40
1.0
 40
1.0
 10
0.0000000000044407
 20
397.5000000000193
 30
0.0
 10
1.159723672763549
 20
397.5000000000192
 30
0.0
 10
2.299346313878002
 20
397.3858643613027
 30
0.0
 10
3.980034120046477
 20
397.0509720153713
 30
0.0
 10
4.535437736803916
 20
396.9118538469388
 30
0.0
 10
5.636417722252046
 20
396.5774482736311
 30
0.0
 10
6.182685220813537
 20
396.3814794600423
 30
0.0
 10
7.77055321817001
 20
395.7220344115942
 30
0.0
 10
8.774144738680727
 20
395.1845017122392
 30
0.0
 10
10.19866139500298
 20
394.2324798537227
 30
0.0
 10
10.66215112727725
 20
393.8887784151247
 30
0.0
 10
11.54956378162026
 20
393.1600611313019
 30
0.0
 10
11.97216773792745
 20
392.7765671007939
 30
0.0
 10
13.17865502483872
 20
391.5700873220175
 30
0.0
 10
13.9018258964453
 20
390.6916659176245
 30
0.0
 10
14.86151913655167
 20
389.2582865472805
 30
0.0
 10
15.15828882974433
 20
388.7637087994181
 30
0.0
 10
15.69754402700746
 20
387.7565084727006
 30
0.0
 10
15.94151668957577
 20
387.2417142859222
 30
0.0
 10
16.37865156340001
 20
386.1898427385232
 30
0.0
 10
16.57181485738582
 20
385.6527660286146
 30
0.0
 10
16.90631767656075
 20
384.5557912661693
 30
0.0
 10
17.04821442974445
 20
383.9925421317475
 30
0.0
 10
17.38677388565847
 20
382.2974171395975
 30
0.0
 10
17.49902256560522
 20
381.1598226607799
 30
0.0
 10
17.50047927513995
 20
379.4423531767453
 30
0.0
 10
17.47294677803353
 20
378.8680044500215
 30
0.0
 10
17.35990125694084
 20
377.7154625452003
 30
0.0
 10
17.27498938144634
 20
377.1446876993343
 30
0.0
 10
16.93947086506595
 20
375.4594501803145
 30
0.0
 10
16.6083786798797
 20
374.366901963412
 30
0.0
 10
15.94909425200861
 20
372.7746002528268
 30
0.0
 10
15.70104892520556
 20
372.2504738922129
 30
0.0
 10
15.1606858309718
 20
371.2403369139278
 30
0.0
 10
14.8673619227763
 20
370.7514755783818
 30
0.0
 10
14.23528591532725
 20
369.8053793876903
 30
0.0
 10
13.89653289108627
 20
369.3481455208511
 30
0.0
 10
13.17307866360391
 20
368.4654593173169
 30
0.0
 10
12.7864669969241
 20
368.0381390274155
 30
0.0
 10
11.56873635604649
 20
366.8191895587276
 30
0.0
 10
10.68946562535904
 20
366.0974502578275
 30
0.0
 10
9.27126686253935
 20
365.1468016260628
 30
0.0
 10
8.781862979183792
 20
364.8520780992148
 30
0.0
 10
7.768513214033191
 20
364.3082551084717
 30
0.0
 10
7.246071198350214
 20
364.0603708329916
 30
0.0
 10
5.661197786927142
 20
363.4015017910623
 30
0.0
 10
4.570759112964347
 20
363.0685378143087
 30
0.0
 10
2.883532857604637
 20
362.729669924631
 30
0.0
 10
2.31013024051162
 20
362.6434921779411
 30
0.0
 10
1.158131380122269
 20
362.5287723038225
 30
0.0
 10
0.5802034475637192
 20
362.50001111596
 30
0.0
 10
-1.159400772857822
 20
362.4999777777784
 30
0.0
 10
-2.299046031507722
 20
362.614095051688
 30
0.0
 10
-3.979758984734589
 20
362.9489635416322
 30
0.0
 10
-4.535170870952451
 20
363.0880743881601
 30
0.0
 10
-5.636167208532161
 20
363.4224663497067
 30
0.0
 10
-6.182445234155085
 20
363.6184296910553
 30
0.0
 10
-7.770344406851833
 20
364.2778612383092
 30
0.0
 10
-8.773955089084096
 20
364.8153877516738
 30
0.0
 10
-10.19849875023516
 20
365.7674033465324
 30
0.0
 10
-10.66199683828934
 20
366.111102818143
 30
0.0
 10
-11.54942936334679
 20
366.8398205601532
 30
0.0
 10
-11.97204264025727
 20
367.2233153628885
 30
0.0
 10
-13.17855631871403
 20
368.4297988547447
 30
0.0
 10
-13.9017427146695
 20
369.3082245751604
 30
0.0
 10
-14.86145665267283
 20
370.7416127635322
 30
0.0
 10
-15.15823374839264
 20
371.2361954626913
 30
0.0
 10
-15.69750164128083
 20
372.2434052212921
 30
0.0
 10
-15.94147999699112
 20
372.7582044059804
 30
0.0
 10
-16.37862504811839
 20
373.8100864744962
 30
0.0
 10
-16.57179282597535
 20
374.3471687077239
 30
0.0
 10
-16.90630343189558
 20
375.4441550339482
 30
0.0
 10
-17.04820353017747
 20
376.0074102992315
 30
0.0
 10
-17.38677120703312
 20
377.702555442363
 30
0.0
 10
-17.4990225537626
 20
378.8401635410822
 30
0.0
 10
-17.5004792810454
 20
380.5576537193893
 30
0.0
 10
-17.47294611646824
 20
381.1320093888855
 30
0.0
 10
-17.35989783250267
 20
382.2845652738849
 30
0.0
 10
-17.27498395077123
 20
382.8553465182724
 30
0.0
 10
-16.93945747086056
 20
384.5406032141515
 30
0.0
 10
-16.60835747818317
 20
385.6331634973468
 30
0.0
 10
-15.94905719025648
 20
387.2254821306115
 30
0.0
 10
-15.7010061445383
 20
387.7496132636485
 30
0.0
 10
-15.16063094813692
 20
388.7597584978915
 30
0.0
 10
-14.86730047958908
 20
389.2486236101573
 30
0.0
 10
-14.23521027079433
 20
390.1947266162003
 30
0.0
 10
-13.89644960599073
 20
390.6519635219449
 30
0.0
 10
-13.17297889093716
 20
391.5346549867628
 30
0.0
 10
-12.78635779022069
 20
391.9619779999271
 30
0.0
 10
-11.56860262533904
 20
393.1809288799057
 30
0.0
 10
-10.68931419172044
 20
393.9026673585608
 30
0.0
 10
-9.271086256434216
 20
394.8533113822866
 30
0.0
 10
-8.781672208032106
 20
395.1480328046871
 30
0.0
 10
-7.768301052132819
 20
395.6918502218402
 30
0.0
 10
-7.245850876951854
 20
395.9397295445691
 30
0.0
 10
-5.660950956122867
 20
396.5985832470999
 30
0.0
 10
-4.570493903277659
 20
396.9315348609029
 30
0.0
 10
-2.883238536870228
 20
397.2703794792257
 30
0.0
 10
-2.309825564210106
 20
397.3565485929766
 30
0.0
 10
-1.157811425545018
 20
397.4712491224962
 30
0.0
 10
-0.5798618363751743
 20
397.5000000000193
 30
0.0
 10
0.0000000000044414
 20
397.5000000000193
 30
0.0
  0
SPLINE
  5
FB
330
1F
100
AcDbEntity
  8
0
  6
Continuous
 62
     7
370
    15
100
AcDbSpline
210
0.0
220
0.0
230
1.0
 70
    11
 71
     3
 72
   106
 73
   102
 74
     0
 42
0.000000001
 43
0.00000001
 40
0.0
 40
0.0
 40
0.0
 40
0.0
 40
0.0312499999999974
 40
0.0312499999999974
 40
0.0468749999999953
 40
0.0468749999999953
 40
0.0624999999999933
 40
0.0624999999999933
 40
0.0937499999999897
 40
0.0937499999999897
 40
0.1093749999999878
 40
0.1093749999999878
 40
0.124999999999986
 40
0.124999999999986
 40
0.1562499999999824
 40
0.1562499999999824
 40
0.1718749999999803
 40
0.1718749999999803
 40
0.1874999999999782
 40
0.1874999999999782
 40
0.2031249999999761
 40
0.2031249999999761
 40
0.218749999999974
 40
0.218749999999974
 40
0.2499999999999698
 40
0.2499999999999698
 40
0.2656249999999677
 40
0.2656249999999677
 40
0.2812499999999656
 40
0.2812499999999656
 40
0.3124999999999614
 40
0.3124999999999614
 40
0.3281249999999593
 40
0.3281249999999593
 40
0.3437499999999572
 40
0.3437499999999572
 40
0.3593749999999551
 40
0.3593749999999551
 40
0.374999999999953
 40
0.374999999999953
 40
0.4062499999999515
 40
0.4062499999999515
 40
0.4218749999999514
 40
0.4218749999999514
 40
0.4374999999999513
 40
0.4374999999999513
 40
0.4687499999999512
 40
0.4687499999999512
 40
0.4843749999999504
 40
0.4843749999999504
 40
0.4999999999999497
 40
0.4999999999999497
 40
0.5312499999999497
 40
0.5312499999999497
 40
0.5468749999999489
 40
0.5468749999999489
 40
0.5624999999999482
 40
0.5624999999999482
 40
0.5937499999999477
 40
0.5937499999999477
 40
0.609374999999948
 40
0.609374999999948
 40
0.6249999999999484
 40
0.6249999999999484
 40
0.6562499999999502
 40
0.6562499999999502
 40
0.6718749999999519
 40
0.6718749999999519
 40
0.6874999999999537
 40
0.6874999999999537
 40
0.7031249999999555
 40
0.7031249999999555
 40
0.7187499999999573
 40
0.7187499999999573
 40
0.7499999999999606
 40
0.7499999999999606
 40
0.7656249999999631
 40
0.7656249999999631
 40
0.7812499999999656
 40
0.7812499999999656
 40
0.8124999999999707
 40
0.8124999999999707
 40
0.8281249999999728
 40
0.8281249999999728
 40
0.8437499999999749
 40
0.8437499999999749
 40
0.859374999999977
 40
0.859374999999977
 40
0.8749999999999791
 40
0.8749999999999791
 40
0.9062499999999835
 40
0.9062499999999835
 40
0.9218749999999856
 40
0.9218749999999856
 40
0.9374999999999876
 40
0.9374999999999876
 40
0.9687499999999931
 40
0.9687499999999931
 40
0.9843749999999966
 40
0.9843749999999966
 40
1.0
 40
1.0
 40
1.0
 40
1.0
 10
-409.9999999999956
 20
397.5000000000192
 30
0.0
 10
-408.8402763272366
 20
397.5000000000192
 30
0.0
 10
-407.7006536861222
 20
397.3858643613027
 30
0.0
 10
-406.0199658799536
 20
397.0509720153712
 30
0.0
 10
-405.4645622631959
 20
396.9118538469386
 30
0.0
 10
-404.3635822777479
 20
396.5774482736312
 30
0.0
 10
-403.8173147791865
 20
396.3814794600423
 30
0.0
 10
-402.2294467818299
 20
395.7220344115941
 30
0.0
 10
-401.2258552613197
 20
395.1845017122393
 30
0.0
 10
-399.8013386049971
 20
394.2324798537229
 30
0.0
 10
-399.3378488727229
 20
393.8887784151245
 30
0.0
 10
-398.4504362183797
 20
393.1600611313019
 30
0.0
 10
-398.0278322620727
 20
392.776567100794
 30
0.0
 10
-396.8213449751614
 20
391.5700873220175
 30
0.0
 10
-396.0981741035551
 20
390.6916659176243
 30
0.0
 10
-395.1384808634483
 20
389.2582865472804
 30
0.0
 10
-394.8417111702557
 20
388.7637087994181
 30
0.0
 10
-394.3024559729925
 20
387.7565084727007
 30
0.0
 10
-394.0584833104243
 20
387.2417142859223
 30
0.0
 10
-393.6213484366
 20
386.1898427385234
 30
0.0
 10
-393.4281851426142
 20
385.6527660286147
 30
0.0
 10
-393.0936823234393
 20
384.5557912661692
 30
0.0
 10
-392.9517855702555
 20
383.9925421317476
 30
0.0
 10
-392.6132261143415
 20
382.2974171395976
 30
0.0
 10
-392.5009774343947
 20
381.1598226607798
 30
0.0
 10
-392.49952072486
 20
379.4423531767451
 30
0.0
 10
-392.5270532219665
 20
378.8680044500213
 30
0.0
 10
-392.6400987430593
 20
377.7154625452002
 30
0.0
 10
-392.7250106185535
 20
377.1446876993344
 30
0.0
 10
-393.0605291349341
 20
375.4594501803148
 30
0.0
 10
-393.3916213201204
 20
374.3669019634118
 30
0.0
 10
-394.0509057479914
 20
372.7746002528265
 30
0.0
 10
-394.2989510747944
 20
372.250473892213
 30
0.0
 10
-394.8393141690282
 20
371.2403369139276
 30
0.0
 10
-395.132638077224
 20
370.751475578382
 30
0.0
 10
-395.7647140846727
 20
369.8053793876902
 30
0.0
 10
-396.1034671089138
 20
369.3481455208511
 30
0.0
 10
-396.8269213363963
 20
368.4654593173169
 30
0.0
 10
-397.2135330030761
 20
368.0381390274155
 30
0.0
 10
-398.4312636439535
 20
366.8191895587278
 30
0.0
 10
-399.3105343746411
 20
366.0974502578275
 30
0.0
 10
-400.7287331374608
 20
365.1468016260628
 30
0.0
 10
-401.2181370208162
 20
364.8520780992149
 30
0.0
 10
-402.2314867859666
 20
364.3082551084716
 30
0.0
 10
-402.7539288016499
 20
364.0603708329915
 30
0.0
 10
-404.338802213073
 20
363.4015017910623
 30
0.0
 10
-405.4292408870355
 20
363.0685378143083
 30
0.0
 10
-407.1164671423955
 20
362.7296699246311
 30
0.0
 10
-407.6898697594885
 20
362.643492177941
 30
0.0
 10
-408.8418686198777
 20
362.5287723038224
 30
0.0
 10
-409.4197965524363
 20
362.5000111159599
 30
0.0
 10
-411.1594007728577
 20
362.4999777777784
 30
0.0
 10
-412.2990460315078
 20
362.614095051688
 30
0.0
 10
-413.9797589847345
 20
362.9489635416321
 30
0.0
 10
-414.5351708709526
 20
363.0880743881602
 30
0.0
 10
-415.6361672085321
 20
363.4224663497067
 30
0.0
 10
-416.1824452341551
 20
363.6184296910553
 30
0.0
 10
-417.7703444068518
 20
364.2778612383091
 30
0.0
 10
-418.7739550890843
 20
364.8153877516738
 30
0.0
 10
-420.1984987502352
 20
365.7674033465321
 30
0.0
 10
-420.6619968382894
 20
366.1111028181431
 30
0.0
 10
-421.5494293633467
 20
366.8398205601532
 30
0.0
 10
-421.9720426402572
 20
367.2233153628885
 30
0.0
 10
-423.1785563187139
 20
368.4297988547447
 30
0.0
 10
-423.9017427146696
 20
369.3082245751601
 30
0.0
 10
-424.8614566526729
 20
370.7416127635323
 30
0.0
 10
-425.1582337483927
 20
371.2361954626915
 30
0.0
 10
-425.6975016412808
 20
372.2434052212922
 30
0.0
 10
-425.9414799969909
 20
372.7582044059805
 30
0.0
 10
-426.3786250481186
 20
373.8100864744963
 30
0.0
 10
-426.5717928259756
 20
374.3471687077238
 30
0.0
 10
-426.9063034318956
 20
375.4441550339483
 30
0.0
 10
-427.0482035301775
 20
376.0074102992314
 30
0.0
 10
-427.3867712070332
 20
377.702555442363
 30
0.0
 10
-427.4990225537629
 20
378.8401635410822
 30
0.0
 10
-427.5004792810454
 20
380.5576537193892
 30
0.0
 10
-427.4729461164684
 20
381.1320093888855
 30
0.0
 10
-427.3598978325028
 20
382.2845652738851
 30
0.0
 10
-427.2749839507715
 20
382.8553465182727
 30
0.0
 10
-426.9394574708605
 20
384.5406032141516
 30
0.0
 10
-426.6083574781835
 20
385.6331634973465
 30
0.0
 10
-425.9490571902566
 20
387.2254821306115
 30
0.0
 10
-425.7010061445384
 20
387.7496132636484
 30
0.0
 10
-425.1606309481372
 20
388.7597584978915
 30
0.0
 10
-424.8673004795892
 20
389.2486236101573
 30
0.0
 10
-424.2352102707945
 20
390.1947266162005
 30
0.0
 10
-423.8964496059909
 20
390.651963521945
 30
0.0
 10
-423.1729788909371
 20
391.5346549867629
 30
0.0
 10
-422.7863577902208
 20
391.9619779999271
 30
0.0
 10
-421.5686026253391
 20
393.1809288799058
 30
0.0
 10
-420.6893141917204
 20
393.9026673585612
 30
0.0
 10
-419.271086256434
 20
394.8533113822863
 30
0.0
 10
-418.7816722080322
 20
395.1480328046873
 30
0.0
 10
-417.768301052133
 20
395.6918502218402
 30
0.0
 10
-417.2458508769519
 20
395.9397295445693
 30
0.0
 10
-415.6609509561227
 20
396.5985832471
 30
0.0
 10
-414.5704939032777
 20
396.9315348609032
 30
0.0
 10
-412.8832385368703
 20
397.2703794792258
 30
0.0
 10
-412.3098255642104
 20
397.3565485929767
 30
0.0
 10
-411.1578114255452
 20
397.4712491224964
 30
0.0
 10
-410.5798618363752
 20
397.5000000000192
 30
0.0
 10
-409.9999999999956
 20
397.5000000000192
 30
0.0
  0
SPLINE
  5
FC
330
1F
100
AcDbEntity
  8
0
  6
Continuous
 62
     7
370
    15
100
AcDbSpline
210
0.0
220
0.0
230
1.0
 70
    11
 71
     3
 72
   106
 73
   102
 74
     0
 42
0.000000001
 43
0.00000001
 40
0.0
 40
0.0
 40
0.0
 40
0.0
 40
0.0312499999999996
 40
0.0312499999999996
 40
0.0468749999999985
 40
0.0468749999999985
 40
0.0624999999999974
 40
0.0624999999999974
 40
0.0937499999999962
 40
0.0937499999999962
 40
0.1093749999999957
 40
0.1093749999999957
 40
0.1249999999999951
 40
0.1249999999999951
 40
0.1562499999999939
 40
0.1562499999999939
 40
0.1718749999999931
 40
0.1718749999999931
 40
0.1874999999999922
 40
0.1874999999999922
 40
0.2031249999999914
 40
0.2031249999999914
 40
0.2187499999999905
 40
0.2187499999999905
 40
0.2499999999999885
 40
0.2499999999999885
 40
0.2656249999999875
 40
0.2656249999999875
 40
0.2812499999999865
 40
0.2812499999999865
 40
0.3124999999999844
 40
0.3124999999999844
 40
0.3281249999999834
 40
0.3281249999999834
 40
0.3437499999999824
 40
0.3437499999999824
 40
0.3593749999999814
 40
0.3593749999999814
 40
0.3749999999999804
 40
0.3749999999999804
 40
0.4062499999999811
 40
0.4062499999999811
 40
0.4218749999999808
 40
0.4218749999999808
 40
0.4374999999999806
 40
0.4374999999999806
 40
0.4687499999999815
 40
0.4687499999999815
 40
0.4843749999999813
 40
0.4843749999999813
 40
0.4999999999999811
 40
0.4999999999999811
 40
0.5312499999999822
 40
0.5312499999999822
 40
0.546874999999982
 40
0.546874999999982
 40
0.5624999999999818
 40
0.5624999999999818
 40
0.5937499999999823
 40
0.5937499999999823
 40
0.6093749999999832
 40
0.6093749999999832
 40
0.6249999999999841
 40
0.6249999999999841
 40
0.6562499999999848
 40
0.6562499999999848
 40
0.6718749999999848
 40
0.6718749999999848
 40
0.6874999999999848
 40
0.6874999999999848
 40
0.7031249999999848
 40
0.7031249999999848
 40
0.7187499999999848
 40
0.7187499999999848
 40
0.7499999999999846
 40
0.7499999999999846
 40
0.7656249999999852
 40
0.7656249999999852
 40
0.7812499999999859
 40
0.7812499999999859
 40
0.8124999999999875
 40
0.8124999999999875
 40
0.828124999999988
 40
0.828124999999988
 40
0.8437499999999886
 40
0.8437499999999886
 40
0.8593749999999891
 40
0.8593749999999891
 40
0.8749999999999897
 40
0.8749999999999897
 40
0.9062499999999907
 40
0.9062499999999907
 40
0.9218749999999919
 40
0.9218749999999919
 40
0.9374999999999931
 40
0.9374999999999931
 40
0.9687499999999959
 40
0.9687499999999959
 40
0.9843749999999979
 40
0.9843749999999979
 40
1.0
 40
1.0
 40
1.0
 40
1.0
 10
410.0000000000047
 20
397.5000000000193
 30
0.0
 10
411.1597236727637
 20
397.5000000000193
 30
0.0
 10
412.2993463138782
 20
397.3858643613029
 30
0.0
 10
413.9800341200466
 20
397.0509720153714
 30
0.0
 10
414.5354377368041
 20
396.9118538469388
 30
0.0
 10
415.6364177222522
 20
396.5774482736313
 30
0.0
 10
416.1826852208136
 20
396.381479460042
 30
0.0
 10
417.7705532181702
 20
395.7220344115941
 30
0.0
 10
418.7741447386806
 20
395.1845017122394
 30
0.0
 10
420.198661395003
 20
394.2324798537228
 30
0.0
 10
420.6621511272772
 20
393.8887784151245
 30
0.0
 10
421.5495637816203
 20
393.1600611313017
 30
0.0
 10
421.9721677379275
 20
392.7765671007937
 30
0.0
 10
423.1786550248387
 20
391.5700873220172
 30
0.0
 10
423.9018258964452
 20
390.6916659176244
 30
0.0
 10
424.8615191365517
 20
389.2582865472805
 30
0.0
 10
425.1582888297444
 20
388.7637087994177
 30
0.0
 10
425.6975440270076
 20
387.7565084727006
 30
0.0
 10
425.9415166895759
 20
387.2417142859222
 30
0.0
 10
426.3786515634001
 20
386.1898427385232
 30
0.0
 10
426.571814857386
 20
385.6527660286145
 30
0.0
 10
426.9063176765608
 20
384.5557912661691
 30
0.0
 10
427.0482144297444
 20
383.9925421317475
 30
0.0
 10
427.3867738856584
 20
382.2974171395973
 30
0.0
 10
427.4990225656056
 20
381.1598226607799
 30
0.0
 10
427.50047927514
 20
379.442353176745
 30
0.0
 10
427.4729467780336
 20
378.8680044500213
 30
0.0
 10
427.3599012569408
 20
377.7154625452001
 30
0.0
 10
427.2749893814464
 20
377.1446876993342
 30
0.0
 10
426.9394708650658
 20
375.4594501803144
 30
0.0
 10
426.6083786798802
 20
374.3669019634123
 30
0.0
 10
425.9490942520086
 20
372.7746002528266
 30
0.0
 10
425.7010489252056
 20
372.2504738922132
 30
0.0
 10
425.1606858309718
 20
371.2403369139276
 30
0.0
 10
424.8673619227763
 20
370.7514755783816
 30
0.0
 10
424.2352859153273
 20
369.8053793876901
 30
0.0
 10
423.8965328910865
 20
369.3481455208509
 30
0.0
 10
423.1730786636037
 20
368.4654593173169
 30
0.0
 10
422.786466996924
 20
368.0381390274153
 30
0.0
 10
421.5687363560465
 20
366.8191895587277
 30
0.0
 10
420.6894656253589
 20
366.0974502578276
 30
0.0
 10
419.2712668625392
 20
365.1468016260627
 30
0.0
 10
418.7818629791837
 20
364.8520780992147
 30
0.0
 10
417.7685132140332
 20
364.3082551084716
 30
0.0
 10
417.2460711983502
 20
364.0603708329917
 30
0.0
 10
415.6611977869271
 20
363.4015017910624
 30
0.0
 10
414.5707591129641
 20
363.0685378143085
 30
0.0
 10
412.8835328576047
 20
362.7296699246311
 30
0.0
 10
412.3101302405117
 20
362.6434921779411
 30
0.0
 10
411.1581313801223
 20
362.5287723038224
 30
0.0
 10
410.5802034475635
 20
362.50001111596
 30
0.0
 10
408.8405992271421
 20
362.4999777777784
 30
0.0
 10
407.7009539684925
 20
362.6140950516882
 30
0.0
 10
406.0202410152653
 20
362.9489635416321
 30
0.0
 10
405.4648291290475
 20
363.0880743881603
 30
0.0
 10
404.3638327914679
 20
363.4224663497067
 30
0.0
 10
403.8175547658448
 20
363.6184296910553
 30
0.0
 10
402.2296555931483
 20
364.2778612383091
 30
0.0
 10
401.2260449109156
 20
364.8153877516738
 30
0.0
 10
399.8015012497648
 20
365.7674033465323
 30
0.0
 10
399.3380031617106
 20
366.1111028181431
 30
0.0
 10
398.4505706366532
 20
366.8398205601532
 30
0.0
 10
398.0279573597429
 20
367.2233153628886
 30
0.0
 10
396.8214436812859
 20
368.4297988547449
 30
0.0
 10
396.0982572853307
 20
369.3082245751606
 30
0.0
 10
395.138543347327
 20
370.7416127635321
 30
0.0
 10
394.8417662516074
 20
371.2361954626916
 30
0.0
 10
394.3024983587192
 20
372.2434052212922
 30
0.0
 10
394.0585200030089
 20
372.7582044059805
 30
0.0
 10
393.6213749518817
 20
373.8100864744963
 30
0.0
 10
393.4282071740247
 20
374.3471687077237
 30
0.0
 10
393.0936965681045
 20
375.4441550339482
 30
0.0
 10
392.9517964698226
 20
376.0074102992315
 30
0.0
 10
392.6132287929668
 20
377.7025554423627
 30
0.0
 10
392.5009774462376
 20
378.8401635410822
 30
0.0
 10
392.4995207189547
 20
380.5576537193892
 30
0.0
 10
392.5270538835317
 20
381.1320093888853
 30
0.0
 10
392.6401021674973
 20
382.2845652738849
 30
0.0
 10
392.7250160492288
 20
382.8553465182726
 30
0.0
 10
393.0605425291396
 20
384.5406032141518
 30
0.0
 10
393.3916425218168
 20
385.6331634973465
 30
0.0
 10
394.0509428097435
 20
387.2254821306115
 30
0.0
 10
394.2989938554616
 20
387.7496132636484
 30
0.0
 10
394.839369051863
 20
388.7597584978915
 30
0.0
 10
395.1326995204111
 20
389.2486236101572
 30
0.0
 10
395.7647897292056
 20
390.1947266162
 30
0.0
 10
396.1035503940092
 20
390.6519635219451
 30
0.0
 10
396.8270211090627
 20
391.5346549867627
 30
0.0
 10
397.2136422097794
 20
391.9619779999272
 30
0.0
 10
398.4313973746612
 20
393.1809288799061
 30
0.0
 10
399.3106858082797
 20
393.9026673585611
 30
0.0
 10
400.7289137435662
 20
394.8533113822866
 30
0.0
 10
401.218327791968
 20
395.1480328046874
 30
0.0
 10
402.2316989478671
 20
395.6918502218402
 30
0.0
 10
402.7541491230483
 20
395.9397295445691
 30
0.0
 10
404.3390490438773
 20
396.5985832471001
 30
0.0
 10
405.4295060967223
 20
396.931534860903
 30
0.0
 10
407.1167614631301
 20
397.2703794792256
 30
0.0
 10
407.6901744357902
 20
397.3565485929767
 30
0.0
 10
408.8421885744551
 20
397.4712491224963
 30
0.0
 10
409.420138163625
 20
397.5000000000193
 30
0.0
 10
410.0000000000047
 20
397.5000000000193
 30
0.0
  0
SPLINE
  5
100
330
1F
100
AcDbEntity
  8
0
  6
Continuous
 62
     7
370
    15
100
AcDbSpline
210
0.0
220
0.0
230
1.0
 70
    11
 71
     3
 72
   106
 73
   102
 74
     0
 42
0.000000001
 43
0.00000001
 40
0.0
 40
0.0
 40
0.0
 40
0.0
 40
0.0312500000000028
 40
0.0312500000000028
 40
0.0468750000000043
 40
0.0468750000000043
 40
0.0625000000000057
 40
0.0625000000000057
 40
0.0937500000000091
 40
0.0937500000000091
 40
0.1093750000000107
 40
0.1093750000000107
 40
0.1250000000000124
 40
0.1250000000000124
 40
0.15625000000002
 40
0.15625000000002
 40
0.1718750000000252
 40
0.1718750000000252
 40
0.1875000000000304
 40
0.1875000000000304
 40
0.2031250000000355
 40
0.2031250000000355
 40
0.2187500000000407
 40
0.2187500000000407
 40
0.2500000000000522
 40
0.2500000000000522
 40
0.2656250000000587
 40
0.2656250000000587
 40
0.2812500000000652
 40
0.2812500000000652
 40
0.312500000000077
 40
0.312500000000077
 40
0.3281250000000818
 40
0.3281250000000818
 40
0.3437500000000865
 40
0.3437500000000865
 40
0.3593750000000913
 40
0.3593750000000913
 40
0.3750000000000961
 40
0.3750000000000961
 40
0.406250000000101
 40
0.406250000000101
 40
0.421875000000101
 40
0.421875000000101
 40
0.437500000000101
 40
0.437500000000101
 40
0.4687500000000948
 40
0.4687500000000948
 40
0.4843750000000918
 40
0.4843750000000918
 40
0.5000000000000888
 40
0.5000000000000888
 40
0.5312500000000829
 40
0.5312500000000829
 40
0.5468750000000798
 40
0.5468750000000798
 40
0.5625000000000768
 40
0.5625000000000768
 40
0.5937500000000704
 40
0.5937500000000704
 40
0.6093750000000696
 40
0.6093750000000696
 40
0.625000000000069
 40
0.625000000000069
 40
0.6562500000000633
 40
0.6562500000000633
 40
0.6718750000000597
 40
0.6718750000000597
 40
0.6875000000000561
 40
0.6875000000000561
 40
0.7031250000000525
 40
0.7031250000000525
 40
0.718750000000049
 40
0.718750000000049
 40
0.7500000000000426
 40
0.7500000000000426
 40
0.7656250000000395
 40
0.7656250000000395
 40
0.7812500000000364
 40
0.7812500000000364
 40
0.8125000000000304
 40
0.8125000000000304
 40
0.8281250000000273
 40
0.8281250000000273
 40
0.8437500000000243
 40
0.8437500000000243
 40
0.8593750000000213
 40
0.8593750000000213
 40
0.8750000000000183
 40
0.8750000000000183
 40
0.9062500000000153
 40
0.9062500000000153
 40
0.9218750000000132
 40
0.9218750000000132
 40
0.9375000000000111
 40
0.9375000000000111
 40
0.9687500000000057
 40
0.9687500000000057
 40
0.9843750000000029
 40
0.9843750000000029
 40
1.0
 40
1.0
 40
1.0
 40
1.0
 10
-1229.999999999996
 20
397.5000000000191
 30
0.0
 10
-1228.840276327236
 20
397.5000000000192
 30
0.0
 10
-1227.700653686123
 20
397.3858643613029
 30
0.0
 10
-1226.019965879953
 20
397.0509720153713
 30
0.0
 10
-1225.464562263196
 20
396.9118538469386
 30
0.0
 10
-1224.363582277748
 20
396.5774482736312
 30
0.0
 10
-1223.817314779187
 20
396.3814794600424
 30
0.0
 10
-1222.22944678183
 20
395.722034411594
 30
0.0
 10
-1221.225855261319
 20
395.1845017122394
 30
0.0
 10
-1219.801338604997
 20
394.2324798537229
 30
0.0
 10
-1219.337848872723
 20
393.8887784151248
 30
0.0
 10
-1218.45043621838
 20
393.1600611313016
 30
0.0
 10
-1218.027832262072
 20
392.7765671007939
 30
0.0
 10
-1216.821344975161
 20
391.5700873220175
 30
0.0
 10
-1216.098174103555
 20
390.6916659176243
 30
0.0
 10
-1215.138480863448
 20
389.2582865472805
 30
0.0
 10
-1214.841711170255
 20
388.7637087994181
 30
0.0
 10
-1214.302455972992
 20
387.7565084727008
 30
0.0
 10
-1214.058483310425
 20
387.2417142859222
 30
0.0
 10
-1213.6213484366
 20
386.1898427385235
 30
0.0
 10
-1213.428185142614
 20
385.6527660286147
 30
0.0
 10
-1213.093682323439
 20
384.5557912661692
 30
0.0
 10
-1212.951785570256
 20
383.9925421317476
 30
0.0
 10
-1212.613226114342
 20
382.2974171395975
 30
0.0
 10
-1212.500977434395
 20
381.1598226607797
 30
0.0
 10
-1212.49952072486
 20
379.4423531767451
 30
0.0
 10
-1212.527053221966
 20
378.8680044500213
 30
0.0
 10
-1212.640098743059
 20
377.7154625452002
 30
0.0
 10
-1212.725010618554
 20
377.1446876993343
 30
0.0
 10
-1213.060529134933
 20
375.4594501803145
 30
0.0
 10
-1213.391621320121
 20
374.3669019634121
 30
0.0
 10
-1214.050905747991
 20
372.7746002528268
 30
0.0
 10
-1214.298951074795
 20
372.2504738922129
 30
0.0
 10
-1214.839314169027
 20
371.2403369139276
 30
0.0
 10
-1215.132638077224
 20
370.7514755783817
 30
0.0
 10
-1215.764714084673
 20
369.8053793876902
 30
0.0
 10
-1216.103467108914
 20
369.3481455208511
 30
0.0
 10
-1216.826921336396
 20
368.465459317317
 30
0.0
 10
-1217.213533003076
 20
368.0381390274156
 30
0.0
 10
-1218.431263643954
 20
366.8191895587277
 30
0.0
 10
-1219.310534374642
 20
366.0974502578275
 30
0.0
 10
-1220.728733137461
 20
365.1468016260627
 30
0.0
 10
-1221.218137020816
 20
364.8520780992149
 30
0.0
 10
-1222.231486785967
 20
364.3082551084714
 30
0.0
 10
-1222.75392880165
 20
364.0603708329913
 30
0.0
 10
-1224.338802213073
 20
363.4015017910622
 30
0.0
 10
-1225.429240887036
 20
363.0685378143087
 30
0.0
 10
-1227.116467142395
 20
362.7296699246311
 30
0.0
 10
-1227.689869759488
 20
362.6434921779409
 30
0.0
 10
-1228.841868619877
 20
362.5287723038224
 30
0.0
 10
-1229.419796552437
 20
362.5000111159598
 30
0.0
 10
-1231.159400772858
 20
362.4999777777782
 30
0.0
 10
-1232.299046031509
 20
362.6140950516879
 30
0.0
 10
-1233.979758984735
 20
362.9489635416321
 30
0.0
 10
-1234.535170870952
 20
363.08807438816
 30
0.0
 10
-1235.636167208532
 20
363.4224663497066
 30
0.0
 10
-1236.182445234155
 20
363.6184296910553
 30
0.0
 10
-1237.770344406853
 20
364.2778612383091
 30
0.0
 10
-1238.773955089084
 20
364.8153877516737
 30
0.0
 10
-1240.198498750234
 20
365.767403346532
 30
0.0
 10
-1240.661996838289
 20
366.1111028181431
 30
0.0
 10
-1241.549429363347
 20
366.839820560153
 30
0.0
 10
-1241.972042640258
 20
367.2233153628884
 30
0.0
 10
-1243.178556318715
 20
368.4297988547447
 30
0.0
 10
-1243.90174271467
 20
369.3082245751602
 30
0.0
 10
-1244.861456652673
 20
370.7416127635322
 30
0.0
 10
-1245.158233748392
 20
371.2361954626913
 30
0.0
 10
-1245.69750164128
 20
372.2434052212918
 30
0.0
 10
-1245.941479996992
 20
372.7582044059803
 30
0.0
 10
-1246.378625048118
 20
373.8100864744961
 30
0.0
 10
-1246.571792825976
 20
374.3471687077237
 30
0.0
 10
-1246.906303431895
 20
375.444155033948
 30
0.0
 10
-1247.048203530177
 20
376.0074102992311
 30
0.0
 10
-1247.386771207033
 20
377.7025554423628
 30
0.0
 10
-1247.499022553763
 20
378.8401635410822
 30
0.0
 10
-1247.500479281045
 20
380.5576537193891
 30
0.0
 10
-1247.472946116468
 20
381.1320093888854
 30
0.0
 10
-1247.359897832503
 20
382.2845652738848
 30
0.0
 10
-1247.274983950771
 20
382.8553465182727
 30
0.0
 10
-1246.939457470861
 20
384.5406032141516
 30
0.0
 10
-1246.608357478183
 20
385.633163497346
 30
0.0
 10
-1245.949057190257
 20
387.2254821306113
 30
0.0
 10
-1245.701006144538
 20
387.7496132636484
 30
0.0
 10
-1245.160630948137
 20
388.7597584978915
 30
0.0
 10
-1244.86730047959
 20
389.2486236101572
 30
0.0
 10
-1244.235210270794
 20
390.1947266161999
 30
0.0
 10
-1243.896449605991
 20
390.6519635219448
 30
0.0
 10
-1243.172978890937
 20
391.5346549867625
 30
0.0
 10
-1242.786357790221
 20
391.9619779999271
 30
0.0
 10
-1241.568602625339
 20
393.1809288799057
 30
0.0
 10
-1240.689314191721
 20
393.9026673585611
 30
0.0
 10
-1239.271086256434
 20
394.8533113822864
 30
0.0
 10
-1238.781672208033
 20
395.1480328046871
 30
0.0
 10
-1237.768301052133
 20
395.6918502218402
 30
0.0
 10
-1237.245850876952
 20
395.9397295445693
 30
0.0
 10
-1235.660950956123
 20
396.5985832471
 30
0.0
 10
-1234.570493903278
 20
396.9315348609029
 30
0.0
 10
-1232.883238536871
 20
397.2703794792256
 30
0.0
 10
-1232.309825564209
 20
397.3565485929764
 30
0.0
 10
-1231.157811425545
 20
397.4712491224961
 30
0.0
 10
-1230.579861836375
 20
397.500000000019
 30
0.0
 10
-1229.999999999996
 20
397.5000000000191
 30
0.0
  0
SPLINE
  5
101
330
1F
100
AcDbEntity
  8
0
  6
Continuous
 62
     7
370
    15
100
AcDbSpline
210
0.0
220
0.0
230
1.0
 70
    11
 71
     3
 72
   106
 73
   102
 74
     0
 42
0.000000001
 43
0.00000001
 40
0.0
 40
0.0
 40
0.0
 40
0.0
 40
0.0312500000000004
 40
0.0312500000000004
 40
0.0468750000000006
 40
0.0468750000000006
 40
0.0625000000000008
 40
0.0625000000000008
 40
0.0937499999999967
 40
0.0937499999999967
 40
0.1093749999999947
 40
0.1093749999999947
 40
0.1249999999999926
 40
0.1249999999999926
 40
0.1562499999999832
 40
0.1562499999999832
 40
0.1718749999999765
 40
0.1718749999999765
 40
0.1874999999999699
 40
0.1874999999999699
 40
0.2031249999999632
 40
0.2031249999999632
 40
0.2187499999999565
 40
0.2187499999999565
 40
0.249999999999942
 40
0.249999999999942
 40
0.2656249999999347
 40
0.2656249999999347
 40
0.2812499999999275
 40
0.2812499999999275
 40
0.3124999999999142
 40
0.3124999999999142
 40
0.3281249999999093
 40
0.3281249999999093
 40
0.3437499999999045
 40
0.3437499999999045
 40
0.3593749999998996
 40
0.3593749999998996
 40
0.3749999999998947
 40
0.3749999999998947
 40
0.406249999999891
 40
0.406249999999891
 40
0.4218749999998916
 40
0.4218749999998916
 40
0.4374999999998923
 40
0.4374999999998923
 40
0.4687499999998991
 40
0.4687499999998991
 40
0.4843749999999027
 40
0.4843749999999027
 40
0.4999999999999062
 40
0.4999999999999062
 40
0.5312499999999073
 40
0.5312499999999073
 40
0.5468749999999082
 40
0.5468749999999082
 40
0.5624999999999091
 40
0.5624999999999091
 40
0.5937499999999157
 40
0.5937499999999157
 40
0.6093749999999166
 40
0.6093749999999166
 40
0.6249999999999175
 40
0.6249999999999175
 40
0.6562499999999235
 40
0.6562499999999235
 40
0.6718749999999278
 40
0.6718749999999278
 40
0.6874999999999322
 40
0.6874999999999322
 40
0.7031249999999364
 40
0.7031249999999364
 40
0.7187499999999407
 40
0.7187499999999407
 40
0.7499999999999479
 40
0.7499999999999479
 40
0.7656249999999524
 40
0.7656249999999524
 40
0.7812499999999568
 40
0.7812499999999568
 40
0.8124999999999658
 40
0.8124999999999658
 40
0.8281249999999697
 40
0.8281249999999697
 40
0.8437499999999736
 40
0.8437499999999736
 40
0.8593749999999775
 40
0.8593749999999775
 40
0.8749999999999812
 40
0.8749999999999812
 40
0.9062499999999889
 40
0.9062499999999889
 40
0.9218749999999928
 40
0.9218749999999928
 40
0.9374999999999968
 40
0.9374999999999968
 40
0.9687499999999987
 40
0.9687499999999987
 40
0.9843749999999993
 40
0.9843749999999993
 40
1.0
 40
1.0
 40
1.0
 40
1.0
 10
1230.000000000005
 20
397.5000000000192
 30
0.0
 10
1231.159723672764
 20
397.5000000000192
 30
0.0
 10
1232.299346313878
 20
397.3858643613029
 30
0.0
 10
1233.980034120046
 20
397.0509720153714
 30
0.0
 10
1234.535437736803
 20
396.9118538469386
 30
0.0
 10
1235.636417722252
 20
396.5774482736313
 30
0.0
 10
1236.182685220813
 20
396.3814794600425
 30
0.0
 10
1237.77055321817
 20
395.7220344115943
 30
0.0
 10
1238.77414473868
 20
395.1845017122394
 30
0.0
 10
1240.198661395003
 20
394.232479853723
 30
0.0
 10
1240.662151127277
 20
393.8887784151247
 30
0.0
 10
1241.54956378162
 20
393.1600611313017
 30
0.0
 10
1241.972167737927
 20
392.7765671007941
 30
0.0
 10
1243.178655024838
 20
391.5700873220176
 30
0.0
 10
1243.901825896446
 20
390.6916659176244
 30
0.0
 10
1244.861519136551
 20
389.2582865472806
 30
0.0
 10
1245.158288829743
 20
388.7637087994179
 30
0.0
 10
1245.697544027007
 20
387.7565084727007
 30
0.0
 10
1245.941516689575
 20
387.2417142859223
 30
0.0
 10
1246.3786515634
 20
386.1898427385235
 30
0.0
 10
1246.571814857386
 20
385.6527660286147
 30
0.0
 10
1246.906317676561
 20
384.5557912661694
 30
0.0
 10
1247.048214429745
 20
383.9925421317479
 30
0.0
 10
1247.386773885658
 20
382.2974171395976
 30
0.0
 10
1247.499022565606
 20
381.1598226607801
 30
0.0
 10
1247.50047927514
 20
379.4423531767453
 30
0.0
 10
1247.472946778033
 20
378.8680044500213
 30
0.0
 10
1247.359901256941
 20
377.7154625452003
 30
0.0
 10
1247.274989381447
 20
377.1446876993346
 30
0.0
 10
1246.939470865067
 20
375.4594501803147
 30
0.0
 10
1246.60837867988
 20
374.3669019634119
 30
0.0
 10
1245.949094252008
 20
372.7746002528268
 30
0.0
 10
1245.701048925206
 20
372.2504738922132
 30
0.0
 10
1245.160685830972
 20
371.2403369139278
 30
0.0
 10
1244.867361922776
 20
370.7514755783818
 30
0.0
 10
1244.235285915327
 20
369.8053793876903
 30
0.0
 10
1243.896532891087
 20
369.3481455208512
 30
0.0
 10
1243.173078663604
 20
368.465459317317
 30
0.0
 10
1242.786466996924
 20
368.0381390274154
 30
0.0
 10
1241.568736356046
 20
366.8191895587278
 30
0.0
 10
1240.689465625359
 20
366.0974502578273
 30
0.0
 10
1239.27126686254
 20
365.1468016260628
 30
0.0
 10
1238.781862979184
 20
364.8520780992147
 30
0.0
 10
1237.768513214033
 20
364.3082551084718
 30
0.0
 10
1237.24607119835
 20
364.0603708329916
 30
0.0
 10
1235.661197786927
 20
363.4015017910621
 30
0.0
 10
1234.570759112964
 20
363.0685378143085
 30
0.0
 10
1232.883532857604
 20
362.729669924631
 30
0.0
 10
1232.310130240512
 20
362.6434921779411
 30
0.0
 10
1231.158131380122
 20
362.5287723038222
 30
0.0
 10
1230.580203447563
 20
362.5000111159598
 30
0.0
 10
1228.840599227142
 20
362.4999777777786
 30
0.0
 10
1227.700953968492
 20
362.6140950516877
 30
0.0
 10
1226.020241015265
 20
362.9489635416322
 30
0.0
 10
1225.464829129048
 20
363.0880743881602
 30
0.0
 10
1224.363832791468
 20
363.4224663497066
 30
0.0
 10
1223.817554765845
 20
363.6184296910554
 30
0.0
 10
1222.229655593148
 20
364.2778612383091
 30
0.0
 10
1221.226044910916
 20
364.8153877516734
 30
0.0
 10
1219.801501249765
 20
365.7674033465321
 30
0.0
 10
1219.33800316171
 20
366.1111028181429
 30
0.0
 10
1218.450570636653
 20
366.839820560153
 30
0.0
 10
1218.027957359742
 20
367.2233153628887
 30
0.0
 10
1216.821443681286
 20
368.4297988547448
 30
0.0
 10
1216.09825728533
 20
369.3082245751604
 30
0.0
 10
1215.138543347327
 20
370.7416127635322
 30
0.0
 10
1214.841766251607
 20
371.2361954626915
 30
0.0
 10
1214.302498358719
 20
372.2434052212921
 30
0.0
 10
1214.058520003008
 20
372.7582044059805
 30
0.0
 10
1213.621374951881
 20
373.8100864744961
 30
0.0
 10
1213.428207174024
 20
374.3471687077237
 30
0.0
 10
1213.093696568104
 20
375.4441550339479
 30
0.0
 10
1212.951796469823
 20
376.0074102992314
 30
0.0
 10
1212.613228792967
 20
377.7025554423628
 30
0.0
 10
1212.500977446238
 20
378.8401635410823
 30
0.0
 10
1212.499520718954
 20
380.5576537193891
 30
0.0
 10
1212.527053883532
 20
381.1320093888855
 30
0.0
 10
1212.640102167497
 20
382.284565273885
 30
0.0
 10
1212.725016049229
 20
382.8553465182726
 30
0.0
 10
1213.060542529139
 20
384.5406032141517
 30
0.0
 10
1213.391642521817
 20
385.6331634973462
 30
0.0
 10
1214.050942809743
 20
387.2254821306114
 30
0.0
 10
1214.298993855461
 20
387.7496132636485
 30
0.0
 10
1214.839369051863
 20
388.7597584978915
 30
0.0
 10
1215.132699520411
 20
389.2486236101573
 30
0.0
 10
1215.764789729205
 20
390.1947266162001
 30
0.0
 10
1216.103550394009
 20
390.6519635219448
 30
0.0
 10
1216.827021109062
 20
391.5346549867627
 30
0.0
 10
1217.213642209779
 20
391.9619779999272
 30
0.0
 10
1218.431397374661
 20
393.1809288799058
 30
0.0
 10
1219.310685808279
 20
393.902667358561
 30
0.0
 10
1220.728913743565
 20
394.8533113822868
 30
0.0
 10
1221.218327791968
 20
395.1480328046874
 30
0.0
 10
1222.231698947867
 20
395.6918502218403
 30
0.0
 10
1222.754149123048
 20
395.9397295445692
 30
0.0
 10
1224.339049043877
 20
396.5985832471001
 30
0.0
 10
1225.429506096722
 20
396.9315348609032
 30
0.0
 10
1227.116761463129
 20
397.2703794792256
 30
0.0
 10
1227.690174435789
 20
397.3565485929765
 30
0.0
 10
1228.842188574454
 20
397.4712491224963
 30
0.0
 10
1229.420138163625
 20
397.5000000000193
 30
0.0
 10
1230.000000000005
 20
397.5000000000192
 30
0.0
  0
SPLINE
  5
102
330
1F
100
AcDbEntity
  8
0
  6
Continuous
 62
     7
370
    15
100
AcDbSpline
210
0.0
220
0.0
230
1.0
 70
    11
 71
     3
 72
   106
 73
   102
 74
     0
 42
0.000000001
 43
0.00000001
 40
0.0
 40
0.0
 40
0.0
 40
0.0
 40
0.0312499999999992
 40
0.0312499999999992
 40
0.0468750000000003
 40
0.0468750000000003
 40
0.0625000000000014
 40
0.0625000000000014
 40
0.0937500000000019
 40
0.0937500000000019
 40
0.1093750000000021
 40
0.1093750000000021
 40
0.1250000000000024
 40
0.1250000000000024
 40
0.156250000000005
 40
0.156250000000005
 40
0.1718750000000052
 40
0.1718750000000052
 40
0.1875000000000054
 40
0.1875000000000054
 40
0.2031250000000056
 40
0.2031250000000056
 40
0.2187500000000057
 40
0.2187500000000057
 40
0.2500000000000056
 40
0.2500000000000056
 40
0.2656250000000062
 40
0.2656250000000062
 40
0.2812500000000069
 40
0.2812500000000069
 40
0.3125000000000081
 40
0.3125000000000081
 40
0.3281250000000088
 40
0.3281250000000088
 40
0.3437500000000094
 40
0.3437500000000094
 40
0.3593750000000101
 40
0.3593750000000101
 40
0.3750000000000108
 40
0.3750000000000108
 40
0.4062500000000159
 40
0.4062500000000159
 40
0.4218750000000172
 40
0.4218750000000172
 40
0.4375000000000184
 40
0.4375000000000184
 40
0.4687500000000204
 40
0.4687500000000204
 40
0.4843750000000215
 40
0.4843750000000215
 40
0.5000000000000226
 40
0.5000000000000226
 40
0.531250000000025
 40
0.531250000000025
 40
0.5468750000000261
 40
0.5468750000000261
 40
0.5625000000000273
 40
0.5625000000000273
 40
0.5937500000000319
 40
0.5937500000000319
 40
0.6093750000000329
 40
0.6093750000000329
 40
0.6250000000000339
 40
0.6250000000000339
 40
0.6562500000000338
 40
0.6562500000000338
 40
0.6718750000000343
 40
0.6718750000000343
 40
0.6875000000000347
 40
0.6875000000000347
 40
0.7031250000000353
 40
0.7031250000000353
 40
0.7187500000000357
 40
0.7187500000000357
 40
0.7500000000000359
 40
0.7500000000000359
 40
0.7656250000000351
 40
0.7656250000000351
 40
0.7812500000000344
 40
0.7812500000000344
 40
0.8125000000000339
 40
0.8125000000000339
 40
0.828125000000033
 40
0.828125000000033
 40
0.8437500000000322
 40
0.8437500000000322
 40
0.8593750000000313
 40
0.8593750000000313
 40
0.8750000000000304
 40
0.8750000000000304
 40
0.9062500000000265
 40
0.9062500000000265
 40
0.9218750000000226
 40
0.9218750000000226
 40
0.9375000000000187
 40
0.9375000000000187
 40
0.968750000000008
 40
0.968750000000008
 40
0.9843750000000041
 40
0.9843750000000041
 40
1.0
 40
1.0
 40
1.0
 40
1.0
 10
-819.9999999999957
 20
397.500000000019
 30
0.0
 10
-818.8402763272366
 20
397.5000000000191
 30
0.0
 10
-817.7006536861222
 20
397.3858643613028
 30
0.0
 10
-816.0199658799536
 20
397.050972015371
 30
0.0
 10
-815.464562263196
 20
396.9118538469388
 30
0.0
 10
-814.3635822777479
 20
396.5774482736311
 30
0.0
 10
-813.8173147791867
 20
396.3814794600423
 30
0.0
 10
-812.2294467818303
 20
395.7220344115942
 30
0.0
 10
-811.2258552613198
 20
395.1845017122394
 30
0.0
 10
-809.801338604997
 20
394.2324798537229
 30
0.0
 10
-809.3378488727226
 20
393.8887784151248
 30
0.0
 10
-808.4504362183797
 20
393.1600611313016
 30
0.0
 10
-808.0278322620725
 20
392.7765671007937
 30
0.0
 10
-806.8213449751614
 20
391.5700873220173
 30
0.0
 10
-806.098174103555
 20
390.6916659176244
 30
0.0
 10
-805.1384808634488
 20
389.2582865472805
 30
0.0
 10
-804.8417111702558
 20
388.7637087994179
 30
0.0
 10
-804.3024559729927
 20
387.7565084727007
 30
0.0
 10
-804.0584833104247
 20
387.2417142859222
 30
0.0
 10
-803.6213484365998
 20
386.1898427385235
 30
0.0
 10
-803.4281851426146
 20
385.6527660286147
 30
0.0
 10
-803.0936823234392
 20
384.5557912661692
 30
0.0
 10
-802.9517855702559
 20
383.9925421317477
 30
0.0
 10
-802.6132261143416
 20
382.2974171395976
 30
0.0
 10
-802.5009774343946
 20
381.1598226607799
 30
0.0
 10
-802.4995207248603
 20
379.4423531767451
 30
0.0
 10
-802.5270532219668
 20
378.8680044500214
 30
0.0
 10
-802.6400987430592
 20
377.7154625452002
 30
0.0
 10
-802.7250106185539
 20
377.1446876993344
 30
0.0
 10
-803.0605291349343
 20
375.4594501803147
 30
0.0
 10
-803.3916213201204
 20
374.3669019634121
 30
0.0
 10
-804.0509057479916
 20
372.7746002528268
 30
0.0
 10
-804.2989510747944
 20
372.2504738922129
 30
0.0
 10
-804.8393141690281
 20
371.2403369139276
 30
0.0
 10
-805.1326380772238
 20
370.7514755783819
 30
0.0
 10
-805.764714084673
 20
369.8053793876902
 30
0.0
 10
-806.1034671089138
 20
369.3481455208512
 30
0.0
 10
-806.8269213363961
 20
368.4654593173169
 30
0.0
 10
-807.2135330030761
 20
368.0381390274153
 30
0.0
 10
-808.4312636439535
 20
366.8191895587277
 30
0.0
 10
-809.3105343746411
 20
366.0974502578277
 30
0.0
 10
-810.7287331374603
 20
365.1468016260628
 30
0.0
 10
-811.2181370208159
 20
364.8520780992149
 30
0.0
 10
-812.2314867859666
 20
364.3082551084717
 30
0.0
 10
-812.7539288016496
 20
364.0603708329916
 30
0.0
 10
-814.3388022130729
 20
363.4015017910624
 30
0.0
 10
-815.4292408870364
 20
363.0685378143083
 30
0.0
 10
-817.1164671423957
 20
362.7296699246313
 30
0.0
 10
-817.6898697594886
 20
362.6434921779411
 30
0.0
 10
-818.841868619878
 20
362.5287723038224
 30
0.0
 10
-819.4197965524364
 20
362.5000111159599
 30
0.0
 10
-821.159400772858
 20
362.4999777777784
 30
0.0
 10
-822.2990460315077
 20
362.6140950516881
 30
0.0
 10
-823.9797589847345
 20
362.9489635416322
 30
0.0
 10
-824.5351708709521
 20
363.0880743881602
 30
0.0
 10
-825.6361672085321
 20
363.4224663497066
 30
0.0
 10
-826.1824452341552
 20
363.6184296910554
 30
0.0
 10
-827.7703444068517
 20
364.277861238309
 30
0.0
 10
-828.7739550890839
 20
364.8153877516736
 30
0.0
 10
-830.198498750235
 20
365.7674033465323
 30
0.0
 10
-830.6619968382897
 20
366.111102818143
 30
0.0
 10
-831.5494293633468
 20
366.8398205601532
 30
0.0
 10
-831.9720426402575
 20
367.2233153628886
 30
0.0
 10
-833.1785563187141
 20
368.4297988547448
 30
0.0
 10
-833.9017427146697
 20
369.3082245751604
 30
0.0
 10
-834.8614566526728
 20
370.7416127635319
 30
0.0
 10
-835.1582337483931
 20
371.2361954626915
 30
0.0
 10
-835.697501641281
 20
372.243405221292
 30
0.0
 10
-835.9414799969912
 20
372.7582044059805
 30
0.0
 10
-836.3786250481185
 20
373.810086474496
 30
0.0
 10
-836.5717928259759
 20
374.3471687077237
 30
0.0
 10
-836.9063034318956
 20
375.4441550339481
 30
0.0
 10
-837.0482035301774
 20
376.0074102992313
 30
0.0
 10
-837.3867712070331
 20
377.7025554423627
 30
0.0
 10
-837.4990225537624
 20
378.8401635410825
 30
0.0
 10
-837.5004792810454
 20
380.5576537193892
 30
0.0
 10
-837.4729461164683
 20
381.1320093888855
 30
0.0
 10
-837.3598978325026
 20
382.284565273885
 30
0.0
 10
-837.2749839507712
 20
382.8553465182725
 30
0.0
 10
-836.9394574708601
 20
384.5406032141514
 30
0.0
 10
-836.6083574781828
 20
385.6331634973461
 30
0.0
 10
-835.9490571902569
 20
387.2254821306113
 30
0.0
 10
-835.7010061445379
 20
387.7496132636483
 30
0.0
 10
-835.1606309481369
 20
388.7597584978914
 30
0.0
 10
-834.8673004795891
 20
389.2486236101572
 30
0.0
 10
-834.2352102707941
 20
390.1947266162001
 30
0.0
 10
-833.8964496059907
 20
390.6519635219448
 30
0.0
 10
-833.1729788909372
 20
391.5346549867625
 30
0.0
 10
-832.7863577902207
 20
391.9619779999269
 30
0.0
 10
-831.5686026253388
 20
393.1809288799057
 30
0.0
 10
-830.6893141917211
 20
393.902667358561
 30
0.0
 10
-829.2710862564344
 20
394.8533113822863
 30
0.0
 10
-828.7816722080324
 20
395.1480328046873
 30
0.0
 10
-827.7683010521328
 20
395.6918502218402
 30
0.0
 10
-827.2458508769522
 20
395.939729544569
 30
0.0
 10
-825.6609509561227
 20
396.5985832470996
 30
0.0
 10
-824.5704939032781
 20
396.9315348609031
 30
0.0
 10
-822.8832385368704
 20
397.2703794792258
 30
0.0
 10
-822.3098255642105
 20
397.3565485929765
 30
0.0
 10
-821.157811425545
 20
397.4712491224963
 30
0.0
 10
-820.579861836375
 20
397.5000000000189
 30
0.0
 10
-819.9999999999956
 20
397.500000000019
 30
0.0
  0
CIRCLE
  5
108
330
1F
100
AcDbEntity
  8
0
  6
Continuous
 62
     7
370
    15
100
AcDbCircle
 10
1775.0
 20
500.0
 30
0.0
 40
80.00000000000006
  0
CIRCLE
  5
109
330
1F
100
AcDbEntity
  8
0
  6
Continuous
 62
     7
370
    15
100
AcDbCircle
 10
410.0
 20
380.0000000001
 30
0.0
 40
5.0
  0
CIRCLE
  5
10A
330
1F
100
AcDbEntity
  8
0
  6
Continuous
 62
     7
370
    15
100
AcDbCircle
 10
0.0
 20
380.0000000001
 30
0.0
 40
5.000000000000057
  0
CIRCLE
  5
10B
330
1F
100
AcDbEntity
  8
0
  6
Continuous
 62
     7
370
    15
100
AcDbCircle
 10
-410.0
 20
380.0000000001
 30
0.0
 40
5.000000000000057
  0
CIRCLE
  5
10C
330
1F
100
AcDbEntity
  8
0
  6
Continuous
 62
     7
370
    15
100
AcDbCircle
 10
-820.0
 20
380.0000000001
 30
0.0
 40
5.000000000000171
  0
CIRCLE
  5
10D
330
1F
100
AcDbEntity
  8
0
  6
Continuous
 62
     7
370
    15
100
AcDbCircle
 10
-1230.0
 20
380.0000000001
 30
0.0
 40
5.0
  0
SPLINE
  5
10E
330
1F
100
AcDbEntity
  8
0
  6
Continuous
 62
     7
370
    15
100
AcDbSpline
210
0.0
220
0.0
230
1.0
 70
    11
 71
     3
 72
   106
 73
   102
 74
     0
 42
0.000000001
 43
0.00000001
 40
0.0
 40
0.0
 40
0.0
 40
0.0
 40
0.0312499999999949
 40
0.0312499999999949
 40
0.0468749999999912
 40
0.0468749999999912
 40
0.0624999999999874
 40
0.0624999999999874
 40
0.0937499999999833
 40
0.0937499999999833
 40
0.1093749999999813
 40
0.1093749999999813
 40
0.1249999999999792
 40
0.1249999999999792
 40
0.156249999999975
 40
0.156249999999975
 40
0.1718749999999735
 40
0.1718749999999735
 40
0.187499999999972
 40
0.187499999999972
 40
0.2031249999999704
 40
0.2031249999999704
 40
0.2187499999999689
 40
0.2187499999999689
 40
0.2499999999999664
 40
0.2499999999999664
 40
0.2656249999999651
 40
0.2656249999999651
 40
0.2812499999999639
 40
0.2812499999999639
 40
0.3124999999999614
 40
0.3124999999999614
 40
0.3281249999999604
 40
0.3281249999999604
 40
0.3437499999999594
 40
0.3437499999999594
 40
0.3593749999999584
 40
0.3593749999999584
 40
0.3749999999999574
 40
0.3749999999999574
 40
0.406249999999955
 40
0.406249999999955
 40
0.4218749999999525
 40
0.4218749999999525
 40
0.4374999999999501
 40
0.4374999999999501
 40
0.4687499999999445
 40
0.4687499999999445
 40
0.4843749999999417
 40
0.4843749999999417
 40
0.4999999999999388
 40
0.4999999999999388
 40
0.531249999999936
 40
0.531249999999936
 40
0.5468749999999346
 40
0.5468749999999346
 40
0.5624999999999333
 40
0.5624999999999333
 40
0.5937499999999333
 40
0.5937499999999333
 40
0.6093749999999342
 40
0.6093749999999342
 40
0.624999999999935
 40
0.624999999999935
 40
0.6562499999999368
 40
0.6562499999999368
 40
0.6718749999999382
 40
0.6718749999999382
 40
0.6874999999999395
 40
0.6874999999999395
 40
0.7031249999999408
 40
0.7031249999999408
 40
0.7187499999999422
 40
0.7187499999999422
 40
0.7499999999999457
 40
0.7499999999999457
 40
0.7656249999999484
 40
0.7656249999999484
 40
0.7812499999999509
 40
0.7812499999999509
 40
0.8124999999999557
 40
0.8124999999999557
 40
0.8281249999999578
 40
0.8281249999999578
 40
0.8437499999999599
 40
0.8437499999999599
 40
0.8593749999999621
 40
0.8593749999999621
 40
0.8749999999999643
 40
0.8749999999999643
 40
0.9062499999999706
 40
0.9062499999999706
 40
0.9218749999999758
 40
0.9218749999999758
 40
0.937499999999981
 40
0.937499999999981
 40
0.9687499999999905
 40
0.9687499999999905
 40
0.9843749999999952
 40
0.9843749999999952
 40
1.0
 40
1.0
 40
1.0
 40
1.0
 10
-819.9999999999959
 20
-397.5000000000167
 30
0.0
 10
-821.159723672755
 20
-397.5000000000168
 30
0.0
 10
-822.2993463138691
 20
-397.3858643613002
 30
0.0
 10
-823.9800341200377
 20
-397.0509720153686
 30
0.0
 10
-824.5354377367948
 20
-396.911853846936
 30
0.0
 10
-825.636417722243
 20
-396.5774482736286
 30
0.0
 10
-826.1826852208046
 20
-396.3814794600396
 30
0.0
 10
-827.7705532181611
 20
-395.7220344115916
 30
0.0
 10
-828.7741447386713
 20
-395.1845017122365
 30
0.0
 10
-830.1986613949942
 20
-394.2324798537202
 30
0.0
 10
-830.6621511272685
 20
-393.888778415122
 30
0.0
 10
-831.5495637816115
 20
-393.1600611312991
 30
0.0
 10
-831.9721677379185
 20
-392.7765671007912
 30
0.0
 10
-833.1786550248295
 20
-391.5700873220148
 30
0.0
 10
-833.9018258964362
 20
-390.6916659176219
 30
0.0
 10
-834.8615191365426
 20
-389.2582865472779
 30
0.0
 10
-835.1582888297355
 20
-388.7637087994155
 30
0.0
 10
-835.6975440269985
 20
-387.756508472698
 30
0.0
 10
-835.9415166895662
 20
-387.2417142859197
 30
0.0
 10
-836.3786515633913
 20
-386.189842738521
 30
0.0
 10
-836.5718148573766
 20
-385.6527660286121
 30
0.0
 10
-836.9063176765517
 20
-384.5557912661666
 30
0.0
 10
-837.0482144297357
 20
-383.9925421317452
 30
0.0
 10
-837.3867738856494
 20
-382.297417139595
 30
0.0
 10
-837.4990225655966
 20
-381.1598226607773
 30
0.0
 10
-837.5004792751308
 20
-379.4423531767425
 30
0.0
 10
-837.4729467780246
 20
-378.8680044500186
 30
0.0
 10
-837.3599012569321
 20
-377.7154625451977
 30
0.0
 10
-837.2749893814374
 20
-377.1446876993318
 30
0.0
 10
-836.939470865057
 20
-375.4594501803121
 30
0.0
 10
-836.6083786798711
 20
-374.3669019634093
 30
0.0
 10
-835.9490942519997
 20
-372.774600252824
 30
0.0
 10
-835.7010489251963
 20
-372.2504738922106
 30
0.0
 10
-835.1606858309627
 20
-371.240336913925
 30
0.0
 10
-834.8673619227673
 20
-370.7514755783793
 30
0.0
 10
-834.235285915318
 20
-369.8053793876878
 30
0.0
 10
-833.8965328910774
 20
-369.3481455208485
 30
0.0
 10
-833.1730786635948
 20
-368.4654593173142
 30
0.0
 10
-832.7864669969151
 20
-368.0381390274129
 30
0.0
 10
-831.5687363560376
 20
-366.8191895587251
 30
0.0
 10
-830.6894656253495
 20
-366.097450257825
 30
0.0
 10
-829.2712668625304
 20
-365.1468016260603
 30
0.0
 10
-828.7818629791747
 20
-364.8520780992122
 30
0.0
 10
-827.768513214024
 20
-364.3082551084692
 30
0.0
 10
-827.2460711983415
 20
-364.0603708329892
 30
0.0
 10
-825.6611977869179
 20
-363.4015017910597
 30
0.0
 10
-824.5707591129554
 20
-363.068537814306
 30
0.0
 10
-822.8835328575956
 20
-362.7296699246285
 30
0.0
 10
-822.3101302405032
 20
-362.6434921779386
 30
0.0
 10
-821.1581313801133
 20
-362.5287723038198
 30
0.0
 10
-820.5802034475547
 20
-362.5000111159574
 30
0.0
 10
-818.8405992271333
 20
-362.4999777777758
 30
0.0
 10
-817.7009539684828
 20
-362.6140950516853
 30
0.0
 10
-816.0202410152563
 20
-362.9489635416294
 30
0.0
 10
-815.4648291290384
 20
-363.0880743881575
 30
0.0
 10
-814.3638327914589
 20
-363.4224663497041
 30
0.0
 10
-813.8175547658361
 20
-363.6184296910528
 30
0.0
 10
-812.229655593139
 20
-364.2778612383064
 30
0.0
 10
-811.2260449109067
 20
-364.8153877516712
 30
0.0
 10
-809.8015012497558
 20
-365.7674033465296
 30
0.0
 10
-809.3380031617019
 20
-366.1111028181404
 30
0.0
 10
-808.4505706366442
 20
-366.8398205601506
 30
0.0
 10
-808.0279573597338
 20
-367.223315362886
 30
0.0
 10
-806.821443681277
 20
-368.4297988547422
 30
0.0
 10
-806.0982572853225
 20
-369.3082245751579
 30
0.0
 10
-805.1385433473181
 20
-370.7416127635295
 30
0.0
 10
-804.8417662515983
 20
-371.2361954626889
 30
0.0
 10
-804.3024983587105
 20
-372.2434052212897
 30
0.0
 10
-804.058520003
 20
-372.7582044059778
 30
0.0
 10
-803.621374951873
 20
-373.8100864744937
 30
0.0
 10
-803.4282071740158
 20
-374.3471687077213
 30
0.0
 10
-803.0936965680954
 20
-375.4441550339454
 30
0.0
 10
-802.9517964698141
 20
-376.0074102992289
 30
0.0
 10
-802.6132287929579
 20
-377.7025554423602
 30
0.0
 10
-802.5009774462283
 20
-378.8401635410798
 30
0.0
 10
-802.4995207189457
 20
-380.5576537193865
 30
0.0
 10
-802.5270538835231
 20
-381.1320093888827
 30
0.0
 10
-802.6401021674885
 20
-382.2845652738823
 30
0.0
 10
-802.7250160492197
 20
-382.8553465182698
 30
0.0
 10
-803.0605425291308
 20
-384.5406032141489
 30
0.0
 10
-803.391642521808
 20
-385.6331634973439
 30
0.0
 10
-804.0509428097349
 20
-387.2254821306089
 30
0.0
 10
-804.2989938554527
 20
-387.7496132636459
 30
0.0
 10
-804.8393690518543
 20
-388.759758497889
 30
0.0
 10
-805.132699520402
 20
-389.2486236101545
 30
0.0
 10
-805.7647897291968
 20
-390.1947266161976
 30
0.0
 10
-806.1035503940001
 20
-390.6519635219423
 30
0.0
 10
-806.827021109054
 20
-391.5346549867601
 30
0.0
 10
-807.2136422097705
 20
-391.9619779999245
 30
0.0
 10
-808.4313973746521
 20
-393.1809288799031
 30
0.0
 10
-809.3106858082707
 20
-393.9026673585583
 30
0.0
 10
-810.7289137435571
 20
-394.8533113822838
 30
0.0
 10
-811.2183277919594
 20
-395.1480328046846
 30
0.0
 10
-812.2316989478583
 20
-395.6918502218375
 30
0.0
 10
-812.7541491230392
 20
-395.9397295445663
 30
0.0
 10
-814.3390490438683
 20
-396.5985832470971
 30
0.0
 10
-815.4295060967136
 20
-396.9315348609002
 30
0.0
 10
-817.1167614631211
 20
-397.270379479223
 30
0.0
 10
-817.6901744357807
 20
-397.3565485929739
 30
0.0
 10
-818.8421885744461
 20
-397.4712491224937
 30
0.0
 10
-819.4201381636161
 20
-397.5000000000167
 30
0.0
 10
-819.9999999999959
 20
-397.5000000000167
 30
0.0
  0
SPLINE
  5
10F
330
1F
100
AcDbEntity
  8
0
  6
Continuous
 62
     7
370
    15
100
AcDbSpline
210
0.0
220
0.0
230
1.0
 70
    11
 71
     3
 72
   106
 73
   102
 74
     0
 42
0.000000001
 43
0.00000001
 40
0.0
 40
0.0
 40
0.0
 40
0.0
 40
0.0312499999999993
 40
0.0312499999999993
 40
0.0468749999999989
 40
0.0468749999999989
 40
0.0624999999999985
 40
0.0624999999999985
 40
0.0937499999999977
 40
0.0937499999999977
 40
0.1093749999999973
 40
0.1093749999999973
 40
0.1249999999999969
 40
0.1249999999999969
 40
0.1562499999999962
 40
0.1562499999999962
 40
0.1718749999999961
 40
0.1718749999999961
 40
0.187499999999996
 40
0.187499999999996
 40
0.2031249999999959
 40
0.2031249999999959
 40
0.2187499999999959
 40
0.2187499999999959
 40
0.2499999999999958
 40
0.2499999999999958
 40
0.2656249999999957
 40
0.2656249999999957
 40
0.2812499999999956
 40
0.2812499999999956
 40
0.3124999999999955
 40
0.3124999999999955
 40
0.3281249999999957
 40
0.3281249999999957
 40
0.3437499999999959
 40
0.3437499999999959
 40
0.3593749999999961
 40
0.3593749999999961
 40
0.3749999999999962
 40
0.3749999999999962
 40
0.4062499999999983
 40
0.4062499999999983
 40
0.4218749999999994
 40
0.4218749999999994
 40
0.4375000000000005
 40
0.4375000000000005
 40
0.4687500000000021
 40
0.4687500000000021
 40
0.4843750000000027
 40
0.4843750000000027
 40
0.5000000000000033
 40
0.5000000000000033
 40
0.5312500000000046
 40
0.5312500000000046
 40
0.5468750000000052
 40
0.5468750000000052
 40
0.5625000000000059
 40
0.5625000000000059
 40
0.5937500000000072
 40
0.5937500000000072
 40
0.6093750000000079
 40
0.6093750000000079
 40
0.6250000000000085
 40
0.6250000000000085
 40
0.6562500000000098
 40
0.6562500000000098
 40
0.6718750000000101
 40
0.6718750000000101
 40
0.6875000000000104
 40
0.6875000000000104
 40
0.7031250000000107
 40
0.7031250000000107
 40
0.718750000000011
 40
0.718750000000011
 40
0.7500000000000119
 40
0.7500000000000119
 40
0.7656250000000117
 40
0.7656250000000117
 40
0.7812500000000114
 40
0.7812500000000114
 40
0.8125000000000111
 40
0.8125000000000111
 40
0.8281250000000108
 40
0.8281250000000108
 40
0.8437500000000104
 40
0.8437500000000104
 40
0.8593750000000101
 40
0.8593750000000101
 40
0.8750000000000097
 40
0.8750000000000097
 40
0.9062500000000079
 40
0.9062500000000079
 40
0.9218750000000068
 40
0.9218750000000068
 40
0.9375000000000058
 40
0.9375000000000058
 40
0.9687500000000028
 40
0.9687500000000028
 40
0.9843750000000013
 40
0.9843750000000013
 40
1.0
 40
1.0
 40
1.0
 40
1.0
 10
0.0000000000044416
 20
-397.5000000000165
 30
0.0
 10
-1.159723672754666
 20
-397.5000000000165
 30
0.0
 10
-2.299346313869111
 20
-397.3858643612999
 30
0.0
 10
-3.980034120037589
 20
-397.0509720153687
 30
0.0
 10
-4.535437736795045
 20
-396.9118538469363
 30
0.0
 10
-5.636417722243177
 20
-396.5774482736287
 30
0.0
 10
-6.182685220804609
 20
-396.3814794600399
 30
0.0
 10
-7.770553218161101
 20
-395.7220344115916
 30
0.0
 10
-8.774144738671843
 20
-395.1845017122364
 30
0.0
 10
-10.19866139499411
 20
-394.2324798537203
 30
0.0
 10
-10.66215112726841
 20
-393.8887784151221
 30
0.0
 10
-11.54956378161141
 20
-393.160061131299
 30
0.0
 10
-11.97216773791862
 20
-392.7765671007913
 30
0.0
 10
-13.17865502482988
 20
-391.5700873220148
 30
0.0
 10
-13.9018258964365
 20
-390.6916659176218
 30
0.0
 10
-14.86151913654282
 20
-389.2582865472779
 30
0.0
 10
-15.15828882973544
 20
-388.7637087994154
 30
0.0
 10
-15.69754402699857
 20
-387.7565084726981
 30
0.0
 10
-15.94151668956688
 20
-387.2417142859198
 30
0.0
 10
-16.37865156339112
 20
-386.1898427385208
 30
0.0
 10
-16.57181485737693
 20
-385.6527660286121
 30
0.0
 10
-16.90631767655188
 20
-384.5557912661666
 30
0.0
 10
-17.04821442973559
 20
-383.9925421317451
 30
0.0
 10
-17.3867738856496
 20
-382.2974171395949
 30
0.0
 10
-17.49902256559634
 20
-381.1598226607771
 30
0.0
 10
-17.50047927513106
 20
-379.4423531767425
 30
0.0
 10
-17.47294677802465
 20
-378.8680044500188
 30
0.0
 10
-17.35990125693195
 20
-377.7154625451977
 30
0.0
 10
-17.27498938143747
 20
-377.1446876993319
 30
0.0
 10
-16.93947086505709
 20
-375.459450180312
 30
0.0
 10
-16.60837867987082
 20
-374.3669019634093
 30
0.0
 10
-15.94909425199974
 20
-372.7746002528242
 30
0.0
 10
-15.70104892519668
 20
-372.2504738922104
 30
0.0
 10
-15.16068583096292
 20
-371.2403369139251
 30
0.0
 10
-14.8673619227674
 20
-370.7514755783791
 30
0.0
 10
-14.23528591531837
 20
-369.8053793876875
 30
0.0
 10
-13.89653289107737
 20
-369.3481455208486
 30
0.0
 10
-13.173078663595
 20
-368.4654593173142
 30
0.0
 10
-12.78646699691521
 20
-368.0381390274127
 30
0.0
 10
-11.56873635603765
 20
-366.8191895587253
 30
0.0
 10
-10.68946562535014
 20
-366.0974502578248
 30
0.0
 10
-9.271266862530453
 20
-365.14680162606
 30
0.0
 10
-8.781862979174925
 20
-364.8520780992122
 30
0.0
 10
-7.768513214024331
 20
-364.308255108469
 30
0.0
 10
-7.24607119834134
 20
-364.0603708329891
 30
0.0
 10
-5.661197786918248
 20
-363.4015017910597
 30
0.0
 10
-4.570759112955496
 20
-363.0685378143058
 30
0.0
 10
-2.883532857595771
 20
-362.7296699246285
 30
0.0
 10
-2.310130240502732
 20
-362.6434921779385
 30
0.0
 10
-1.158131380113381
 20
-362.5287723038199
 30
0.0
 10
-0.5802034475548353
 20
-362.5000111159572
 30
0.0
 10
1.159400772866713
 20
-362.4999777777759
 30
0.0
 10
2.299046031516601
 20
-362.6140950516855
 30
0.0
 10
3.97975898474347
 20
-362.9489635416293
 30
0.0
 10
4.535170870961357
 20
-363.0880743881576
 30
0.0
 10
5.636167208541062
 20
-363.4224663497039
 30
0.0
 10
6.182445234163973
 20
-363.6184296910527
 30
0.0
 10
7.770344406860701
 20
-364.2778612383063
 30
0.0
 10
8.773955089093
 20
-364.8153877516713
 30
0.0
 10
10.19849875024406
 20
-365.7674033465295
 30
0.0
 10
10.66199683829819
 20
-366.1111028181402
 30
0.0
 10
11.54942936335565
 20
-366.8398205601504
 30
0.0
 10
11.97204264026617
 20
-367.223315362886
 30
0.0
 10
13.17855631872292
 20
-368.4297988547422
 30
0.0
 10
13.90174271467836
 20
-369.3082245751578
 30
0.0
 10
14.86145665268172
 20
-370.7416127635294
 30
0.0
 10
15.15823374840155
 20
-371.2361954626888
 30
0.0
 10
15.69750164128972
 20
-372.2434052212894
 30
0.0
 10
15.94147999700001
 20
-372.7582044059777
 30
0.0
 10
16.37862504812728
 20
-373.8100864744935
 30
0.0
 10
16.57179282598423
 20
-374.3471687077212
 30
0.0
 10
16.90630343190445
 20
-375.4441550339455
 30
0.0
 10
17.04820353018636
 20
-376.0074102992288
 30
0.0
 10
17.38677120704202
 20
-377.7025554423603
 30
0.0
 10
17.49902255377148
 20
-378.84016354108
 30
0.0
 10
17.50047928105429
 20
-380.5576537193866
 30
0.0
 10
17.47294611647712
 20
-381.132009388883
 30
0.0
 10
17.35989783251156
 20
-382.2845652738823
 30
0.0
 10
17.27498395078012
 20
-382.8553465182699
 30
0.0
 10
16.93945747086945
 20
-384.540603214149
 30
0.0
 10
16.60835747819204
 20
-385.6331634973438
 30
0.0
 10
15.94905719026539
 20
-387.2254821306088
 30
0.0
 10
15.70100614454715
 20
-387.7496132636461
 30
0.0
 10
15.16063094814577
 20
-388.7597584978889
 30
0.0
 10
14.86730047959798
 20
-389.2486236101548
 30
0.0
 10
14.23521027080323
 20
-390.1947266161976
 30
0.0
 10
13.89644960599958
 20
-390.6519635219422
 30
0.0
 10
13.172978890946
 20
-391.5346549867601
 30
0.0
 10
12.78635779022957
 20
-391.9619779999245
 30
0.0
 10
11.56860262534791
 20
-393.180928879903
 30
0.0
 10
10.68931419172936
 20
-393.9026673585585
 30
0.0
 10
9.271086256443091
 20
-394.8533113822837
 30
0.0
 10
8.781672208040968
 20
-395.1480328046846
 30
0.0
 10
7.768301052141688
 20
-395.6918502218376
 30
0.0
 10
7.245850876960784
 20
-395.9397295445664
 30
0.0
 10
5.660950956131746
 20
-396.5985832470975
 30
0.0
 10
4.570493903286545
 20
-396.9315348609003
 30
0.0
 10
2.883238536879101
 20
-397.270379479223
 30
0.0
 10
2.309825564218981
 20
-397.3565485929738
 30
0.0
 10
1.157811425553902
 20
-397.4712491224936
 30
0.0
 10
0.5798618363839595
 20
-397.5000000000165
 30
0.0
 10
0.0000000000044423
 20
-397.5000000000164
 30
0.0
  0
SPLINE
  5
110
330
1F
100
AcDbEntity
  8
0
  6
Continuous
 62
     7
370
    15
100
AcDbSpline
210
0.0
220
0.0
230
1.0
 70
    11
 71
     3
 72
   106
 73
   102
 74
     0
 42
0.000000001
 43
0.00000001
 40
0.0
 40
0.0
 40
0.0
 40
0.0
 40
0.0312499999999983
 40
0.0312499999999983
 40
0.0468749999999989
 40
0.0468749999999989
 40
0.0624999999999995
 40
0.0624999999999995
 40
0.093749999999998
 40
0.093749999999998
 40
0.1093749999999972
 40
0.1093749999999972
 40
0.1249999999999964
 40
0.1249999999999964
 40
0.156249999999996
 40
0.156249999999996
 40
0.1718749999999946
 40
0.1718749999999946
 40
0.1874999999999932
 40
0.1874999999999932
 40
0.2031249999999918
 40
0.2031249999999918
 40
0.2187499999999905
 40
0.2187499999999905
 40
0.2499999999999871
 40
0.2499999999999871
 40
0.2656249999999855
 40
0.2656249999999855
 40
0.2812499999999837
 40
0.2812499999999837
 40
0.3124999999999805
 40
0.3124999999999805
 40
0.3281249999999797
 40
0.3281249999999797
 40
0.343749999999979
 40
0.343749999999979
 40
0.3593749999999782
 40
0.3593749999999782
 40
0.3749999999999775
 40
0.3749999999999775
 40
0.4062499999999735
 40
0.4062499999999735
 40
0.4218749999999728
 40
0.4218749999999728
 40
0.437499999999972
 40
0.437499999999972
 40
0.4687499999999706
 40
0.4687499999999706
 40
0.4843749999999697
 40
0.4843749999999697
 40
0.4999999999999689
 40
0.4999999999999689
 40
0.5312499999999671
 40
0.5312499999999671
 40
0.5468749999999665
 40
0.5468749999999665
 40
0.5624999999999658
 40
0.5624999999999658
 40
0.5937499999999675
 40
0.5937499999999675
 40
0.6093749999999695
 40
0.6093749999999695
 40
0.6249999999999716
 40
0.6249999999999716
 40
0.6562499999999746
 40
0.6562499999999746
 40
0.6718749999999767
 40
0.6718749999999767
 40
0.6874999999999787
 40
0.6874999999999787
 40
0.7031249999999807
 40
0.7031249999999807
 40
0.7187499999999828
 40
0.7187499999999828
 40
0.7499999999999866
 40
0.7499999999999866
 40
0.7656249999999893
 40
0.7656249999999893
 40
0.781249999999992
 40
0.781249999999992
 40
0.8124999999999982
 40
0.8124999999999982
 40
0.8281250000000004
 40
0.8281250000000004
 40
0.8437500000000028
 40
0.8437500000000028
 40
0.859375000000005
 40
0.859375000000005
 40
0.8750000000000072
 40
0.8750000000000072
 40
0.9062500000000087
 40
0.9062500000000087
 40
0.921875000000008
 40
0.921875000000008
 40
0.9375000000000074
 40
0.9375000000000074
 40
0.968750000000005
 40
0.968750000000005
 40
0.9843750000000026
 40
0.9843750000000026
 40
1.0
 40
1.0
 40
1.0
 40
1.0
 10
820.0000000000044
 20
-397.5000000000165
 30
0.0
 10
818.8402763272451
 20
-397.5000000000165
 30
0.0
 10
817.7006536861312
 20
-397.3858643613
 30
0.0
 10
816.0199658799622
 20
-397.0509720153684
 30
0.0
 10
815.4645622632047
 20
-396.9118538469361
 30
0.0
 10
814.363582277757
 20
-396.5774482736286
 30
0.0
 10
813.8173147791952
 20
-396.3814794600396
 30
0.0
 10
812.2294467818391
 20
-395.7220344115913
 30
0.0
 10
811.2258552613283
 20
-395.1845017122367
 30
0.0
 10
809.8013386050058
 20
-394.2324798537202
 30
0.0
 10
809.3378488727317
 20
-393.8887784151218
 30
0.0
 10
808.4504362183883
 20
-393.160061131299
 30
0.0
 10
808.0278322620816
 20
-392.7765671007911
 30
0.0
 10
806.82134497517
 20
-391.5700873220147
 30
0.0
 10
806.098174103564
 20
-390.6916659176217
 30
0.0
 10
805.1384808634576
 20
-389.2582865472777
 30
0.0
 10
804.8417111702647
 20
-388.7637087994155
 30
0.0
 10
804.3024559730019
 20
-387.7565084726983
 30
0.0
 10
804.0584833104335
 20
-387.2417142859197
 30
0.0
 10
803.6213484366089
 20
-386.1898427385206
 30
0.0
 10
803.4281851426233
 20
-385.652766028612
 30
0.0
 10
803.0936823234481
 20
-384.5557912661665
 30
0.0
 10
802.9517855702647
 20
-383.992542131745
 30
0.0
 10
802.6132261143505
 20
-382.2974171395948
 30
0.0
 10
802.5009774344035
 20
-381.1598226607773
 30
0.0
 10
802.499520724869
 20
-379.4423531767425
 30
0.0
 10
802.5270532219754
 20
-378.8680044500187
 30
0.0
 10
802.6400987430682
 20
-377.7154625451977
 30
0.0
 10
802.7250106185627
 20
-377.1446876993318
 30
0.0
 10
803.0605291349432
 20
-375.4594501803118
 30
0.0
 10
803.3916213201293
 20
-374.3669019634092
 30
0.0
 10
804.0509057480008
 20
-372.7746002528241
 30
0.0
 10
804.2989510748032
 20
-372.2504738922104
 30
0.0
 10
804.839314169037
 20
-371.2403369139251
 30
0.0
 10
805.1326380772324
 20
-370.7514755783792
 30
0.0
 10
805.7647140846817
 20
-369.8053793876878
 30
0.0
 10
806.1034671089229
 20
-369.3481455208484
 30
0.0
 10
806.8269213364051
 20
-368.4654593173142
 30
0.0
 10
807.2135330030849
 20
-368.0381390274129
 30
0.0
 10
808.4312636439626
 20
-366.8191895587253
 30
0.0
 10
809.3105343746502
 20
-366.0974502578249
 30
0.0
 10
810.7287331374698
 20
-365.1468016260601
 30
0.0
 10
811.2181370208251
 20
-364.8520780992122
 30
0.0
 10
812.2314867859757
 20
-364.3082551084689
 30
0.0
 10
812.7539288016586
 20
-364.060370832989
 30
0.0
 10
814.3388022130819
 20
-363.4015017910597
 30
0.0
 10
815.4292408870452
 20
-363.0685378143062
 30
0.0
 10
817.1164671424045
 20
-362.7296699246285
 30
0.0
 10
817.6898697594974
 20
-362.6434921779385
 30
0.0
 10
818.8418686198868
 20
-362.5287723038197
 30
0.0
 10
819.4197965524452
 20
-362.5000111159572
 30
0.0
 10
821.1594007728663
 20
-362.4999777777758
 30
0.0
 10
822.2990460315167
 20
-362.6140950516853
 30
0.0
 10
823.9797589847432
 20
-362.9489635416294
 30
0.0
 10
824.5351708709617
 20
-363.0880743881575
 30
0.0
 10
825.6361672085411
 20
-363.4224663497041
 30
0.0
 10
826.1824452341641
 20
-363.6184296910528
 30
0.0
 10
827.7703444068605
 20
-364.2778612383063
 30
0.0
 10
828.7739550890931
 20
-364.8153877516712
 30
0.0
 10
830.1984987502444
 20
-365.7674033465295
 30
0.0
 10
830.6619968382984
 20
-366.1111028181403
 30
0.0
 10
831.5494293633554
 20
-366.8398205601505
 30
0.0
 10
831.9720426402661
 20
-367.2233153628858
 30
0.0
 10
833.1785563187228
 20
-368.429798854742
 30
0.0
 10
833.901742714678
 20
-369.3082245751577
 30
0.0
 10
834.8614566526817
 20
-370.7416127635294
 30
0.0
 10
835.1582337484014
 20
-371.236195462689
 30
0.0
 10
835.6975016412896
 20
-372.2434052212894
 30
0.0
 10
835.9414799970003
 20
-372.7582044059779
 30
0.0
 10
836.3786250481272
 20
-373.8100864744935
 30
0.0
 10
836.5717928259847
 20
-374.3471687077212
 30
0.0
 10
836.9063034319046
 20
-375.4441550339455
 30
0.0
 10
837.0482035301864
 20
-376.0074102992286
 30
0.0
 10
837.3867712070419
 20
-377.7025554423602
 30
0.0
 10
837.499022553771
 20
-378.8401635410796
 30
0.0
 10
837.5004792810544
 20
-380.5576537193866
 30
0.0
 10
837.4729461164769
 20
-381.1320093888828
 30
0.0
 10
837.3598978325114
 20
-382.2845652738823
 30
0.0
 10
837.2749839507804
 20
-382.85534651827
 30
0.0
 10
836.9394574708693
 20
-384.5406032141491
 30
0.0
 10
836.6083574781917
 20
-385.6331634973436
 30
0.0
 10
835.9490571902655
 20
-387.2254821306088
 30
0.0
 10
835.7010061445474
 20
-387.7496132636456
 30
0.0
 10
835.1606309481457
 20
-388.7597584978887
 30
0.0
 10
834.8673004795982
 20
-389.2486236101546
 30
0.0
 10
834.2352102708035
 20
-390.1947266161976
 30
0.0
 10
833.8964496059997
 20
-390.6519635219423
 30
0.0
 10
833.1729788909461
 20
-391.53465498676
 30
0.0
 10
832.7863577902299
 20
-391.9619779999244
 30
0.0
 10
831.5686026253481
 20
-393.1809288799029
 30
0.0
 10
830.6893141917293
 20
-393.9026673585583
 30
0.0
 10
829.271086256443
 20
-394.8533113822837
 30
0.0
 10
828.7816722080408
 20
-395.1480328046846
 30
0.0
 10
827.7683010521416
 20
-395.6918502218375
 30
0.0
 10
827.245850876961
 20
-395.9397295445663
 30
0.0
 10
825.6609509561314
 20
-396.5985832470973
 30
0.0
 10
824.570493903286
 20
-396.9315348609001
 30
0.0
 10
822.8832385368789
 20
-397.270379479223
 30
0.0
 10
822.3098255642193
 20
-397.356548592974
 30
0.0
 10
821.1578114255543
 20
-397.4712491224936
 30
0.0
 10
820.5798618363841
 20
-397.5000000000164
 30
0.0
 10
820.0000000000045
 20
-397.5000000000165
 30
0.0
  0
SPLINE
  5
111
330
1F
100
AcDbEntity
  8
0
  6
Continuous
 62
     7
370
    15
100
AcDbSpline
210
0.0
220
0.0
230
1.0
 70
    11
 71
     3
 72
   106
 73
   102
 74
     0
 42
0.000000001
 43
0.00000001
 40
0.0
 40
0.0
 40
0.0
 40
0.0
 40
0.0312499999999994
 40
0.0312499999999994
 40
0.0468749999999994
 40
0.0468749999999994
 40
0.0624999999999994
 40
0.0624999999999994
 40
0.0937499999999994
 40
0.0937499999999994
 40
0.1093749999999994
 40
0.1093749999999994
 40
0.1249999999999994
 40
0.1249999999999994
 40
0.156250000000003
 40
0.156250000000003
 40
0.1718750000000062
 40
0.1718750000000062
 40
0.1875000000000093
 40
0.1875000000000093
 40
0.2031250000000125
 40
0.2031250000000125
 40
0.2187500000000157
 40
0.2187500000000157
 40
0.2500000000000231
 40
0.2500000000000231
 40
0.2656250000000269
 40
0.2656250000000269
 40
0.2812500000000306
 40
0.2812500000000306
 40
0.3125000000000369
 40
0.3125000000000369
 40
0.3281250000000399
 40
0.3281250000000399
 40
0.3437500000000428
 40
0.3437500000000428
 40
0.3593750000000457
 40
0.3593750000000457
 40
0.3750000000000486
 40
0.3750000000000486
 40
0.406250000000052
 40
0.406250000000052
 40
0.4218750000000512
 40
0.4218750000000512
 40
0.4375000000000503
 40
0.4375000000000503
 40
0.4687500000000426
 40
0.4687500000000426
 40
0.4843750000000385
 40
0.4843750000000385
 40
0.5000000000000345
 40
0.5000000000000345
 40
0.5312500000000264
 40
0.5312500000000264
 40
0.5468750000000223
 40
0.5468750000000223
 40
0.5625000000000183
 40
0.5625000000000183
 40
0.5937500000000153
 40
0.5937500000000153
 40
0.6093750000000162
 40
0.6093750000000162
 40
0.6250000000000172
 40
0.6250000000000172
 40
0.6562500000000149
 40
0.6562500000000149
 40
0.6718750000000123
 40
0.6718750000000123
 40
0.6875000000000099
 40
0.6875000000000099
 40
0.7031250000000073
 40
0.7031250000000073
 40
0.7187500000000049
 40
0.7187500000000049
 40
0.7500000000000012
 40
0.7500000000000012
 40
0.7656250000000002
 40
0.7656250000000002
 40
0.7812499999999991
 40
0.7812499999999991
 40
0.8124999999999973
 40
0.8124999999999973
 40
0.8281249999999962
 40
0.8281249999999962
 40
0.843749999999995
 40
0.843749999999995
 40
0.8593749999999939
 40
0.8593749999999939
 40
0.8749999999999927
 40
0.8749999999999927
 40
0.9062499999999936
 40
0.9062499999999936
 40
0.9218749999999948
 40
0.9218749999999948
 40
0.9374999999999959
 40
0.9374999999999959
 40
0.9687499999999978
 40
0.9687499999999978
 40
0.9843749999999989
 40
0.9843749999999989
 40
1.0
 40
1.0
 40
1.0
 40
1.0
 10
1230.000000000004
 20
-397.5000000000165
 30
0.0
 10
1228.840276327245
 20
-397.5000000000164
 30
0.0
 10
1227.700653686131
 20
-397.3858643613002
 30
0.0
 10
1226.019965879962
 20
-397.0509720153686
 30
0.0
 10
1225.464562263205
 20
-396.9118538469363
 30
0.0
 10
1224.363582277757
 20
-396.5774482736288
 30
0.0
 10
1223.817314779195
 20
-396.3814794600398
 30
0.0
 10
1222.229446781839
 20
-395.7220344115914
 30
0.0
 10
1221.225855261328
 20
-395.1845017122365
 30
0.0
 10
1219.801338605005
 20
-394.2324798537203
 30
0.0
 10
1219.337848872732
 20
-393.8887784151222
 30
0.0
 10
1218.450436218389
 20
-393.1600611312993
 30
0.0
 10
1218.027832262081
 20
-392.7765671007912
 30
0.0
 10
1216.82134497517
 20
-391.5700873220148
 30
0.0
 10
1216.098174103564
 20
-390.6916659176217
 30
0.0
 10
1215.138480863457
 20
-389.2582865472781
 30
0.0
 10
1214.841711170265
 20
-388.7637087994155
 30
0.0
 10
1214.302455973001
 20
-387.7565084726981
 30
0.0
 10
1214.058483310434
 20
-387.2417142859199
 30
0.0
 10
1213.621348436609
 20
-386.189842738521
 30
0.0
 10
1213.428185142623
 20
-385.6527660286122
 30
0.0
 10
1213.093682323448
 20
-384.5557912661666
 30
0.0
 10
1212.951785570264
 20
-383.9925421317452
 30
0.0
 10
1212.61322611435
 20
-382.2974171395949
 30
0.0
 10
1212.500977434403
 20
-381.1598226607772
 30
0.0
 10
1212.499520724868
 20
-379.4423531767424
 30
0.0
 10
1212.527053221975
 20
-378.8680044500189
 30
0.0
 10
1212.640098743068
 20
-377.7154625451975
 30
0.0
 10
1212.725010618563
 20
-377.1446876993318
 30
0.0
 10
1213.060529134943
 20
-375.4594501803119
 30
0.0
 10
1213.391621320131
 20
-374.3669019634098
 30
0.0
 10
1214.050905748
 20
-372.7746002528241
 30
0.0
 10
1214.298951074804
 20
-372.2504738922103
 30
0.0
 10
1214.839314169037
 20
-371.2403369139251
 30
0.0
 10
1215.132638077233
 20
-370.751475578379
 30
0.0
 10
1215.764714084682
 20
-369.8053793876875
 30
0.0
 10
1216.103467108923
 20
-369.3481455208485
 30
0.0
 10
1216.826921336405
 20
-368.4654593173142
 30
0.0
 10
1217.213533003085
 20
-368.038139027413
 30
0.0
 10
1218.431263643963
 20
-366.8191895587252
 30
0.0
 10
1219.31053437465
 20
-366.0974502578253
 30
0.0
 10
1220.72873313747
 20
-365.1468016260602
 30
0.0
 10
1221.218137020825
 20
-364.8520780992122
 30
0.0
 10
1222.231486785976
 20
-364.308255108469
 30
0.0
 10
1222.753928801659
 20
-364.060370832989
 30
0.0
 10
1224.338802213082
 20
-363.4015017910597
 30
0.0
 10
1225.429240887046
 20
-363.068537814306
 30
0.0
 10
1227.116467142404
 20
-362.7296699246285
 30
0.0
 10
1227.689869759498
 20
-362.6434921779385
 30
0.0
 10
1228.841868619886
 20
-362.5287723038197
 30
0.0
 10
1229.419796552446
 20
-362.5000111159574
 30
0.0
 10
1231.159400772867
 20
-362.4999777777757
 30
0.0
 10
1232.299046031517
 20
-362.6140950516852
 30
0.0
 10
1233.979758984744
 20
-362.9489635416295
 30
0.0
 10
1234.535170870961
 20
-363.0880743881574
 30
0.0
 10
1235.636167208541
 20
-363.4224663497039
 30
0.0
 10
1236.182445234163
 20
-363.6184296910526
 30
0.0
 10
1237.770344406861
 20
-364.2778612383063
 30
0.0
 10
1238.773955089093
 20
-364.8153877516713
 30
0.0
 10
1240.198498750244
 20
-365.7674033465295
 30
0.0
 10
1240.661996838298
 20
-366.1111028181405
 30
0.0
 10
1241.549429363356
 20
-366.8398205601504
 30
0.0
 10
1241.972042640266
 20
-367.2233153628859
 30
0.0
 10
1243.178556318723
 20
-368.4297988547422
 30
0.0
 10
1243.901742714679
 20
-369.3082245751575
 30
0.0
 10
1244.861456652682
 20
-370.7416127635296
 30
0.0
 10
1245.158233748402
 20
-371.236195462689
 30
0.0
 10
1245.69750164129
 20
-372.2434052212896
 30
0.0
 10
1245.941479997
 20
-372.758204405978
 30
0.0
 10
1246.378625048128
 20
-373.8100864744939
 30
0.0
 10
1246.571792825985
 20
-374.3471687077213
 30
0.0
 10
1246.906303431904
 20
-375.4441550339455
 30
0.0
 10
1247.048203530186
 20
-376.0074102992289
 30
0.0
 10
1247.386771207043
 20
-377.7025554423602
 30
0.0
 10
1247.499022553772
 20
-378.8401635410798
 30
0.0
 10
1247.500479281054
 20
-380.5576537193866
 30
0.0
 10
1247.472946116477
 20
-381.1320093888829
 30
0.0
 10
1247.359897832511
 20
-382.2845652738823
 30
0.0
 10
1247.274983950781
 20
-382.85534651827
 30
0.0
 10
1246.93945747087
 20
-384.5406032141492
 30
0.0
 10
1246.608357478192
 20
-385.6331634973438
 30
0.0
 10
1245.949057190265
 20
-387.2254821306088
 30
0.0
 10
1245.701006144548
 20
-387.7496132636459
 30
0.0
 10
1245.160630948146
 20
-388.759758497889
 30
0.0
 10
1244.867300479598
 20
-389.2486236101548
 30
0.0
 10
1244.235210270803
 20
-390.1947266161976
 30
0.0
 10
1243.896449606
 20
-390.6519635219424
 30
0.0
 10
1243.172978890947
 20
-391.5346549867603
 30
0.0
 10
1242.78635779023
 20
-391.9619779999246
 30
0.0
 10
1241.568602625347
 20
-393.1809288799031
 30
0.0
 10
1240.689314191729
 20
-393.9026673585584
 30
0.0
 10
1239.271086256443
 20
-394.8533113822841
 30
0.0
 10
1238.781672208042
 20
-395.1480328046847
 30
0.0
 10
1237.768301052142
 20
-395.6918502218377
 30
0.0
 10
1237.245850876961
 20
-395.9397295445666
 30
0.0
 10
1235.660950956132
 20
-396.5985832470972
 30
0.0
 10
1234.570493903287
 20
-396.9315348609006
 30
0.0
 10
1232.883238536879
 20
-397.270379479223
 30
0.0
 10
1232.309825564218
 20
-397.3565485929738
 30
0.0
 10
1231.157811425554
 20
-397.4712491224936
 30
0.0
 10
1230.579861836384
 20
-397.5000000000165
 30
0.0
 10
1230.000000000004
 20
-397.5000000000165
 30
0.0
  0
SPLINE
  5
112
330
1F
100
AcDbEntity
  8
0
  6
Continuous
 62
     7
370
    15
100
AcDbSpline
210
0.0
220
0.0
230
1.0
 70
    11
 71
     3
 72
   106
 73
   102
 74
     0
 42
0.000000001
 43
0.00000001
 40
0.0
 40
0.0
 40
0.0
 40
0.0
 40
0.0312499999999966
 40
0.0312499999999966
 40
0.0468749999999958
 40
0.0468749999999958
 40
0.062499999999995
 40
0.062499999999995
 40
0.0937499999999933
 40
0.0937499999999933
 40
0.1093749999999925
 40
0.1093749999999925
 40
0.1249999999999917
 40
0.1249999999999917
 40
0.1562499999999911
 40
0.1562499999999911
 40
0.1718749999999911
 40
0.1718749999999911
 40
0.1874999999999912
 40
0.1874999999999912
 40
0.2031249999999912
 40
0.2031249999999912
 40
0.2187499999999912
 40
0.2187499999999912
 40
0.2499999999999913
 40
0.2499999999999913
 40
0.2656249999999913
 40
0.2656249999999913
 40
0.2812499999999913
 40
0.2812499999999913
 40
0.3124999999999914
 40
0.3124999999999914
 40
0.3281249999999916
 40
0.3281249999999916
 40
0.3437499999999919
 40
0.3437499999999919
 40
0.3593749999999921
 40
0.3593749999999921
 40
0.3749999999999924
 40
0.3749999999999924
 40
0.4062499999999957
 40
0.4062499999999957
 40
0.4218749999999967
 40
0.4218749999999967
 40
0.4374999999999977
 40
0.4374999999999977
 40
0.4687499999999992
 40
0.4687499999999992
 40
0.4843750000000005
 40
0.4843750000000005
 40
0.5000000000000019
 40
0.5000000000000019
 40
0.531250000000006
 40
0.531250000000006
 40
0.5468750000000077
 40
0.5468750000000077
 40
0.5625000000000093
 40
0.5625000000000093
 40
0.5937500000000107
 40
0.5937500000000107
 40
0.6093750000000108
 40
0.6093750000000108
 40
0.6250000000000109
 40
0.6250000000000109
 40
0.656250000000012
 40
0.656250000000012
 40
0.6718750000000123
 40
0.6718750000000123
 40
0.6875000000000127
 40
0.6875000000000127
 40
0.703125000000013
 40
0.703125000000013
 40
0.7187500000000132
 40
0.7187500000000132
 40
0.7500000000000141
 40
0.7500000000000141
 40
0.7656250000000138
 40
0.7656250000000138
 40
0.7812500000000133
 40
0.7812500000000133
 40
0.8125000000000129
 40
0.8125000000000129
 40
0.8281250000000122
 40
0.8281250000000122
 40
0.8437500000000114
 40
0.8437500000000114
 40
0.8593750000000108
 40
0.8593750000000108
 40
0.8750000000000101
 40
0.8750000000000101
 40
0.9062500000000075
 40
0.9062500000000075
 40
0.9218750000000064
 40
0.9218750000000064
 40
0.9375000000000053
 40
0.9375000000000053
 40
0.9687500000000032
 40
0.9687500000000032
 40
0.9843750000000017
 40
0.9843750000000017
 40
1.0
 40
1.0
 40
1.0
 40
1.0
 10
410.0000000000045
 20
-397.5000000000165
 30
0.0
 10
408.8402763272455
 20
-397.5000000000166
 30
0.0
 10
407.7006536861307
 20
-397.3858643613004
 30
0.0
 10
406.0199658799622
 20
-397.0509720153685
 30
0.0
 10
405.4645622632049
 20
-396.9118538469362
 30
0.0
 10
404.3635822777567
 20
-396.5774482736286
 30
0.0
 10
403.8173147791954
 20
-396.3814794600397
 30
0.0
 10
402.2294467818389
 20
-395.7220344115914
 30
0.0
 10
401.2258552613287
 20
-395.1845017122366
 30
0.0
 10
399.8013386050059
 20
-394.2324798537202
 30
0.0
 10
399.3378488727318
 20
-393.888778415122
 30
0.0
 10
398.4504362183886
 20
-393.1600611312991
 30
0.0
 10
398.0278322620816
 20
-392.7765671007914
 30
0.0
 10
396.8213449751702
 20
-391.5700873220148
 30
0.0
 10
396.0981741035638
 20
-390.6916659176219
 30
0.0
 10
395.1384808634572
 20
-389.2582865472777
 30
0.0
 10
394.8417111702646
 20
-388.7637087994153
 30
0.0
 10
394.3024559730014
 20
-387.7565084726982
 30
0.0
 10
394.0584833104331
 20
-387.2417142859196
 30
0.0
 10
393.6213484366089
 20
-386.1898427385208
 30
0.0
 10
393.428185142623
 20
-385.652766028612
 30
0.0
 10
393.0936823234482
 20
-384.5557912661667
 30
0.0
 10
392.9517855702645
 20
-383.9925421317451
 30
0.0
 10
392.6132261143505
 20
-382.2974171395951
 30
0.0
 10
392.5009774344036
 20
-381.1598226607774
 30
0.0
 10
392.4995207248691
 20
-379.4423531767426
 30
0.0
 10
392.5270532219754
 20
-378.8680044500185
 30
0.0
 10
392.6400987430682
 20
-377.7154625451976
 30
0.0
 10
392.7250106185625
 20
-377.1446876993318
 30
0.0
 10
393.060529134943
 20
-375.4594501803119
 30
0.0
 10
393.3916213201295
 20
-374.3669019634093
 30
0.0
 10
394.0509057480003
 20
-372.774600252824
 30
0.0
 10
394.2989510748034
 20
-372.2504738922104
 30
0.0
 10
394.8393141690373
 20
-371.240336913925
 30
0.0
 10
395.1326380772325
 20
-370.7514755783793
 30
0.0
 10
395.7647140846816
 20
-369.8053793876875
 30
0.0
 10
396.1034671089228
 20
-369.3481455208484
 30
0.0
 10
396.8269213364051
 20
-368.4654593173145
 30
0.0
 10
397.2135330030849
 20
-368.0381390274127
 30
0.0
 10
398.4312636439624
 20
-366.8191895587251
 30
0.0
 10
399.31053437465
 20
-366.097450257825
 30
0.0
 10
400.7287331374695
 20
-365.14680162606
 30
0.0
 10
401.2181370208252
 20
-364.8520780992122
 30
0.0
 10
402.2314867859756
 20
-364.3082551084689
 30
0.0
 10
402.7539288016587
 20
-364.0603708329889
 30
0.0
 10
404.3388022130816
 20
-363.4015017910598
 30
0.0
 10
405.4292408870448
 20
-363.0685378143059
 30
0.0
 10
407.1164671424044
 20
-362.7296699246284
 30
0.0
 10
407.6898697594973
 20
-362.6434921779385
 30
0.0
 10
408.8418686198866
 20
-362.5287723038197
 30
0.0
 10
409.4197965524451
 20
-362.5000111159571
 30
0.0
 10
411.1594007728666
 20
-362.4999777777757
 30
0.0
 10
412.2990460315168
 20
-362.6140950516852
 30
0.0
 10
413.9797589847434
 20
-362.9489635416296
 30
0.0
 10
414.5351708709616
 20
-363.0880743881576
 30
0.0
 10
415.6361672085411
 20
-363.4224663497039
 30
0.0
 10
416.182445234164
 20
-363.6184296910528
 30
0.0
 10
417.7703444068608
 20
-364.2778612383065
 30
0.0
 10
418.7739550890932
 20
-364.8153877516716
 30
0.0
 10
420.1984987502441
 20
-365.7674033465297
 30
0.0
 10
420.6619968382984
 20
-366.1111028181405
 30
0.0
 10
421.5494293633558
 20
-366.8398205601505
 30
0.0
 10
421.9720426402662
 20
-367.2233153628858
 30
0.0
 10
423.1785563187228
 20
-368.429798854742
 30
0.0
 10
423.9017427146785
 20
-369.3082245751576
 30
0.0
 10
424.8614566526817
 20
-370.7416127635295
 30
0.0
 10
425.1582337484018
 20
-371.236195462689
 30
0.0
 10
425.6975016412897
 20
-372.2434052212894
 30
0.0
 10
425.9414799969999
 20
-372.7582044059779
 30
0.0
 10
426.3786250481272
 20
-373.8100864744937
 30
0.0
 10
426.5717928259843
 20
-374.347168707721
 30
0.0
 10
426.9063034319045
 20
-375.4441550339454
 30
0.0
 10
427.0482035301869
 20
-376.007410299229
 30
0.0
 10
427.3867712070421
 20
-377.7025554423602
 30
0.0
 10
427.4990225537717
 20
-378.8401635410797
 30
0.0
 10
427.5004792810544
 20
-380.5576537193865
 30
0.0
 10
427.4729461164771
 20
-381.1320093888828
 30
0.0
 10
427.3598978325115
 20
-382.2845652738823
 30
0.0
 10
427.27498395078
 20
-382.8553465182699
 30
0.0
 10
426.9394574708696
 20
-384.540603214149
 30
0.0
 10
426.6083574781919
 20
-385.6331634973438
 30
0.0
 10
425.9490571902654
 20
-387.2254821306087
 30
0.0
 10
425.7010061445471
 20
-387.7496132636458
 30
0.0
 10
425.1606309481457
 20
-388.7597584978888
 30
0.0
 10
424.8673004795982
 20
-389.2486236101547
 30
0.0
 10
424.2352102708031
 20
-390.1947266161977
 30
0.0
 10
423.8964496059996
 20
-390.6519635219423
 30
0.0
 10
423.1729788909461
 20
-391.5346549867601
 30
0.0
 10
422.7863577902297
 20
-391.9619779999247
 30
0.0
 10
421.5686026253478
 20
-393.1809288799033
 30
0.0
 10
420.6893141917291
 20
-393.9026673585582
 30
0.0
 10
419.2710862564429
 20
-394.8533113822839
 30
0.0
 10
418.7816722080408
 20
-395.1480328046849
 30
0.0
 10
417.7683010521416
 20
-395.6918502218375
 30
0.0
 10
417.2458508769608
 20
-395.9397295445666
 30
0.0
 10
415.6609509561318
 20
-396.5985832470974
 30
0.0
 10
414.5704939032865
 20
-396.9315348609004
 30
0.0
 10
412.8832385368792
 20
-397.2703794792232
 30
0.0
 10
412.3098255642189
 20
-397.356548592974
 30
0.0
 10
411.1578114255541
 20
-397.4712491224935
 30
0.0
 10
410.5798618363841
 20
-397.5000000000166
 30
0.0
 10
410.0000000000045
 20
-397.5000000000165
 30
0.0
  0
SPLINE
  5
113
330
1F
100
AcDbEntity
  8
0
  6
Continuous
 62
     7
370
    15
100
AcDbSpline
210
0.0
220
0.0
230
1.0
 70
    11
 71
     3
 72
   106
 73
   102
 74
     0
 42
0.000000001
 43
0.00000001
 40
0.0
 40
0.0
 40
0.0
 40
0.0
 40
0.0312499999999973
 40
0.0312499999999973
 40
0.0468749999999969
 40
0.0468749999999969
 40
0.0624999999999964
 40
0.0624999999999964
 40
0.0937499999999961
 40
0.0937499999999961
 40
0.1093749999999959
 40
0.1093749999999959
 40
0.1249999999999958
 40
0.1249999999999958
 40
0.1562499999999933
 40
0.1562499999999933
 40
0.1718749999999924
 40
0.1718749999999924
 40
0.1874999999999915
 40
0.1874999999999915
 40
0.2031249999999905
 40
0.2031249999999905
 40
0.2187499999999896
 40
0.2187499999999896
 40
0.2499999999999875
 40
0.2499999999999875
 40
0.2656249999999864
 40
0.2656249999999864
 40
0.2812499999999853
 40
0.2812499999999853
 40
0.3124999999999832
 40
0.3124999999999832
 40
0.3281249999999824
 40
0.3281249999999824
 40
0.3437499999999816
 40
0.3437499999999816
 40
0.3593749999999807
 40
0.3593749999999807
 40
0.3749999999999799
 40
0.3749999999999799
 40
0.406249999999981
 40
0.406249999999981
 40
0.4218749999999822
 40
0.4218749999999822
 40
0.4374999999999833
 40
0.4374999999999833
 40
0.4687499999999857
 40
0.4687499999999857
 40
0.484374999999986
 40
0.484374999999986
 40
0.4999999999999862
 40
0.4999999999999862
 40
0.5312499999999883
 40
0.5312499999999883
 40
0.5468749999999889
 40
0.5468749999999889
 40
0.5624999999999895
 40
0.5624999999999895
 40
0.5937499999999916
 40
0.5937499999999916
 40
0.6093749999999932
 40
0.6093749999999932
 40
0.6249999999999949
 40
0.6249999999999949
 40
0.6562499999999971
 40
0.6562499999999971
 40
0.6718749999999979
 40
0.6718749999999979
 40
0.6874999999999987
 40
0.6874999999999987
 40
0.7031249999999994
 40
0.7031249999999994
 40
0.7187500000000002
 40
0.7187500000000002
 40
0.7500000000000021
 40
0.7500000000000021
 40
0.7656250000000023
 40
0.7656250000000023
 40
0.7812500000000026
 40
0.7812500000000026
 40
0.8125000000000031
 40
0.8125000000000031
 40
0.8281250000000032
 40
0.8281250000000032
 40
0.8437500000000033
 40
0.8437500000000033
 40
0.8593750000000034
 40
0.8593750000000034
 40
0.8750000000000036
 40
0.8750000000000036
 40
0.9062500000000027
 40
0.9062500000000027
 40
0.9218750000000028
 40
0.9218750000000028
 40
0.9375000000000029
 40
0.9375000000000029
 40
0.9687500000000006
 40
0.9687500000000006
 40
0.9843750000000002
 40
0.9843750000000002
 40
1.0
 40
1.0
 40
1.0
 40
1.0
 10
-409.9999999999956
 20
-397.5000000000164
 30
0.0
 10
-411.1597236727546
 20
-397.5000000000164
 30
0.0
 10
-412.2993463138694
 20
-397.3858643613003
 30
0.0
 10
-413.9800341200378
 20
-397.0509720153685
 30
0.0
 10
-414.5354377367953
 20
-396.9118538469363
 30
0.0
 10
-415.6364177222432
 20
-396.5774482736286
 30
0.0
 10
-416.1826852208049
 20
-396.3814794600397
 30
0.0
 10
-417.7705532181611
 20
-395.7220344115916
 30
0.0
 10
-418.774144738672
 20
-395.1845017122369
 30
0.0
 10
-420.1986613949943
 20
-394.2324798537203
 30
0.0
 10
-420.6621511272685
 20
-393.8887784151221
 30
0.0
 10
-421.5495637816116
 20
-393.160061131299
 30
0.0
 10
-421.9721677379187
 20
-392.7765671007911
 30
0.0
 10
-423.1786550248297
 20
-391.5700873220146
 30
0.0
 10
-423.9018258964364
 20
-390.6916659176218
 30
0.0
 10
-424.8615191365429
 20
-389.2582865472777
 30
0.0
 10
-425.1582888297356
 20
-388.7637087994153
 30
0.0
 10
-425.6975440269987
 20
-387.756508472698
 30
0.0
 10
-425.941516689567
 20
-387.2417142859195
 30
0.0
 10
-426.3786515633911
 20
-386.1898427385207
 30
0.0
 10
-426.5718148573771
 20
-385.6527660286121
 30
0.0
 10
-426.9063176765519
 20
-384.5557912661665
 30
0.0
 10
-427.0482144297358
 20
-383.992542131745
 30
0.0
 10
-427.3867738856496
 20
-382.2974171395948
 30
0.0
 10
-427.4990225655964
 20
-381.1598226607772
 30
0.0
 10
-427.5004792751311
 20
-379.4423531767424
 30
0.0
 10
-427.4729467780246
 20
-378.8680044500186
 30
0.0
 10
-427.3599012569318
 20
-377.7154625451976
 30
0.0
 10
-427.2749893814376
 20
-377.1446876993318
 30
0.0
 10
-426.9394708650571
 20
-375.4594501803118
 30
0.0
 10
-426.6083786798707
 20
-374.3669019634091
 30
0.0
 10
-425.9490942519999
 20
-372.774600252824
 30
0.0
 10
-425.7010489251967
 20
-372.2504738922104
 30
0.0
 10
-425.160685830963
 20
-371.240336913925
 30
0.0
 10
-424.8673619227673
 20
-370.7514755783793
 30
0.0
 10
-424.2352859153183
 20
-369.8053793876875
 30
0.0
 10
-423.8965328910774
 20
-369.3481455208484
 30
0.0
 10
-423.1730786635949
 20
-368.4654593173141
 30
0.0
 10
-422.7864669969152
 20
-368.0381390274126
 30
0.0
 10
-421.5687363560375
 20
-366.819189558725
 30
0.0
 10
-420.6894656253502
 20
-366.0974502578249
 30
0.0
 10
-419.2712668625304
 20
-365.1468016260601
 30
0.0
 10
-418.7818629791748
 20
-364.8520780992122
 30
0.0
 10
-417.7685132140243
 20
-364.308255108469
 30
0.0
 10
-417.2460711983412
 20
-364.060370832989
 30
0.0
 10
-415.6611977869182
 20
-363.4015017910597
 30
0.0
 10
-414.5707591129556
 20
-363.0685378143058
 30
0.0
 10
-412.8835328575958
 20
-362.7296699246284
 30
0.0
 10
-412.3101302405029
 20
-362.6434921779385
 30
0.0
 10
-411.1581313801133
 20
-362.5287723038198
 30
0.0
 10
-410.5802034475549
 20
-362.5000111159574
 30
0.0
 10
-408.8405992271331
 20
-362.4999777777758
 30
0.0
 10
-407.7009539684832
 20
-362.6140950516851
 30
0.0
 10
-406.0202410152564
 20
-362.9489635416295
 30
0.0
 10
-405.4648291290385
 20
-363.0880743881576
 30
0.0
 10
-404.3638327914591
 20
-363.4224663497041
 30
0.0
 10
-403.8175547658358
 20
-363.6184296910527
 30
0.0
 10
-402.2296555931392
 20
-364.2778612383065
 30
0.0
 10
-401.226044910907
 20
-364.8153877516713
 30
0.0
 10
-399.8015012497559
 20
-365.7674033465296
 30
0.0
 10
-399.3380031617017
 20
-366.1111028181404
 30
0.0
 10
-398.4505706366443
 20
-366.8398205601504
 30
0.0
 10
-398.027957359734
 20
-367.223315362886
 30
0.0
 10
-396.8214436812771
 20
-368.4297988547424
 30
0.0
 10
-396.0982572853216
 20
-369.3082245751577
 30
0.0
 10
-395.1385433473183
 20
-370.7416127635298
 30
0.0
 10
-394.8417662515985
 20
-371.236195462689
 30
0.0
 10
-394.3024983587104
 20
-372.2434052212897
 30
0.0
 10
-394.0585200029999
 20
-372.7582044059779
 30
0.0
 10
-393.6213749518729
 20
-373.8100864744939
 30
0.0
 10
-393.4282071740158
 20
-374.3471687077213
 30
0.0
 10
-393.0936965680955
 20
-375.4441550339456
 30
0.0
 10
-392.9517964698138
 20
-376.0074102992289
 30
0.0
 10
-392.6132287929581
 20
-377.7025554423604
 30
0.0
 10
-392.5009774462285
 20
-378.8401635410797
 30
0.0
 10
-392.4995207189459
 20
-380.5576537193865
 30
0.0
 10
-392.5270538835229
 20
-381.1320093888829
 30
0.0
 10
-392.6401021674885
 20
-382.2845652738823
 30
0.0
 10
-392.7250160492199
 20
-382.8553465182702
 30
0.0
 10
-393.0605425291307
 20
-384.5406032141491
 30
0.0
 10
-393.391642521808
 20
-385.633163497344
 30
0.0
 10
-394.0509428097349
 20
-387.225482130609
 30
0.0
 10
-394.2989938554533
 20
-387.7496132636461
 30
0.0
 10
-394.8393690518542
 20
-388.7597584978891
 30
0.0
 10
-395.1326995204024
 20
-389.2486236101547
 30
0.0
 10
-395.7647897291969
 20
-390.1947266161976
 30
0.0
 10
-396.1035503940008
 20
-390.6519635219427
 30
0.0
 10
-396.8270211090541
 20
-391.5346549867602
 30
0.0
 10
-397.2136422097705
 20
-391.9619779999246
 30
0.0
 10
-398.4313973746522
 20
-393.1809288799031
 30
0.0
 10
-399.3106858082709
 20
-393.9026673585586
 30
0.0
 10
-400.7289137435573
 20
-394.8533113822841
 30
0.0
 10
-401.2183277919592
 20
-395.1480328046848
 30
0.0
 10
-402.2316989478585
 20
-395.6918502218376
 30
0.0
 10
-402.7541491230392
 20
-395.9397295445664
 30
0.0
 10
-404.3390490438684
 20
-396.5985832470973
 30
0.0
 10
-405.4295060967134
 20
-396.9315348609002
 30
0.0
 10
-407.116761463121
 20
-397.270379479223
 30
0.0
 10
-407.6901744357811
 20
-397.356548592974
 30
0.0
 10
-408.8421885744461
 20
-397.4712491224937
 30
0.0
 10
-409.4201381636161
 20
-397.5000000000164
 30
0.0
 10
-409.9999999999956
 20
-397.5000000000164
 30
0.0
  0
SPLINE
  5
114
330
1F
100
AcDbEntity
  8
0
  6
Continuous
 62
     7
370
    15
100
AcDbSpline
210
0.0
220
0.0
230
1.0
 70
    11
 71
     3
 72
   106
 73
   102
 74
     0
 42
0.000000001
 43
0.00000001
 40
0.0
 40
0.0
 40
0.0
 40
0.0
 40
0.0312500000000009
 40
0.0312500000000009
 40
0.0468750000000016
 40
0.0468750000000016
 40
0.0625000000000024
 40
0.0625000000000024
 40
0.0937499999999983
 40
0.0937499999999983
 40
0.1093749999999962
 40
0.1093749999999962
 40
0.1249999999999942
 40
0.1249999999999942
 40
0.1562499999999852
 40
0.1562499999999852
 40
0.1718749999999787
 40
0.1718749999999787
 40
0.1874999999999722
 40
0.1874999999999722
 40
0.2031249999999657
 40
0.2031249999999657
 40
0.2187499999999592
 40
0.2187499999999592
 40
0.2499999999999451
 40
0.2499999999999451
 40
0.265624999999938
 40
0.265624999999938
 40
0.281249999999931
 40
0.281249999999931
 40
0.3124999999999181
 40
0.3124999999999181
 40
0.3281249999999137
 40
0.3281249999999137
 40
0.3437499999999093
 40
0.3437499999999093
 40
0.3593749999999049
 40
0.3593749999999049
 40
0.3749999999999005
 40
0.3749999999999005
 40
0.4062499999998977
 40
0.4062499999998977
 40
0.4218749999998987
 40
0.4218749999998987
 40
0.4374999999998998
 40
0.4374999999998998
 40
0.468749999999907
 40
0.468749999999907
 40
0.4843749999999104
 40
0.4843749999999104
 40
0.4999999999999138
 40
0.4999999999999138
 40
0.5312499999999147
 40
0.5312499999999147
 40
0.5468749999999152
 40
0.5468749999999152
 40
0.5624999999999156
 40
0.5624999999999156
 40
0.5937499999999216
 40
0.5937499999999216
 40
0.6093749999999221
 40
0.6093749999999221
 40
0.6249999999999225
 40
0.6249999999999225
 40
0.6562499999999277
 40
0.6562499999999277
 40
0.6718749999999323
 40
0.6718749999999323
 40
0.6874999999999368
 40
0.6874999999999368
 40
0.7031249999999414
 40
0.7031249999999414
 40
0.7187499999999459
 40
0.7187499999999459
 40
0.7499999999999541
 40
0.7499999999999541
 40
0.7656249999999584
 40
0.7656249999999584
 40
0.7812499999999625
 40
0.7812499999999625
 40
0.8124999999999709
 40
0.8124999999999709
 40
0.8281249999999742
 40
0.8281249999999742
 40
0.8437499999999776
 40
0.8437499999999776
 40
0.8593749999999809
 40
0.8593749999999809
 40
0.8749999999999842
 40
0.8749999999999842
 40
0.9062499999999898
 40
0.9062499999999898
 40
0.9218749999999933
 40
0.9218749999999933
 40
0.9374999999999968
 40
0.9374999999999968
 40
0.9687499999999983
 40
0.9687499999999983
 40
0.9843749999999992
 40
0.9843749999999992
 40
1.0
 40
1.0
 40
1.0
 40
1.0
 10
-1229.999999999996
 20
-397.5000000000167
 30
0.0
 10
-1231.159723672755
 20
-397.5000000000167
 30
0.0
 10
-1232.299346313869
 20
-397.3858643613002
 30
0.0
 10
-1233.980034120037
 20
-397.0509720153686
 30
0.0
 10
-1234.535437736795
 20
-396.9118538469362
 30
0.0
 10
-1235.636417722243
 20
-396.5774482736287
 30
0.0
 10
-1236.182685220804
 20
-396.3814794600398
 30
0.0
 10
-1237.770553218161
 20
-395.7220344115914
 30
0.0
 10
-1238.774144738671
 20
-395.1845017122366
 30
0.0
 10
-1240.198661394994
 20
-394.2324798537203
 30
0.0
 10
-1240.662151127268
 20
-393.888778415122
 30
0.0
 10
-1241.549563781611
 20
-393.1600611312992
 30
0.0
 10
-1241.972167737918
 20
-392.7765671007913
 30
0.0
 10
-1243.17865502483
 20
-391.5700873220151
 30
0.0
 10
-1243.901825896436
 20
-390.6916659176222
 30
0.0
 10
-1244.861519136542
 20
-389.2582865472781
 30
0.0
 10
-1245.158288829736
 20
-388.7637087994154
 30
0.0
 10
-1245.697544026998
 20
-387.7565084726982
 30
0.0
 10
-1245.941516689567
 20
-387.2417142859197
 30
0.0
 10
-1246.378651563391
 20
-386.1898427385208
 30
0.0
 10
-1246.571814857377
 20
-385.6527660286122
 30
0.0
 10
-1246.906317676552
 20
-384.5557912661666
 30
0.0
 10
-1247.048214429736
 20
-383.9925421317451
 30
0.0
 10
-1247.38677388565
 20
-382.2974171395949
 30
0.0
 10
-1247.499022565596
 20
-381.159822660777
 30
0.0
 10
-1247.500479275131
 20
-379.4423531767426
 30
0.0
 10
-1247.472946778025
 20
-378.8680044500188
 30
0.0
 10
-1247.359901256932
 20
-377.7154625451977
 30
0.0
 10
-1247.274989381437
 20
-377.1446876993317
 30
0.0
 10
-1246.939470865058
 20
-375.4594501803119
 30
0.0
 10
-1246.608378679871
 20
-374.3669019634094
 30
0.0
 10
-1245.949094251999
 20
-372.774600252824
 30
0.0
 10
-1245.701048925197
 20
-372.2504738922104
 30
0.0
 10
-1245.160685830963
 20
-371.2403369139251
 30
0.0
 10
-1244.867361922767
 20
-370.7514755783791
 30
0.0
 10
-1244.235285915318
 20
-369.8053793876875
 30
0.0
 10
-1243.896532891078
 20
-369.3481455208486
 30
0.0
 10
-1243.173078663595
 20
-368.4654593173144
 30
0.0
 10
-1242.786466996915
 20
-368.0381390274127
 30
0.0
 10
-1241.568736356038
 20
-366.8191895587253
 30
0.0
 10
-1240.689465625349
 20
-366.0974502578247
 30
0.0
 10
-1239.27126686253
 20
-365.1468016260602
 30
0.0
 10
-1238.781862979174
 20
-364.852078099212
 30
0.0
 10
-1237.768513214024
 20
-364.308255108469
 30
0.0
 10
-1237.246071198341
 20
-364.060370832989
 30
0.0
 10
-1235.661197786918
 20
-363.4015017910597
 30
0.0
 10
-1234.570759112955
 20
-363.068537814306
 30
0.0
 10
-1232.883532857596
 20
-362.7296699246285
 30
0.0
 10
-1232.310130240503
 20
-362.6434921779386
 30
0.0
 10
-1231.158131380114
 20
-362.52877230382
 30
0.0
 10
-1230.580203447555
 20
-362.5000111159575
 30
0.0
 10
-1228.840599227133
 20
-362.4999777777758
 30
0.0
 10
-1227.700953968483
 20
-362.614095051685
 30
0.0
 10
-1226.020241015257
 20
-362.9489635416296
 30
0.0
 10
-1225.464829129039
 20
-363.0880743881576
 30
0.0
 10
-1224.363832791459
 20
-363.4224663497041
 30
0.0
 10
-1223.817554765835
 20
-363.6184296910527
 30
0.0
 10
-1222.229655593138
 20
-364.2778612383063
 30
0.0
 10
-1221.226044910907
 20
-364.8153877516712
 30
0.0
 10
-1219.801501249756
 20
-365.7674033465295
 30
0.0
 10
-1219.338003161702
 20
-366.1111028181404
 30
0.0
 10
-1218.450570636644
 20
-366.8398205601505
 30
0.0
 10
-1218.027957359734
 20
-367.2233153628861
 30
0.0
 10
-1216.821443681277
 20
-368.4297988547422
 30
0.0
 10
-1216.098257285321
 20
-369.3082245751579
 30
0.0
 10
-1215.138543347317
 20
-370.7416127635295
 30
0.0
 10
-1214.841766251598
 20
-371.2361954626888
 30
0.0
 10
-1214.302498358709
 20
-372.2434052212894
 30
0.0
 10
-1214.058520003
 20
-372.7582044059777
 30
0.0
 10
-1213.621374951872
 20
-373.8100864744935
 30
0.0
 10
-1213.428207174015
 20
-374.3471687077212
 30
0.0
 10
-1213.093696568095
 20
-375.4441550339453
 30
0.0
 10
-1212.951796469813
 20
-376.0074102992288
 30
0.0
 10
-1212.613228792958
 20
-377.7025554423604
 30
0.0
 10
-1212.500977446228
 20
-378.8401635410795
 30
0.0
 10
-1212.499520718946
 20
-380.5576537193865
 30
0.0
 10
-1212.527053883523
 20
-381.1320093888828
 30
0.0
 10
-1212.640102167488
 20
-382.2845652738824
 30
0.0
 10
-1212.72501604922
 20
-382.85534651827
 30
0.0
 10
-1213.06054252913
 20
-384.5406032141489
 30
0.0
 10
-1213.391642521808
 20
-385.6331634973439
 30
0.0
 10
-1214.050942809734
 20
-387.2254821306089
 30
0.0
 10
-1214.298993855453
 20
-387.7496132636458
 30
0.0
 10
-1214.839369051854
 20
-388.7597584978888
 30
0.0
 10
-1215.132699520402
 20
-389.2486236101547
 30
0.0
 10
-1215.764789729196
 20
-390.1947266161976
 30
0.0
 10
-1216.103550394001
 20
-390.6519635219424
 30
0.0
 10
-1216.827021109053
 20
-391.5346549867602
 30
0.0
 10
-1217.213642209771
 20
-391.9619779999247
 30
0.0
 10
-1218.431397374652
 20
-393.1809288799032
 30
0.0
 10
-1219.310685808271
 20
-393.9026673585585
 30
0.0
 10
-1220.728913743557
 20
-394.8533113822839
 30
0.0
 10
-1221.218327791959
 20
-395.1480328046848
 30
0.0
 10
-1222.231698947858
 20
-395.6918502218377
 30
0.0
 10
-1222.754149123039
 20
-395.9397295445665
 30
0.0
 10
-1224.339049043869
 20
-396.5985832470974
 30
0.0
 10
-1225.429506096713
 20
-396.9315348609006
 30
0.0
 10
-1227.116761463121
 20
-397.270379479223
 30
0.0
 10
-1227.690174435781
 20
-397.356548592974
 30
0.0
 10
-1228.842188574446
 20
-397.4712491224939
 30
0.0
 10
-1229.420138163616
 20
-397.5000000000167
 30
0.0
 10
-1229.999999999996
 20
-397.5000000000167
 30
0.0
  0
CIRCLE
  5
11D
330
1F
100
AcDbEntity
  8
0
  6
Continuous
 62
     7
370
    15
100
AcDbCircle
 10
1230.0
 20
-380.0
 30
0.0
 40
5.000000000000057
  0
CIRCLE
  5
11E
330
1F
100
AcDbEntity
  8
0
  6
Continuous
 62
     7
370
    15
100
AcDbCircle
 10
1230.0
 20
-380.0
 30
0.0
 40
5.400000000000091
  0
CIRCLE
  5
11F
330
1F
100
AcDbEntity
  8
0
  6
Continuous
 62
     7
370
    15
100
AcDbCircle
 10
1230.0
 20
-380.0
 30
0.0
 40
8.5
  0
SPLINE
  5
120
330
1F
100
AcDbEntity
  8
0
  6
Continuous
 62
     7
370
    15
100
AcDbSpline
210
0.0
220
0.0
230
1.0
 70
    24
 71
     3
 72
    10
 73
     6
 74
     0
 42
0.000000001
 43
0.00000001
 40
0.0
 40
0.0
 40
0.0
 40
0.0
 40
0.5
 40
0.5
 40
1.0
 40
1.0
 40
1.0
 40
1.0
 10
1225.092522711893
 20
-388.5000000000165
 30
0.0
 10
1225.894208261574
 20
-388.5000000000165
 30
0.0
 10
1226.702169326862
 20
-388.5000000000165
 30
0.0
 10
1228.336253313962
 20
-388.5000000000165
 30
0.0
 10
1229.16251261772
 20
-388.5000000000165
 30
0.0
 10
1230.000000000005
 20
-388.5000000000165
 30
0.0
  0
SPLINE
  5
121
330
1F
100
AcDbEntity
  8
0
  6
Continuous
 62
     7
370
    15
100
AcDbSpline
210
0.0
220
0.0
230
1.0
 70
    24
 71
     3
 72
    10
 73
     6
 74
     0
 42
0.000000001
 43
0.00000001
 40
0.0
 40
0.0
 40
0.0
 40
0.0
 40
0.5
 40
0.5
 40
1.0
 40
1.0
 40
1.0
 40
1.0
 10
1222.638784067837
 20
-384.2500000000165
 30
0.0
 10
1223.057527758979
 20
-384.9752853484235
 30
0.0
 10
1223.470657410858
 20
-385.6908468955916
 30
0.0
 10
1224.287699404408
 20
-387.1060051403378
 30
0.0
 10
1224.691679937053
 20
-387.805719948146
 30
0.0
 10
1225.092522711893
 20
-388.5000000000165
 30
0.0
  0
SPLINE
  5
122
330
1F
100
AcDbEntity
  8
0
  6
Continuous
 62
     7
370
    15
100
AcDbSpline
210
0.0
220
0.0
230
1.0
 70
    24
 71
     3
 72
    10
 73
     6
 74
     0
 42
0.000000001
 43
0.00000001
 40
0.0
 40
0.0
 40
0.0
 40
0.0
 40
0.5
 40
0.5
 40
1.0
 40
1.0
 40
1.0
 40
1.0
 10
1220.185045423781
 20
-380.0000000000165
 30
0.0
 10
1220.585888198622
 20
-380.6942800518869
 30
0.0
 10
1220.989868731266
 20
-381.3939948596953
 30
0.0
 10
1221.806910724816
 20
-382.8091531044415
 30
0.0
 10
1222.220040376695
 20
-383.5247146516093
 30
0.0
 10
1222.638784067837
 20
-384.2500000000165
 30
0.0
  0
SPLINE
  5
123
330
1F
100
AcDbEntity
  8
0
  6
Continuous
 62
     7
370
    15
100
AcDbSpline
210
0.0
220
0.0
230
1.0
 70
    24
 71
     3
 72
    10
 73
     6
 74
     0
 42
0.000000001
 43
0.00000001
 40
0.0
 40
0.0
 40
0.0
 40
0.0
 40
0.5
 40
0.5
 40
1.0
 40
1.0
 40
1.0
 40
1.0
 10
1222.638784067837
 20
-375.7500000000165
 30
0.0
 10
1222.220040376695
 20
-376.4752853484237
 30
0.0
 10
1221.806910724816
 20
-377.1908468955916
 30
0.0
 10
1220.989868731266
 20
-378.6060051403379
 30
0.0
 10
1220.585888198622
 20
-379.305719948146
 30
0.0
 10
1220.185045423781
 20
-380.0000000000165
 30
0.0
  0
SPLINE
  5
124
330
1F
100
AcDbEntity
  8
0
  6
Continuous
 62
     7
370
    15
100
AcDbSpline
210
0.0
220
0.0
230
1.0
 70
    24
 71
     3
 72
    10
 73
     6
 74
     0
 42
0.000000001
 43
0.00000001
 40
0.0
 40
0.0
 40
0.0
 40
0.0
 40
0.5
 40
0.5
 40
1.0
 40
1.0
 40
1.0
 40
1.0
 10
1230.000000000005
 20
-371.5000000000165
 30
0.0
 10
1229.16251261772
 20
-371.5000000000165
 30
0.0
 10
1228.336253313962
 20
-371.5000000000165
 30
0.0
 10
1226.702169326862
 20
-371.5000000000164
 30
0.0
 10
1225.894208261574
 20
-371.5000000000165
 30
0.0
 10
1225.092522711893
 20
-371.5000000000165
 30
0.0
  0
SPLINE
  5
125
330
1F
100
AcDbEntity
  8
0
  6
Continuous
 62
     7
370
    15
100
AcDbSpline
210
0.0
220
0.0
230
1.0
 70
    24
 71
     3
 72
    10
 73
     6
 74
     0
 42
0.000000001
 43
0.00000001
 40
0.0
 40
0.0
 40
0.0
 40
0.0
 40
0.5
 40
0.5
 40
1.0
 40
1.0
 40
1.0
 40
1.0
 10
1225.092522711893
 20
-371.5000000000165
 30
0.0
 10
1224.691679937052
 20
-372.1942800518872
 30
0.0
 10
1224.287699404409
 20
-372.8939948596952
 30
0.0
 10
1223.470657410859
 20
-374.3091531044414
 30
0.0
 10
1223.057527758979
 20
-375.0247146516095
 30
0.0
 10
1222.638784067837
 20
-375.7500000000165
 30
0.0
  0
SPLINE
  5
126
330
1F
100
AcDbEntity
  8
0
  6
Continuous
 62
     7
370
    15
100
AcDbSpline
210
0.0
220
0.0
230
1.0
 70
    24
 71
     3
 72
    10
 73
     6
 74
     0
 42
0.000000001
 43
0.00000001
 40
0.0
 40
0.0
 40
0.0
 40
0.0
 40
0.5
 40
0.5
 40
1.0
 40
1.0
 40
1.0
 40
1.0
 10
1237.361215932172
 20
-375.7500000000165
 30
0.0
 10
1236.94247224103
 20
-375.0247146516094
 30
0.0
 10
1236.529342589151
 20
-374.3091531044416
 30
0.0
 10
1235.712300595601
 20
-372.8939948596951
 30
0.0
 10
1235.308320062957
 20
-372.1942800518871
 30
0.0
 10
1234.907477288116
 20
-371.5000000000165
 30
0.0
  0
SPLINE
  5
127
330
1F
100
AcDbEntity
  8
0
  6
Continuous
 62
     7
370
    15
100
AcDbSpline
210
0.0
220
0.0
230
1.0
 70
    24
 71
     3
 72
    10
 73
     6
 74
     0
 42
0.000000001
 43
0.00000001
 40
0.0
 40
0.0
 40
0.0
 40
0.0
 40
0.5
 40
0.5
 40
1.0
 40
1.0
 40
1.0
 40
1.0
 10
1234.907477288116
 20
-371.5000000000165
 30
0.0
 10
1234.105791738436
 20
-371.5000000000165
 30
0.0
 10
1233.297830673148
 20
-371.5000000000165
 30
0.0
 10
1231.663746686047
 20
-371.5000000000164
 30
0.0
 10
1230.837487382289
 20
-371.5000000000165
 30
0.0
 10
1230.000000000005
 20
-371.5000000000165
 30
0.0
  0
SPLINE
  5
128
330
1F
100
AcDbEntity
  8
0
  6
Continuous
 62
     7
370
    15
100
AcDbSpline
210
0.0
220
0.0
230
1.0
 70
    24
 71
     3
 72
    10
 73
     6
 74
     0
 42
0.000000001
 43
0.00000001
 40
0.0
 40
0.0
 40
0.0
 40
0.0
 40
0.5
 40
0.5
 40
1.0
 40
1.0
 40
1.0
 40
1.0
 10
1230.000000000005
 20
-388.5000000000165
 30
0.0
 10
1230.837487382289
 20
-388.5000000000165
 30
0.0
 10
1231.663746686047
 20
-388.5000000000165
 30
0.0
 10
1233.297830673148
 20
-388.5000000000165
 30
0.0
 10
1234.105791738436
 20
-388.5000000000165
 30
0.0
 10
1234.907477288116
 20
-388.5000000000165
 30
0.0
  0
SPLINE
  5
129
330
1F
100
AcDbEntity
  8
0
  6
Continuous
 62
     7
370
    15
100
AcDbSpline
210
0.0
220
0.0
230
1.0
 70
    24
 71
     3
 72
    10
 73
     6
 74
     0
 42
0.000000001
 43
0.00000001
 40
0.0
 40
0.0
 40
0.0
 40
0.0
 40
0.5
 40
0.5
 40
1.0
 40
1.0
 40
1.0
 40
1.0
 10
1234.907477288116
 20
-388.5000000000165
 30
0.0
 10
1235.308320062957
 20
-387.8057199481459
 30
0.0
 10
1235.712300595601
 20
-387.1060051403378
 30
0.0
 10
1236.529342589151
 20
-385.6908468955914
 30
0.0
 10
1236.94247224103
 20
-384.9752853484237
 30
0.0
 10
1237.361215932172
 20
-384.2500000000165
 30
0.0
  0
SPLINE
  5
12A
330
1F
100
AcDbEntity
  8
0
  6
Continuous
 62
     7
370
    15
100
AcDbSpline
210
0.0
220
0.0
230
1.0
 70
    24
 71
     3
 72
    10
 73
     6
 74
     0
 42
0.000000001
 43
0.00000001
 40
0.0
 40
0.0
 40
0.0
 40
0.0
 40
0.5
 40
0.5
 40
1.0
 40
1.0
 40
1.0
 40
1.0
 10
1239.814954576228
 20
-380.0000000000165
 30
0.0
 10
1239.414111801388
 20
-379.3057199481459
 30
0.0
 10
1239.010131268744
 20
-378.6060051403379
 30
0.0
 10
1238.193089275194
 20
-377.1908468955914
 30
0.0
 10
1237.779959623314
 20
-376.4752853484238
 30
0.0
 10
1237.361215932172
 20
-375.7500000000165
 30
0.0
  0
SPLINE
  5
12B
330
1F
100
AcDbEntity
  8
0
  6
Continuous
 62
     7
370
    15
100
AcDbSpline
210
0.0
220
0.0
230
1.0
 70
    24
 71
     3
 72
    10
 73
     6
 74
     0
 42
0.000000001
 43
0.00000001
 40
0.0
 40
0.0
 40
0.0
 40
0.0
 40
0.5
 40
0.5
 40
1.0
 40
1.0
 40
1.0
 40
1.0
 10
1237.361215932172
 20
-384.2500000000165
 30
0.0
 10
1237.779959623315
 20
-383.5247146516092
 30
0.0
 10
1238.193089275194
 20
-382.8091531044414
 30
0.0
 10
1239.010131268744
 20
-381.393994859695
 30
0.0
 10
1239.414111801388
 20
-380.6942800518871
 30
0.0
 10
1239.814954576228
 20
-380.0000000000165
 30
0.0
  0
CIRCLE
  5
12C
330
1F
100
AcDbEntity
  8
0
  6
Continuous
 62
     7
370
    15
100
AcDbCircle
 10
820.0
 20
-380.0
 30
0.0
 40
4.999999999999716
  0
CIRCLE
  5
12D
330
1F
100
AcDbEntity
  8
0
  6
Continuous
 62
     7
370
    15
100
AcDbCircle
 10
410.0
 20
-380.0
 30
0.0
 40
5.0
  0
CIRCLE
  5
12E
330
1F
100
AcDbEntity
  8
0
  6
Continuous
 62
     7
370
    15
100
AcDbCircle
 10
0.0
 20
-380.0
 30
0.0
 40
4.999999999999886
  0
CIRCLE
  5
12F
330
1F
100
AcDbEntity
  8
0
  6
Continuous
 62
     7
370
    15
100
AcDbCircle
 10
-410.0
 20
-380.0
 30
0.0
 40
4.999999999999886
  0
CIRCLE
  5
130
330
1F
100
AcDbEntity
  8
0
  6
Continuous
 62
     7
370
    15
100
AcDbCircle
 10
-820.0
 20
-380.0
 30
0.0
 40
5.000000000000171
  0
CIRCLE
  5
131
330
1F
100
AcDbEntity
  8
0
  6
Continuous
 62
     7
370
    15
100
AcDbCircle
 10
-1230.0
 20
-380.0
 30
0.0
 40
4.999999999999886
  0
CIRCLE
  5
132
330
1F
100
AcDbEntity
  8
0
  6
Continuous
 62
     7
370
    15
100
AcDbCircle
 10
820.0
 20
-380.0
 30
0.0
 40
5.400000000000091
  0
CIRCLE
  5
133
330
1F
100
AcDbEntity
  8
0
  6
Continuous
 62
     7
370
    15
100
AcDbCircle
 10
820.0
 20
-380.0
 30
0.0
 40
8.499999999999773
  0
SPLINE
  5
134
330
1F
100
AcDbEntity
  8
0
  6
Continuous
 62
     7
370
    15
100
AcDbSpline
210
0.0
220
0.0
230
1.0
 70
    24
 71
     3
 72
    10
 73
     6
 74
     0
 42
0.000000001
 43
0.00000001
 40
0.0
 40
0.0
 40
0.0
 40
0.0
 40
0.5
 40
0.5
 40
1.0
 40
1.0
 40
1.0
 40
1.0
 10
827.3612159321725
 20
-375.7500000000165
 30
0.0
 10
826.9424722410303
 20
-375.0247146516093
 30
0.0
 10
826.5293425891514
 20
-374.3091531044415
 30
0.0
 10
825.7123005956007
 20
-372.893994859695
 30
0.0
 10
825.3083200629569
 20
-372.194280051887
 30
0.0
 10
824.9074772881165
 20
-371.5000000000164
 30
0.0
  0
SPLINE
  5
135
330
1F
100
AcDbEntity
  8
0
  6
Continuous
 62
     7
370
    15
100
AcDbSpline
210
0.0
220
0.0
230
1.0
 70
    24
 71
     3
 72
    10
 73
     6
 74
     0
 42
0.000000001
 43
0.00000001
 40
0.0
 40
0.0
 40
0.0
 40
0.0
 40
0.5
 40
0.5
 40
1.0
 40
1.0
 40
1.0
 40
1.0
 10
824.9074772881165
 20
-371.5000000000164
 30
0.0
 10
824.1057917384356
 20
-371.5000000000165
 30
0.0
 10
823.2978306731482
 20
-371.5000000000165
 30
0.0
 10
821.6637466860473
 20
-371.5000000000163
 30
0.0
 10
820.837487382289
 20
-371.5000000000165
 30
0.0
 10
820.0000000000048
 20
-371.5000000000164
 30
0.0
  0
SPLINE
  5
136
330
1F
100
AcDbEntity
  8
0
  6
Continuous
 62
     7
370
    15
100
AcDbSpline
210
0.0
220
0.0
230
1.0
 70
    24
 71
     3
 72
    10
 73
     6
 74
     0
 42
0.000000001
 43
0.00000001
 40
0.0
 40
0.0
 40
0.0
 40
0.0
 40
0.5
 40
0.5
 40
1.0
 40
1.0
 40
1.0
 40
1.0
 10
815.0925227118929
 20
-388.5000000000164
 30
0.0
 10
815.8942082615738
 20
-388.5000000000165
 30
0.0
 10
816.7021693268617
 20
-388.5000000000164
 30
0.0
 10
818.3362533139621
 20
-388.5000000000164
 30
0.0
 10
819.1625126177205
 20
-388.5000000000165
 30
0.0
 10
820.0000000000048
 20
-388.5000000000164
 30
0.0
  0
SPLINE
  5
137
330
1F
100
AcDbEntity
  8
0
  6
Continuous
 62
     7
370
    15
100
AcDbSpline
210
0.0
220
0.0
230
1.0
 70
    24
 71
     3
 72
    10
 73
     6
 74
     0
 42
0.000000001
 43
0.00000001
 40
0.0
 40
0.0
 40
0.0
 40
0.0
 40
0.5
 40
0.5
 40
1.0
 40
1.0
 40
1.0
 40
1.0
 10
812.6387840678369
 20
-384.2500000000164
 30
0.0
 10
813.0575277589791
 20
-384.9752853484235
 30
0.0
 10
813.4706574108584
 20
-385.6908468955915
 30
0.0
 10
814.2876994044085
 20
-387.1060051403378
 30
0.0
 10
814.6916799370525
 20
-387.805719948146
 30
0.0
 10
815.0925227118929
 20
-388.5000000000164
 30
0.0
  0
SPLINE
  5
138
330
1F
100
AcDbEntity
  8
0
  6
Continuous
 62
     7
370
    15
100
AcDbSpline
210
0.0
220
0.0
230
1.0
 70
    24
 71
     3
 72
    10
 73
     6
 74
     0
 42
0.000000001
 43
0.00000001
 40
0.0
 40
0.0
 40
0.0
 40
0.0
 40
0.5
 40
0.5
 40
1.0
 40
1.0
 40
1.0
 40
1.0
 10
820.0000000000048
 20
-371.5000000000164
 30
0.0
 10
819.1625126177204
 20
-371.5000000000165
 30
0.0
 10
818.3362533139623
 20
-371.5000000000165
 30
0.0
 10
816.7021693268616
 20
-371.5000000000163
 30
0.0
 10
815.894208261574
 20
-371.5000000000165
 30
0.0
 10
815.0925227118929
 20
-371.5000000000164
 30
0.0
  0
SPLINE
  5
139
330
1F
100
AcDbEntity
  8
0
  6
Continuous
 62
     7
370
    15
100
AcDbSpline
210
0.0
220
0.0
230
1.0
 70
    24
 71
     3
 72
    10
 73
     6
 74
     0
 42
0.000000001
 43
0.00000001
 40
0.0
 40
0.0
 40
0.0
 40
0.0
 40
0.5
 40
0.5
 40
1.0
 40
1.0
 40
1.0
 40
1.0
 10
815.0925227118929
 20
-371.5000000000164
 30
0.0
 10
814.6916799370526
 20
-372.1942800518871
 30
0.0
 10
814.2876994044088
 20
-372.8939948596951
 30
0.0
 10
813.4706574108584
 20
-374.3091531044414
 30
0.0
 10
813.0575277589791
 20
-375.0247146516093
 30
0.0
 10
812.6387840678369
 20
-375.7500000000165
 30
0.0
  0
SPLINE
  5
13A
330
1F
100
AcDbEntity
  8
0
  6
Continuous
 62
     7
370
    15
100
AcDbSpline
210
0.0
220
0.0
230
1.0
 70
    24
 71
     3
 72
    10
 73
     6
 74
     0
 42
0.000000001
 43
0.00000001
 40
0.0
 40
0.0
 40
0.0
 40
0.0
 40
0.5
 40
0.5
 40
1.0
 40
1.0
 40
1.0
 40
1.0
 10
810.1850454237812
 20
-380.0000000000164
 30
0.0
 10
810.5858881986213
 20
-380.694280051887
 30
0.0
 10
810.9898687312658
 20
-381.3939948596951
 30
0.0
 10
811.8069107248157
 20
-382.8091531044414
 30
0.0
 10
812.2200403766948
 20
-383.5247146516093
 30
0.0
 10
812.6387840678369
 20
-384.2500000000164
 30
0.0
  0
SPLINE
  5
13B
330
1F
100
AcDbEntity
  8
0
  6
Continuous
 62
     7
370
    15
100
AcDbSpline
210
0.0
220
0.0
230
1.0
 70
    24
 71
     3
 72
    10
 73
     6
 74
     0
 42
0.000000001
 43
0.00000001
 40
0.0
 40
0.0
 40
0.0
 40
0.0
 40
0.5
 40
0.5
 40
1.0
 40
1.0
 40
1.0
 40
1.0
 10
812.6387840678369
 20
-375.7500000000165
 30
0.0
 10
812.2200403766946
 20
-376.4752853484236
 30
0.0
 10
811.8069107248158
 20
-377.1908468955916
 30
0.0
 10
810.9898687312655
 20
-378.6060051403377
 30
0.0
 10
810.5858881986214
 20
-379.305719948146
 30
0.0
 10
810.1850454237812
 20
-380.0000000000164
 30
0.0
  0
SPLINE
  5
13C
330
1F
100
AcDbEntity
  8
0
  6
Continuous
 62
     7
370
    15
100
AcDbSpline
210
0.0
220
0.0
230
1.0
 70
    24
 71
     3
 72
    10
 73
     6
 74
     0
 42
0.000000001
 43
0.00000001
 40
0.0
 40
0.0
 40
0.0
 40
0.0
 40
0.5
 40
0.5
 40
1.0
 40
1.0
 40
1.0
 40
1.0
 10
829.8149545762284
 20
-380.0000000000164
 30
0.0
 10
829.4141118013877
 20
-379.3057199481458
 30
0.0
 10
829.0101312687441
 20
-378.6060051403379
 30
0.0
 10
828.1930892751938
 20
-377.1908468955915
 30
0.0
 10
827.7799596233147
 20
-376.4752853484237
 30
0.0
 10
827.3612159321725
 20
-375.7500000000165
 30
0.0
  0
SPLINE
  5
13D
330
1F
100
AcDbEntity
  8
0
  6
Continuous
 62
     7
370
    15
100
AcDbSpline
210
0.0
220
0.0
230
1.0
 70
    24
 71
     3
 72
    10
 73
     6
 74
     0
 42
0.000000001
 43
0.00000001
 40
0.0
 40
0.0
 40
0.0
 40
0.0
 40
0.5
 40
0.5
 40
1.0
 40
1.0
 40
1.0
 40
1.0
 10
827.3612159321725
 20
-384.2500000000164
 30
0.0
 10
827.7799596233144
 20
-383.5247146516092
 30
0.0
 10
828.1930892751939
 20
-382.8091531044414
 30
0.0
 10
829.010131268744
 20
-381.393994859695
 30
0.0
 10
829.414111801388
 20
-380.694280051887
 30
0.0
 10
829.8149545762284
 20
-380.0000000000164
 30
0.0
  0
SPLINE
  5
13E
330
1F
100
AcDbEntity
  8
0
  6
Continuous
 62
     7
370
    15
100
AcDbSpline
210
0.0
220
0.0
230
1.0
 70
    24
 71
     3
 72
    10
 73
     6
 74
     0
 42
0.000000001
 43
0.00000001
 40
0.0
 40
0.0
 40
0.0
 40
0.0
 40
0.5
 40
0.5
 40
1.0
 40
1.0
 40
1.0
 40
1.0
 10
824.9074772881165
 20
-388.5000000000164
 30
0.0
 10
825.3083200629568
 20
-387.8057199481458
 30
0.0
 10
825.712300595601
 20
-387.1060051403378
 30
0.0
 10
826.529342589151
 20
-385.6908468955914
 30
0.0
 10
826.9424722410304
 20
-384.9752853484237
 30
0.0
 10
827.3612159321725
 20
-384.2500000000164
 30
0.0
  0
SPLINE
  5
13F
330
1F
100
AcDbEntity
  8
0
  6
Continuous
 62
     7
370
    15
100
AcDbSpline
210
0.0
220
0.0
230
1.0
 70
    24
 71
     3
 72
    10
 73
     6
 74
     0
 42
0.000000001
 43
0.00000001
 40
0.0
 40
0.0
 40
0.0
 40
0.0
 40
0.5
 40
0.5
 40
1.0
 40
1.0
 40
1.0
 40
1.0
 10
820.0000000000048
 20
-388.5000000000164
 30
0.0
 10
820.8374873822888
 20
-388.5000000000165
 30
0.0
 10
821.6637466860476
 20
-388.5000000000164
 30
0.0
 10
823.2978306731479
 20
-388.5000000000164
 30
0.0
 10
824.1057917384354
 20
-388.5000000000165
 30
0.0
 10
824.9074772881165
 20
-388.5000000000164
 30
0.0
  0
CIRCLE
  5
140
330
1F
100
AcDbEntity
  8
0
  6
Continuous
 62
     7
370
    15
100
AcDbCircle
 10
410.0
 20
-380.0
 30
0.0
 40
5.400000000000034
  0
CIRCLE
  5
141
330
1F
100
AcDbEntity
  8
0
  6
Continuous
 62
     7
370
    15
100
AcDbCircle
 10
410.0
 20
-380.0
 30
0.0
 40
8.500000000000057
  0
SPLINE
  5
142
330
1F
100
AcDbEntity
  8
0
  6
Continuous
 62
     7
370
    15
100
AcDbSpline
210
0.0
220
0.0
230
1.0
 70
    24
 71
     3
 72
    10
 73
     6
 74
     0
 42
0.000000001
 43
0.00000001
 40
0.0
 40
0.0
 40
0.0
 40
0.0
 40
0.5
 40
0.5
 40
1.0
 40
1.0
 40
1.0
 40
1.0
 10
414.9074772881164
 20
-388.5000000000164
 30
0.0
 10
415.3083200629567
 20
-387.8057199481458
 30
0.0
 10
415.7123005956008
 20
-387.1060051403378
 30
0.0
 10
416.529342589151
 20
-385.6908468955914
 30
0.0
 10
416.94247224103
 20
-384.9752853484235
 30
0.0
 10
417.3612159321723
 20
-384.2500000000164
 30
0.0
  0
SPLINE
  5
143
330
1F
100
AcDbEntity
  8
0
  6
Continuous
 62
     7
370
    15
100
AcDbSpline
210
0.0
220
0.0
230
1.0
 70
    24
 71
     3
 72
    10
 73
     6
 74
     0
 42
0.000000001
 43
0.00000001
 40
0.0
 40
0.0
 40
0.0
 40
0.0
 40
0.5
 40
0.5
 40
1.0
 40
1.0
 40
1.0
 40
1.0
 10
410.0000000000046
 20
-388.5000000000164
 30
0.0
 10
410.8374873822888
 20
-388.5000000000164
 30
0.0
 10
411.6637466860472
 20
-388.5000000000164
 30
0.0
 10
413.2978306731475
 20
-388.5000000000163
 30
0.0
 10
414.1057917384356
 20
-388.5000000000164
 30
0.0
 10
414.9074772881164
 20
-388.5000000000164
 30
0.0
  0
SPLINE
  5
144
330
1F
100
AcDbEntity
  8
0
  6
Continuous
 62
     7
370
    15
100
AcDbSpline
210
0.0
220
0.0
230
1.0
 70
    24
 71
     3
 72
    10
 73
     6
 74
     0
 42
0.000000001
 43
0.00000001
 40
0.0
 40
0.0
 40
0.0
 40
0.0
 40
0.5
 40
0.5
 40
1.0
 40
1.0
 40
1.0
 40
1.0
 10
419.8149545762282
 20
-380.0000000000164
 30
0.0
 10
419.4141118013877
 20
-379.3057199481458
 30
0.0
 10
419.0101312687437
 20
-378.6060051403377
 30
0.0
 10
418.1930892751935
 20
-377.1908468955914
 30
0.0
 10
417.7799596233145
 20
-376.4752853484235
 30
0.0
 10
417.3612159321723
 20
-375.7500000000164
 30
0.0
  0
SPLINE
  5
145
330
1F
100
AcDbEntity
  8
0
  6
Continuous
 62
     7
370
    15
100
AcDbSpline
210
0.0
220
0.0
230
1.0
 70
    24
 71
     3
 72
    10
 73
     6
 74
     0
 42
0.000000001
 43
0.00000001
 40
0.0
 40
0.0
 40
0.0
 40
0.0
 40
0.5
 40
0.5
 40
1.0
 40
1.0
 40
1.0
 40
1.0
 10
417.3612159321723
 20
-384.2500000000164
 30
0.0
 10
417.7799596233145
 20
-383.5247146516091
 30
0.0
 10
418.1930892751936
 20
-382.8091531044414
 30
0.0
 10
419.0101312687437
 20
-381.393994859695
 30
0.0
 10
419.4141118013878
 20
-380.6942800518869
 30
0.0
 10
419.8149545762282
 20
-380.0000000000164
 30
0.0
  0
SPLINE
  5
146
330
1F
100
AcDbEntity
  8
0
  6
Continuous
 62
     7
370
    15
100
AcDbSpline
210
0.0
220
0.0
230
1.0
 70
    24
 71
     3
 72
    10
 73
     6
 74
     0
 42
0.000000001
 43
0.00000001
 40
0.0
 40
0.0
 40
0.0
 40
0.0
 40
0.5
 40
0.5
 40
1.0
 40
1.0
 40
1.0
 40
1.0
 10
410.0000000000046
 20
-371.5000000000164
 30
0.0
 10
409.1625126177202
 20
-371.5000000000163
 30
0.0
 10
408.3362533139621
 20
-371.5000000000164
 30
0.0
 10
406.7021693268616
 20
-371.5000000000163
 30
0.0
 10
405.8942082615736
 20
-371.5000000000164
 30
0.0
 10
405.0925227118928
 20
-371.5000000000164
 30
0.0
  0
SPLINE
  5
147
330
1F
100
AcDbEntity
  8
0
  6
Continuous
 62
     7
370
    15
100
AcDbSpline
210
0.0
220
0.0
230
1.0
 70
    24
 71
     3
 72
    10
 73
     6
 74
     0
 42
0.000000001
 43
0.00000001
 40
0.0
 40
0.0
 40
0.0
 40
0.0
 40
0.5
 40
0.5
 40
1.0
 40
1.0
 40
1.0
 40
1.0
 10
405.0925227118928
 20
-371.5000000000164
 30
0.0
 10
404.6916799370523
 20
-372.1942800518871
 30
0.0
 10
404.2876994044084
 20
-372.8939948596951
 30
0.0
 10
403.4706574108581
 20
-374.3091531044414
 30
0.0
 10
403.0575277589791
 20
-375.0247146516093
 30
0.0
 10
402.6387840678369
 20
-375.7500000000164
 30
0.0
  0
SPLINE
  5
148
330
1F
100
AcDbEntity
  8
0
  6
Continuous
 62
     7
370
    15
100
AcDbSpline
210
0.0
220
0.0
230
1.0
 70
    24
 71
     3
 72
    10
 73
     6
 74
     0
 42
0.000000001
 43
0.00000001
 40
0.0
 40
0.0
 40
0.0
 40
0.0
 40
0.5
 40
0.5
 40
1.0
 40
1.0
 40
1.0
 40
1.0
 10
417.3612159321723
 20
-375.7500000000164
 30
0.0
 10
416.9424722410301
 20
-375.0247146516093
 30
0.0
 10
416.5293425891511
 20
-374.3091531044413
 30
0.0
 10
415.7123005956008
 20
-372.893994859695
 30
0.0
 10
415.3083200629568
 20
-372.1942800518869
 30
0.0
 10
414.9074772881164
 20
-371.5000000000164
 30
0.0
  0
SPLINE
  5
149
330
1F
100
AcDbEntity
  8
0
  6
Continuous
 62
     7
370
    15
100
AcDbSpline
210
0.0
220
0.0
230
1.0
 70
    24
 71
     3
 72
    10
 73
     6
 74
     0
 42
0.000000001
 43
0.00000001
 40
0.0
 40
0.0
 40
0.0
 40
0.0
 40
0.5
 40
0.5
 40
1.0
 40
1.0
 40
1.0
 40
1.0
 10
414.9074772881164
 20
-371.5000000000164
 30
0.0
 10
414.1057917384355
 20
-371.5000000000163
 30
0.0
 10
413.2978306731476
 20
-371.5000000000164
 30
0.0
 10
411.6637466860471
 20
-371.5000000000163
 30
0.0
 10
410.837487382289
 20
-371.5000000000164
 30
0.0
 10
410.0000000000046
 20
-371.5000000000164
 30
0.0
  0
SPLINE
  5
14A
330
1F
100
AcDbEntity
  8
0
  6
Continuous
 62
     7
370
    15
100
AcDbSpline
210
0.0
220
0.0
230
1.0
 70
    24
 71
     3
 72
    10
 73
     6
 74
     0
 42
0.000000001
 43
0.00000001
 40
0.0
 40
0.0
 40
0.0
 40
0.0
 40
0.5
 40
0.5
 40
1.0
 40
1.0
 40
1.0
 40
1.0
 10
402.6387840678369
 20
-375.7500000000164
 30
0.0
 10
402.2200403766947
 20
-376.4752853484235
 30
0.0
 10
401.8069107248156
 20
-377.1908468955914
 30
0.0
 10
400.9898687312654
 20
-378.6060051403377
 30
0.0
 10
400.5858881986214
 20
-379.3057199481459
 30
0.0
 10
400.185045423781
 20
-380.0000000000164
 30
0.0
  0
SPLINE
  5
14B
330
1F
100
AcDbEntity
  8
0
  6
Continuous
 62
     7
370
    15
100
AcDbSpline
210
0.0
220
0.0
230
1.0
 70
    24
 71
     3
 72
    10
 73
     6
 74
     0
 42
0.000000001
 43
0.00000001
 40
0.0
 40
0.0
 40
0.0
 40
0.0
 40
0.5
 40
0.5
 40
1.0
 40
1.0
 40
1.0
 40
1.0
 10
400.185045423781
 20
-380.0000000000164
 30
0.0
 10
400.5858881986214
 20
-380.6942800518869
 30
0.0
 10
400.9898687312654
 20
-381.3939948596951
 30
0.0
 10
401.8069107248155
 20
-382.8091531044413
 30
0.0
 10
402.2200403766947
 20
-383.5247146516093
 30
0.0
 10
402.6387840678369
 20
-384.2500000000164
 30
0.0
  0
SPLINE
  5
14C
330
1F
100
AcDbEntity
  8
0
  6
Continuous
 62
     7
370
    15
100
AcDbSpline
210
0.0
220
0.0
230
1.0
 70
    24
 71
     3
 72
    10
 73
     6
 74
     0
 42
0.000000001
 43
0.00000001
 40
0.0
 40
0.0
 40
0.0
 40
0.0
 40
0.5
 40
0.5
 40
1.0
 40
1.0
 40
1.0
 40
1.0
 10
405.0925227118928
 20
-388.5000000000164
 30
0.0
 10
405.8942082615735
 20
-388.5000000000164
 30
0.0
 10
406.7021693268617
 20
-388.5000000000164
 30
0.0
 10
408.3362533139621
 20
-388.5000000000163
 30
0.0
 10
409.1625126177203
 20
-388.5000000000164
 30
0.0
 10
410.0000000000046
 20
-388.5000000000164
 30
0.0
  0
SPLINE
  5
14D
330
1F
100
AcDbEntity
  8
0
  6
Continuous
 62
     7
370
    15
100
AcDbSpline
210
0.0
220
0.0
230
1.0
 70
    24
 71
     3
 72
    10
 73
     6
 74
     0
 42
0.000000001
 43
0.00000001
 40
0.0
 40
0.0
 40
0.0
 40
0.0
 40
0.5
 40
0.5
 40
1.0
 40
1.0
 40
1.0
 40
1.0
 10
402.6387840678369
 20
-384.2500000000164
 30
0.0
 10
403.0575277589789
 20
-384.9752853484235
 30
0.0
 10
403.4706574108582
 20
-385.6908468955916
 30
0.0
 10
404.2876994044084
 20
-387.1060051403378
 30
0.0
 10
404.6916799370524
 20
-387.8057199481459
 30
0.0
 10
405.0925227118928
 20
-388.5000000000164
 30
0.0
  0
CIRCLE
  5
14E
330
1F
100
AcDbEntity
  8
0
  6
Continuous
 62
     7
370
    15
100
AcDbCircle
 10
0.0
 20
-380.0
 30
0.0
 40
5.400000000000006
  0
CIRCLE
  5
14F
330
1F
100
AcDbEntity
  8
0
  6
Continuous
 62
     7
370
    15
100
AcDbCircle
 10
0.0
 20
-380.0
 30
0.0
 40
8.500000000000005
  0
SPLINE
  5
150
330
1F
100
AcDbEntity
  8
0
  6
Continuous
 62
     7
370
    15
100
AcDbSpline
210
0.0
220
0.0
230
1.0
 70
    24
 71
     3
 72
    10
 73
     6
 74
     0
 42
0.000000001
 43
0.00000001
 40
0.0
 40
0.0
 40
0.0
 40
0.0
 40
0.5000000000000001
 40
0.5000000000000001
 40
1.0
 40
1.0
 40
1.0
 40
1.0
 10
-4.90747728810736
 20
-388.5000000000163
 30
0.0
 10
-4.105791738426469
 20
-388.5000000000164
 30
0.0
 10
-3.297830673138561
 20
-388.5000000000164
 30
0.0
 10
-1.663746686038147
 20
-388.5000000000164
 30
0.0
 10
-0.8374873822798982
 20
-388.5000000000163
 30
0.0
 10
0.0000000000044402
 20
-388.5000000000163
 30
0.0
  0
SPLINE
  5
151
330
1F
100
AcDbEntity
  8
0
  6
Continuous
 62
     7
370
    15
100
AcDbSpline
210
0.0
220
0.0
230
1.0
 70
    24
 71
     3
 72
    10
 73
     6
 74
     0
 42
0.000000001
 43
0.00000001
 40
0.0
 40
0.0
 40
0.0
 40
0.0
 40
0.5
 40
0.5
 40
1.0
 40
1.0
 40
1.0
 40
1.0
 10
-7.361215932163275
 20
-384.2500000000163
 30
0.0
 10
-6.942472241021102
 20
-384.9752853484235
 30
0.0
 10
-6.529342589141963
 20
-385.6908468955914
 30
0.0
 10
-5.71230059559175
 20
-387.1060051403377
 30
0.0
 10
-5.308320062947809
 20
-387.8057199481458
 30
0.0
 10
-4.90747728810736
 20
-388.5000000000163
 30
0.0
  0
SPLINE
  5
152
330
1F
100
AcDbEntity
  8
0
  6
Continuous
 62
     7
370
    15
100
AcDbSpline
210
0.0
220
0.0
230
1.0
 70
    24
 71
     3
 72
    10
 73
     6
 74
     0
 42
0.000000001
 43
0.00000001
 40
0.0
 40
0.0
 40
0.0
 40
0.0
 40
0.5
 40
0.5
 40
1.0
 40
1.0
 40
1.0
 40
1.0
 10
7.361215932172153
 20
-375.7500000000164
 30
0.0
 10
6.942472241029981
 20
-375.0247146516092
 30
0.0
 10
6.529342589150825
 20
-374.3091531044412
 30
0.0
 10
5.712300595600613
 20
-372.8939948596948
 30
0.0
 10
5.30832006295669
 20
-372.1942800518868
 30
0.0
 10
4.90747728811624
 20
-371.5000000000163
 30
0.0
  0
SPLINE
  5
153
330
1F
100
AcDbEntity
  8
0
  6
Continuous
 62
     7
370
    15
100
AcDbSpline
210
0.0
220
0.0
230
1.0
 70
    24
 71
     3
 72
    10
 73
     6
 74
     0
 42
0.000000001
 43
0.00000001
 40
0.0
 40
0.0
 40
0.0
 40
0.0
 40
0.5000000000000001
 40
0.5000000000000001
 40
1.0
 40
1.0
 40
1.0
 40
1.0
 10
4.907477288116239
 20
-371.5000000000163
 30
0.0
 10
4.105791738435348
 20
-371.5000000000164
 30
0.0
 10
3.29783067314744
 20
-371.5000000000164
 30
0.0
 10
1.663746686047027
 20
-371.5000000000163
 30
0.0
 10
0.8374873822887775
 20
-371.5000000000163
 30
0.0
 10
0.0000000000044394
 20
-371.5000000000163
 30
0.0
  0
SPLINE
  5
154
330
1F
100
AcDbEntity
  8
0
  6
Continuous
 62
     7
370
    15
100
AcDbSpline
210
0.0
220
0.0
230
1.0
 70
    24
 71
     3
 72
    10
 73
     6
 74
     0
 42
0.000000001
 43
0.00000001
 40
0.0
 40
0.0
 40
0.0
 40
0.0
 40
0.5
 40
0.5
 40
1.0
 40
1.0
 40
1.0
 40
1.0
 10
9.814954576228041
 20
-380.0000000000163
 30
0.0
 10
9.414111801387598
 20
-379.3057199481457
 30
0.0
 10
9.010131268743649
 20
-378.6060051403379
 30
0.0
 10
8.193089275193444
 20
-377.1908468955914
 30
0.0
 10
7.779959623314319
 20
-376.4752853484235
 30
0.0
 10
7.361215932172152
 20
-375.7500000000164
 30
0.0
  0
SPLINE
  5
155
330
1F
100
AcDbEntity
  8
0
  6
Continuous
 62
     7
370
    15
100
AcDbSpline
210
0.0
220
0.0
230
1.0
 70
    24
 71
     3
 72
    10
 73
     6
 74
     0
 42
0.000000001
 43
0.00000001
 40
0.0
 40
0.0
 40
0.0
 40
0.0
 40
0.5
 40
0.5
 40
1.0
 40
1.0
 40
1.0
 40
1.0
 10
7.361215932172155
 20
-384.2500000000163
 30
0.0
 10
7.779959623314323
 20
-383.5247146516091
 30
0.0
 10
8.19308927519345
 20
-382.8091531044412
 30
0.0
 10
9.01013126874365
 20
-381.3939948596948
 30
0.0
 10
9.414111801387602
 20
-380.6942800518869
 30
0.0
 10
9.814954576228041
 20
-380.0000000000163
 30
0.0
  0
SPLINE
  5
156
330
1F
100
AcDbEntity
  8
0
  6
Continuous
 62
     7
370
    15
100
AcDbSpline
210
0.0
220
0.0
230
1.0
 70
    24
 71
     3
 72
    10
 73
     6
 74
     0
 42
0.000000001
 43
0.00000001
 40
0.0
 40
0.0
 40
0.0
 40
0.0
 40
0.5
 40
0.5
 40
1.0
 40
1.0
 40
1.0
 40
1.0
 10
-7.361215932163276
 20
-375.7500000000164
 30
0.0
 10
-7.779959623305443
 20
-376.4752853484235
 30
0.0
 10
-8.193089275184569
 20
-377.1908468955914
 30
0.0
 10
-9.010131268734767
 20
-378.6060051403377
 30
0.0
 10
-9.41411180137872
 20
-379.3057199481458
 30
0.0
 10
-9.81495457621916
 20
-380.0000000000163
 30
0.0
  0
SPLINE
  5
157
330
1F
100
AcDbEntity
  8
0
  6
Continuous
 62
     7
370
    15
100
AcDbSpline
210
0.0
220
0.0
230
1.0
 70
    24
 71
     3
 72
    10
 73
     6
 74
     0
 42
0.000000001
 43
0.00000001
 40
0.0
 40
0.0
 40
0.0
 40
0.0
 40
0.5
 40
0.5
 40
1.0
 40
1.0
 40
1.0
 40
1.0
 10
-9.81495457621916
 20
-380.0000000000163
 30
0.0
 10
-9.414111801378716
 20
-380.6942800518868
 30
0.0
 10
-9.010131268734767
 20
-381.3939948596949
 30
0.0
 10
-8.193089275184562
 20
-382.8091531044412
 30
0.0
 10
-7.779959623305443
 20
-383.5247146516092
 30
0.0
 10
-7.361215932163275
 20
-384.2500000000163
 30
0.0
  0
SPLINE
  5
158
330
1F
100
AcDbEntity
  8
0
  6
Continuous
 62
     7
370
    15
100
AcDbSpline
210
0.0
220
0.0
230
1.0
 70
    24
 71
     3
 72
    10
 73
     6
 74
     0
 42
0.000000001
 43
0.00000001
 40
0.0
 40
0.0
 40
0.0
 40
0.0
 40
0.5
 40
0.5
 40
1.0
 40
1.0
 40
1.0
 40
1.0
 10
-4.90747728810736
 20
-371.5000000000163
 30
0.0
 10
-5.30832006294781
 20
-372.1942800518868
 30
0.0
 10
-5.712300595591755
 20
-372.893994859695
 30
0.0
 10
-6.529342589141968
 20
-374.3091531044412
 30
0.0
 10
-6.942472241021103
 20
-375.0247146516091
 30
0.0
 10
-7.361215932163276
 20
-375.7500000000164
 30
0.0
  0
SPLINE
  5
159
330
1F
100
AcDbEntity
  8
0
  6
Continuous
 62
     7
370
    15
100
AcDbSpline
210
0.0
220
0.0
230
1.0
 70
    24
 71
     3
 72
    10
 73
     6
 74
     0
 42
0.000000001
 43
0.00000001
 40
0.0
 40
0.0
 40
0.0
 40
0.0
 40
0.5
 40
0.5
 40
1.0
 40
1.0
 40
1.0
 40
1.0
 10
0.0000000000044394
 20
-371.5000000000163
 30
0.0
 10
-0.8374873822798986
 20
-371.5000000000163
 30
0.0
 10
-1.663746686038148
 20
-371.5000000000163
 30
0.0
 10
-3.29783067313856
 20
-371.5000000000163
 30
0.0
 10
-4.105791738426471
 20
-371.5000000000163
 30
0.0
 10
-4.907477288107361
 20
-371.5000000000163
 30
0.0
  0
SPLINE
  5
15A
330
1F
100
AcDbEntity
  8
0
  6
Continuous
 62
     7
370
    15
100
AcDbSpline
210
0.0
220
0.0
230
1.0
 70
    24
 71
     3
 72
    10
 73
     6
 74
     0
 42
0.000000001
 43
0.00000001
 40
0.0
 40
0.0
 40
0.0
 40
0.0
 40
0.5
 40
0.5
 40
1.0
 40
1.0
 40
1.0
 40
1.0
 10
0.000000000004441
 20
-388.5000000000163
 30
0.0
 10
0.8374873822887791
 20
-388.5000000000162
 30
0.0
 10
1.663746686047029
 20
-388.5000000000163
 30
0.0
 10
3.297830673147442
 20
-388.5000000000163
 30
0.0
 10
4.105791738435351
 20
-388.5000000000163
 30
0.0
 10
4.907477288116242
 20
-388.5000000000163
 30
0.0
  0
SPLINE
  5
15B
330
1F
100
AcDbEntity
  8
0
  6
Continuous
 62
     7
370
    15
100
AcDbSpline
210
0.0
220
0.0
230
1.0
 70
    24
 71
     3
 72
    10
 73
     6
 74
     0
 42
0.000000001
 43
0.00000001
 40
0.0
 40
0.0
 40
0.0
 40
0.0
 40
0.5
 40
0.5
 40
1.0
 40
1.0
 40
1.0
 40
1.0
 10
4.907477288116241
 20
-388.5000000000163
 30
0.0
 10
5.30832006295669
 20
-387.8057199481457
 30
0.0
 10
5.712300595600635
 20
-387.1060051403377
 30
0.0
 10
6.529342589150846
 20
-385.6908468955913
 30
0.0
 10
6.942472241029983
 20
-384.9752853484236
 30
0.0
 10
7.361215932172155
 20
-384.2500000000163
 30
0.0
  0
CIRCLE
  5
15C
330
1F
100
AcDbEntity
  8
0
  6
Continuous
 62
     7
370
    15
100
AcDbCircle
 10
-410.0
 20
-380.0
 30
0.0
 40
5.399999999999977
  0
CIRCLE
  5
15D
330
1F
100
AcDbEntity
  8
0
  6
Continuous
 62
     7
370
    15
100
AcDbCircle
 10
-410.0
 20
-380.0
 30
0.0
 40
8.499999999999886
  0
SPLINE
  5
15E
330
1F
100
AcDbEntity
  8
0
  6
Continuous
 62
     7
370
    15
100
AcDbSpline
210
0.0
220
0.0
230
1.0
 70
    24
 71
     3
 72
    10
 73
     6
 74
     0
 42
0.000000001
 43
0.00000001
 40
0.0
 40
0.0
 40
0.0
 40
0.0
 40
0.5
 40
0.5
 40
1.0
 40
1.0
 40
1.0
 40
1.0
 10
-400.1850454237717
 20
-380.0000000000163
 30
0.0
 10
-400.585888198612
 20
-379.3057199481457
 30
0.0
 10
-400.9898687312561
 20
-378.6060051403377
 30
0.0
 10
-401.8069107248062
 20
-377.1908468955913
 30
0.0
 10
-402.2200403766853
 20
-376.4752853484235
 30
0.0
 10
-402.6387840678275
 20
-375.7500000000164
 30
0.0
  0
SPLINE
  5
15F
330
1F
100
AcDbEntity
  8
0
  6
Continuous
 62
     7
370
    15
100
AcDbSpline
210
0.0
220
0.0
230
1.0
 70
    24
 71
     3
 72
    10
 73
     6
 74
     0
 42
0.000000001
 43
0.00000001
 40
0.0
 40
0.0
 40
0.0
 40
0.0
 40
0.5
 40
0.5
 40
1.0
 40
1.0
 40
1.0
 40
1.0
 10
-402.6387840678275
 20
-384.2500000000163
 30
0.0
 10
-402.2200403766853
 20
-383.524714651609
 30
0.0
 10
-401.8069107248062
 20
-382.8091531044412
 30
0.0
 10
-400.989868731256
 20
-381.3939948596949
 30
0.0
 10
-400.5858881986121
 20
-380.6942800518869
 30
0.0
 10
-400.1850454237717
 20
-380.0000000000163
 30
0.0
  0
SPLINE
  5
160
330
1F
100
AcDbEntity
  8
0
  6
Continuous
 62
     7
370
    15
100
AcDbSpline
210
0.0
220
0.0
230
1.0
 70
    24
 71
     3
 72
    10
 73
     6
 74
     0
 42
0.000000001
 43
0.00000001
 40
0.0
 40
0.0
 40
0.0
 40
0.0
 40
0.5
 40
0.5
 40
1.0
 40
1.0
 40
1.0
 40
1.0
 10
-414.9074772881071
 20
-388.5000000000163
 30
0.0
 10
-414.1057917384261
 20
-388.5000000000162
 30
0.0
 10
-413.2978306731383
 20
-388.5000000000163
 30
0.0
 10
-411.6637466860378
 20
-388.5000000000163
 30
0.0
 10
-410.8374873822797
 20
-388.5000000000163
 30
0.0
 10
-409.9999999999953
 20
-388.5000000000163
 30
0.0
  0
SPLINE
  5
161
330
1F
100
AcDbEntity
  8
0
  6
Continuous
 62
     7
370
    15
100
AcDbSpline
210
0.0
220
0.0
230
1.0
 70
    24
 71
     3
 72
    10
 73
     6
 74
     0
 42
0.000000001
 43
0.00000001
 40
0.0
 40
0.0
 40
0.0
 40
0.0
 40
0.5
 40
0.5
 40
1.0
 40
1.0
 40
1.0
 40
1.0
 10
-417.361215932163
 20
-384.2500000000163
 30
0.0
 10
-416.9424722410208
 20
-384.9752853484235
 30
0.0
 10
-416.5293425891418
 20
-385.6908468955914
 30
0.0
 10
-415.7123005955914
 20
-387.1060051403377
 30
0.0
 10
-415.3083200629475
 20
-387.8057199481458
 30
0.0
 10
-414.9074772881071
 20
-388.5000000000163
 30
0.0
  0
SPLINE
  5
162
330
1F
100
AcDbEntity
  8
0
  6
Continuous
 62
     7
370
    15
100
AcDbSpline
210
0.0
220
0.0
230
1.0
 70
    24
 71
     3
 72
    10
 73
     6
 74
     0
 42
0.000000001
 43
0.00000001
 40
0.0
 40
0.0
 40
0.0
 40
0.0
 40
0.5
 40
0.5
 40
1.0
 40
1.0
 40
1.0
 40
1.0
 10
-405.0925227118835
 20
-388.5000000000163
 30
0.0
 10
-404.691679937043
 20
-387.8057199481457
 30
0.0
 10
-404.2876994043991
 20
-387.1060051403377
 30
0.0
 10
-403.4706574108487
 20
-385.6908468955913
 30
0.0
 10
-403.0575277589698
 20
-384.9752853484236
 30
0.0
 10
-402.6387840678275
 20
-384.2500000000163
 30
0.0
  0
SPLINE
  5
163
330
1F
100
AcDbEntity
  8
0
  6
Continuous
 62
     7
370
    15
100
AcDbSpline
210
0.0
220
0.0
230
1.0
 70
    24
 71
     3
 72
    10
 73
     6
 74
     0
 42
0.000000001
 43
0.00000001
 40
0.0
 40
0.0
 40
0.0
 40
0.0
 40
0.5
 40
0.5
 40
1.0
 40
1.0
 40
1.0
 40
1.0
 10
-409.9999999999953
 20
-388.5000000000163
 30
0.0
 10
-409.1625126177109
 20
-388.5000000000162
 30
0.0
 10
-408.3362533139527
 20
-388.5000000000163
 30
0.0
 10
-406.7021693268522
 20
-388.5000000000163
 30
0.0
 10
-405.8942082615643
 20
-388.5000000000163
 30
0.0
 10
-405.0925227118835
 20
-388.5000000000163
 30
0.0
  0
SPLINE
  5
164
330
1F
100
AcDbEntity
  8
0
  6
Continuous
 62
     7
370
    15
100
AcDbSpline
210
0.0
220
0.0
230
1.0
 70
    24
 71
     3
 72
    10
 73
     6
 74
     0
 42
0.000000001
 43
0.00000001
 40
0.0
 40
0.0
 40
0.0
 40
0.0
 40
0.5
 40
0.5
 40
1.0
 40
1.0
 40
1.0
 40
1.0
 10
-402.6387840678275
 20
-375.7500000000164
 30
0.0
 10
-403.0575277589696
 20
-375.0247146516092
 30
0.0
 10
-403.4706574108488
 20
-374.3091531044413
 30
0.0
 10
-404.2876994043991
 20
-372.8939948596949
 30
0.0
 10
-404.691679937043
 20
-372.1942800518869
 30
0.0
 10
-405.0925227118835
 20
-371.5000000000163
 30
0.0
  0
SPLINE
  5
165
330
1F
100
AcDbEntity
  8
0
  6
Continuous
 62
     7
370
    15
100
AcDbSpline
210
0.0
220
0.0
230
1.0
 70
    24
 71
     3
 72
    10
 73
     6
 74
     0
 42
0.000000001
 43
0.00000001
 40
0.0
 40
0.0
 40
0.0
 40
0.0
 40
0.5
 40
0.5
 40
1.0
 40
1.0
 40
1.0
 40
1.0
 10
-405.0925227118835
 20
-371.5000000000163
 30
0.0
 10
-405.8942082615643
 20
-371.5000000000163
 30
0.0
 10
-406.7021693268524
 20
-371.5000000000163
 30
0.0
 10
-408.3362533139527
 20
-371.5000000000163
 30
0.0
 10
-409.1625126177109
 20
-371.5000000000163
 30
0.0
 10
-409.9999999999953
 20
-371.5000000000163
 30
0.0
  0
SPLINE
  5
166
330
1F
100
AcDbEntity
  8
0
  6
Continuous
 62
     7
370
    15
100
AcDbSpline
210
0.0
220
0.0
230
1.0
 70
    24
 71
     3
 72
    10
 73
     6
 74
     0
 42
0.000000001
 43
0.00000001
 40
0.0
 40
0.0
 40
0.0
 40
0.0
 40
0.5
 40
0.5
 40
1.0
 40
1.0
 40
1.0
 40
1.0
 10
-414.9074772881071
 20
-371.5000000000163
 30
0.0
 10
-415.3083200629474
 20
-372.1942800518868
 30
0.0
 10
-415.7123005955914
 20
-372.893994859695
 30
0.0
 10
-416.5293425891417
 20
-374.3091531044412
 30
0.0
 10
-416.9424722410207
 20
-375.0247146516091
 30
0.0
 10
-417.361215932163
 20
-375.7500000000164
 30
0.0
  0
SPLINE
  5
167
330
1F
100
AcDbEntity
  8
0
  6
Continuous
 62
     7
370
    15
100
AcDbSpline
210
0.0
220
0.0
230
1.0
 70
    24
 71
     3
 72
    10
 73
     6
 74
     0
 42
0.000000001
 43
0.00000001
 40
0.0
 40
0.0
 40
0.0
 40
0.0
 40
0.5
 40
0.5
 40
1.0
 40
1.0
 40
1.0
 40
1.0
 10
-409.9999999999953
 20
-371.5000000000163
 30
0.0
 10
-410.8374873822797
 20
-371.5000000000163
 30
0.0
 10
-411.6637466860379
 20
-371.5000000000163
 30
0.0
 10
-413.2978306731382
 20
-371.5000000000163
 30
0.0
 10
-414.1057917384263
 20
-371.5000000000163
 30
0.0
 10
-414.9074772881071
 20
-371.5000000000163
 30
0.0
  0
SPLINE
  5
168
330
1F
100
AcDbEntity
  8
0
  6
Continuous
 62
     7
370
    15
100
AcDbSpline
210
0.0
220
0.0
230
1.0
 70
    24
 71
     3
 72
    10
 73
     6
 74
     0
 42
0.000000001
 43
0.00000001
 40
0.0
 40
0.0
 40
0.0
 40
0.0
 40
0.5
 40
0.5
 40
1.0
 40
1.0
 40
1.0
 40
1.0
 10
-419.8149545762189
 20
-380.0000000000163
 30
0.0
 10
-419.4141118013784
 20
-380.6942800518869
 30
0.0
 10
-419.0101312687345
 20
-381.3939948596949
 30
0.0
 10
-418.1930892751843
 20
-382.8091531044412
 30
0.0
 10
-417.7799596233052
 20
-383.5247146516092
 30
0.0
 10
-417.361215932163
 20
-384.2500000000163
 30
0.0
  0
SPLINE
  5
169
330
1F
100
AcDbEntity
  8
0
  6
Continuous
 62
     7
370
    15
100
AcDbSpline
210
0.0
220
0.0
230
1.0
 70
    24
 71
     3
 72
    10
 73
     6
 74
     0
 42
0.000000001
 43
0.00000001
 40
0.0
 40
0.0
 40
0.0
 40
0.0
 40
0.5
 40
0.5
 40
1.0
 40
1.0
 40
1.0
 40
1.0
 10
-417.361215932163
 20
-375.7500000000164
 30
0.0
 10
-417.7799596233052
 20
-376.4752853484235
 30
0.0
 10
-418.1930892751844
 20
-377.1908468955914
 30
0.0
 10
-419.0101312687345
 20
-378.6060051403376
 30
0.0
 10
-419.4141118013785
 20
-379.3057199481458
 30
0.0
 10
-419.8149545762189
 20
-380.0000000000163
 30
0.0
  0
CIRCLE
  5
16A
330
1F
100
AcDbEntity
  8
0
  6
Continuous
 62
     7
370
    15
100
AcDbCircle
 10
-820.0
 20
-380.0
 30
0.0
 40
5.399999999999977
  0
CIRCLE
  5
16B
330
1F
100
AcDbEntity
  8
0
  6
Continuous
 62
     7
370
    15
100
AcDbCircle
 10
-820.0
 20
-380.0
 30
0.0
 40
8.5
  0
SPLINE
  5
16C
330
1F
100
AcDbEntity
  8
0
  6
Continuous
 62
     7
370
    15
100
AcDbSpline
210
0.0
220
0.0
230
1.0
 70
    24
 71
     3
 72
    10
 73
     6
 74
     0
 42
0.000000001
 43
0.00000001
 40
0.0
 40
0.0
 40
0.0
 40
0.0
 40
0.5
 40
0.5
 40
1.0
 40
1.0
 40
1.0
 40
1.0
 10
-827.3612159321632
 20
-384.2500000000163
 30
0.0
 10
-826.9424722410209
 20
-384.9752853484234
 30
0.0
 10
-826.5293425891422
 20
-385.6908468955913
 30
0.0
 10
-825.7123005955916
 20
-387.1060051403377
 30
0.0
 10
-825.3083200629476
 20
-387.8057199481458
 30
0.0
 10
-824.9074772881072
 20
-388.5000000000163
 30
0.0
  0
SPLINE
  5
16D
330
1F
100
AcDbEntity
  8
0
  6
Continuous
 62
     7
370
    15
100
AcDbSpline
210
0.0
220
0.0
230
1.0
 70
    24
 71
     3
 72
    10
 73
     6
 74
     0
 42
0.000000001
 43
0.00000001
 40
0.0
 40
0.0
 40
0.0
 40
0.0
 40
0.5
 40
0.5
 40
1.0
 40
1.0
 40
1.0
 40
1.0
 10
-824.9074772881072
 20
-388.5000000000163
 30
0.0
 10
-824.1057917384261
 20
-388.5000000000162
 30
0.0
 10
-823.2978306731387
 20
-388.5000000000163
 30
0.0
 10
-821.6637466860379
 20
-388.5000000000163
 30
0.0
 10
-820.8374873822797
 20
-388.5000000000163
 30
0.0
 10
-819.9999999999955
 20
-388.5000000000163
 30
0.0
  0
SPLINE
  5
16E
330
1F
100
AcDbEntity
  8
0
  6
Continuous
 62
     7
370
    15
100
AcDbSpline
210
0.0
220
0.0
230
1.0
 70
    24
 71
     3
 72
    10
 73
     6
 74
     0
 42
0.000000001
 43
0.00000001
 40
0.0
 40
0.0
 40
0.0
 40
0.0
 40
0.5
 40
0.5
 40
1.0
 40
1.0
 40
1.0
 40
1.0
 10
-812.6387840678276
 20
-375.7500000000163
 30
0.0
 10
-813.0575277589697
 20
-375.0247146516091
 30
0.0
 10
-813.4706574108487
 20
-374.3091531044412
 30
0.0
 10
-814.2876994043991
 20
-372.8939948596948
 30
0.0
 10
-814.6916799370432
 20
-372.1942800518868
 30
0.0
 10
-815.0925227118836
 20
-371.5000000000163
 30
0.0
  0
SPLINE
  5
16F
330
1F
100
AcDbEntity
  8
0
  6
Continuous
 62
     7
370
    15
100
AcDbSpline
210
0.0
220
0.0
230
1.0
 70
    24
 71
     3
 72
    10
 73
     6
 74
     0
 42
0.000000001
 43
0.00000001
 40
0.0
 40
0.0
 40
0.0
 40
0.0
 40
0.5
 40
0.5
 40
1.0
 40
1.0
 40
1.0
 40
1.0
 10
-815.0925227118836
 20
-371.5000000000163
 30
0.0
 10
-815.8942082615646
 20
-371.5000000000163
 30
0.0
 10
-816.7021693268523
 20
-371.5000000000163
 30
0.0
 10
-818.3362533139527
 20
-371.5000000000163
 30
0.0
 10
-819.1625126177111
 20
-371.5000000000163
 30
0.0
 10
-819.9999999999955
 20
-371.5000000000163
 30
0.0
  0
SPLINE
  5
170
330
1F
100
AcDbEntity
  8
0
  6
Continuous
 62
     7
370
    15
100
AcDbSpline
210
0.0
220
0.0
230
1.0
 70
    24
 71
     3
 72
    10
 73
     6
 74
     0
 42
0.000000001
 43
0.00000001
 40
0.0
 40
0.0
 40
0.0
 40
0.0
 40
0.5
 40
0.5
 40
1.0
 40
1.0
 40
1.0
 40
1.0
 10
-829.8149545762191
 20
-380.0000000000163
 30
0.0
 10
-829.4141118013785
 20
-380.6942800518868
 30
0.0
 10
-829.0101312687345
 20
-381.3939948596948
 30
0.0
 10
-828.1930892751843
 20
-382.8091531044411
 30
0.0
 10
-827.7799596233054
 20
-383.5247146516091
 30
0.0
 10
-827.3612159321632
 20
-384.2500000000163
 30
0.0
  0
SPLINE
  5
171
330
1F
100
AcDbEntity
  8
0
  6
Continuous
 62
     7
370
    15
100
AcDbSpline
210
0.0
220
0.0
230
1.0
 70
    24
 71
     3
 72
    10
 73
     6
 74
     0
 42
0.000000001
 43
0.00000001
 40
0.0
 40
0.0
 40
0.0
 40
0.0
 40
0.5
 40
0.5
 40
1.0
 40
1.0
 40
1.0
 40
1.0
 10
-827.3612159321632
 20
-375.7500000000163
 30
0.0
 10
-827.7799596233053
 20
-376.4752853484233
 30
0.0
 10
-828.1930892751845
 20
-377.1908468955913
 30
0.0
 10
-829.0101312687344
 20
-378.6060051403376
 30
0.0
 10
-829.4141118013787
 20
-379.3057199481458
 30
0.0
 10
-829.8149545762191
 20
-380.0000000000163
 30
0.0
  0
SPLINE
  5
172
330
1F
100
AcDbEntity
  8
0
  6
Continuous
 62
     7
370
    15
100
AcDbSpline
210
0.0
220
0.0
230
1.0
 70
    24
 71
     3
 72
    10
 73
     6
 74
     0
 42
0.000000001
 43
0.00000001
 40
0.0
 40
0.0
 40
0.0
 40
0.0
 40
0.5
 40
0.5
 40
1.0
 40
1.0
 40
1.0
 40
1.0
 10
-810.1850454237718
 20
-380.0000000000163
 30
0.0
 10
-810.5858881986122
 20
-379.3057199481458
 30
0.0
 10
-810.9898687312564
 20
-378.6060051403377
 30
0.0
 10
-811.8069107248064
 20
-377.1908468955913
 30
0.0
 10
-812.2200403766856
 20
-376.4752853484235
 30
0.0
 10
-812.6387840678276
 20
-375.7500000000163
 30
0.0
  0
SPLINE
  5
173
330
1F
100
AcDbEntity
  8
0
  6
Continuous
 62
     7
370
    15
100
AcDbSpline
210
0.0
220
0.0
230
1.0
 70
    24
 71
     3
 72
    10
 73
     6
 74
     0
 42
0.000000001
 43
0.00000001
 40
0.0
 40
0.0
 40
0.0
 40
0.0
 40
0.5
 40
0.5
 40
1.0
 40
1.0
 40
1.0
 40
1.0
 10
-812.6387840678276
 20
-384.2500000000163
 30
0.0
 10
-812.2200403766853
 20
-383.5247146516091
 30
0.0
 10
-811.8069107248065
 20
-382.8091531044413
 30
0.0
 10
-810.9898687312561
 20
-381.3939948596949
 30
0.0
 10
-810.5858881986123
 20
-380.6942800518868
 30
0.0
 10
-810.1850454237718
 20
-380.0000000000163
 30
0.0
  0
SPLINE
  5
174
330
1F
100
AcDbEntity
  8
0
  6
Continuous
 62
     7
370
    15
100
AcDbSpline
210
0.0
220
0.0
230
1.0
 70
    24
 71
     3
 72
    10
 73
     6
 74
     0
 42
0.000000001
 43
0.00000001
 40
0.0
 40
0.0
 40
0.0
 40
0.0
 40
0.5
 40
0.5
 40
1.0
 40
1.0
 40
1.0
 40
1.0
 10
-819.9999999999955
 20
-388.5000000000163
 30
0.0
 10
-819.1625126177111
 20
-388.5000000000162
 30
0.0
 10
-818.3362533139527
 20
-388.5000000000163
 30
0.0
 10
-816.7021693268521
 20
-388.5000000000163
 30
0.0
 10
-815.8942082615647
 20
-388.5000000000163
 30
0.0
 10
-815.0925227118836
 20
-388.5000000000163
 30
0.0
  0
SPLINE
  5
175
330
1F
100
AcDbEntity
  8
0
  6
Continuous
 62
     7
370
    15
100
AcDbSpline
210
0.0
220
0.0
230
1.0
 70
    24
 71
     3
 72
    10
 73
     6
 74
     0
 42
0.000000001
 43
0.00000001
 40
0.0
 40
0.0
 40
0.0
 40
0.0
 40
0.5
 40
0.5
 40
1.0
 40
1.0
 40
1.0
 40
1.0
 10
-815.0925227118836
 20
-388.5000000000163
 30
0.0
 10
-814.6916799370432
 20
-387.8057199481457
 30
0.0
 10
-814.2876994043993
 20
-387.1060051403378
 30
0.0
 10
-813.470657410849
 20
-385.6908468955913
 30
0.0
 10
-813.0575277589699
 20
-384.9752853484235
 30
0.0
 10
-812.6387840678276
 20
-384.2500000000163
 30
0.0
  0
SPLINE
  5
176
330
1F
100
AcDbEntity
  8
0
  6
Continuous
 62
     7
370
    15
100
AcDbSpline
210
0.0
220
0.0
230
1.0
 70
    24
 71
     3
 72
    10
 73
     6
 74
     0
 42
0.000000001
 43
0.00000001
 40
0.0
 40
0.0
 40
0.0
 40
0.0
 40
0.5
 40
0.5
 40
1.0
 40
1.0
 40
1.0
 40
1.0
 10
-824.9074772881072
 20
-371.5000000000163
 30
0.0
 10
-825.3083200629476
 20
-372.1942800518867
 30
0.0
 10
-825.7123005955916
 20
-372.8939948596948
 30
0.0
 10
-826.5293425891418
 20
-374.3091531044411
 30
0.0
 10
-826.9424722410212
 20
-375.0247146516091
 30
0.0
 10
-827.3612159321632
 20
-375.7500000000163
 30
0.0
  0
SPLINE
  5
177
330
1F
100
AcDbEntity
  8
0
  6
Continuous
 62
     7
370
    15
100
AcDbSpline
210
0.0
220
0.0
230
1.0
 70
    24
 71
     3
 72
    10
 73
     6
 74
     0
 42
0.000000001
 43
0.00000001
 40
0.0
 40
0.0
 40
0.0
 40
0.0
 40
0.5
 40
0.5
 40
1.0
 40
1.0
 40
1.0
 40
1.0
 10
-819.9999999999955
 20
-371.5000000000163
 30
0.0
 10
-820.8374873822797
 20
-371.5000000000163
 30
0.0
 10
-821.6637466860382
 20
-371.5000000000163
 30
0.0
 10
-823.2978306731386
 20
-371.5000000000163
 30
0.0
 10
-824.1057917384263
 20
-371.5000000000163
 30
0.0
 10
-824.9074772881072
 20
-371.5000000000163
 30
0.0
  0
CIRCLE
  5
178
330
1F
100
AcDbEntity
  8
0
  6
Continuous
 62
     7
370
    15
100
AcDbCircle
 10
-1230.0
 20
-380.0
 30
0.0
 40
5.400000000000091
  0
CIRCLE
  5
179
330
1F
100
AcDbEntity
  8
0
  6
Continuous
 62
     7
370
    15
100
AcDbCircle
 10
-1230.0
 20
-380.0
 30
0.0
 40
8.499999999999773
  0
SPLINE
  5
17A
330
1F
100
AcDbEntity
  8
0
  6
Continuous
 62
     7
370
    15
100
AcDbSpline
210
0.0
220
0.0
230
1.0
 70
    24
 71
     3
 72
    10
 73
     6
 74
     0
 42
0.000000001
 43
0.00000001
 40
0.0
 40
0.0
 40
0.0
 40
0.0
 40
0.5
 40
0.5
 40
1.0
 40
1.0
 40
1.0
 40
1.0
 10
-1237.361215932163
 20
-375.7500000000163
 30
0.0
 10
-1237.779959623306
 20
-376.4752853484233
 30
0.0
 10
-1238.193089275185
 20
-377.1908468955913
 30
0.0
 10
-1239.010131268735
 20
-378.6060051403376
 30
0.0
 10
-1239.414111801379
 20
-379.3057199481458
 30
0.0
 10
-1239.814954576219
 20
-380.0000000000162
 30
0.0
  0
SPLINE
  5
17B
330
1F
100
AcDbEntity
  8
0
  6
Continuous
 62
     7
370
    15
100
AcDbSpline
210
0.0
220
0.0
230
1.0
 70
    24
 71
     3
 72
    10
 73
     6
 74
     0
 42
0.000000001
 43
0.00000001
 40
0.0
 40
0.0
 40
0.0
 40
0.0
 40
0.5
 40
0.5
 40
1.0
 40
1.0
 40
1.0
 40
1.0
 10
-1239.814954576219
 20
-380.0000000000162
 30
0.0
 10
-1239.414111801379
 20
-380.6942800518868
 30
0.0
 10
-1239.010131268735
 20
-381.3939948596948
 30
0.0
 10
-1238.193089275185
 20
-382.8091531044411
 30
0.0
 10
-1237.779959623306
 20
-383.524714651609
 30
0.0
 10
-1237.361215932163
 20
-384.2500000000162
 30
0.0
  0
SPLINE
  5
17C
330
1F
100
AcDbEntity
  8
0
  6
Continuous
 62
     7
370
    15
100
AcDbSpline
210
0.0
220
0.0
230
1.0
 70
    24
 71
     3
 72
    10
 73
     6
 74
     0
 42
0.000000001
 43
0.00000001
 40
0.0
 40
0.0
 40
0.0
 40
0.0
 40
0.5
 40
0.5
 40
1.0
 40
1.0
 40
1.0
 40
1.0
 10
-1229.999999999995
 20
-371.5000000000162
 30
0.0
 10
-1230.83748738228
 20
-371.5000000000162
 30
0.0
 10
-1231.663746686038
 20
-371.5000000000163
 30
0.0
 10
-1233.297830673139
 20
-371.5000000000161
 30
0.0
 10
-1234.105791738426
 20
-371.5000000000162
 30
0.0
 10
-1234.907477288107
 20
-371.5000000000162
 30
0.0
  0
SPLINE
  5
17D
330
1F
100
AcDbEntity
  8
0
  6
Continuous
 62
     7
370
    15
100
AcDbSpline
210
0.0
220
0.0
230
1.0
 70
    24
 71
     3
 72
    10
 73
     6
 74
     0
 42
0.000000001
 43
0.00000001
 40
0.0
 40
0.0
 40
0.0
 40
0.0
 40
0.5
 40
0.5
 40
1.0
 40
1.0
 40
1.0
 40
1.0
 10
-1234.907477288107
 20
-371.5000000000162
 30
0.0
 10
-1235.308320062948
 20
-372.1942800518868
 30
0.0
 10
-1235.712300595592
 20
-372.8939948596948
 30
0.0
 10
-1236.529342589141
 20
-374.3091531044411
 30
0.0
 10
-1236.942472241021
 20
-375.0247146516091
 30
0.0
 10
-1237.361215932163
 20
-375.7500000000163
 30
0.0
  0
SPLINE
  5
17E
330
1F
100
AcDbEntity
  8
0
  6
Continuous
 62
     7
370
    15
100
AcDbSpline
210
0.0
220
0.0
230
1.0
 70
    24
 71
     3
 72
    10
 73
     6
 74
     0
 42
0.000000001
 43
0.00000001
 40
0.0
 40
0.0
 40
0.0
 40
0.0
 40
0.5
 40
0.5
 40
1.0
 40
1.0
 40
1.0
 40
1.0
 10
-1229.999999999995
 20
-388.5000000000162
 30
0.0
 10
-1229.162512617711
 20
-388.5000000000162
 30
0.0
 10
-1228.336253313953
 20
-388.5000000000163
 30
0.0
 10
-1226.702169326853
 20
-388.5000000000162
 30
0.0
 10
-1225.894208261565
 20
-388.5000000000162
 30
0.0
 10
-1225.092522711884
 20
-388.5000000000162
 30
0.0
  0
SPLINE
  5
17F
330
1F
100
AcDbEntity
  8
0
  6
Continuous
 62
     7
370
    15
100
AcDbSpline
210
0.0
220
0.0
230
1.0
 70
    24
 71
     3
 72
    10
 73
     6
 74
     0
 42
0.000000001
 43
0.00000001
 40
0.0
 40
0.0
 40
0.0
 40
0.0
 40
0.5
 40
0.5
 40
1.0
 40
1.0
 40
1.0
 40
1.0
 10
-1225.092522711884
 20
-388.5000000000162
 30
0.0
 10
-1224.691679937044
 20
-387.8057199481456
 30
0.0
 10
-1224.2876994044
 20
-387.1060051403377
 30
0.0
 10
-1223.470657410849
 20
-385.6908468955911
 30
0.0
 10
-1223.05752775897
 20
-384.9752853484235
 30
0.0
 10
-1222.638784067828
 20
-384.2500000000162
 30
0.0
  0
SPLINE
  5
180
330
1F
100
AcDbEntity
  8
0
  6
Continuous
 62
     7
370
    15
100
AcDbSpline
210
0.0
220
0.0
230
1.0
 70
    24
 71
     3
 72
    10
 73
     6
 74
     0
 42
0.000000001
 43
0.00000001
 40
0.0
 40
0.0
 40
0.0
 40
0.0
 40
0.5
 40
0.5
 40
1.0
 40
1.0
 40
1.0
 40
1.0
 10
-1222.638784067828
 20
-384.2500000000162
 30
0.0
 10
-1222.220040376685
 20
-383.524714651609
 30
0.0
 10
-1221.806910724806
 20
-382.809153104441
 30
0.0
 10
-1220.989868731256
 20
-381.3939948596947
 30
0.0
 10
-1220.585888198613
 20
-380.6942800518868
 30
0.0
 10
-1220.185045423772
 20
-380.0000000000162
 30
0.0
  0
SPLINE
  5
181
330
1F
100
AcDbEntity
  8
0
  6
Continuous
 62
     7
370
    15
100
AcDbSpline
210
0.0
220
0.0
230
1.0
 70
    24
 71
     3
 72
    10
 73
     6
 74
     0
 42
0.000000001
 43
0.00000001
 40
0.0
 40
0.0
 40
0.0
 40
0.0
 40
0.5
 40
0.5
 40
1.0
 40
1.0
 40
1.0
 40
1.0
 10
-1220.185045423772
 20
-380.0000000000162
 30
0.0
 10
-1220.585888198612
 20
-379.3057199481456
 30
0.0
 10
-1220.989868731256
 20
-378.6060051403376
 30
0.0
 10
-1221.806910724806
 20
-377.1908468955912
 30
0.0
 10
-1222.220040376685
 20
-376.4752853484235
 30
0.0
 10
-1222.638784067828
 20
-375.7500000000163
 30
0.0
  0
SPLINE
  5
182
330
1F
100
AcDbEntity
  8
0
  6
Continuous
 62
     7
370
    15
100
AcDbSpline
210
0.0
220
0.0
230
1.0
 70
    24
 71
     3
 72
    10
 73
     6
 74
     0
 42
0.000000001
 43
0.00000001
 40
0.0
 40
0.0
 40
0.0
 40
0.0
 40
0.5
 40
0.5
 40
1.0
 40
1.0
 40
1.0
 40
1.0
 10
-1234.907477288107
 20
-388.5000000000162
 30
0.0
 10
-1234.105791738426
 20
-388.5000000000162
 30
0.0
 10
-1233.297830673139
 20
-388.5000000000163
 30
0.0
 10
-1231.663746686038
 20
-388.5000000000162
 30
0.0
 10
-1230.83748738228
 20
-388.5000000000162
 30
0.0
 10
-1229.999999999995
 20
-388.5000000000162
 30
0.0
  0
SPLINE
  5
183
330
1F
100
AcDbEntity
  8
0
  6
Continuous
 62
     7
370
    15
100
AcDbSpline
210
0.0
220
0.0
230
1.0
 70
    24
 71
     3
 72
    10
 73
     6
 74
     0
 42
0.000000001
 43
0.00000001
 40
0.0
 40
0.0
 40
0.0
 40
0.0
 40
0.5
 40
0.5
 40
1.0
 40
1.0
 40
1.0
 40
1.0
 10
-1237.361215932163
 20
-384.2500000000162
 30
0.0
 10
-1236.942472241021
 20
-384.9752853484234
 30
0.0
 10
-1236.529342589142
 20
-385.6908468955914
 30
0.0
 10
-1235.712300595592
 20
-387.1060051403377
 30
0.0
 10
-1235.308320062948
 20
-387.8057199481457
 30
0.0
 10
-1234.907477288107
 20
-388.5000000000162
 30
0.0
  0
SPLINE
  5
184
330
1F
100
AcDbEntity
  8
0
  6
Continuous
 62
     7
370
    15
100
AcDbSpline
210
0.0
220
0.0
230
1.0
 70
    24
 71
     3
 72
    10
 73
     6
 74
     0
 42
0.000000001
 43
0.00000001
 40
0.0
 40
0.0
 40
0.0
 40
0.0
 40
0.5
 40
0.5
 40
1.0
 40
1.0
 40
1.0
 40
1.0
 10
-1225.092522711884
 20
-371.5000000000162
 30
0.0
 10
-1225.894208261565
 20
-371.5000000000162
 30
0.0
 10
-1226.702169326853
 20
-371.5000000000163
 30
0.0
 10
-1228.336253313953
 20
-371.5000000000161
 30
0.0
 10
-1229.162512617711
 20
-371.5000000000162
 30
0.0
 10
-1229.999999999995
 20
-371.5000000000162
 30
0.0
  0
SPLINE
  5
185
330
1F
100
AcDbEntity
  8
0
  6
Continuous
 62
     7
370
    15
100
AcDbSpline
210
0.0
220
0.0
230
1.0
 70
    24
 71
     3
 72
    10
 73
     6
 74
     0
 42
0.000000001
 43
0.00000001
 40
0.0
 40
0.0
 40
0.0
 40
0.0
 40
0.5
 40
0.5
 40
1.0
 40
1.0
 40
1.0
 40
1.0
 10
-1222.638784067828
 20
-375.7500000000163
 30
0.0
 10
-1223.05752775897
 20
-375.024714651609
 30
0.0
 10
-1223.47065741085
 20
-374.3091531044411
 30
0.0
 10
-1224.2876994044
 20
-372.8939948596947
 30
0.0
 10
-1224.691679937043
 20
-372.1942800518868
 30
0.0
 10
-1225.092522711884
 20
-371.5000000000162
 30
0.0
  0
CIRCLE
  5
186
330
1F
100
AcDbEntity
  8
0
  6
Continuous
 62
     7
370
    15
100
AcDbCircle
 10
1230.0
 20
380.0000000001
 30
0.0
 40
5.000000000000057
  0
CIRCLE
  5
187
330
1F
100
AcDbEntity
  8
0
  6
Continuous
 62
     7
370
    15
100
AcDbCircle
 10
1230.0
 20
380.0000000001
 30
0.0
 40
5.400000000000091
  0
CIRCLE
  5
188
330
1F
100
AcDbEntity
  8
0
  6
Continuous
 62
     7
370
    15
100
AcDbCircle
 10
1230.0
 20
380.0000000001
 30
0.0
 40
8.5
  0
SPLINE
  5
189
330
1F
100
AcDbEntity
  8
0
  6
Continuous
 62
     7
370
    15
100
AcDbSpline
210
0.0
220
0.0
230
1.0
 70
    24
 71
     3
 72
    10
 73
     6
 74
     0
 42
0.000000001
 43
0.00000001
 40
0.0
 40
0.0
 40
0.0
 40
0.0
 40
0.5
 40
0.5
 40
1.0
 40
1.0
 40
1.0
 40
1.0
 10
1239.814954576228
 20
380.0000000000547
 30
0.0
 10
1239.414111801388
 20
380.6942800519251
 30
0.0
 10
1239.010131268744
 20
381.3939948597333
 30
0.0
 10
1238.193089275194
 20
382.8091531044798
 30
0.0
 10
1237.779959623314
 20
383.5247146516475
 30
0.0
 10
1237.361215932172
 20
384.2500000000547
 30
0.0
  0
SPLINE
  5
18A
330
1F
100
AcDbEntity
  8
0
  6
Continuous
 62
     7
370
    15
100
AcDbSpline
210
0.0
220
0.0
230
1.0
 70
    24
 71
     3
 72
    10
 73
     6
 74
     0
 42
0.000000001
 43
0.00000001
 40
0.0
 40
0.0
 40
0.0
 40
0.0
 40
0.5
 40
0.5
 40
1.0
 40
1.0
 40
1.0
 40
1.0
 10
1237.361215932172
 20
375.7500000000547
 30
0.0
 10
1237.779959623315
 20
376.4752853484618
 30
0.0
 10
1238.193089275194
 20
377.1908468956299
 30
0.0
 10
1239.010131268744
 20
378.6060051403759
 30
0.0
 10
1239.414111801388
 20
379.3057199481842
 30
0.0
 10
1239.814954576228
 20
380.0000000000547
 30
0.0
  0
SPLINE
  5
18B
330
1F
100
AcDbEntity
  8
0
  6
Continuous
 62
     7
370
    15
100
AcDbSpline
210
0.0
220
0.0
230
1.0
 70
    24
 71
     3
 72
    10
 73
     6
 74
     0
 42
0.000000001
 43
0.00000001
 40
0.0
 40
0.0
 40
0.0
 40
0.0
 40
0.5
 40
0.5
 40
1.0
 40
1.0
 40
1.0
 40
1.0
 10
1230.000000000005
 20
371.5000000000547
 30
0.0
 10
1230.837487382289
 20
371.5000000000547
 30
0.0
 10
1231.663746686047
 20
371.5000000000547
 30
0.0
 10
1233.297830673148
 20
371.5000000000546
 30
0.0
 10
1234.105791738436
 20
371.5000000000547
 30
0.0
 10
1234.907477288116
 20
371.5000000000547
 30
0.0
  0
SPLINE
  5
18C
330
1F
100
AcDbEntity
  8
0
  6
Continuous
 62
     7
370
    15
100
AcDbSpline
210
0.0
220
0.0
230
1.0
 70
    24
 71
     3
 72
    10
 73
     6
 74
     0
 42
0.000000001
 43
0.00000001
 40
0.0
 40
0.0
 40
0.0
 40
0.0
 40
0.5
 40
0.5
 40
1.0
 40
1.0
 40
1.0
 40
1.0
 10
1234.907477288116
 20
371.5000000000547
 30
0.0
 10
1235.308320062957
 20
372.1942800519253
 30
0.0
 10
1235.712300595601
 20
372.8939948597334
 30
0.0
 10
1236.529342589151
 20
374.3091531044797
 30
0.0
 10
1236.94247224103
 20
375.0247146516477
 30
0.0
 10
1237.361215932172
 20
375.7500000000547
 30
0.0
  0
SPLINE
  5
18D
330
1F
100
AcDbEntity
  8
0
  6
Continuous
 62
     7
370
    15
100
AcDbSpline
210
0.0
220
0.0
230
1.0
 70
    24
 71
     3
 72
    10
 73
     6
 74
     0
 42
0.000000001
 43
0.00000001
 40
0.0
 40
0.0
 40
0.0
 40
0.0
 40
0.5
 40
0.5
 40
1.0
 40
1.0
 40
1.0
 40
1.0
 10
1230.000000000005
 20
388.5000000000547
 30
0.0
 10
1229.16251261772
 20
388.5000000000546
 30
0.0
 10
1228.336253313962
 20
388.5000000000547
 30
0.0
 10
1226.702169326862
 20
388.5000000000547
 30
0.0
 10
1225.894208261574
 20
388.5000000000547
 30
0.0
 10
1225.092522711893
 20
388.5000000000547
 30
0.0
  0
SPLINE
  5
18E
330
1F
100
AcDbEntity
  8
0
  6
Continuous
 62
     7
370
    15
100
AcDbSpline
210
0.0
220
0.0
230
1.0
 70
    24
 71
     3
 72
    10
 73
     6
 74
     0
 42
0.000000001
 43
0.00000001
 40
0.0
 40
0.0
 40
0.0
 40
0.0
 40
0.5
 40
0.5
 40
1.0
 40
1.0
 40
1.0
 40
1.0
 10
1225.092522711893
 20
388.5000000000547
 30
0.0
 10
1224.691679937052
 20
387.8057199481841
 30
0.0
 10
1224.287699404409
 20
387.1060051403761
 30
0.0
 10
1223.470657410859
 20
385.6908468956296
 30
0.0
 10
1223.057527758979
 20
384.9752853484619
 30
0.0
 10
1222.638784067837
 20
384.2500000000547
 30
0.0
  0
SPLINE
  5
18F
330
1F
100
AcDbEntity
  8
0
  6
Continuous
 62
     7
370
    15
100
AcDbSpline
210
0.0
220
0.0
230
1.0
 70
    24
 71
     3
 72
    10
 73
     6
 74
     0
 42
0.000000001
 43
0.00000001
 40
0.0
 40
0.0
 40
0.0
 40
0.0
 40
0.5
 40
0.5
 40
1.0
 40
1.0
 40
1.0
 40
1.0
 10
1220.185045423781
 20
380.0000000000547
 30
0.0
 10
1220.585888198622
 20
379.305719948184
 30
0.0
 10
1220.989868731266
 20
378.606005140376
 30
0.0
 10
1221.806910724816
 20
377.1908468956296
 30
0.0
 10
1222.220040376695
 20
376.475285348462
 30
0.0
 10
1222.638784067837
 20
375.7500000000547
 30
0.0
  0
SPLINE
  5
190
330
1F
100
AcDbEntity
  8
0
  6
Continuous
 62
     7
370
    15
100
AcDbSpline
210
0.0
220
0.0
230
1.0
 70
    24
 71
     3
 72
    10
 73
     6
 74
     0
 42
0.000000001
 43
0.00000001
 40
0.0
 40
0.0
 40
0.0
 40
0.0
 40
0.5
 40
0.5
 40
1.0
 40
1.0
 40
1.0
 40
1.0
 10
1222.638784067837
 20
384.2500000000547
 30
0.0
 10
1222.220040376695
 20
383.5247146516475
 30
0.0
 10
1221.806910724816
 20
382.8091531044797
 30
0.0
 10
1220.989868731266
 20
381.3939948597333
 30
0.0
 10
1220.585888198622
 20
380.6942800519253
 30
0.0
 10
1220.185045423781
 20
380.0000000000547
 30
0.0
  0
SPLINE
  5
191
330
1F
100
AcDbEntity
  8
0
  6
Continuous
 62
     7
370
    15
100
AcDbSpline
210
0.0
220
0.0
230
1.0
 70
    24
 71
     3
 72
    10
 73
     6
 74
     0
 42
0.000000001
 43
0.00000001
 40
0.0
 40
0.0
 40
0.0
 40
0.0
 40
0.5
 40
0.5
 40
1.0
 40
1.0
 40
1.0
 40
1.0
 10
1234.907477288116
 20
388.5000000000547
 30
0.0
 10
1234.105791738436
 20
388.5000000000546
 30
0.0
 10
1233.297830673148
 20
388.5000000000547
 30
0.0
 10
1231.663746686047
 20
388.5000000000547
 30
0.0
 10
1230.837487382289
 20
388.5000000000547
 30
0.0
 10
1230.000000000005
 20
388.5000000000547
 30
0.0
  0
SPLINE
  5
192
330
1F
100
AcDbEntity
  8
0
  6
Continuous
 62
     7
370
    15
100
AcDbSpline
210
0.0
220
0.0
230
1.0
 70
    24
 71
     3
 72
    10
 73
     6
 74
     0
 42
0.000000001
 43
0.00000001
 40
0.0
 40
0.0
 40
0.0
 40
0.0
 40
0.5
 40
0.5
 40
1.0
 40
1.0
 40
1.0
 40
1.0
 10
1237.361215932172
 20
384.2500000000547
 30
0.0
 10
1236.94247224103
 20
384.9752853484618
 30
0.0
 10
1236.529342589151
 20
385.6908468956298
 30
0.0
 10
1235.712300595601
 20
387.106005140376
 30
0.0
 10
1235.308320062957
 20
387.8057199481842
 30
0.0
 10
1234.907477288116
 20
388.5000000000547
 30
0.0
  0
SPLINE
  5
193
330
1F
100
AcDbEntity
  8
0
  6
Continuous
 62
     7
370
    15
100
AcDbSpline
210
0.0
220
0.0
230
1.0
 70
    24
 71
     3
 72
    10
 73
     6
 74
     0
 42
0.000000001
 43
0.00000001
 40
0.0
 40
0.0
 40
0.0
 40
0.0
 40
0.5
 40
0.5
 40
1.0
 40
1.0
 40
1.0
 40
1.0
 10
1225.092522711893
 20
371.5000000000547
 30
0.0
 10
1225.894208261574
 20
371.5000000000547
 30
0.0
 10
1226.702169326862
 20
371.5000000000547
 30
0.0
 10
1228.336253313962
 20
371.5000000000546
 30
0.0
 10
1229.16251261772
 20
371.5000000000547
 30
0.0
 10
1230.000000000005
 20
371.5000000000547
 30
0.0
  0
SPLINE
  5
194
330
1F
100
AcDbEntity
  8
0
  6
Continuous
 62
     7
370
    15
100
AcDbSpline
210
0.0
220
0.0
230
1.0
 70
    24
 71
     3
 72
    10
 73
     6
 74
     0
 42
0.000000001
 43
0.00000001
 40
0.0
 40
0.0
 40
0.0
 40
0.0
 40
0.5
 40
0.5
 40
1.0
 40
1.0
 40
1.0
 40
1.0
 10
1222.638784067837
 20
375.7500000000547
 30
0.0
 10
1223.057527758979
 20
375.0247146516476
 30
0.0
 10
1223.470657410858
 20
374.3091531044797
 30
0.0
 10
1224.287699404408
 20
372.8939948597332
 30
0.0
 10
1224.691679937053
 20
372.1942800519252
 30
0.0
 10
1225.092522711893
 20
371.5000000000547
 30
0.0
  0
CIRCLE
  5
195
330
1F
100
AcDbEntity
  8
0
  6
Continuous
 62
     7
370
    15
100
AcDbCircle
 10
820.0
 20
380.0000000001
 30
0.0
 40
4.999999999999943
  0
CIRCLE
  5
196
330
1F
100
AcDbEntity
  8
0
  6
Continuous
 62
     7
370
    15
100
AcDbCircle
 10
820.0
 20
380.0000000001
 30
0.0
 40
5.400000000000091
  0
CIRCLE
  5
197
330
1F
100
AcDbEntity
  8
0
  6
Continuous
 62
     7
370
    15
100
AcDbCircle
 10
820.0
 20
380.0000000001
 30
0.0
 40
8.499999999999773
  0
SPLINE
  5
198
330
1F
100
AcDbEntity
  8
0
  6
Continuous
 62
     7
370
    15
100
AcDbSpline
210
0.0
220
0.0
230
1.0
 70
    24
 71
     3
 72
    10
 73
     6
 74
     0
 42
0.000000001
 43
0.00000001
 40
0.0
 40
0.0
 40
0.0
 40
0.0
 40
0.5
 40
0.5
 40
1.0
 40
1.0
 40
1.0
 40
1.0
 10
829.8149545762284
 20
380.0000000000546
 30
0.0
 10
829.4141118013877
 20
380.694280051925
 30
0.0
 10
829.0101312687441
 20
381.3939948597332
 30
0.0
 10
828.1930892751938
 20
382.8091531044794
 30
0.0
 10
827.7799596233147
 20
383.5247146516475
 30
0.0
 10
827.3612159321725
 20
384.2500000000546
 30
0.0
  0
SPLINE
  5
199
330
1F
100
AcDbEntity
  8
0
  6
Continuous
 62
     7
370
    15
100
AcDbSpline
210
0.0
220
0.0
230
1.0
 70
    24
 71
     3
 72
    10
 73
     6
 74
     0
 42
0.000000001
 43
0.00000001
 40
0.0
 40
0.0
 40
0.0
 40
0.0
 40
0.5
 40
0.5
 40
1.0
 40
1.0
 40
1.0
 40
1.0
 10
827.3612159321725
 20
375.7500000000546
 30
0.0
 10
827.7799596233144
 20
376.4752853484617
 30
0.0
 10
828.1930892751939
 20
377.1908468956297
 30
0.0
 10
829.010131268744
 20
378.6060051403759
 30
0.0
 10
829.414111801388
 20
379.305719948184
 30
0.0
 10
829.8149545762284
 20
380.0000000000546
 30
0.0
  0
SPLINE
  5
19A
330
1F
100
AcDbEntity
  8
0
  6
Continuous
 62
     7
370
    15
100
AcDbSpline
210
0.0
220
0.0
230
1.0
 70
    24
 71
     3
 72
    10
 73
     6
 74
     0
 42
0.000000001
 43
0.00000001
 40
0.0
 40
0.0
 40
0.0
 40
0.0
 40
0.5
 40
0.5
 40
1.0
 40
1.0
 40
1.0
 40
1.0
 10
820.0000000000048
 20
371.5000000000546
 30
0.0
 10
820.8374873822888
 20
371.5000000000547
 30
0.0
 10
821.6637466860476
 20
371.5000000000546
 30
0.0
 10
823.2978306731479
 20
371.5000000000545
 30
0.0
 10
824.1057917384354
 20
371.5000000000546
 30
0.0
 10
824.9074772881165
 20
371.5000000000546
 30
0.0
  0
SPLINE
  5
19B
330
1F
100
AcDbEntity
  8
0
  6
Continuous
 62
     7
370
    15
100
AcDbSpline
210
0.0
220
0.0
230
1.0
 70
    24
 71
     3
 72
    10
 73
     6
 74
     0
 42
0.000000001
 43
0.00000001
 40
0.0
 40
0.0
 40
0.0
 40
0.0
 40
0.5
 40
0.5
 40
1.0
 40
1.0
 40
1.0
 40
1.0
 10
824.9074772881165
 20
371.5000000000546
 30
0.0
 10
825.3083200629568
 20
372.1942800519251
 30
0.0
 10
825.712300595601
 20
372.8939948597333
 30
0.0
 10
826.5293425891513
 20
374.3091531044795
 30
0.0
 10
826.9424722410305
 20
375.0247146516475
 30
0.0
 10
827.3612159321725
 20
375.7500000000546
 30
0.0
  0
SPLINE
  5
19C
330
1F
100
AcDbEntity
  8
0
  6
Continuous
 62
     7
370
    15
100
AcDbSpline
210
0.0
220
0.0
230
1.0
 70
    24
 71
     3
 72
    10
 73
     6
 74
     0
 42
0.000000001
 43
0.00000001
 40
0.0
 40
0.0
 40
0.0
 40
0.0
 40
0.5
 40
0.5
 40
1.0
 40
1.0
 40
1.0
 40
1.0
 10
812.6387840678369
 20
375.7500000000546
 30
0.0
 10
813.0575277589788
 20
375.0247146516474
 30
0.0
 10
813.4706574108582
 20
374.3091531044796
 30
0.0
 10
814.2876994044085
 20
372.8939948597331
 30
0.0
 10
814.6916799370525
 20
372.1942800519251
 30
0.0
 10
815.0925227118929
 20
371.5000000000546
 30
0.0
  0
SPLINE
  5
19D
330
1F
100
AcDbEntity
  8
0
  6
Continuous
 62
     7
370
    15
100
AcDbSpline
210
0.0
220
0.0
230
1.0
 70
    24
 71
     3
 72
    10
 73
     6
 74
     0
 42
0.000000001
 43
0.00000001
 40
0.0
 40
0.0
 40
0.0
 40
0.0
 40
0.5
 40
0.5
 40
1.0
 40
1.0
 40
1.0
 40
1.0
 10
815.0925227118929
 20
371.5000000000546
 30
0.0
 10
815.8942082615738
 20
371.5000000000547
 30
0.0
 10
816.7021693268617
 20
371.5000000000546
 30
0.0
 10
818.3362533139621
 20
371.5000000000545
 30
0.0
 10
819.1625126177205
 20
371.5000000000546
 30
0.0
 10
820.0000000000048
 20
371.5000000000546
 30
0.0
  0
SPLINE
  5
19E
330
1F
100
AcDbEntity
  8
0
  6
Continuous
 62
     7
370
    15
100
AcDbSpline
210
0.0
220
0.0
230
1.0
 70
    24
 71
     3
 72
    10
 73
     6
 74
     0
 42
0.000000001
 43
0.00000001
 40
0.0
 40
0.0
 40
0.0
 40
0.0
 40
0.5
 40
0.5
 40
1.0
 40
1.0
 40
1.0
 40
1.0
 10
827.3612159321725
 20
384.2500000000546
 30
0.0
 10
826.9424722410303
 20
384.9752853484617
 30
0.0
 10
826.5293425891515
 20
385.6908468956296
 30
0.0
 10
825.7123005956007
 20
387.106005140376
 30
0.0
 10
825.3083200629569
 20
387.8057199481841
 30
0.0
 10
824.9074772881165
 20
388.5000000000546
 30
0.0
  0
SPLINE
  5
19F
330
1F
100
AcDbEntity
  8
0
  6
Continuous
 62
     7
370
    15
100
AcDbSpline
210
0.0
220
0.0
230
1.0
 70
    24
 71
     3
 72
    10
 73
     6
 74
     0
 42
0.000000001
 43
0.00000001
 40
0.0
 40
0.0
 40
0.0
 40
0.0
 40
0.5
 40
0.5
 40
1.0
 40
1.0
 40
1.0
 40
1.0
 10
824.9074772881165
 20
388.5000000000546
 30
0.0
 10
824.1057917384356
 20
388.5000000000545
 30
0.0
 10
823.2978306731482
 20
388.5000000000546
 30
0.0
 10
821.6637466860473
 20
388.5000000000545
 30
0.0
 10
820.837487382289
 20
388.5000000000546
 30
0.0
 10
820.0000000000048
 20
388.5000000000546
 30
0.0
  0
SPLINE
  5
1A0
330
1F
100
AcDbEntity
  8
0
  6
Continuous
 62
     7
370
    15
100
AcDbSpline
210
0.0
220
0.0
230
1.0
 70
    24
 71
     3
 72
    10
 73
     6
 74
     0
 42
0.000000001
 43
0.00000001
 40
0.0
 40
0.0
 40
0.0
 40
0.0
 40
0.5
 40
0.5
 40
1.0
 40
1.0
 40
1.0
 40
1.0
 10
815.0925227118929
 20
388.5000000000546
 30
0.0
 10
814.6916799370526
 20
387.805719948184
 30
0.0
 10
814.2876994044087
 20
387.106005140376
 30
0.0
 10
813.4706574108582
 20
385.6908468956296
 30
0.0
 10
813.0575277589791
 20
384.9752853484617
 30
0.0
 10
812.6387840678369
 20
384.2500000000546
 30
0.0
  0
SPLINE
  5
1A1
330
1F
100
AcDbEntity
  8
0
  6
Continuous
 62
     7
370
    15
100
AcDbSpline
210
0.0
220
0.0
230
1.0
 70
    24
 71
     3
 72
    10
 73
     6
 74
     0
 42
0.000000001
 43
0.00000001
 40
0.0
 40
0.0
 40
0.0
 40
0.0
 40
0.5
 40
0.5
 40
1.0
 40
1.0
 40
1.0
 40
1.0
 10
820.0000000000048
 20
388.5000000000546
 30
0.0
 10
819.1625126177204
 20
388.5000000000545
 30
0.0
 10
818.3362533139623
 20
388.5000000000546
 30
0.0
 10
816.7021693268616
 20
388.5000000000545
 30
0.0
 10
815.894208261574
 20
388.5000000000546
 30
0.0
 10
815.0925227118929
 20
388.5000000000546
 30
0.0
  0
SPLINE
  5
1A2
330
1F
100
AcDbEntity
  8
0
  6
Continuous
 62
     7
370
    15
100
AcDbSpline
210
0.0
220
0.0
230
1.0
 70
    24
 71
     3
 72
    10
 73
     6
 74
     0
 42
0.000000001
 43
0.00000001
 40
0.0
 40
0.0
 40
0.0
 40
0.0
 40
0.5
 40
0.5
 40
1.0
 40
1.0
 40
1.0
 40
1.0
 10
810.1850454237812
 20
380.0000000000546
 30
0.0
 10
810.5858881986213
 20
379.305719948184
 30
0.0
 10
810.9898687312658
 20
378.6060051403761
 30
0.0
 10
811.8069107248157
 20
377.1908468956297
 30
0.0
 10
812.2200403766948
 20
376.4752853484617
 30
0.0
 10
812.6387840678369
 20
375.7500000000546
 30
0.0
  0
SPLINE
  5
1A3
330
1F
100
AcDbEntity
  8
0
  6
Continuous
 62
     7
370
    15
100
AcDbSpline
210
0.0
220
0.0
230
1.0
 70
    24
 71
     3
 72
    10
 73
     6
 74
     0
 42
0.000000001
 43
0.00000001
 40
0.0
 40
0.0
 40
0.0
 40
0.0
 40
0.5
 40
0.5
 40
1.0
 40
1.0
 40
1.0
 40
1.0
 10
812.6387840678369
 20
384.2500000000546
 30
0.0
 10
812.2200403766946
 20
383.5247146516473
 30
0.0
 10
811.8069107248158
 20
382.8091531044795
 30
0.0
 10
810.9898687312655
 20
381.3939948597331
 30
0.0
 10
810.5858881986214
 20
380.6942800519251
 30
0.0
 10
810.1850454237812
 20
380.0000000000546
 30
0.0
  0
SPLINE
  5
1A4
330
1F
100
AcDbEntity
  8
0
  6
PHANTOM
 62
     8
370
     0
100
AcDbSpline
210
0.0
220
0.0
230
1.0
 70
     8
 71
     3
 72
    14
 73
    10
 74
     0
 42
0.000000001
 43
0.00000001
 40
0.0
 40
0.0
 40
0.0
 40
0.0
 40
0.25
 40
0.25
 40
0.5
 40
0.5
 40
0.75
 40
0.75
 40
1.0
 40
1.0
 40
1.0
 40
1.0
 10
403.0500000000046
 20
380.0000000000546
 30
0.0
 10
403.0500000000046
 20
381.8432024388546
 30
0.0
 10
403.782266927183
 20
383.611051185726
 30
0.0
 10
406.3889488143331
 20
386.2177330728762
 30
0.0
 10
408.1567975612046
 20
386.9500000000546
 30
0.0
 10
411.8432024388046
 20
386.9500000000546
 30
0.0
 10
413.611051185676
 20
386.2177330728762
 30
0.0
 10
416.2177330728261
 20
383.611051185726
 30
0.0
 10
416.9500000000046
 20
381.8432024388546
 30
0.0
 10
416.9500000000046
 20
380.0000000000546
 30
0.0
  0
SPLINE
  5
1A5
330
1F
100
AcDbEntity
  8
0
  6
PHANTOM
 62
     8
370
     0
100
AcDbSpline
210
0.0
220
0.0
230
1.0
 70
     8
 71
     3
 72
    14
 73
    10
 74
     0
 42
0.000000001
 43
0.00000001
 40
0.0
 40
0.0
 40
0.0
 40
0.0
 40
0.25
 40
0.25
 40
0.5
 40
0.5
 40
0.75
 40
0.75
 40
1.0
 40
1.0
 40
1.0
 40
1.0
 10
416.9500000000046
 20
380.0000000000546
 30
0.0
 10
416.9500000000046
 20
378.1567975612546
 30
0.0
 10
416.2177330728261
 20
376.3889488143831
 30
0.0
 10
413.611051185676
 20
373.782266927233
 30
0.0
 10
411.8432024388046
 20
373.0500000000546
 30
0.0
 10
408.1567975612046
 20
373.0500000000546
 30
0.0
 10
406.3889488143331
 20
373.782266927233
 30
0.0
 10
403.782266927183
 20
376.3889488143831
 30
0.0
 10
403.0500000000046
 20
378.1567975612545
 30
0.0
 10
403.0500000000046
 20
380.0000000000546
 30
0.0
  0
SPLINE
  5
1A6
330
1F
100
AcDbEntity
  8
0
  6
PHANTOM
 62
     8
370
     0
100
AcDbSpline
210
0.0
220
0.0
230
1.0
 70
     8
 71
     3
 72
    14
 73
    10
 74
     0
 42
0.000000001
 43
0.00000001
 40
0.0
 40
0.0
 40
0.0
 40
0.0
 40
0.25
 40
0.25
 40
0.5
 40
0.5
 40
0.75
 40
0.75
 40
1.0
 40
1.0
 40
1.0
 40
1.0
 10
-6.949999999995559
 20
380.0000000000546
 30
0.0
 10
-6.949999999995559
 20
381.8432024388546
 30
0.0
 10
-6.217733072817127
 20
383.611051185726
 30
0.0
 10
-3.611051185667003
 20
386.2177330728762
 30
0.0
 10
-1.84320243879556
 20
386.9500000000546
 30
0.0
 10
1.84320243880444
 20
386.9500000000546
 30
0.0
 10
3.611051185675883
 20
386.2177330728762
 30
0.0
 10
6.21773307282601
 20
383.611051185726
 30
0.0
 10
6.950000000004441
 20
381.8432024388546
 30
0.0
 10
6.950000000004442
 20
380.0000000000546
 30
0.0
  0
SPLINE
  5
1A7
330
1F
100
AcDbEntity
  8
0
  6
PHANTOM
 62
     8
370
     0
100
AcDbSpline
210
0.0
220
0.0
230
1.0
 70
     8
 71
     3
 72
    14
 73
    10
 74
     0
 42
0.000000001
 43
0.00000001
 40
0.0
 40
0.0
 40
0.0
 40
0.0
 40
0.25
 40
0.25
 40
0.5
 40
0.5
 40
0.75
 40
0.75
 40
1.0
 40
1.0
 40
1.0
 40
1.0
 10
6.950000000004441
 20
380.0000000000546
 30
0.0
 10
6.950000000004441
 20
378.1567975612546
 30
0.0
 10
6.217733072826008
 20
376.3889488143831
 30
0.0
 10
3.611051185675885
 20
373.782266927233
 30
0.0
 10
1.843202438804442
 20
373.0500000000546
 30
0.0
 10
-1.843202438795558
 20
373.0500000000546
 30
0.0
 10
-3.611051185667002
 20
373.782266927233
 30
0.0
 10
-6.217733072817128
 20
376.3889488143831
 30
0.0
 10
-6.949999999995559
 20
378.1567975612546
 30
0.0
 10
-6.94999999999556
 20
380.0000000000546
 30
0.0
  0
SPLINE
  5
1A8
330
1F
100
AcDbEntity
  8
0
  6
PHANTOM
 62
     8
370
     0
100
AcDbSpline
210
0.0
220
0.0
230
1.0
 70
     8
 71
     3
 72
    14
 73
    10
 74
     0
 42
0.000000001
 43
0.00000001
 40
0.0
 40
0.0
 40
0.0
 40
0.0
 40
0.25
 40
0.25
 40
0.5
 40
0.5
 40
0.75
 40
0.75
 40
1.0
 40
1.0
 40
1.0
 40
1.0
 10
-416.9499999999953
 20
380.0000000000546
 30
0.0
 10
-416.9499999999953
 20
381.8432024388546
 30
0.0
 10
-416.2177330728168
 20
383.611051185726
 30
0.0
 10
-413.6110511856667
 20
386.2177330728762
 30
0.0
 10
-411.8432024387952
 20
386.9500000000546
 30
0.0
 10
-408.1567975611953
 20
386.9500000000546
 30
0.0
 10
-406.3889488143238
 20
386.2177330728762
 30
0.0
 10
-403.7822669271737
 20
383.611051185726
 30
0.0
 10
-403.0499999999952
 20
381.8432024388546
 30
0.0
 10
-403.0499999999952
 20
380.0000000000546
 30
0.0
  0
SPLINE
  5
1A9
330
1F
100
AcDbEntity
  8
0
  6
PHANTOM
 62
     8
370
     0
100
AcDbSpline
210
0.0
220
0.0
230
1.0
 70
     8
 71
     3
 72
    14
 73
    10
 74
     0
 42
0.000000001
 43
0.00000001
 40
0.0
 40
0.0
 40
0.0
 40
0.0
 40
0.25
 40
0.25
 40
0.5
 40
0.5
 40
0.75
 40
0.75
 40
1.0
 40
1.0
 40
1.0
 40
1.0
 10
-403.0499999999952
 20
380.0000000000546
 30
0.0
 10
-403.0499999999952
 20
378.1567975612546
 30
0.0
 10
-403.7822669271737
 20
376.3889488143831
 30
0.0
 10
-406.3889488143238
 20
373.782266927233
 30
0.0
 10
-408.1567975611953
 20
373.0500000000546
 30
0.0
 10
-411.8432024387952
 20
373.0500000000546
 30
0.0
 10
-413.6110511856667
 20
373.782266927233
 30
0.0
 10
-416.2177330728168
 20
376.3889488143831
 30
0.0
 10
-416.9499999999953
 20
378.1567975612545
 30
0.0
 10
-416.9499999999953
 20
380.0000000000546
 30
0.0
  0
SPLINE
  5
1AA
330
1F
100
AcDbEntity
  8
0
  6
PHANTOM
 62
     8
370
     0
100
AcDbSpline
210
0.0
220
0.0
230
1.0
 70
     8
 71
     3
 72
    14
 73
    10
 74
     0
 42
0.000000001
 43
0.00000001
 40
0.0
 40
0.0
 40
0.0
 40
0.0
 40
0.25
 40
0.25
 40
0.5
 40
0.5
 40
0.75
 40
0.75
 40
1.0
 40
1.0
 40
1.0
 40
1.0
 10
-826.9499999999954
 20
380.0000000000545
 30
0.0
 10
-826.9499999999954
 20
381.8432024388545
 30
0.0
 10
-826.2177330728169
 20
383.6110511857259
 30
0.0
 10
-823.6110511856668
 20
386.2177330728761
 30
0.0
 10
-821.8432024387954
 20
386.9500000000544
 30
0.0
 10
-818.1567975611954
 20
386.9500000000544
 30
0.0
 10
-816.388948814324
 20
386.2177330728761
 30
0.0
 10
-813.7822669271739
 20
383.6110511857259
 30
0.0
 10
-813.0499999999954
 20
381.8432024388545
 30
0.0
 10
-813.0499999999954
 20
380.0000000000545
 30
0.0
  0
SPLINE
  5
1AB
330
1F
100
AcDbEntity
  8
0
  6
PHANTOM
 62
     8
370
     0
100
AcDbSpline
210
0.0
220
0.0
230
1.0
 70
     8
 71
     3
 72
    14
 73
    10
 74
     0
 42
0.000000001
 43
0.00000001
 40
0.0
 40
0.0
 40
0.0
 40
0.0
 40
0.25
 40
0.25
 40
0.5
 40
0.5
 40
0.75
 40
0.75
 40
1.0
 40
1.0
 40
1.0
 40
1.0
 10
-813.0499999999954
 20
380.0000000000545
 30
0.0
 10
-813.0499999999954
 20
378.1567975612545
 30
0.0
 10
-813.7822669271739
 20
376.388948814383
 30
0.0
 10
-816.388948814324
 20
373.7822669272329
 30
0.0
 10
-818.1567975611954
 20
373.0500000000545
 30
0.0
 10
-821.8432024387954
 20
373.0500000000545
 30
0.0
 10
-823.6110511856668
 20
373.7822669272329
 30
0.0
 10
-826.2177330728169
 20
376.388948814383
 30
0.0
 10
-826.9499999999954
 20
378.1567975612544
 30
0.0
 10
-826.9499999999954
 20
380.0000000000545
 30
0.0
  0
SPLINE
  5
1AC
330
1F
100
AcDbEntity
  8
0
  6
PHANTOM
 62
     8
370
     0
100
AcDbSpline
210
0.0
220
0.0
230
1.0
 70
     8
 71
     3
 72
    14
 73
    10
 74
     0
 42
0.000000001
 43
0.00000001
 40
0.0
 40
0.0
 40
0.0
 40
0.0
 40
0.25
 40
0.25
 40
0.5
 40
0.5
 40
0.75
 40
0.75
 40
1.0
 40
1.0
 40
1.0
 40
1.0
 10
-1236.949999999995
 20
380.0000000000543
 30
0.0
 10
-1236.949999999995
 20
381.8432024388543
 30
0.0
 10
-1236.217733072817
 20
383.6110511857258
 30
0.0
 10
-1233.611051185667
 20
386.2177330728759
 30
0.0
 10
-1231.843202438796
 20
386.9500000000544
 30
0.0
 10
-1228.156797561196
 20
386.9500000000544
 30
0.0
 10
-1226.388948814324
 20
386.2177330728759
 30
0.0
 10
-1223.782266927174
 20
383.6110511857258
 30
0.0
 10
-1223.049999999996
 20
381.8432024388544
 30
0.0
 10
-1223.049999999996
 20
380.0000000000543
 30
0.0
  0
SPLINE
  5
1AD
330
1F
100
AcDbEntity
  8
0
  6
PHANTOM
 62
     8
370
     0
100
AcDbSpline
210
0.0
220
0.0
230
1.0
 70
     8
 71
     3
 72
    14
 73
    10
 74
     0
 42
0.000000001
 43
0.00000001
 40
0.0
 40
0.0
 40
0.0
 40
0.0
 40
0.25
 40
0.25
 40
0.5
 40
0.5
 40
0.75
 40
0.75
 40
1.0
 40
1.0
 40
1.0
 40
1.0
 10
-1223.049999999996
 20
380.0000000000543
 30
0.0
 10
-1223.049999999996
 20
378.1567975612544
 30
0.0
 10
-1223.782266927174
 20
376.3889488143829
 30
0.0
 10
-1226.388948814324
 20
373.7822669272327
 30
0.0
 10
-1228.156797561196
 20
373.0500000000544
 30
0.0
 10
-1231.843202438796
 20
373.0500000000544
 30
0.0
 10
-1233.611051185667
 20
373.7822669272327
 30
0.0
 10
-1236.217733072817
 20
376.3889488143829
 30
0.0
 10
-1236.949999999995
 20
378.1567975612543
 30
0.0
 10
-1236.949999999995
 20
380.0000000000543
 30
0.0
  0
SPLINE
  5
1AE
330
1F
100
AcDbEntity
  8
0
  6
PHANTOM
 62
     8
370
     0
100
AcDbSpline
210
0.0
220
0.0
230
1.0
 70
     8
 71
     3
 72
    14
 73
    10
 74
     0
 42
0.000000001
 43
0.00000001
 40
0.0
 40
0.0
 40
0.0
 40
0.0
 40
0.25
 40
0.25
 40
0.5
 40
0.5
 40
0.75
 40
0.75
 40
1.0
 40
1.0
 40
1.0
 40
1.0
 10
1223.050000000005
 20
-380.0000000000165
 30
0.0
 10
1223.050000000005
 20
-378.1567975612165
 30
0.0
 10
1223.782266927183
 20
-376.388948814345
 30
0.0
 10
1226.388948814333
 20
-373.7822669271949
 30
0.0
 10
1228.156797561205
 20
-373.0500000000165
 30
0.0
 10
1231.843202438805
 20
-373.0500000000165
 30
0.0
 10
1233.611051185676
 20
-373.7822669271949
 30
0.0
 10
1236.217733072826
 20
-376.388948814345
 30
0.0
 10
1236.950000000005
 20
-378.1567975612165
 30
0.0
 10
1236.950000000005
 20
-380.0000000000165
 30
0.0
  0
SPLINE
  5
1AF
330
1F
100
AcDbEntity
  8
0
  6
PHANTOM
 62
     8
370
     0
100
AcDbSpline
210
0.0
220
0.0
230
1.0
 70
     8
 71
     3
 72
    14
 73
    10
 74
     0
 42
0.000000001
 43
0.00000001
 40
0.0
 40
0.0
 40
0.0
 40
0.0
 40
0.25
 40
0.25
 40
0.5
 40
0.5
 40
0.75
 40
0.75
 40
1.0
 40
1.0
 40
1.0
 40
1.0
 10
1236.950000000005
 20
-380.0000000000165
 30
0.0
 10
1236.950000000005
 20
-381.8432024388165
 30
0.0
 10
1236.217733072826
 20
-383.6110511856879
 30
0.0
 10
1233.611051185676
 20
-386.2177330728381
 30
0.0
 10
1231.843202438805
 20
-386.9500000000165
 30
0.0
 10
1228.156797561205
 20
-386.9500000000165
 30
0.0
 10
1226.388948814333
 20
-386.2177330728381
 30
0.0
 10
1223.782266927183
 20
-383.6110511856879
 30
0.0
 10
1223.050000000005
 20
-381.8432024388165
 30
0.0
 10
1223.050000000005
 20
-380.0000000000165
 30
0.0
  0
SPLINE
  5
1B0
330
1F
100
AcDbEntity
  8
0
  6
PHANTOM
 62
     8
370
     0
100
AcDbSpline
210
0.0
220
0.0
230
1.0
 70
     8
 71
     3
 72
    14
 73
    10
 74
     0
 42
0.000000001
 43
0.00000001
 40
0.0
 40
0.0
 40
0.0
 40
0.0
 40
0.25
 40
0.25
 40
0.5
 40
0.5
 40
0.75
 40
0.75
 40
1.0
 40
1.0
 40
1.0
 40
1.0
 10
813.0500000000047
 20
-380.0000000000164
 30
0.0
 10
813.0500000000047
 20
-378.1567975612165
 30
0.0
 10
813.7822669271832
 20
-376.388948814345
 30
0.0
 10
816.3889488143333
 20
-373.7822669271948
 30
0.0
 10
818.1567975612047
 20
-373.0500000000164
 30
0.0
 10
821.8432024388047
 20
-373.0500000000164
 30
0.0
 10
823.6110511856762
 20
-373.7822669271948
 30
0.0
 10
826.2177330728263
 20
-376.388948814345
 30
0.0
 10
826.9500000000047
 20
-378.1567975612164
 30
0.0
 10
826.9500000000047
 20
-380.0000000000164
 30
0.0
  0
SPLINE
  5
1B1
330
1F
100
AcDbEntity
  8
0
  6
PHANTOM
 62
     8
370
     0
100
AcDbSpline
210
0.0
220
0.0
230
1.0
 70
     8
 71
     3
 72
    14
 73
    10
 74
     0
 42
0.000000001
 43
0.00000001
 40
0.0
 40
0.0
 40
0.0
 40
0.0
 40
0.25
 40
0.25
 40
0.5
 40
0.5
 40
0.75
 40
0.75
 40
1.0
 40
1.0
 40
1.0
 40
1.0
 10
826.9500000000047
 20
-380.0000000000164
 30
0.0
 10
826.9500000000047
 20
-381.8432024388164
 30
0.0
 10
826.2177330728263
 20
-383.6110511856879
 30
0.0
 10
823.6110511856762
 20
-386.217733072838
 30
0.0
 10
821.8432024388047
 20
-386.9500000000165
 30
0.0
 10
818.1567975612047
 20
-386.9500000000165
 30
0.0
 10
816.3889488143333
 20
-386.217733072838
 30
0.0
 10
813.7822669271832
 20
-383.6110511856879
 30
0.0
 10
813.0500000000047
 20
-381.8432024388165
 30
0.0
 10
813.0500000000047
 20
-380.0000000000164
 30
0.0
  0
SPLINE
  5
1B2
330
1F
100
AcDbEntity
  8
0
  6
PHANTOM
 62
     8
370
     0
100
AcDbSpline
210
0.0
220
0.0
230
1.0
 70
     8
 71
     3
 72
    14
 73
    10
 74
     0
 42
0.000000001
 43
0.00000001
 40
0.0
 40
0.0
 40
0.0
 40
0.0
 40
0.25
 40
0.25
 40
0.5
 40
0.5
 40
0.75
 40
0.75
 40
1.0
 40
1.0
 40
1.0
 40
1.0
 10
403.0500000000046
 20
-380.0000000000164
 30
0.0
 10
403.0500000000046
 20
-378.1567975612164
 30
0.0
 10
403.782266927183
 20
-376.3889488143449
 30
0.0
 10
406.3889488143331
 20
-373.7822669271948
 30
0.0
 10
408.1567975612046
 20
-373.0500000000164
 30
0.0
 10
411.8432024388046
 20
-373.0500000000164
 30
0.0
 10
413.611051185676
 20
-373.7822669271948
 30
0.0
 10
416.2177330728261
 20
-376.3889488143449
 30
0.0
 10
416.9500000000046
 20
-378.1567975612164
 30
0.0
 10
416.9500000000046
 20
-380.0000000000164
 30
0.0
  0
SPLINE
  5
1B3
330
1F
100
AcDbEntity
  8
0
  6
PHANTOM
 62
     8
370
     0
100
AcDbSpline
210
0.0
220
0.0
230
1.0
 70
     8
 71
     3
 72
    14
 73
    10
 74
     0
 42
0.000000001
 43
0.00000001
 40
0.0
 40
0.0
 40
0.0
 40
0.0
 40
0.25
 40
0.25
 40
0.5
 40
0.5
 40
0.75
 40
0.75
 40
1.0
 40
1.0
 40
1.0
 40
1.0
 10
416.9500000000046
 20
-380.0000000000164
 30
0.0
 10
416.9500000000046
 20
-381.8432024388164
 30
0.0
 10
416.2177330728261
 20
-383.6110511856878
 30
0.0
 10
413.611051185676
 20
-386.217733072838
 30
0.0
 10
411.8432024388046
 20
-386.9500000000164
 30
0.0
 10
408.1567975612046
 20
-386.9500000000164
 30
0.0
 10
406.3889488143331
 20
-386.217733072838
 30
0.0
 10
403.782266927183
 20
-383.6110511856878
 30
0.0
 10
403.0500000000046
 20
-381.8432024388164
 30
0.0
 10
403.0500000000046
 20
-380.0000000000164
 30
0.0
  0
SPLINE
  5
1B4
330
1F
100
AcDbEntity
  8
0
  6
PHANTOM
 62
     8
370
     0
100
AcDbSpline
210
0.0
220
0.0
230
1.0
 70
     8
 71
     3
 72
    14
 73
    10
 74
     0
 42
0.000000001
 43
0.00000001
 40
0.0
 40
0.0
 40
0.0
 40
0.0
 40
0.25
 40
0.25
 40
0.5
 40
0.5
 40
0.75
 40
0.75
 40
1.0
 40
1.0
 40
1.0
 40
1.0
 10
-6.949999999995559
 20
-380.0000000000163
 30
0.0
 10
-6.949999999995559
 20
-378.1567975612164
 30
0.0
 10
-6.217733072817127
 20
-376.3889488143449
 30
0.0
 10
-3.611051185667003
 20
-373.7822669271947
 30
0.0
 10
-1.84320243879556
 20
-373.0500000000163
 30
0.0
 10
1.84320243880444
 20
-373.0500000000163
 30
0.0
 10
3.611051185675883
 20
-373.7822669271947
 30
0.0
 10
6.21773307282601
 20
-376.3889488143449
 30
0.0
 10
6.950000000004441
 20
-378.1567975612164
 30
0.0
 10
6.950000000004442
 20
-380.0000000000163
 30
0.0
  0
SPLINE
  5
1B5
330
1F
100
AcDbEntity
  8
0
  6
PHANTOM
 62
     8
370
     0
100
AcDbSpline
210
0.0
220
0.0
230
1.0
 70
     8
 71
     3
 72
    14
 73
    10
 74
     0
 42
0.000000001
 43
0.00000001
 40
0.0
 40
0.0
 40
0.0
 40
0.0
 40
0.25
 40
0.25
 40
0.5
 40
0.5
 40
0.75
 40
0.75
 40
1.0
 40
1.0
 40
1.0
 40
1.0
 10
6.950000000004441
 20
-380.0000000000163
 30
0.0
 10
6.950000000004441
 20
-381.8432024388163
 30
0.0
 10
6.217733072826008
 20
-383.6110511856878
 30
0.0
 10
3.611051185675885
 20
-386.2177330728379
 30
0.0
 10
1.843202438804442
 20
-386.9500000000164
 30
0.0
 10
-1.843202438795558
 20
-386.9500000000164
 30
0.0
 10
-3.611051185667002
 20
-386.2177330728379
 30
0.0
 10
-6.217733072817128
 20
-383.6110511856878
 30
0.0
 10
-6.949999999995559
 20
-381.8432024388163
 30
0.0
 10
-6.94999999999556
 20
-380.0000000000163
 30
0.0
  0
SPLINE
  5
1B6
330
1F
100
AcDbEntity
  8
0
  6
PHANTOM
 62
     8
370
     0
100
AcDbSpline
210
0.0
220
0.0
230
1.0
 70
     8
 71
     3
 72
    14
 73
    10
 74
     0
 42
0.000000001
 43
0.00000001
 40
0.0
 40
0.0
 40
0.0
 40
0.0
 40
0.25
 40
0.25
 40
0.5
 40
0.5
 40
0.75
 40
0.75
 40
1.0
 40
1.0
 40
1.0
 40
1.0
 10
-416.9499999999953
 20
-380.0000000000163
 30
0.0
 10
-416.9499999999953
 20
-378.1567975612164
 30
0.0
 10
-416.2177330728168
 20
-376.3889488143449
 30
0.0
 10
-413.6110511856667
 20
-373.7822669271947
 30
0.0
 10
-411.8432024387952
 20
-373.0500000000163
 30
0.0
 10
-408.1567975611953
 20
-373.0500000000163
 30
0.0
 10
-406.3889488143238
 20
-373.7822669271947
 30
0.0
 10
-403.7822669271737
 20
-376.3889488143449
 30
0.0
 10
-403.0499999999952
 20
-378.1567975612163
 30
0.0
 10
-403.0499999999952
 20
-380.0000000000163
 30
0.0
  0
SPLINE
  5
1B7
330
1F
100
AcDbEntity
  8
0
  6
PHANTOM
 62
     8
370
     0
100
AcDbSpline
210
0.0
220
0.0
230
1.0
 70
     8
 71
     3
 72
    14
 73
    10
 74
     0
 42
0.000000001
 43
0.00000001
 40
0.0
 40
0.0
 40
0.0
 40
0.0
 40
0.25
 40
0.25
 40
0.5
 40
0.5
 40
0.75
 40
0.75
 40
1.0
 40
1.0
 40
1.0
 40
1.0
 10
-403.0499999999952
 20
-380.0000000000163
 30
0.0
 10
-403.0499999999952
 20
-381.8432024388163
 30
0.0
 10
-403.7822669271737
 20
-383.6110511856878
 30
0.0
 10
-406.3889488143238
 20
-386.2177330728379
 30
0.0
 10
-408.1567975611953
 20
-386.9500000000164
 30
0.0
 10
-411.8432024387952
 20
-386.9500000000164
 30
0.0
 10
-413.6110511856667
 20
-386.2177330728379
 30
0.0
 10
-416.2177330728168
 20
-383.6110511856878
 30
0.0
 10
-416.9499999999953
 20
-381.8432024388164
 30
0.0
 10
-416.9499999999953
 20
-380.0000000000163
 30
0.0
  0
SPLINE
  5
1B8
330
1F
100
AcDbEntity
  8
0
  6
PHANTOM
 62
     8
370
     0
100
AcDbSpline
210
0.0
220
0.0
230
1.0
 70
     8
 71
     3
 72
    14
 73
    10
 74
     0
 42
0.000000001
 43
0.00000001
 40
0.0
 40
0.0
 40
0.0
 40
0.0
 40
0.25
 40
0.25
 40
0.5
 40
0.5
 40
0.75
 40
0.75
 40
1.0
 40
1.0
 40
1.0
 40
1.0
 10
-826.9499999999954
 20
-380.0000000000163
 30
0.0
 10
-826.9499999999954
 20
-378.1567975612163
 30
0.0
 10
-826.2177330728169
 20
-376.3889488143448
 30
0.0
 10
-823.6110511856668
 20
-373.7822669271947
 30
0.0
 10
-821.8432024387954
 20
-373.0500000000163
 30
0.0
 10
-818.1567975611954
 20
-373.0500000000163
 30
0.0
 10
-816.388948814324
 20
-373.7822669271947
 30
0.0
 10
-813.7822669271739
 20
-376.3889488143448
 30
0.0
 10
-813.0499999999954
 20
-378.1567975612163
 30
0.0
 10
-813.0499999999954
 20
-380.0000000000163
 30
0.0
  0
SPLINE
  5
1B9
330
1F
100
AcDbEntity
  8
0
  6
PHANTOM
 62
     8
370
     0
100
AcDbSpline
210
0.0
220
0.0
230
1.0
 70
     8
 71
     3
 72
    14
 73
    10
 74
     0
 42
0.000000001
 43
0.00000001
 40
0.0
 40
0.0
 40
0.0
 40
0.0
 40
0.25
 40
0.25
 40
0.5
 40
0.5
 40
0.75
 40
0.75
 40
1.0
 40
1.0
 40
1.0
 40
1.0
 10
-813.0499999999954
 20
-380.0000000000163
 30
0.0
 10
-813.0499999999954
 20
-381.8432024388163
 30
0.0
 10
-813.7822669271739
 20
-383.6110511856877
 30
0.0
 10
-816.388948814324
 20
-386.2177330728379
 30
0.0
 10
-818.1567975611954
 20
-386.9500000000163
 30
0.0
 10
-821.8432024387954
 20
-386.9500000000163
 30
0.0
 10
-823.6110511856668
 20
-386.2177330728379
 30
0.0
 10
-826.2177330728169
 20
-383.6110511856877
 30
0.0
 10
-826.9499999999954
 20
-381.8432024388163
 30
0.0
 10
-826.9499999999954
 20
-380.0000000000163
 30
0.0
  0
SPLINE
  5
1BA
330
1F
100
AcDbEntity
  8
0
  6
PHANTOM
 62
     8
370
     0
100
AcDbSpline
210
0.0
220
0.0
230
1.0
 70
     8
 71
     3
 72
    14
 73
    10
 74
     0
 42
0.000000001
 43
0.00000001
 40
0.0
 40
0.0
 40
0.0
 40
0.0
 40
0.25
 40
0.25
 40
0.5
 40
0.5
 40
0.75
 40
0.75
 40
1.0
 40
1.0
 40
1.0
 40
1.0
 10
-1236.949999999995
 20
-380.0000000000162
 30
0.0
 10
-1236.949999999995
 20
-378.1567975612163
 30
0.0
 10
-1236.217733072817
 20
-376.3889488143448
 30
0.0
 10
-1233.611051185667
 20
-373.7822669271947
 30
0.0
 10
-1231.843202438796
 20
-373.0500000000162
 30
0.0
 10
-1228.156797561196
 20
-373.0500000000162
 30
0.0
 10
-1226.388948814324
 20
-373.7822669271947
 30
0.0
 10
-1223.782266927174
 20
-376.3889488143448
 30
0.0
 10
-1223.049999999996
 20
-378.1567975612162
 30
0.0
 10
-1223.049999999996
 20
-380.0000000000162
 30
0.0
  0
SPLINE
  5
1BB
330
1F
100
AcDbEntity
  8
0
  6
PHANTOM
 62
     8
370
     0
100
AcDbSpline
210
0.0
220
0.0
230
1.0
 70
     8
 71
     3
 72
    14
 73
    10
 74
     0
 42
0.000000001
 43
0.00000001
 40
0.0
 40
0.0
 40
0.0
 40
0.0
 40
0.25
 40
0.25
 40
0.5
 40
0.5
 40
0.75
 40
0.75
 40
1.0
 40
1.0
 40
1.0
 40
1.0
 10
-1223.049999999996
 20
-380.0000000000162
 30
0.0
 10
-1223.049999999996
 20
-381.8432024388162
 30
0.0
 10
-1223.782266927174
 20
-383.6110511856876
 30
0.0
 10
-1226.388948814324
 20
-386.2177330728378
 30
0.0
 10
-1228.156797561196
 20
-386.9500000000162
 30
0.0
 10
-1231.843202438796
 20
-386.9500000000162
 30
0.0
 10
-1233.611051185667
 20
-386.2177330728378
 30
0.0
 10
-1236.217733072817
 20
-383.6110511856876
 30
0.0
 10
-1236.949999999995
 20
-381.8432024388163
 30
0.0
 10
-1236.949999999995
 20
-380.0000000000162
 30
0.0
  0
SPLINE
  5
1BC
330
1F
100
AcDbEntity
  8
0
  6
PHANTOM
 62
     8
370
     0
100
AcDbSpline
210
0.0
220
0.0
230
1.0
 70
     8
 71
     3
 72
    14
 73
    10
 74
     0
 42
0.000000001
 43
0.00000001
 40
0.0
 40
0.0
 40
0.0
 40
0.0
 40
0.25
 40
0.25
 40
0.5
 40
0.5
 40
0.75
 40
0.75
 40
1.0
 40
1.0
 40
1.0
 40
1.0
 10
1223.050000000005
 20
380.0000000000547
 30
0.0
 10
1223.050000000005
 20
381.8432024388547
 30
0.0
 10
1223.782266927183
 20
383.6110511857261
 30
0.0
 10
1226.388948814333
 20
386.2177330728763
 30
0.0
 10
1228.156797561205
 20
386.9500000000547
 30
0.0
 10
1231.843202438805
 20
386.9500000000547
 30
0.0
 10
1233.611051185676
 20
386.2177330728763
 30
0.0
 10
1236.217733072826
 20
383.6110511857261
 30
0.0
 10
1236.950000000005
 20
381.8432024388547
 30
0.0
 10
1236.950000000005
 20
380.0000000000547
 30
0.0
  0
SPLINE
  5
1BD
330
1F
100
AcDbEntity
  8
0
  6
PHANTOM
 62
     8
370
     0
100
AcDbSpline
210
0.0
220
0.0
230
1.0
 70
     8
 71
     3
 72
    14
 73
    10
 74
     0
 42
0.000000001
 43
0.00000001
 40
0.0
 40
0.0
 40
0.0
 40
0.0
 40
0.25
 40
0.25
 40
0.5
 40
0.5
 40
0.75
 40
0.75
 40
1.0
 40
1.0
 40
1.0
 40
1.0
 10
1236.950000000005
 20
380.0000000000547
 30
0.0
 10
1236.950000000005
 20
378.1567975612547
 30
0.0
 10
1236.217733072826
 20
376.3889488143832
 30
0.0
 10
1233.611051185676
 20
373.7822669272331
 30
0.0
 10
1231.843202438805
 20
373.0500000000547
 30
0.0
 10
1228.156797561205
 20
373.0500000000547
 30
0.0
 10
1226.388948814333
 20
373.7822669272331
 30
0.0
 10
1223.782266927183
 20
376.3889488143832
 30
0.0
 10
1223.050000000005
 20
378.1567975612546
 30
0.0
 10
1223.050000000005
 20
380.0000000000547
 30
0.0
  0
SPLINE
  5
1BE
330
1F
100
AcDbEntity
  8
0
  6
PHANTOM
 62
     8
370
     0
100
AcDbSpline
210
0.0
220
0.0
230
1.0
 70
     8
 71
     3
 72
    14
 73
    10
 74
     0
 42
0.000000001
 43
0.00000001
 40
0.0
 40
0.0
 40
0.0
 40
0.0
 40
0.25
 40
0.25
 40
0.5
 40
0.5
 40
0.75
 40
0.75
 40
1.0
 40
1.0
 40
1.0
 40
1.0
 10
813.0500000000047
 20
380.0000000000546
 30
0.0
 10
813.0500000000047
 20
381.8432024388546
 30
0.0
 10
813.7822669271832
 20
383.611051185726
 30
0.0
 10
816.3889488143333
 20
386.2177330728762
 30
0.0
 10
818.1567975612047
 20
386.9500000000546
 30
0.0
 10
821.8432024388047
 20
386.9500000000546
 30
0.0
 10
823.6110511856762
 20
386.2177330728762
 30
0.0
 10
826.2177330728263
 20
383.611051185726
 30
0.0
 10
826.9500000000047
 20
381.8432024388546
 30
0.0
 10
826.9500000000047
 20
380.0000000000546
 30
0.0
  0
SPLINE
  5
1BF
330
1F
100
AcDbEntity
  8
0
  6
PHANTOM
 62
     8
370
     0
100
AcDbSpline
210
0.0
220
0.0
230
1.0
 70
     8
 71
     3
 72
    14
 73
    10
 74
     0
 42
0.000000001
 43
0.00000001
 40
0.0
 40
0.0
 40
0.0
 40
0.0
 40
0.25
 40
0.25
 40
0.5
 40
0.5
 40
0.75
 40
0.75
 40
1.0
 40
1.0
 40
1.0
 40
1.0
 10
826.9500000000047
 20
380.0000000000546
 30
0.0
 10
826.9500000000047
 20
378.1567975612546
 30
0.0
 10
826.2177330728263
 20
376.3889488143831
 30
0.0
 10
823.6110511856762
 20
373.782266927233
 30
0.0
 10
821.8432024388047
 20
373.0500000000546
 30
0.0
 10
818.1567975612047
 20
373.0500000000546
 30
0.0
 10
816.3889488143333
 20
373.782266927233
 30
0.0
 10
813.7822669271832
 20
376.3889488143831
 30
0.0
 10
813.0500000000047
 20
378.1567975612545
 30
0.0
 10
813.0500000000047
 20
380.0000000000546
 30
0.0
  0
LINE
  5
1C0
330
1F
100
AcDbEntity
  8
0
  6
Continuous
 62
     7
370
    15
100
AcDbLine
 10
-803.627441624
 20
373.7070329924
 30
0.0
 11
-803.3030615433
 21
375.0000000001
 31
0.0
  0
LINE
  5
1C1
330
1F
100
AcDbEntity
  8
0
  6
Continuous
 62
     7
370
    15
100
AcDbLine
 10
1792.5
 20
300.0
 30
0.0
 11
1900.0
 21
300.0
 31
0.0
  0
LINE
  5
1C2
330
1F
100
AcDbEntity
  8
0
  6
Continuous
 62
     7
370
    15
100
AcDbLine
 10
-1757.5
 20
300.0
 30
0.0
 11
1757.5
 21
300.0
 31
0.0
  0
LINE
  5
1C3
330
1F
100
AcDbEntity
  8
0
  6
Continuous
 62
     7
370
    15
100
AcDbLine
 10
-1900.0
 20
300.0
 30
0.0
 11
-1792.5
 21
300.0
 31
0.0
  0
LINE
  5
1C4
330
1F
100
AcDbEntity
  8
0
  6
Continuous
 62
     7
370
    15
100
AcDbLine
 10
-1844.2820323028
 20
460.0
 30
0.0
 11
-1900.0
 21
460.0
 31
0.0
  0
LINE
  5
1C5
330
1F
100
AcDbEntity
  8
0
  6
Continuous
 62
     7
370
    15
100
AcDbLine
 10
1705.7179676972
 20
460.0
 30
0.0
 11
-1705.7179676972
 21
460.0
 31
0.0
  0
LINE
  5
1C6
330
1F
100
AcDbEntity
  8
0
  6
Continuous
 62
     7
370
    15
100
AcDbLine
 10
1900.0
 20
460.0
 30
0.0
 11
1844.2820323028
 21
460.0
 31
0.0
  0
LINE
  5
1C7
330
1F
100
AcDbEntity
  8
0
  6
Continuous
 62
     7
370
    15
100
AcDbLine
 10
1735.0
 20
569.2820323028
 30
0.0
 11
1735.0
 21
625.0
 31
0.0
  0
LINE
  5
1C8
330
1F
100
AcDbEntity
  8
0
  6
Continuous
 62
     7
370
    15
100
AcDbLine
 10
1735.0
 20
-300.0
 30
0.0
 11
1735.0
 21
300.0
 31
0.0
  0
LINE
  5
1C9
330
1F
100
AcDbEntity
  8
0
  6
Continuous
 62
     7
370
    15
100
AcDbLine
 10
1735.0
 20
-625.0
 30
0.0
 11
1735.0
 21
-569.2820323027
 31
0.0
  0
LINE
  5
1CA
330
1F
100
AcDbEntity
  8
0
  6
Continuous
 62
     7
370
    15
100
AcDbLine
 10
1575.0
 20
-517.5
 30
0.0
 11
1575.0
 21
-625.0
 31
0.0
  0
LINE
  5
1CB
330
1F
100
AcDbEntity
  8
0
  6
Continuous
 62
     7
370
    15
100
AcDbLine
 10
1575.0
 20
-460.0
 30
0.0
 11
1575.0
 21
-482.5
 31
0.0
  0
LINE
  5
1CC
330
1F
100
AcDbEntity
  8
0
  6
Continuous
 62
     7
370
    15
100
AcDbLine
 10
1575.0
 20
300.0
 30
0.0
 11
1575.0
 21
-300.0
 31
0.0
  0
LINE
  5
1CD
330
1F
100
AcDbEntity
  8
0
  6
Continuous
 62
     7
370
    15
100
AcDbLine
 10
1575.0
 20
482.5
 30
0.0
 11
1575.0
 21
460.0
 31
0.0
  0
LINE
  5
1CE
330
1F
100
AcDbEntity
  8
0
  6
Continuous
 62
     7
370
    15
100
AcDbLine
 10
1575.0
 20
625.0
 30
0.0
 11
1575.0
 21
517.5
 31
0.0
  0
LINE
  5
1CF
330
1F
100
AcDbEntity
  8
0
  6
Continuous
 62
     7
370
    15
100
AcDbLine
 10
-1150.0
 20
-300.0
 30
0.0
 11
-1150.0
 21
300.0
 31
0.0
  0
LINE
  5
1D0
330
1F
100
AcDbEntity
  8
0
  6
Continuous
 62
     7
370
    15
100
AcDbLine
 10
-1310.0
 20
300.0
 30
0.0
 11
-1310.0
 21
-300.0
 31
0.0
  0
LINE
  5
1D1
330
1F
100
AcDbEntity
  8
0
  6
Continuous
 62
     7
370
    15
100
AcDbLine
 10
-740.0
 20
-300.0
 30
0.0
 11
-740.0
 21
300.0
 31
0.0
  0
LINE
  5
1D2
330
1F
100
AcDbEntity
  8
0
  6
Continuous
 62
     7
370
    15
100
AcDbLine
 10
-900.0
 20
300.0
 30
0.0
 11
-900.0
 21
-300.0
 31
0.0
  0
LINE
  5
1D3
330
1F
100
AcDbEntity
  8
0
  6
Continuous
 62
     7
370
    15
100
AcDbLine
 10
-330.0
 20
-300.0
 30
0.0
 11
-330.0
 21
300.0
 31
0.0
  0
LINE
  5
1D4
330
1F
100
AcDbEntity
  8
0
  6
Continuous
 62
     7
370
    15
100
AcDbLine
 10
-490.0
 20
300.0
 30
0.0
 11
-490.0
 21
-300.0
 31
0.0
  0
LINE
  5
1D5
330
1F
100
AcDbEntity
  8
0
  6
Continuous
 62
     7
370
    15
100
AcDbLine
 10
80.0
 20
-300.0
 30
0.0
 11
80.0
 21
300.0
 31
0.0
  0
LINE
  5
1D6
330
1F
100
AcDbEntity
  8
0
  6
Continuous
 62
     7
370
    15
100
AcDbLine
 10
-80.0
 20
300.0
 30
0.0
 11
-80.0
 21
-300.0
 31
0.0
  0
LINE
  5
1D7
330
1F
100
AcDbEntity
  8
0
  6
Continuous
 62
     7
370
    15
100
AcDbLine
 10
490.0
 20
-300.0
 30
0.0
 11
490.0
 21
300.0
 31
0.0
  0
LINE
  5
1D8
330
1F
100
AcDbEntity
  8
0
  6
Continuous
 62
     7
370
    15
100
AcDbLine
 10
330.0
 20
300.0
 30
0.0
 11
330.0
 21
-300.0
 31
0.0
  0
LINE
  5
1D9
330
1F
100
AcDbEntity
  8
0
  6
Continuous
 62
     7
370
    15
100
AcDbLine
 10
900.0
 20
-300.0
 30
0.0
 11
900.0
 21
300.0
 31
0.0
  0
LINE
  5
1DA
330
1F
100
AcDbEntity
  8
0
  6
Continuous
 62
     7
370
    15
100
AcDbLine
 10
740.0
 20
300.0
 30
0.0
 11
740.0
 21
-300.0
 31
0.0
  0
LINE
  5
1DB
330
1F
100
AcDbEntity
  8
0
  6
Continuous
 62
     7
370
    15
100
AcDbLine
 10
1310.0
 20
-300.0
 30
0.0
 11
1310.0
 21
300.0
 31
0.0
  0
LINE
  5
1DC
330
1F
100
AcDbEntity
  8
0
  6
Continuous
 62
     7
370
    15
100
AcDbLine
 10
1150.0
 20
300.0
 30
0.0
 11
1150.0
 21
-300.0
 31
0.0
  0
LINE
  5
1DD
330
1F
100
AcDbEntity
  8
0
  6
Continuous
 62
     7
370
    15
100
AcDbLine
 10
-1792.5
 20
-300.0
 30
0.0
 11
-1900.0
 21
-300.0
 31
0.0
  0
LINE
  5
1DE
330
1F
100
AcDbEntity
  8
0
  6
Continuous
 62
     7
370
    15
100
AcDbLine
 10
1757.5
 20
-300.0
 30
0.0
 11
-1757.5
 21
-300.0
 31
0.0
  0
LINE
  5
1DF
330
1F
100
AcDbEntity
  8
0
  6
Continuous
 62
     7
370
    15
100
AcDbLine
 10
1900.0
 20
-300.0
 30
0.0
 11
1792.5
 21
-300.0
 31
0.0
  0
LINE
  5
1E0
330
1F
100
AcDbEntity
  8
0
  6
Continuous
 62
     7
370
    15
100
AcDbLine
 10
1844.2820323028
 20
-460.0
 30
0.0
 11
1900.0
 21
-460.0
 31
0.0
  0
LINE
  5
1E1
330
1F
100
AcDbEntity
  8
0
  6
Continuous
 62
     7
370
    15
100
AcDbLine
 10
-1705.7179676972
 20
-460.0
 30
0.0
 11
1705.7179676972
 21
-460.0
 31
0.0
  0
LINE
  5
1E2
330
1F
100
AcDbEntity
  8
0
  6
Continuous
 62
     7
370
    15
100
AcDbLine
 10
-1900.0
 20
-460.0
 30
0.0
 11
-1844.2820323028
 21
-460.0
 31
0.0
  0
LINE
  5
1E3
330
1F
100
AcDbEntity
  8
0
  6
Continuous
 62
     7
370
    15
100
AcDbLine
 10
-1735.0
 20
-569.2820323028
 30
0.0
 11
-1735.0
 21
-625.0
 31
0.0
  0
LINE
  5
1E4
330
1F
100
AcDbEntity
  8
0
  6
Continuous
 62
     7
370
    15
100
AcDbLine
 10
-1735.0
 20
300.0
 30
0.0
 11
-1735.0
 21
-300.0
 31
0.0
  0
LINE
  5
1E5
330
1F
100
AcDbEntity
  8
0
  6
Continuous
 62
     7
370
    15
100
AcDbLine
 10
-1735.0
 20
625.0
 30
0.0
 11
-1735.0
 21
569.2820323028
 31
0.0
  0
LINE
  5
1E6
330
1F
100
AcDbEntity
  8
0
  6
Continuous
 62
     7
370
    15
100
AcDbLine
 10
-1575.0
 20
517.5
 30
0.0
 11
-1575.0
 21
625.0
 31
0.0
  0
LINE
  5
1E7
330
1F
100
AcDbEntity
  8
0
  6
Continuous
 62
     7
370
    15
100
AcDbLine
 10
-1575.0
 20
460.0
 30
0.0
 11
-1575.0
 21
482.5
 31
0.0
  0
LINE
  5
1E8
330
1F
100
AcDbEntity
  8
0
  6
Continuous
 62
     7
370
    15
100
AcDbLine
 10
-1575.0
 20
-300.0
 30
0.0
 11
-1575.0
 21
300.0
 31
0.0
  0
LINE
  5
1E9
330
1F
100
AcDbEntity
  8
0
  6
Continuous
 62
     7
370
    15
100
AcDbLine
 10
-1575.0
 20
-482.5
 30
0.0
 11
-1575.0
 21
-460.0
 31
0.0
  0
LINE
  5
1EA
330
1F
100
AcDbEntity
  8
0
  6
Continuous
 62
     7
370
    15
100
AcDbLine
 10
-1575.0
 20
-625.0
 30
0.0
 11
-1575.0
 21
-517.5
 31
0.0
  0
LINE
  5
1EB
330
1F
100
AcDbEntity
  8
0
  6
Continuous
 62
     7
370
    15
100
AcDbLine
 10
-3400.0
 20
625.0
 30
0.0
 11
-3400.0
 21
-625.0
 31
0.0
  0
LINE
  5
1EC
330
1F
100
AcDbEntity
  8
0
  6
Continuous
 62
     7
370
    15
100
AcDbLine
 10
3400.0
 20
-625.0
 30
0.0
 11
3400.0
 21
625.0
 31
0.0
  0
LINE
  5
1ED
330
1F
100
AcDbEntity
  8
0
  6
Continuous
 62
     7
370
    15
100
AcDbLine
 10
-1900.0
 20
-2125.0
 30
0.0
 11
1900.0
 21
-2125.0
 31
0.0
  0
LINE
  5
1EE
330
1F
100
AcDbEntity
  8
0
  6
Continuous
 62
     7
370
    15
100
AcDbLine
 10
1900.0
 20
2125.0
 30
0.0
 11
-1900.0
 21
2125.0
 31
0.0
  0
LINE
  5
1EF
330
1F
100
AcDbEntity
  8
0
  6
Continuous
 62
     7
370
    15
100
AcDbLine
 10
-1900.0
 20
460.0
 30
0.0
 11
-1900.0
 21
300.0
 31
0.0
  0
LINE
  5
1F0
330
1F
100
AcDbEntity
  8
0
  6
Continuous
 62
     7
370
    15
100
AcDbLine
 10
1900.0
 20
300.0
 30
0.0
 11
1900.0
 21
460.0
 31
0.0
  0
LINE
  5
1F1
330
1F
100
AcDbEntity
  8
0
  6
Continuous
 62
     7
370
    15
100
AcDbLine
 10
1735.0
 20
625.0
 30
0.0
 11
1575.0
 21
625.0
 31
0.0
  0
LINE
  5
1F2
330
1F
100
AcDbEntity
  8
0
  6
Continuous
 62
     7
370
    15
100
AcDbLine
 10
1575.0
 20
-625.0
 30
0.0
 11
1735.0
 21
-625.0
 31
0.0
  0
LINE
  5
1F3
330
1F
100
AcDbEntity
  8
0
  6
Continuous
 62
     7
370
    15
100
AcDbLine
 10
1900.0
 20
-460.0
 30
0.0
 11
1900.0
 21
-300.0
 31
0.0
  0
LINE
  5
1F4
330
1F
100
AcDbEntity
  8
0
  6
Continuous
 62
     7
370
    15
100
AcDbLine
 10
-1900.0
 20
-300.0
 30
0.0
 11
-1900.0
 21
-460.0
 31
0.0
  0
LINE
  5
1F5
330
1F
100
AcDbEntity
  8
0
  6
Continuous
 62
     7
370
    15
100
AcDbLine
 10
-1575.0
 20
625.0
 30
0.0
 11
-1735.0
 21
625.0
 31
0.0
  0
LINE
  5
1F6
330
1F
100
AcDbEntity
  8
0
  6
Continuous
 62
     7
370
    15
100
AcDbLine
 10
-1735.0
 20
-625.0
 30
0.0
 11
-1575.0
 21
-625.0
 31
0.0
  0
ARC
  5
1F7
330
1F
100
AcDbEntity
  8
0
  6
Continuous
 62
     7
370
    15
100
AcDbCircle
 10
1900.0
 20
625.0
 30
0.0
 40
1500.000000000003
100
AcDbArc
 50
0.0
 51
90.0
  0
ARC
  5
1F8
330
1F
100
AcDbEntity
  8
0
  6
Continuous
 62
     7
370
    15
100
AcDbCircle
 10
-1900.0
 20
-625.0
 30
0.0
 40
1500.000000000003
100
AcDbArc
 50
180.0
 51
270.0
  0
ARC
  5
1F9
330
1F
100
AcDbEntity
  8
0
  6
Continuous
 62
     7
370
    15
100
AcDbCircle
 10
1900.0
 20
-625.0
 30
0.0
 40
1500.000000000003
100
AcDbArc
 50
270.0
 51
0.0
  0
ARC
  5
1FA
330
1F
100
AcDbEntity
  8
0
  6
Continuous
 62
     7
370
    15
100
AcDbCircle
 10
-1900.0
 20
625.0
 30
0.0
 40
1500.000000000002
100
AcDbArc
 50
90.0
 51
180.0
  0
ARC
  5
1FB
330
1F
100
AcDbEntity
  8
0
  6
Continuous
 62
     7
370
    15
100
AcDbCircle
 10
-1775.0
 20
221.2163794656
 30
0.0
 40
80.70383426148992
100
AcDbArc
 50
77.4763701903
 51
102.5236298097
  0
ARC
  5
1FC
330
1F
100
AcDbEntity
  8
0
  6
Continuous
 62
     7
370
    15
100
AcDbCircle
 10
1775.0
 20
221.2163794656
 30
0.0
 40
80.70383426148736
100
AcDbArc
 50
77.4763701903
 51
102.5236298097
  0
ARC
  5
1FD
330
1F
100
AcDbEntity
  8
0
  6
Continuous
 62
     7
370
    15
100
AcDbCircle
 10
1496.2163794656
 20
500.0
 30
0.0
 40
80.70383426147009
100
AcDbArc
 50
347.4763701903
 51
12.5236298097
  0
ARC
  5
1FE
330
1F
100
AcDbEntity
  8
0
  6
Continuous
 62
     7
370
    15
100
AcDbCircle
 10
1496.2163794656
 20
-500.0
 30
0.0
 40
80.70383426147168
100
AcDbArc
 50
347.4763701903
 51
12.5236298097
  0
ARC
  5
1FF
330
1F
100
AcDbEntity
  8
0
  6
Continuous
 62
     7
370
    15
100
AcDbCircle
 10
1775.0
 20
-221.2163794656
 30
0.0
 40
80.70383426148852
100
AcDbArc
 50
257.4763701903
 51
282.5236298097
  0
ARC
  5
200
330
1F
100
AcDbEntity
  8
0
  6
Continuous
 62
     7
370
    15
100
AcDbCircle
 10
-1775.0
 20
-221.2163794656
 30
0.0
 40
80.70383426148705
100
AcDbArc
 50
257.4763701903
 51
282.5236298097
  0
ARC
  5
201
330
1F
100
AcDbEntity
  8
0
  6
Continuous
 62
     7
370
    15
100
AcDbCircle
 10
-1496.2163794656
 20
-500.0
 30
0.0
 40
80.70383426147013
100
AcDbArc
 50
167.4763701903
 51
192.5236298097
  0
ARC
  5
202
330
1F
100
AcDbEntity
  8
0
  6
Continuous
 62
     7
370
    15
100
AcDbCircle
 10
-1496.2163794656
 20
500.0
 30
0.0
 40
80.70383426147033
100
AcDbArc
 50
167.4763701903
 51
192.5236298097
  0
ENDSEC
  0
SECTION
  2
OBJECTS
  0
DICTIONARY
  5
C
330
0
100
AcDbDictionary
281
     1
  3
ACAD_GROUP
350
D
  3
ACAD_LAYOUT
350
1A
  3
ACAD_MLINESTYLE
350
17
  3
ACAD_PLOTSETTINGS
350
19
  3
ACAD_PLOTSTYLENAME
350
E
  3
ACAD_SCALELIST
350
47
  0
DICTIONARY
  5
D
102
{ACAD_REACTORS
330
C
102
}
330
C
100
AcDbDictionary
281
     1
  0
DICTIONARY
  5
1A
102
{ACAD_REACTORS
330
C
102
}
330
C
100
AcDbDictionary
281
     1
  3
Layout1
350
1E
  3
Layout2
350
26
  3
Model
350
22
  0
DICTIONARY
  5
17
102
{ACAD_REACTORS
330
C
102
}
330
C
100
AcDbDictionary
281
     1
  3
Standard
350
18
  0
DICTIONARY
  5
19
102
{ACAD_REACTORS
330
C
102
}
330
C
100
AcDbDictionary
281
     1
  0
ACDBDICTIONARYWDFLT
  5
E
102
{ACAD_REACTORS
330
C
102
}
330
C
100
AcDbDictionary
281
     1
  3
Normal
350
F
100
AcDbDictionaryWithDefault
340
F
  0
DICTIONARY
  5
47
102
{ACAD_REACTORS
330
C
102
}
330
C
100
AcDbDictionary
281
     1
  3
A0
350
48
  3
A1
350
49
  3
A2
350
4A
  3
A3
350
4B
  3
A4
350
4C
  3
A5
350
4D
  3
A6
350
4E
  3
A7
350
4F
  3
A8
350
50
  3
A9
350
51
  3
B0
350
52
  3
B1
350
53
  3
B2
350
54
  3
B3
350
55
  3
B4
350
56
  3
B5
350
57
  3
B6
350
58
  3
B7
350
59
  3
B8
350
5A
  3
B9
350
5B
  3
C0
350
5C
  3
C1
350
5D
  3
C2
350
5E
  3
C3
350
5F
  3
C4
350
60
  3
C5
350
61
  3
C6
350
62
  3
C7
350
63
  3
C8
350
64
  3
C9
350
65
  3
D0
350
66
  3
D1
350
67
  3
D2
350
68
  0
LAYOUT
  5
1E
102
{ACAD_REACTORS
330
1A
102
}
330
1A
100
AcDbPlotSettings
  1

  2
none_device
  4

  6

 40
0.0
 41
0.0
 42
0.0
 43
0.0
 44
0.0
 45
0.0
 46
0.0
 47
0.0
 48
0.0
 49
0.0
140
0.0
141
0.0
142
1.0
143
1.0
 70
   688
 72
     1
 73
     0
 74
     5
  7

 75
    16
147
1.0
148
0.0
149
0.0
100
AcDbLayout
  1
Layout1
 70
     1
 71
     1
 10
0.0
 20
0.0
 11
420.0
 21
297.0
 12
0.0
 22
0.0
 32
0.0
 14
1.0000000000E+20
 24
1.0000000000E+20
 34
1.0000000000E+20
 15
-1.0000000000E+20
 25
-1.0000000000E+20
 35
-1.0000000000E+20
146
0.0
 13
0.0
 23
0.0
 33
0.0
 16
1.0
 26
0.0
 36
0.0
 17
0.0
 27
1.0
 37
0.0
 76
     0
330
1B
  0
LAYOUT
  5
26
102
{ACAD_REACTORS
330
1A
102
}
330
1A
100
AcDbPlotSettings
  1

  2
none_device
  4

  6

 40
0.0
 41
0.0
 42
0.0
 43
0.0
 44
0.0
 45
0.0
 46
0.0
 47
0.0
 48
0.0
 49
0.0
140
0.0
141
0.0
142
1.0
143
1.0
 70
   688
 72
     1
 73
     0
 74
     5
  7

 75
    16
147
1.0
148
0.0
149
0.0
100
AcDbLayout
  1
Layout2
 70
     1
 71
     2
 10
0.0
 20
0.0
 11
0.0
 21
0.0
 12
0.0
 22
0.0
 32
0.0
 14
0.0
 24
0.0
 34
0.0
 15
0.0
 25
0.0
 35
0.0
146
0.0
 13
0.0
 23
0.0
 33
0.0
 16
1.0
 26
0.0
 36
0.0
 17
0.0
 27
1.0
 37
0.0
 76
     0
330
23
  0
LAYOUT
  5
22
102
{ACAD_REACTORS
330
1A
102
}
330
1A
100
AcDbPlotSettings
  1

  2
none_device
  4
ANSI_A_(11.00_x_8.50_Inches)
  6

 40
6.35
 41
19.05
 42
6.35000508
 43
19.05000254
 44
279.4
 45
215.9
 46
133.34999746
 47
88.89999873
 48
0.0
 49
0.0
140
0.0
141
0.0
142
0.0016014706
143
1.0
 70
  1696
 72
     0
 73
     0
 74
     0
  7

 75
     0
147
0.0179189148
148
-1300.4909072572
149
0.0
100
AcDbLayout
  1
Model
 70
     1
 71
     0
 10
0.0
 20
0.0
 11
420.0
 21
297.0
 12
0.0
 22
0.0
 32
0.0
 14
-3400.0
 24
-2125.0
 34
0.0
 15
3400.0
 25
2125.0
 35
0.0
146
0.0
 13
0.0
 23
0.0
 33
0.0
 16
1.0
 26
0.0
 36
0.0
 17
0.0
 27
1.0
 37
0.0
 76
     0
330
1F
331
29
  0
MLINESTYLE
  5
18
102
{ACAD_REACTORS
330
17
102
}
330
17
100
AcDbMlineStyle
  2
Standard
 70
     0
  3

 62
   256
 51
90.0
 52
90.0
 71
     2
 49
0.5
 62
   256
  6
BYLAYER
 49
-0.5
 62
   256
  6
BYLAYER
  0
ACDBPLACEHOLDER
  5
F
102
{ACAD_REACTORS
330
E
102
}
330
E
  0
SCALE
  5
48
102
{ACAD_REACTORS
330
47
102
}
330
47
100
AcDbScale
 70
     0
300
1:1
140
1.0
141
1.0
290
     1
  0
SCALE
  5
49
102
{ACAD_REACTORS
330
47
102
}
330
47
100
AcDbScale
 70
     0
300
1:2
140
1.0
141
2.0
290
     0
  0
SCALE
  5
4A
102
{ACAD_REACTORS
330
47
102
}
330
47
100
AcDbScale
 70
     0
300
1:4
140
1.0
141
4.0
290
     0
  0
SCALE
  5
4B
102
{ACAD_REACTORS
330
47
102
}
330
47
100
AcDbScale
 70
     0
300
1:5
140
1.0
141
5.0
290
     0
  0
SCALE
  5
4C
102
{ACAD_REACTORS
330
47
102
}
330
47
100
AcDbScale
 70
     0
300
1:8
140
1.0
141
8.0
290
     0
  0
SCALE
  5
4D
102
{ACAD_REACTORS
330
47
102
}
330
47
100
AcDbScale
 70
     0
300
1:10
140
1.0
141
10.0
290
     0
  0
SCALE
  5
4E
102
{ACAD_REACTORS
330
47
102
}
330
47
100
AcDbScale
 70
     0
300
1:16
140
1.0
141
16.0
290
     0
  0
SCALE
  5
4F
102
{ACAD_REACTORS
330
47
102
}
330
47
100
AcDbScale
 70
     0
300
1:20
140
1.0
141
20.0
290
     0
  0
SCALE
  5
50
102
{ACAD_REACTORS
330
47
102
}
330
47
100
AcDbScale
 70
     0
300
1:30
140
1.0
141
30.0
290
     0
  0
SCALE
  5
51
102
{ACAD_REACTORS
330
47
102
}
330
47
100
AcDbScale
 70
     0
300
1:40
140
1.0
141
40.0
290
     0
  0
SCALE
  5
52
102
{ACAD_REACTORS
330
47
102
}
330
47
100
AcDbScale
 70
     0
300
1:50
140
1.0
141
50.0
290
     0
  0
SCALE
  5
53
102
{ACAD_REACTORS
330
47
102
}
330
47
100
AcDbScale
 70
     0
300
1:100
140
1.0
141
100.0
290
     0
  0
SCALE
  5
54
102
{ACAD_REACTORS
330
47
102
}
330
47
100
AcDbScale
 70
     0
300
2:1
140
2.0
141
1.0
290
     0
  0
SCALE
  5
55
102
{ACAD_REACTORS
330
47
102
}
330
47
100
AcDbScale
 70
     0
300
4:1
140
4.0
141
1.0
290
     0
  0
SCALE
  5
56
102
{ACAD_REACTORS
330
47
102
}
330
47
100
AcDbScale
 70
     0
300
8:1
140
8.0
141
1.0
290
     0
  0
SCALE
  5
57
102
{ACAD_REACTORS
330
47
102
}
330
47
100
AcDbScale
 70
     0
300
10:1
140
10.0
141
1.0
290
     0
  0
SCALE
  5
58
102
{ACAD_REACTORS
330
47
102
}
330
47
100
AcDbScale
 70
     0
300
100:1
140
100.0
141
1.0
290
     0
  0
SCALE
  5
59
102
{ACAD_REACTORS
330
47
102
}
330
47
100
AcDbScale
 70
     0
300
1/128" = 1'-0"
140
0.0078125
141
12.0
290
     0
  0
SCALE
  5
5A
102
{ACAD_REACTORS
330
47
102
}
330
47
100
AcDbScale
 70
     0
300
1/64" = 1'-0"
140
0.015625
141
12.0
290
     0
  0
SCALE
  5
5B
102
{ACAD_REACTORS
330
47
102
}
330
47
100
AcDbScale
 70
     0
300
1/32" = 1'-0"
140
0.03125
141
12.0
290
     0
  0
SCALE
  5
5C
102
{ACAD_REACTORS
330
47
102
}
330
47
100
AcDbScale
 70
     0
300
1/16" = 1'-0"
140
0.0625
141
12.0
290
     0
  0
SCALE
  5
5D
102
{ACAD_REACTORS
330
47
102
}
330
47
100
AcDbScale
 70
     0
300
3/32" = 1'-0"
140
0.09375
141
12.0
290
     0
  0
SCALE
  5
5E
102
{ACAD_REACTORS
330
47
102
}
330
47
100
AcDbScale
 70
     0
300
1/8" = 1'-0"
140
0.125
141
12.0
290
     0
  0
SCALE
  5
5F
102
{ACAD_REACTORS
330
47
102
}
330
47
100
AcDbScale
 70
     0
300
3/16" = 1'-0"
140
0.1875
141
12.0
290
     0
  0
SCALE
  5
60
102
{ACAD_REACTORS
330
47
102
}
330
47
100
AcDbScale
 70
     0
300
1/4" = 1'-0"
140
0.25
141
12.0
290
     0
  0
SCALE
  5
61
102
{ACAD_REACTORS
330
47
102
}
330
47
100
AcDbScale
 70
     0
300
3/8" = 1'-0"
140
0.375
141
12.0
290
     0
  0
SCALE
  5
62
102
{ACAD_REACTORS
330
47
102
}
330
47
100
AcDbScale
 70
     0
300
1/2" = 1'-0"
140
0.5
141
12.0
290
     0
  0
SCALE
  5
63
102
{ACAD_REACTORS
330
47
102
}
330
47
100
AcDbScale
 70
     0
300
3/4" = 1'-0"
140
0.75
141
12.0
290
     0
  0
SCALE
  5
64
102
{ACAD_REACTORS
330
47
102
}
330
47
100
AcDbScale
 70
     0
300
1" = 1'-0"
140
1.0
141
12.0
290
     0
  0
SCALE
  5
65
102
{ACAD_REACTORS
330
47
102
}
330
47
100
AcDbScale
 70
     0
300
1-1/2" = 1'-0"
140
1.5
141
12.0
290
     0
  0
SCALE
  5
66
102
{ACAD_REACTORS
330
47
102
}
330
47
100
AcDbScale
 70
     0
300
3" = 1'-0"
140
3.0
141
12.0
290
     0
  0
SCALE
  5
67
102
{ACAD_REACTORS
330
47
102
}
330
47
100
AcDbScale
 70
     0
300
6" = 1'-0"
140
6.0
141
12.0
290
     0
  0
SCALE
  5
68
102
{ACAD_REACTORS
330
47
102
}
330
47
100
AcDbScale
 70
     0
300
1'-0" = 1'-0"
140
12.0
141
12.0
290
     0
  0
ENDSEC
  0
EOF
