  0
SECTION
  2
HEADER
  9
$ACADVER
  1
AC1015
  9
$ACADMAINTVER
 70
     6
  9
$DWGCODEPAGE
  3
ANSI_1251
  9
$INSBASE
 10
0.0
 20
0.0
 30
0.0
  9
$EXTMIN
 10
-2454.7960180233
 20
-1562.5290886276
 30
0.0
  9
$EXTMAX
 10
1540.2039819767
 20
1647.4709113724
 30
0.0
  9
$LIMMIN
 10
0.0
 20
0.0
  9
$LIMMAX
 10
420.0
 20
297.0
  9
$ORTHOMODE
 70
     0
  9
$REGENMODE
 70
     1
  9
$FILLMODE
 70
     1
  9
$QTEXTMODE
 70
     0
  9
$MIRRTEXT
 70
     1
  9
$LTSCALE
 40
1.0
  9
$ATTMODE
 70
     1
  9
$TEXTSIZE
 40
3.0
  9
$TRACEWID
 40
1.0
  9
$TEXTSTYLE
  7
Standard
  9
$CLAYER
  8
0
  9
$CELTYPE
  6
ByLayer
  9
$CECOLOR
 62
   256
  9
$CELTSCALE
 40
1.0
  9
$DISPSILH
 70
     0
  9
$DIMSCALE
 40
1.0
  9
$DIMASZ
 40
3.0
  9
$DIMEXO
 40
0.0
  9
$DIMDLI
 40
3.75
  9
$DIMRND
 40
0.0
  9
$DIMDLE
 40
0.0
  9
$DIMEXE
 40
2.0
  9
$DIMTP
 40
0.0
  9
$DIMTM
 40
0.0
  9
$DIMTXT
 40
3.0
  9
$DIMCEN
 40
2.5
  9
$DIMTSZ
 40
0.0
  9
$DIMTOL
 70
     0
  9
$DIMLIM
 70
     0
  9
$DIMTIH
 70
     1
  9
$DIMTOH
 70
     1
  9
$DIMSE1
 70
     0
  9
$DIMSE2
 70
     0
  9
$DIMTAD
 70
     1
  9
$DIMZIN
 70
     0
  9
$DIMBLK
  1

  9
$DIMASO
 70
     1
  9
$DIMSHO
 70
     1
  9
$DIMPOST
  1

  9
$DIMAPOST
  1

  9
$DIMALT
 70
     0
  9
$DIMALTD
 70
     3
  9
$DIMALTF
 40
0.0393700787
  9
$DIMLFAC
 40
1.0
  9
$DIMTOFL
 70
     1
  9
$DIMTVP
 40
0.0
  9
$DIMTIX
 70
     0
  9
$DIMSOXD
 70
     0
  9
$DIMSAH
 70
     0
  9
$DIMBLK1
  1

  9
$DIMBLK2
  1

  9
$DIMSTYLE
  2
ISO-25
  9
$DIMCLRD
 70
     0
  9
$DIMCLRE
 70
     0
  9
$DIMCLRT
 70
     0
  9
$DIMTFAC
 40
1.0
  9
$DIMGAP
 40
2.0
  9
$DIMJUST
 70
     0
  9
$DIMSD1
 70
     0
  9
$DIMSD2
 70
     0
  9
$DIMTOLJ
 70
     0
  9
$DIMTZIN
 70
     0
  9
$DIMALTZ
 70
     0
  9
$DIMALTTZ
 70
     0
  9
$DIMUPT
 70
     0
  9
$DIMDEC
 70
     2
  9
$DIMTDEC
 70
     2
  9
$DIMALTU
 70
     2
  9
$DIMALTTD
 70
     3
  9
$DIMTXSTY
  7
Standard
  9
$DIMAUNIT
 70
     0
  9
$DIMADEC
 70
     2
  9
$DIMALTRND
 40
0.0
  9
$DIMAZIN
 70
     0
  9
$DIMDSEP
 70
    44
  9
$DIMATFIT
 70
     3
  9
$DIMFRAC
 70
     0
  9
$DIMLDRBLK
  1

  9
$DIMLUNIT
 70
     2
  9
$DIMLWD
 70
    -2
  9
$DIMLWE
 70
    -2
  9
$DIMTMOVE
 70
     0
  9
$LUNITS
 70
     2
  9
$LUPREC
 70
     2
  9
$SKETCHINC
 40
1.0
  9
$FILLETRAD
 40
10.0
  9
$AUNITS
 70
     1
  9
$AUPREC
 70
     2
  9
$MENU
  1
.
  9
$ELEVATION
 40
0.0
  9
$PELEVATION
 40
0.0
  9
$THICKNESS
 40
0.0
  9
$LIMCHECK
 70
     0
  9
$CHAMFERA
 40
0.0
  9
$CHAMFERB
 40
0.0
  9
$CHAMFERC
 40
0.0
  9
$CHAMFERD
 40
0.0
  9
$SKPOLY
 70
     0
  9
$TDCREATE
 40
2459296.693654097
  9
$TDUCREATE
 40
2459296.568654097
  9
$TDUPDATE
 40
2459296.693692975
  9
$TDUUPDATE
 40
2459296.568692975
  9
$TDINDWG
 40
0.0000000116
  9
$TDUSRTIMER
 40
0.0000000116
  9
$USRTIMER
 70
     1
  9
$ANGBASE
 50
0.0
  9
$ANGDIR
 70
     0
  9
$PDMODE
 70
     0
  9
$PDSIZE
 40
-1.0
  9
$PLINEWID
 40
0.0
  9
$SPLFRAME
 70
     0
  9
$SPLINETYPE
 70
     6
  9
$SPLINESEGS
 70
     8
  9
$HANDSEED
  5
861
  9
$SURFTAB1
 70
     6
  9
$SURFTAB2
 70
     6
  9
$SURFTYPE
 70
     6
  9
$SURFU
 70
     6
  9
$SURFV
 70
     6
  9
$UCSBASE
  2

  9
$UCSNAME
  2

  9
$UCSORG
 10
0.0
 20
0.0
 30
0.0
  9
$UCSXDIR
 10
1.0
 20
0.0
 30
0.0
  9
$UCSYDIR
 10
0.0
 20
1.0
 30
0.0
  9
$UCSORTHOREF
  2

  9
$UCSORTHOVIEW
 70
     0
  9
$UCSORGTOP
 10
0.0
 20
0.0
 30
0.0
  9
$UCSORGBOTTOM
 10
0.0
 20
0.0
 30
0.0
  9
$UCSORGLEFT
 10
0.0
 20
0.0
 30
0.0
  9
$UCSORGRIGHT
 10
0.0
 20
0.0
 30
0.0
  9
$UCSORGFRONT
 10
0.0
 20
0.0
 30
0.0
  9
$UCSORGBACK
 10
0.0
 20
0.0
 30
0.0
  9
$PUCSBASE
  2

  9
$PUCSNAME
  2

  9
$PUCSORG
 10
0.0
 20
0.0
 30
0.0
  9
$PUCSXDIR
 10
1.0
 20
0.0
 30
0.0
  9
$PUCSYDIR
 10
0.0
 20
1.0
 30
0.0
  9
$PUCSORTHOREF
  2

  9
$PUCSORTHOVIEW
 70
     0
  9
$PUCSORGTOP
 10
0.0
 20
0.0
 30
0.0
  9
$PUCSORGBOTTOM
 10
0.0
 20
0.0
 30
0.0
  9
$PUCSORGLEFT
 10
0.0
 20
0.0
 30
0.0
  9
$PUCSORGRIGHT
 10
0.0
 20
0.0
 30
0.0
  9
$PUCSORGFRONT
 10
0.0
 20
0.0
 30
0.0
  9
$PUCSORGBACK
 10
0.0
 20
0.0
 30
0.0
  9
$USERI1
 70
     0
  9
$USERI2
 70
     0
  9
$USERI3
 70
     0
  9
$USERI4
 70
     0
  9
$USERI5
 70
     0
  9
$USERR1
 40
0.0
  9
$USERR2
 40
0.0
  9
$USERR3
 40
0.0
  9
$USERR4
 40
0.0
  9
$USERR5
 40
0.0
  9
$WORLDVIEW
 70
     1
  9
$SHADEDGE
 70
     3
  9
$SHADEDIF
 70
    70
  9
$TILEMODE
 70
     1
  9
$MAXACTVP
 70
    64
  9
$PINSBASE
 10
0.0
 20
0.0
 30
0.0
  9
$PLIMCHECK
 70
     0
  9
$PEXTMIN
 10
1.0000000000E+20
 20
1.0000000000E+20
 30
1.0000000000E+20
  9
$PEXTMAX
 10
-1.0000000000E+20
 20
-1.0000000000E+20
 30
-1.0000000000E+20
  9
$PLIMMIN
 10
0.0
 20
0.0
  9
$PLIMMAX
 10
420.0
 20
297.0
  9
$UNITMODE
 70
     0
  9
$VISRETAIN
 70
     1
  9
$PLINEGEN
 70
     0
  9
$PSLTSCALE
 70
     1
  9
$TREEDEPTH
 70
  3020
  9
$CMLSTYLE
  2
Standard
  9
$CMLJUST
 70
     0
  9
$CMLSCALE
 40
20.0
  9
$PROXYGRAPHICS
 70
     1
  9
$MEASUREMENT
 70
     1
  9
$CELWEIGHT
370
    -1
  9
$ENDCAPS
280
     0
  9
$JOINSTYLE
280
     0
  9
$LWDISPLAY
290
     1
  9
$INSUNITS
 70
     4
  9
$HYPERLINKBASE
  1

  9
$STYLESHEET
  1

  9
$XEDIT
290
     1
  9
$CEPSNTYPE
380
     0
  9
$PSTYLEMODE
290
     1
  9
$FINGERPRINTGUID
  2
{CA866B92-2187-4769-9132-989C7C4C60F1}
  9
$VERSIONGUID
  2
{FAEB1C32-E019-11D5-929B-00C0DF256EC4}
  9
$EXTNAMES
290
     1
  9
$PSVPSCALE
 40
0.0
  9
$OLESTARTUP
290
     0
  0
ENDSEC
  0
SECTION
  2
CLASSES
  0
CLASS
  1
ACDBDICTIONARYWDFLT
  2
AcDbDictionaryWithDefault
  3
ObjectDBX Classes
 90
        0
280
     0
281
     0
  0
CLASS
  1
VISUALSTYLE
  2
AcDbVisualStyle
  3
ObjectDBX Classes
 90
     4095
280
     0
281
     0
  0
CLASS
  1
MATERIAL
  2
AcDbMaterial
  3
ObjectDBX Classes
 90
     1153
280
     0
281
     0
  0
CLASS
  1
SCALE
  2
AcDbScale
  3
ObjectDBX Classes
 90
     1153
280
     0
281
     0
  0
CLASS
  1
SUN
  2
AcDbSun
  3
SCENEOE
 90
     1153
280
     0
281
     0
  0
CLASS
  1
ACDBPLACEHOLDER
  2
AcDbPlaceHolder
  3
ObjectDBX Classes
 90
        0
280
     0
281
     0
  0
CLASS
  1
LAYOUT
  2
AcDbLayout
  3
ObjectDBX Classes
 90
        0
280
     0
281
     0
  0
ENDSEC
  0
SECTION
  2
TABLES
  0
TABLE
  2
VPORT
  5
8
330
0
100
AcDbSymbolTable
 70
     1
  0
VPORT
  5
29
330
8
100
AcDbSymbolTableRecord
100
AcDbViewportTableRecord
  2
*Active
 70
     0
 10
0.0
 20
0.0
 11
1.0
 21
1.0
 12
-457.2960180233
 22
42.4709113724
 13
0.0
 23
0.0
 14
10.0
 24
10.0
 15
10.0
 25
10.0
 16
0.0
 26
0.0
 36
1.0
 17
0.0
 27
0.0
 37
0.0
 40
3274.2
 41
1.2445482866
 42
50.0
 43
0.0
 44
0.0
 50
0.0
 51
0.0
 71
     0
 72
   100
 73
     1
 74
     3
 75
     0
 76
     0
 77
     0
 78
     0
281
     0
 65
     1
110
0.0
120
0.0
130
0.0
111
1.0
121
0.0
131
0.0
112
0.0
122
1.0
132
0.0
 79
     0
146
0.0
  0
ENDTAB
  0
TABLE
  2
LTYPE
  5
5
330
0
100
AcDbSymbolTable
 70
     6
  0
LTYPE
  5
14
330
5
100
AcDbSymbolTableRecord
100
AcDbLinetypeTableRecord
  2
ByBlock
 70
     0
  3

 72
    65
 73
     0
 40
0.0
  0
LTYPE
  5
15
330
5
100
AcDbSymbolTableRecord
100
AcDbLinetypeTableRecord
  2
ByLayer
 70
     0
  3

 72
    65
 73
     0
 40
0.0
  0
LTYPE
  5
16
330
5
100
AcDbSymbolTableRecord
100
AcDbLinetypeTableRecord
  2
Continuous
 70
     0
  3
Solid line
 72
    65
 73
     0
 40
0.0
  0
LTYPE
  5
6A
330
5
100
AcDbSymbolTableRecord
100
AcDbLinetypeTableRecord
  2
HIDDEN
 70
     0
  3
Hidden __ __ __ __ __ __ __ __ __ __ __ __ __ __
 72
    65
 73
     2
 40
1.905
 49
1.27
 74
     0
 49
-0.635
 74
     0
  0
LTYPE
  5
6B
330
5
100
AcDbSymbolTableRecord
100
AcDbLinetypeTableRecord
  2
PHANTOM
 70
     0
  3
Phantom ______  __  __  ______  __  __  ______
 72
    65
 73
     6
 40
12.7
 49
6.35
 74
     0
 49
-1.27
 74
     0
 49
1.27
 74
     0
 49
-1.27
 74
     0
 49
1.27
 74
     0
 49
-1.27
 74
     0
  0
LTYPE
  5
6C
330
5
100
AcDbSymbolTableRecord
100
AcDbLinetypeTableRecord
  2
CENTER
 70
     0
  3
Center ____ _ ____ _ ____ _ ____ _ ____ _ ____
 72
    65
 73
     4
 40
10.16
 49
6.35
 74
     0
 49
-1.27
 74
     0
 49
1.27
 74
     0
 49
-1.27
 74
     0
  0
LTYPE
  5
6D
330
5
100
AcDbSymbolTableRecord
100
AcDbLinetypeTableRecord
  2
CENTERX2
 70
     0
  3
Center (2x) ________  __  ________  __  _____
 72
    65
 73
     4
 40
20.32
 49
12.7
 74
     0
 49
-2.54
 74
     0
 49
2.54
 74
     0
 49
-2.54
 74
     0
  0
LTYPE
  5
6E
330
5
100
AcDbSymbolTableRecord
100
AcDbLinetypeTableRecord
  2
DOT2
 70
     0
  3
Dot (.5x) ........................................
 72
    65
 73
     2
 40
0.635
 49
0.0
 74
     0
 49
-0.635
 74
     0
  0
ENDTAB
  0
TABLE
  2
LAYER
  5
2
330
0
100
AcDbSymbolTable
 70
     1
  0
LAYER
  5
10
330
2
100
AcDbSymbolTableRecord
100
AcDbLayerTableRecord
  2
0
 70
     0
 62
     7
  6
Continuous
370
    -3
390
F
  0
ENDTAB
  0
TABLE
  2
STYLE
  5
3
330
0
100
AcDbSymbolTable
 70
     1
  0
STYLE
  5
11
330
3
100
AcDbSymbolTableRecord
100
AcDbTextStyleTableRecord
  2
Standard
 70
     0
 40
0.0
 41
1.0
 50
0.0
 71
     0
 42
3.0
  3
txt
  4

  0
ENDTAB
  0
TABLE
  2
VIEW
  5
6
330
0
100
AcDbSymbolTable
 70
     0
  0
ENDTAB
  0
TABLE
  2
UCS
  5
7
330
0
100
AcDbSymbolTable
 70
     0
  0
ENDTAB
  0
TABLE
  2
APPID
  5
9
330
0
100
AcDbSymbolTable
 70
     1
  0
APPID
  5
12
330
9
100
AcDbSymbolTableRecord
100
AcDbRegAppTableRecord
  2
ACAD
 70
     0
  0
ENDTAB
  0
TABLE
  2
DIMSTYLE
  5
A
330
0
100
AcDbSymbolTable
 70
     1
100
AcDbDimStyleTable
  0
DIMSTYLE
105
27
330
A
100
AcDbSymbolTableRecord
100
AcDbDimStyleTableRecord
  2
ISO-25
 70
     0
 41
2.5
 42
0.625
 43
3.75
 44
1.25
 73
     0
 74
     0
 77
     1
 78
     8
140
2.5
141
2.5
143
0.0393700787
147
0.625
171
     3
172
     1
178
     0
271
     2
272
     2
274
     3
278
    44
283
     0
284
     8
340
11
  0
ENDTAB
  0
TABLE
  2
BLOCK_RECORD
  5
1
330
0
100
AcDbSymbolTable
 70
     1
  0
BLOCK_RECORD
  5
1F
330
1
100
AcDbSymbolTableRecord
100
AcDbBlockTableRecord
  2
*Model_Space
340
22
  0
BLOCK_RECORD
  5
1B
330
1
100
AcDbSymbolTableRecord
100
AcDbBlockTableRecord
  2
*Paper_Space
340
1E
  0
BLOCK_RECORD
  5
23
330
1
100
AcDbSymbolTableRecord
100
AcDbBlockTableRecord
  2
*Paper_Space0
340
26
  0
ENDTAB
  0
ENDSEC
  0
SECTION
  2
BLOCKS
  0
BLOCK
  5
20
330
1F
100
AcDbEntity
  8
0
100
AcDbBlockBegin
  2
*Model_Space
 70
     0
 10
0.0
 20
0.0
 30
0.0
  3
*Model_Space
  1
*Model_Space
  0
ENDBLK
  5
21
330
1F
100
AcDbEntity
  8
0
100
AcDbBlockEnd
  0
BLOCK
  5
1C
330
1B
100
AcDbEntity
 67
     1
  8
0
100
AcDbBlockBegin
  2
*Paper_Space
 70
     0
 10
0.0
 20
0.0
 30
0.0
  3
*Paper_Space
  1
*Paper_Space
  0
ENDBLK
  5
1D
330
1B
100
AcDbEntity
 67
     1
  8
0
100
AcDbBlockEnd
  0
BLOCK
  5
24
330
23
100
AcDbEntity
  8
0
100
AcDbBlockBegin
  2
*Paper_Space0
 70
     0
 10
0.0
 20
0.0
 30
0.0
  3
*Paper_Space0
  1
*Paper_Space0
  0
ENDBLK
  5
25
330
23
100
AcDbEntity
  8
0
100
AcDbBlockEnd
  0
ENDSEC
  0
SECTION
  2
ENTITIES
  0
LWPOLYLINE
  5
74
330
1F
100
AcDbEntity
  8
0
  6
Continuous
 62
     7
370
    15
100
AcDbPolyline
 90
        3
 70
   128
 43
0.0
 10
-723.2960180233
 20
38.2532660409
 10
-723.164134977
 20
35.6378262562
 10
-722.8649045998
 20
33.5381796964
  0
LWPOLYLINE
  5
75
330
1F
100
AcDbEntity
  8
0
  6
Continuous
 62
     7
370
    15
100
AcDbPolyline
 90
        3
 70
   128
 43
0.0
 10
-671.7271314468
 20
33.5381796964
 10
-671.4279010696
 20
35.6378262562
 10
-671.2960180233
 20
38.2532660409
  0
LWPOLYLINE
  5
76
330
1F
100
AcDbEntity
  8
0
  6
Continuous
 62
     7
370
    15
100
AcDbPolyline
 90
        3
 70
   128
 43
0.0
 10
-643.2960180233
 20
18.1725344816
 10
-643.164134977
 20
15.5570946969
 10
-643.0060832774
 20
14.3005137393
  0
LWPOLYLINE
  5
77
330
1F
100
AcDbEntity
  8
0
  6
Continuous
 62
     7
370
    15
100
AcDbPolyline
 90
        3
 70
   128
 43
0.0
 10
-591.5859527692
 20
14.3005137392
 10
-591.4279010696
 20
15.5570946969
 10
-591.2960180233
 20
18.1725344816
  0
LWPOLYLINE
  5
78
330
1F
100
AcDbEntity
  8
0
  6
Continuous
 62
     7
370
    15
100
AcDbPolyline
 90
        3
 70
   128
 43
0.0
 10
-642.8606893666
 20
131.5104221023
 10
-643.164134977
 20
129.3879742663
 10
-643.2960180233
 20
126.7725344816
  0
LWPOLYLINE
  5
79
330
1F
100
AcDbEntity
  8
0
  6
Continuous
 62
     7
370
    15
100
AcDbPolyline
 90
        3
 70
   128
 43
0.0
 10
-591.2960180233
 20
126.7725344816
 10
-591.4279010696
 20
129.3879742663
 10
-591.73134668
 20
131.5104221023
  0
LWPOLYLINE
  5
7E
330
1F
100
AcDbEntity
  8
0
  6
Continuous
 62
     7
370
    15
100
AcDbPolyline
 90
        3
 70
   128
 43
0.0
 10
-483.0557680983
 20
116.3474469024
 10
-483.164134977
 20
115.4365180064
 10
-483.2960180233
 20
112.8210782217
  0
LWPOLYLINE
  5
7F
330
1F
100
AcDbEntity
  8
0
  6
Continuous
 62
     7
370
    15
100
AcDbPolyline
 90
        3
 70
   128
 43
0.0
 10
-431.2960180233
 20
112.8210782217
 10
-431.4279010696
 20
115.4365180064
 10
-431.5362679483
 20
116.3474469024
  0
LWPOLYLINE
  5
82
330
1F
100
AcDbEntity
  8
0
  6
Continuous
 62
     7
370
    15
100
AcDbPolyline
 90
        3
 70
   128
 43
0.0
 10
-803.1469067983
 20
136.3607576383
 10
-803.164134977
 20
136.1956310158
 10
-803.2960180233
 20
133.5801912311
  0
LWPOLYLINE
  5
83
330
1F
100
AcDbEntity
  8
0
  6
Continuous
 62
     7
370
    15
100
AcDbPolyline
 90
        3
 70
   128
 43
0.0
 10
-751.2960180233
 20
133.5801912311
 10
-751.4279010696
 20
136.1956310158
 10
-751.4451292483
 20
136.3607576383
  0
LWPOLYLINE
  5
84
330
1F
100
AcDbEntity
  8
0
  6
Continuous
 62
     7
370
    15
100
AcDbPolyline
 90
        3
 70
   128
 43
0.0
 10
-243.2960180233
 20
-8.3812310568
 10
-243.164134977
 20
-10.9966708415
 10
-243.134295032
 20
-11.2766483365
  0
LWPOLYLINE
  5
85
330
1F
100
AcDbEntity
  8
0
  6
Continuous
 62
     7
370
    15
100
AcDbPolyline
 90
        3
 70
   128
 43
0.0
 10
-191.4577410146
 20
-11.2766483365
 10
-191.4279010696
 20
-10.9966708415
 10
-191.2960180233
 20
-8.3812310568
  0
LWPOLYLINE
  5
86
330
1F
100
AcDbEntity
  8
0
  6
Continuous
 62
     7
370
    15
100
AcDbPolyline
 90
        3
 70
   128
 43
0.0
 10
-242.8564873038
 20
104.9792741855
 10
-243.164134977
 20
102.8342087279
 10
-243.2960180233
 20
100.2187689432
  0
LWPOLYLINE
  5
87
330
1F
100
AcDbEntity
  8
0
  6
Continuous
 62
     7
370
    15
100
AcDbPolyline
 90
        3
 70
   128
 43
0.0
 10
-191.2960180233
 20
100.2187689432
 10
-191.4279010696
 20
102.8342087279
 10
-191.7355487428
 20
104.9792741855
  0
LWPOLYLINE
  5
8A
330
1F
100
AcDbEntity
  8
0
  6
Continuous
 62
     7
370
    15
100
AcDbPolyline
 90
        3
 70
   128
 43
0.0
 10
-403.0193809095
 20
122.1374925266
 10
-403.164134977
 20
120.9702610563
 10
-403.2960180233
 20
118.3548212716
  0
LWPOLYLINE
  5
8B
330
1F
100
AcDbEntity
  8
0
  6
Continuous
 62
     7
370
    15
100
AcDbPolyline
 90
        3
 70
   128
 43
0.0
 10
-351.2960180233
 20
118.3548212716
 10
-351.4279010696
 20
120.9702610563
 10
-351.5726551371
 20
122.1374925266
  0
LWPOLYLINE
  5
9C
330
1F
100
AcDbEntity
  8
0
  6
Continuous
 62
     7
370
    15
100
AcDbPolyline
 90
        3
 70
   128
 43
0.0
 10
-643.2960180233
 20
10.4284929967
 10
-643.164134977
 20
7.813053212
 10
-642.8483160119
 20
5.6243211113
  0
LWPOLYLINE
  5
9D
330
1F
100
AcDbEntity
  8
0
  6
Continuous
 62
     7
370
    15
100
AcDbPolyline
 90
        3
 70
   128
 43
0.0
 10
-591.7437200347
 20
5.6243211113
 10
-591.4279010696
 20
7.813053212
 10
-591.2960180233
 20
10.4284929967
  0
LWPOLYLINE
  5
A6
330
1F
100
AcDbEntity
  8
0
  6
Continuous
 62
     7
370
    15
100
AcDbPolyline
 90
        3
 70
   128
 43
0.0
 10
-802.9964301405
 20
32.6866363458
 10
-802.769823772
 20
31.4178734592
 10
-802.4081381226
 20
29.8856461664
  0
LWPOLYLINE
  5
105
330
1F
100
AcDbEntity
  8
0
  6
Continuous
 62
     7
370
    15
100
AcDbPolyline
 90
        3
 70
   128
 43
0.0
 10
-723.2960180233
 20
146.8532660409
 10
-723.164134977
 20
144.2378262562
 10
-722.8649045998
 20
142.1381796963
  0
LWPOLYLINE
  5
106
330
1F
100
AcDbEntity
  8
0
  6
Continuous
 62
     7
370
    15
100
AcDbPolyline
 90
        3
 70
   128
 43
0.0
 10
-671.7271314468
 20
142.1381796963
 10
-671.4279010696
 20
144.2378262562
 10
-671.2960180233
 20
146.8532660409
  0
LWPOLYLINE
  5
107
330
1F
100
AcDbEntity
  8
0
  6
Continuous
 62
     7
370
    15
100
AcDbPolyline
 90
        3
 70
   128
 43
0.0
 10
-642.8606893667
 20
22.9104221022
 10
-643.164134977
 20
20.7879742663
 10
-643.2960180233
 20
18.1725344816
  0
LWPOLYLINE
  5
108
330
1F
100
AcDbEntity
  8
0
  6
Continuous
 62
     7
370
    15
100
AcDbPolyline
 90
        3
 70
   128
 43
0.0
 10
-591.2960180233
 20
18.1725344816
 10
-591.4279010696
 20
20.7879742663
 10
-591.7313466799
 20
22.9104221022
  0
LWPOLYLINE
  5
109
330
1F
100
AcDbEntity
  8
0
  6
Continuous
 62
     7
370
    15
100
AcDbPolyline
 90
        3
 70
   128
 43
0.0
 10
-643.2960180233
 20
126.7725344816
 10
-643.164134977
 20
124.1570946969
 10
-643.0060832774
 20
122.900513739
  0
LWPOLYLINE
  5
10A
330
1F
100
AcDbEntity
  8
0
  6
Continuous
 62
     7
370
    15
100
AcDbPolyline
 90
        3
 70
   128
 43
0.0
 10
-591.5859527692
 20
122.900513739
 10
-591.4279010696
 20
124.1570946969
 10
-591.2960180233
 20
126.7725344816
  0
LWPOLYLINE
  5
10B
330
1F
100
AcDbEntity
  8
0
  6
Continuous
 62
     7
370
    15
100
AcDbPolyline
 90
        3
 70
   128
 43
0.0
 10
-483.0557680983
 20
7.7474469025
 10
-483.164134977
 20
6.8365180064
 10
-483.2960180233
 20
4.2210782217
  0
LWPOLYLINE
  5
10C
330
1F
100
AcDbEntity
  8
0
  6
Continuous
 62
     7
370
    15
100
AcDbPolyline
 90
        3
 70
   128
 43
0.0
 10
-431.2960180233
 20
4.2210782217
 10
-431.4279010696
 20
6.8365180064
 10
-431.5362679483
 20
7.7474469025
  0
LWPOLYLINE
  5
10F
330
1F
100
AcDbEntity
  8
0
  6
Continuous
 62
     7
370
    15
100
AcDbPolyline
 90
        3
 70
   128
 43
0.0
 10
-803.1469067982
 20
27.7607576389
 10
-803.164134977
 20
27.5956310158
 10
-803.2960180233
 20
24.9801912311
  0
LWPOLYLINE
  5
110
330
1F
100
AcDbEntity
  8
0
  6
Continuous
 62
     7
370
    15
100
AcDbPolyline
 90
        3
 70
   128
 43
0.0
 10
-751.2960180233
 20
24.9801912311
 10
-751.4279010696
 20
27.5956310158
 10
-751.4451292484
 20
27.7607576389
  0
LWPOLYLINE
  5
113
330
1F
100
AcDbEntity
  8
0
  6
Continuous
 62
     7
370
    15
100
AcDbPolyline
 90
        3
 70
   128
 43
0.0
 10
-242.8564873038
 20
-3.6207258145
 10
-243.164134977
 20
-5.7657912721
 10
-243.2960180233
 20
-8.3812310568
  0
LWPOLYLINE
  5
114
330
1F
100
AcDbEntity
  8
0
  6
Continuous
 62
     7
370
    15
100
AcDbPolyline
 90
        3
 70
   128
 43
0.0
 10
-191.2960180233
 20
-8.3812310568
 10
-191.4279010696
 20
-5.7657912721
 10
-191.7355487428
 20
-3.6207258145
  0
LWPOLYLINE
  5
115
330
1F
100
AcDbEntity
  8
0
  6
Continuous
 62
     7
370
    15
100
AcDbPolyline
 90
        3
 70
   128
 43
0.0
 10
-243.2960180233
 20
100.2187689432
 10
-243.164134977
 20
97.6033291585
 10
-243.134295032
 20
97.3233516635
  0
LWPOLYLINE
  5
116
330
1F
100
AcDbEntity
  8
0
  6
Continuous
 62
     7
370
    15
100
AcDbPolyline
 90
        3
 70
   128
 43
0.0
 10
-191.4577410146
 20
97.3233516635
 10
-191.4279010696
 20
97.6033291585
 10
-191.2960180233
 20
100.2187689432
  0
LWPOLYLINE
  5
117
330
1F
100
AcDbEntity
  8
0
  6
Continuous
 62
     7
370
    15
100
AcDbPolyline
 90
        3
 70
   128
 43
0.0
 10
-403.0193809095
 20
13.5374925266
 10
-403.164134977
 20
12.3702610563
 10
-403.2960180233
 20
9.7548212716
  0
LWPOLYLINE
  5
118
330
1F
100
AcDbEntity
  8
0
  6
Continuous
 62
     7
370
    15
100
AcDbPolyline
 90
        3
 70
   128
 43
0.0
 10
-351.2960180233
 20
9.7548212716
 10
-351.4279010696
 20
12.3702610563
 10
-351.5726551371
 20
13.5374925266
  0
LWPOLYLINE
  5
129
330
1F
100
AcDbEntity
  8
0
  6
Continuous
 62
     7
370
    15
100
AcDbPolyline
 90
        3
 70
   128
 43
0.0
 10
-643.2960180233
 20
119.0284929967
 10
-643.164134977
 20
116.413053212
 10
-642.8483160119
 20
114.2243211114
  0
LWPOLYLINE
  5
12A
330
1F
100
AcDbEntity
  8
0
  6
Continuous
 62
     7
370
    15
100
AcDbPolyline
 90
        3
 70
   128
 43
0.0
 10
-591.7437200347
 20
114.2243211114
 10
-591.4279010696
 20
116.413053212
 10
-591.2960180233
 20
119.0284929967
  0
LWPOLYLINE
  5
153
330
1F
100
AcDbEntity
  8
0
  6
Continuous
 62
     7
370
    15
100
AcDbPolyline
 90
        3
 70
   128
 43
0.0
 10
-563.2960180233
 20
19.6429485768
 10
-563.164134977
 20
17.0275087921
 10
-563.1464902511
 20
16.85851226
  0
LWPOLYLINE
  5
154
330
1F
100
AcDbEntity
  8
0
  6
Continuous
 62
     7
370
    15
100
AcDbPolyline
 90
        3
 70
   128
 43
0.0
 10
-511.4455457956
 20
16.8585122599
 10
-511.4279010696
 20
17.0275087921
 10
-511.2960180233
 20
19.6429485768
  0
LWPOLYLINE
  5
15F
330
1F
100
AcDbEntity
  8
0
  6
Continuous
 62
     7
370
    15
100
AcDbPolyline
 90
        3
 70
   128
 43
0.0
 10
-483.2960180233
 20
25.6170905674
 10
-483.164134977
 20
23.0016507827
 10
-482.7762259338
 20
20.4441798936
  0
LWPOLYLINE
  5
160
330
1F
100
AcDbEntity
  8
0
  6
Continuous
 62
     7
370
    15
100
AcDbPolyline
 90
        3
 70
   128
 43
0.0
 10
-431.8158101128
 20
20.4441798936
 10
-431.4279010696
 20
23.0016507827
 10
-431.2960180233
 20
25.6170905674
  0
LWPOLYLINE
  5
163
330
1F
100
AcDbEntity
  8
0
  6
Continuous
 62
     7
370
    15
100
AcDbPolyline
 90
        3
 70
   128
 43
0.0
 10
-723.2960180233
 20
38.3547528297
 10
-723.164134977
 20
35.7393130451
 10
-722.85549507
 20
33.5889230908
  0
LWPOLYLINE
  5
164
330
1F
100
AcDbEntity
  8
0
  6
Continuous
 62
     7
370
    15
100
AcDbPolyline
 90
        3
 70
   128
 43
0.0
 10
-671.7365409766
 20
33.5889230908
 10
-671.4279010696
 20
35.7393130451
 10
-671.2960180233
 20
38.3547528297
  0
LWPOLYLINE
  5
167
330
1F
100
AcDbEntity
  8
0
  6
Continuous
 62
     7
370
    15
100
AcDbPolyline
 90
        3
 70
   128
 43
0.0
 10
-803.2960180233
 20
30.5413240461
 10
-803.164134977
 20
27.9258842614
 10
-803.0319589318
 20
26.8451982971
  0
LWPOLYLINE
  5
168
330
1F
100
AcDbEntity
  8
0
  6
Continuous
 62
     7
370
    15
100
AcDbPolyline
 90
        3
 70
   128
 43
0.0
 10
-751.5600771148
 20
26.8451982971
 10
-751.4279010696
 20
27.9258842614
 10
-751.2960180233
 20
30.5413240461
  0
LWPOLYLINE
  5
169
330
1F
100
AcDbEntity
  8
0
  6
Continuous
 62
     7
370
    15
100
AcDbPolyline
 90
        3
 70
   128
 43
0.0
 10
-803.1176306134
 20
142.1817719154
 10
-803.164134977
 20
141.7567638308
 10
-803.2960180233
 20
139.1413240461
  0
LWPOLYLINE
  5
16A
330
1F
100
AcDbEntity
  8
0
  6
Continuous
 62
     7
370
    15
100
AcDbPolyline
 90
        3
 70
   128
 43
0.0
 10
-751.2960180233
 20
139.1413240461
 10
-751.4279010696
 20
141.7567638308
 10
-751.4744054332
 20
142.1817719154
  0
LWPOLYLINE
  5
193
330
1F
100
AcDbEntity
  8
0
  6
Continuous
 62
     7
370
    15
100
AcDbPolyline
 90
        3
 70
   128
 43
0.0
 10
-563.2960180233
 20
27.0002845575
 10
-563.164134977
 20
24.3848447728
 10
-563.0344601249
 20
23.321616567
  0
LWPOLYLINE
  5
194
330
1F
100
AcDbEntity
  8
0
  6
Continuous
 62
     7
370
    15
100
AcDbPolyline
 90
        3
 70
   128
 43
0.0
 10
-511.5575759217
 20
23.321616567
 10
-511.4279010696
 20
24.3848447728
 10
-511.2960180233
 20
27.0002845575
  0
LWPOLYLINE
  5
1A5
330
1F
100
AcDbEntity
  8
0
  6
Continuous
 62
     7
370
    15
100
AcDbPolyline
 90
        3
 70
   128
 43
0.0
 10
-243.1595631097
 20
128.7244138007
 10
-243.164134977
 20
128.6795837559
 10
-243.2960180233
 20
126.0641439712
  0
LWPOLYLINE
  5
1A6
330
1F
100
AcDbEntity
  8
0
  6
Continuous
 62
     7
370
    15
100
AcDbPolyline
 90
        3
 70
   128
 43
0.0
 10
-191.2960180233
 20
126.0641439712
 10
-191.4279010696
 20
128.6795837559
 10
-191.4324729369
 20
128.7244138007
  0
LWPOLYLINE
  5
1AD
330
1F
100
AcDbEntity
  8
0
  6
Continuous
 62
     7
370
    15
100
AcDbPolyline
 90
        3
 70
   128
 43
0.0
 10
-323.1599448941
 20
109.2560822058
 10
-323.164134977
 20
109.2149665469
 10
-323.2960180233
 20
106.5995267622
  0
LWPOLYLINE
  5
1AE
330
1F
100
AcDbEntity
  8
0
  6
Continuous
 62
     7
370
    15
100
AcDbPolyline
 90
        3
 70
   128
 43
0.0
 10
-271.2960180233
 20
106.5995267622
 10
-271.4279010696
 20
109.2149665469
 10
-271.4320911526
 20
109.2560822058
  0
LWPOLYLINE
  5
1B1
330
1F
100
AcDbEntity
  8
0
  6
Continuous
 62
     7
370
    15
100
AcDbPolyline
 90
        3
 70
   128
 43
0.0
 10
-643.1435715393
 20
116.217091702
 10
-643.164134977
 20
116.0211301922
 10
-643.2960180233
 20
113.4056904075
  0
LWPOLYLINE
  5
1B2
330
1F
100
AcDbEntity
  8
0
  6
Continuous
 62
     7
370
    15
100
AcDbPolyline
 90
        3
 70
   128
 43
0.0
 10
-591.2960180233
 20
113.4056904075
 10
-591.4279010696
 20
116.0211301922
 10
-591.4484645073
 20
116.217091702
  0
LWPOLYLINE
  5
1B5
330
1F
100
AcDbEntity
  8
0
  6
Continuous
 62
     7
370
    15
100
AcDbPolyline
 90
        3
 70
   128
 43
0.0
 10
-163.0472803561
 20
99.7595917788
 10
-163.164134977
 20
98.7872065584
 10
-163.2960180233
 20
96.1717667737
  0
LWPOLYLINE
  5
1B6
330
1F
100
AcDbEntity
  8
0
  6
Continuous
 62
     7
370
    15
100
AcDbPolyline
 90
        3
 70
   128
 43
0.0
 10
-111.2960180233
 20
96.1717667737
 10
-111.4279010696
 20
98.7872065584
 10
-111.5447556905
 20
99.7595917788
  0
LWPOLYLINE
  5
1B7
330
1F
100
AcDbEntity
  8
0
  6
Continuous
 62
     7
370
    15
100
AcDbPolyline
 90
        3
 70
   128
 43
0.0
 10
-403.2960180233
 20
17.3201637816
 10
-403.164134977
 20
14.7047239969
 10
-402.954771985
 20
13.1215514947
  0
LWPOLYLINE
  5
1B8
330
1F
100
AcDbEntity
  8
0
  6
Continuous
 62
     7
370
    15
100
AcDbPolyline
 90
        3
 70
   128
 43
0.0
 10
-351.6372640617
 20
13.1215514947
 10
-351.4279010696
 20
14.7047239969
 10
-351.2960180233
 20
17.3201637816
  0
LWPOLYLINE
  5
1D9
330
1F
100
AcDbEntity
  8
0
  6
Continuous
 62
     7
370
    15
100
AcDbPolyline
 90
        3
 70
   128
 43
0.0
 10
-563.2960180233
 20
128.2429485768
 10
-563.164134977
 20
125.6275087921
 10
-563.146490251
 20
125.4585122596
  0
LWPOLYLINE
  5
1DA
330
1F
100
AcDbEntity
  8
0
  6
Continuous
 62
     7
370
    15
100
AcDbPolyline
 90
        3
 70
   128
 43
0.0
 10
-511.4455457956
 20
125.4585122596
 10
-511.4279010696
 20
125.6275087921
 10
-511.2960180233
 20
128.2429485768
  0
LWPOLYLINE
  5
1DF
330
1F
100
AcDbEntity
  8
0
  6
Continuous
 62
     7
370
    15
100
AcDbPolyline
 90
        3
 70
   128
 43
0.0
 10
-483.2960180233
 20
134.2170905674
 10
-483.164134977
 20
131.6016507827
 10
-482.7762259338
 20
129.0441798935
  0
LWPOLYLINE
  5
1E0
330
1F
100
AcDbEntity
  8
0
  6
Continuous
 62
     7
370
    15
100
AcDbPolyline
 90
        3
 70
   128
 43
0.0
 10
-431.8158101128
 20
129.0441798935
 10
-431.4279010696
 20
131.6016507827
 10
-431.2960180233
 20
134.2170905674
  0
LWPOLYLINE
  5
1E1
330
1F
100
AcDbEntity
  8
0
  6
Continuous
 62
     7
370
    15
100
AcDbPolyline
 90
        3
 70
   128
 43
0.0
 10
-723.2960180233
 20
146.9547528297
 10
-723.164134977
 20
144.3393130451
 10
-722.85549507
 20
142.1889230908
  0
LWPOLYLINE
  5
1E2
330
1F
100
AcDbEntity
  8
0
  6
Continuous
 62
     7
370
    15
100
AcDbPolyline
 90
        3
 70
   128
 43
0.0
 10
-671.7365409766
 20
142.1889230907
 10
-671.4279010696
 20
144.3393130451
 10
-671.2960180233
 20
146.9547528297
  0
LWPOLYLINE
  5
1E3
330
1F
100
AcDbEntity
  8
0
  6
Continuous
 62
     7
370
    15
100
AcDbPolyline
 90
        3
 70
   128
 43
0.0
 10
-803.2960180233
 20
139.1413240461
 10
-803.164134977
 20
136.5258842614
 10
-803.0319589318
 20
135.445198297
  0
LWPOLYLINE
  5
1E4
330
1F
100
AcDbEntity
  8
0
  6
Continuous
 62
     7
370
    15
100
AcDbPolyline
 90
        3
 70
   128
 43
0.0
 10
-751.5600771148
 20
135.445198297
 10
-751.4279010696
 20
136.5258842614
 10
-751.2960180233
 20
139.1413240461
  0
LWPOLYLINE
  5
1F9
330
1F
100
AcDbEntity
  8
0
  6
Continuous
 62
     7
370
    15
100
AcDbPolyline
 90
        3
 70
   128
 43
0.0
 10
-563.2960180233
 20
135.6002845575
 10
-563.164134977
 20
132.9848447728
 10
-563.0344601249
 20
131.9216165671
  0
LWPOLYLINE
  5
1FA
330
1F
100
AcDbEntity
  8
0
  6
Continuous
 62
     7
370
    15
100
AcDbPolyline
 90
        3
 70
   128
 43
0.0
 10
-511.5575759217
 20
131.9216165671
 10
-511.4279010696
 20
132.9848447728
 10
-511.2960180233
 20
135.6002845575
  0
LWPOLYLINE
  5
20B
330
1F
100
AcDbEntity
  8
0
  6
Continuous
 62
     7
370
    15
100
AcDbPolyline
 90
        3
 70
   128
 43
0.0
 10
-403.2960180233
 20
125.9201637816
 10
-403.164134977
 20
123.3047239969
 10
-402.954771985
 20
121.7215514947
  0
LWPOLYLINE
  5
20C
330
1F
100
AcDbEntity
  8
0
  6
Continuous
 62
     7
370
    15
100
AcDbPolyline
 90
        3
 70
   128
 43
0.0
 10
-351.6372640617
 20
121.7215514947
 10
-351.4279010696
 20
123.3047239969
 10
-351.2960180233
 20
125.9201637816
  0
LWPOLYLINE
  5
245
330
1F
100
AcDbEntity
  8
0
  6
Continuous
 62
     7
370
    15
100
AcDbPolyline
 90
        3
 70
   128
 43
0.0
 10
-751.2960180233
 20
30.5413240461
 10
-751.4279010696
 20
33.1567638308
 10
-751.4744054332
 20
33.5817719153
  0
LWPOLYLINE
  5
26F
330
1F
100
AcDbEntity
  8
0
  6
Continuous
 62
     7
370
    15
100
AcDbPolyline
 90
        3
 70
   128
 43
0.0
 10
-243.1595631097
 20
20.1244138007
 10
-243.164134977
 20
20.0795837559
 10
-243.2960180233
 20
17.4641439712
  0
LWPOLYLINE
  5
270
330
1F
100
AcDbEntity
  8
0
  6
Continuous
 62
     7
370
    15
100
AcDbPolyline
 90
        3
 70
   128
 43
0.0
 10
-191.2960180233
 20
17.4641439712
 10
-191.4279010696
 20
20.0795837559
 10
-191.4324729369
 20
20.1244138007
  0
LWPOLYLINE
  5
273
330
1F
100
AcDbEntity
  8
0
  6
Continuous
 62
     7
370
    15
100
AcDbPolyline
 90
        3
 70
   128
 43
0.0
 10
-323.1599448941
 20
0.6560822058
 10
-323.164134977
 20
0.6149665469
 10
-323.2960180233
 20
-2.0004732378
  0
LWPOLYLINE
  5
274
330
1F
100
AcDbEntity
  8
0
  6
Continuous
 62
     7
370
    15
100
AcDbPolyline
 90
        3
 70
   128
 43
0.0
 10
-271.2960180233
 20
-2.0004732378
 10
-271.4279010696
 20
0.6149665469
 10
-271.4320911526
 20
0.6560822058
  0
LWPOLYLINE
  5
275
330
1F
100
AcDbEntity
  8
0
  6
Continuous
 62
     7
370
    15
100
AcDbPolyline
 90
        3
 70
   128
 43
0.0
 10
-643.1435715393
 20
7.6170917019
 10
-643.164134977
 20
7.4211301922
 10
-643.2960180233
 20
4.8056904075
  0
LWPOLYLINE
  5
276
330
1F
100
AcDbEntity
  8
0
  6
Continuous
 62
     7
370
    15
100
AcDbPolyline
 90
        3
 70
   128
 43
0.0
 10
-591.2960180233
 20
4.8056904075
 10
-591.4279010696
 20
7.4211301922
 10
-591.4484645073
 20
7.617091702
  0
LWPOLYLINE
  5
277
330
1F
100
AcDbEntity
  8
0
  6
Continuous
 62
     7
370
    15
100
AcDbPolyline
 90
        3
 70
   128
 43
0.0
 10
-163.0472803561
 20
-8.8404082212
 10
-163.164134977
 20
-9.8127934416
 10
-163.2960180233
 20
-12.4282332263
  0
LWPOLYLINE
  5
278
330
1F
100
AcDbEntity
  8
0
  6
Continuous
 62
     7
370
    15
100
AcDbPolyline
 90
        3
 70
   128
 43
0.0
 10
-111.2960180233
 20
-12.4282332263
 10
-111.4279010696
 20
-9.8127934416
 10
-111.5447556905
 20
-8.8404082212
  0
CIRCLE
  5
289
330
1F
100
AcDbEntity
  8
0
  6
Continuous
 62
     7
370
    15
100
AcDbCircle
 10
-26.7960180233
 20
61.7284642746
 30
0.0
 40
28.50250000000004
  0
SPLINE
  5
2F4
330
1F
100
AcDbEntity
  8
0
  6
Continuous
 62
     7
370
    15
100
AcDbSpline
210
0.0
220
0.0
230
1.0
 70
     8
 71
     3
 72
    29
 73
    25
 74
     0
 42
0.000000001
 43
0.00000001
 40
0.0
 40
0.0
 40
0.0
 40
0.0
 40
0.1249999999999633
 40
0.1249999999999633
 40
0.187499999999945
 40
0.187499999999945
 40
0.2499999999999266
 40
0.2499999999999266
 40
0.3749999999999389
 40
0.3749999999999389
 40
0.4999999999999512
 40
0.4999999999999512
 40
0.6249999999999634
 40
0.6249999999999634
 40
0.6874999999999695
 40
0.6874999999999695
 40
0.7499999999999756
 40
0.8124999999999817
 40
0.8124999999999817
 40
0.8749999999999877
 40
0.8749999999999877
 40
0.9374999999999938
 40
0.9374999999999938
 40
1.0
 40
1.0
 40
1.0
 40
1.0
 10
-13.85506576817735
 20
110.0247555890447
 30
0.0
 10
-13.85506576817735
 20
110.0247555890447
 30
0.0
 10
-13.86934992003991
 20
109.9749432554535
 30
0.0
 10
-13.91131980331856
 20
109.8285620595601
 30
0.0
 10
-13.92875903816981
 20
109.7677357716974
 30
0.0
 10
-13.97069065149892
 20
109.621469597441
 30
0.0
 10
-13.99530193111292
 20
109.5356148192819
 30
0.0
 10
-14.07821806708737
 20
109.2463347506235
 30
0.0
 10
-14.14586132595452
 20
109.0103022810029
 30
0.0
 10
-14.30561885597093
 20
108.4526572376387
 30
0.0
 10
-14.39858664768656
 20
108.128061771627
 30
0.0
 10
-14.60158946544249
 20
107.4189731919498
 30
0.0
 10
-14.71231773937748
 20
107.0320624387126
 30
0.0
 10
-14.89254100489329
 20
106.401992843291
 30
0.0
 10
-14.95497799002082
 20
106.1836585680545
 30
0.0
 10
-15.08184767360987
 20
105.7398921063103
 30
0.0
 10
-15.21137858674187
 20
105.2867014207737
 30
0.0
 10
-15.3461402880043
 20
104.8149472285458
 30
0.0
 10
-15.48354779009598
 20
104.3337853871667
 30
0.0
 10
-15.55387755907461
 20
104.0874384649892
 30
0.0
 10
-15.69572723294954
 20
103.5904165143512
 30
0.0
 10
-15.76704683451691
 20
103.3404440304707
 30
0.0
 10
-15.9104652408954
 20
102.8376022965763
 30
0.0
 10
-15.98330349711319
 20
102.582128562062
 30
0.0
 10
-16.05468152326412
 20
102.3317115608973
 30
0.0
  0
SPLINE
  5
2F6
330
1F
100
AcDbEntity
  8
0
  6
Continuous
 62
     7
370
    15
100
AcDbSpline
210
0.0
220
0.0
230
1.0
 70
     8
 71
     3
 72
    31
 73
    27
 74
     0
 42
0.000000001
 43
0.00000001
 40
0.0
 40
0.0
 40
0.0
 40
0.0
 40
0.1249999999999879
 40
0.1249999999999879
 40
0.1874999999999821
 40
0.1874999999999821
 40
0.2499999999999764
 40
0.2499999999999764
 40
0.3749999999999648
 40
0.3749999999999648
 40
0.4999999999999533
 40
0.4999999999999533
 40
0.6249999999999418
 40
0.6249999999999418
 40
0.6874999999999506
 40
0.6874999999999506
 40
0.7499999999999594
 40
0.8124999999999682
 40
0.8124999999999682
 40
0.874999999999977
 40
0.874999999999977
 40
0.9374999999999859
 40
0.9374999999999859
 40
0.9687499999999929
 40
0.9687499999999929
 40
1.0
 40
1.0
 40
1.0
 40
1.0
 10
21.42892889826537
 20
99.23735585508936
 30
0.0
 10
21.42892889826537
 20
99.2373558550894
 30
0.0
 10
21.41110553521208
 20
99.18854422780363
 30
0.0
 10
21.35870419949759
 20
99.04512398495568
 30
0.0
 10
21.33692699948653
 20
98.98552985859422
 30
0.0
 10
21.28454415772879
 20
98.84223416534101
 30
0.0
 10
21.2537934680353
 20
98.75813636660337
 30
0.0
 10
21.150153862589
 20
98.47483189187467
 30
0.0
 10
21.06555061125592
 20
98.24371195444309
 30
0.0
 10
20.86543465158913
 20
97.69781364426305
 30
0.0
 10
20.74887768550649
 20
97.38020092051832
 30
0.0
 10
20.49390826975284
 20
96.68669328789645
 30
0.0
 10
20.35461390888504
 20
96.3083830253709
 30
0.0
 10
20.12735005319482
 20
95.69253926785436
 30
0.0
 10
20.04857645994201
 20
95.47929452564225
 30
0.0
 10
19.88829917200064
 20
95.04592476143584
 30
0.0
 10
19.72446023185037
 20
94.60341996076845
 30
0.0
 10
19.55354535565468
 20
94.14294486517035
 30
0.0
 10
19.37901597484165
 20
93.67337437212937
 30
0.0
 10
19.28954455195714
 20
93.43297010336765
 30
0.0
 10
19.10891875567994
 20
92.94835420458485
 30
0.0
 10
19.01797260938193
 20
92.70469794459225
 30
0.0
 10
18.88059663098823
 20
92.33721752135443
 30
0.0
 10
18.83464493075304
 20
92.21439075010113
 30
0.0
 10
18.74241797125875
 20
91.9680675398829
 30
0.0
 10
18.6957111286824
 20
91.84343333708908
 30
0.0
 10
18.64996526805096
 20
91.72143624760645
 30
0.0
  0
SPLINE
  5
2F9
330
1F
100
AcDbEntity
  8
0
  6
Continuous
 62
     7
370
    15
100
AcDbSpline
210
0.0
220
0.0
230
1.0
 70
     8
 71
     3
 72
    31
 73
    27
 74
     0
 42
0.000000001
 43
0.00000001
 40
0.0
 40
0.0
 40
0.0
 40
0.0
 40
0.1249999999999635
 40
0.1249999999999635
 40
0.1874999999999453
 40
0.1874999999999453
 40
0.2499999999999271
 40
0.2499999999999271
 40
0.3749999999999389
 40
0.3749999999999389
 40
0.4999999999999507
 40
0.4999999999999507
 40
0.6249999999999625
 40
0.6249999999999625
 40
0.687499999999969
 40
0.687499999999969
 40
0.7499999999999756
 40
0.8124999999999821
 40
0.8124999999999821
 40
0.8749999999999886
 40
0.8749999999999886
 40
0.9374999999999951
 40
0.9374999999999951
 40
0.9687499999999976
 40
0.9687499999999976
 40
1.0
 40
1.0
 40
1.0
 40
1.0
 10
40.20398197669694
 20
72.47846427459118
 30
0.0
 10
40.20398197669694
 20
72.47846427459118
 30
0.0
 10
40.15215480664141
 20
72.47700199467307
 30
0.0
 10
39.99985651929616
 20
72.47268913264344
 30
0.0
 10
39.93657181365828
 20
72.47089535069053
 30
0.0
 10
39.78439534771528
 20
72.46657258436174
 30
0.0
 10
39.69507401355577
 20
72.46403129765123
 30
0.0
 10
39.39412473204729
 20
72.4554451270471
 30
0.0
 10
39.1485780271999
 20
72.44841290297133
 30
0.0
 10
38.56848073305675
 20
72.43165820233203
 30
0.0
 10
38.23084459722664
 20
72.42184401938974
 30
0.0
 10
37.49333116076858
 20
72.4001752635144
 30
0.0
 10
37.09092866229968
 20
72.38824951274913
 30
0.0
 10
36.4356709117778
 20
72.36857807209525
 30
0.0
 10
36.20864011870417
 20
72.36172270995468
 30
0.0
 10
35.74720735187142
 20
72.3476960829962
 30
0.0
 10
35.27598709715507
 20
72.33328129215687
 30
0.0
 10
34.78549161293715
 20
72.31806785711926
 30
0.0
 10
34.28522965209241
 20
72.30243348416427
 30
0.0
 10
34.02909994583309
 20
72.29437035323406
 30
0.0
 10
33.51244219212535
 20
72.27797398158155
 30
0.0
 10
33.25261924813466
 20
72.26966370009065
 30
0.0
 10
32.86066573298147
 20
72.25702251363091
 30
0.0
 10
32.72964403336287
 20
72.25277946187101
 30
0.0
 10
32.46685510928871
 20
72.24423308002964
 30
0.0
 10
32.33412574702904
 20
72.23989485570921
 30
0.0
 10
32.20398197669694
 20
72.23562941720837
 30
0.0
  0
SPLINE
  5
30E
330
1F
100
AcDbEntity
  8
0
  6
Continuous
 62
     7
370
    15
100
AcDbSpline
210
0.0
220
0.0
230
1.0
 70
     8
 71
     3
 72
    29
 73
    25
 74
     0
 42
0.000000001
 43
0.00000001
 40
0.0
 40
0.0
 40
0.0
 40
0.0
 40
0.1249999999999632
 40
0.1249999999999632
 40
0.1874999999999448
 40
0.1874999999999448
 40
0.2499999999999265
 40
0.2499999999999265
 40
0.3749999999999387
 40
0.3749999999999387
 40
0.4999999999999509
 40
0.4999999999999509
 40
0.6249999999999631
 40
0.6249999999999631
 40
0.6874999999999692
 40
0.6874999999999692
 40
0.7499999999999754
 40
0.8124999999999816
 40
0.8124999999999816
 40
0.8749999999999877
 40
0.8749999999999877
 40
0.9374999999999939
 40
0.9374999999999939
 40
1.0
 40
1.0
 40
1.0
 40
1.0
 10
-13.85506576817735
 20
13.43217296013765
 30
0.0
 10
-13.85506576817735
 20
13.43217296013765
 30
0.0
 10
-13.86934992003941
 20
13.48198529372899
 30
0.0
 10
-13.91131980331811
 20
13.62836648962235
 30
0.0
 10
-13.92875903816948
 20
13.68919277748502
 30
0.0
 10
-13.97069065149859
 20
13.83545895174141
 30
0.0
 10
-13.99530193111265
 20
13.92131372990047
 30
0.0
 10
-14.07821806708709
 20
14.2105937985589
 30
0.0
 10
-14.1458613259543
 20
14.44662626817952
 30
0.0
 10
-14.3056188559707
 20
15.00427131154368
 30
0.0
 10
-14.39858664768628
 20
15.32886677755535
 30
0.0
 10
-14.60158946544215
 20
16.03795535723264
 30
0.0
 10
-14.7123177393772
 20
16.42486611046986
 30
0.0
 10
-14.89254100489296
 20
17.05493570589141
 30
0.0
 10
-14.95497799002077
 20
17.27326998112785
 30
0.0
 10
-15.08184767360982
 20
17.71703644287207
 30
0.0
 10
-15.21137858674226
 20
18.17022712840856
 30
0.0
 10
-15.34614028800402
 20
18.64198132063664
 30
0.0
 10
-15.48354779009564
 20
19.12314316201574
 30
0.0
 10
-15.55387755907428
 20
19.3694900841932
 30
0.0
 10
-15.69572723294926
 20
19.86651203483128
 30
0.0
 10
-15.76704683451696
 20
20.11648451871161
 30
0.0
 10
-15.91046524089584
 20
20.61932625260584
 30
0.0
 10
-15.98330349711358
 20
20.87479998712021
 30
0.0
 10
-16.054681523264
 20
21.12521698828504
 30
0.0
  0
SPLINE
  5
310
330
1F
100
AcDbEntity
  8
0
  6
Continuous
 62
     7
370
    15
100
AcDbSpline
210
0.0
220
0.0
230
1.0
 70
     8
 71
     3
 72
    31
 73
    27
 74
     0
 42
0.000000001
 43
0.00000001
 40
0.0
 40
0.0
 40
0.0
 40
0.0
 40
0.1249999999999886
 40
0.1249999999999886
 40
0.187499999999983
 40
0.187499999999983
 40
0.2499999999999773
 40
0.2499999999999773
 40
0.3749999999999657
 40
0.3749999999999657
 40
0.4999999999999541
 40
0.4999999999999541
 40
0.6249999999999426
 40
0.6249999999999426
 40
0.6874999999999513
 40
0.6874999999999513
 40
0.7499999999999598
 40
0.8124999999999685
 40
0.8124999999999685
 40
0.8749999999999771
 40
0.8749999999999771
 40
0.9374999999999858
 40
0.9374999999999858
 40
0.9687499999999926
 40
0.9687499999999926
 40
1.0
 40
1.0
 40
1.0
 40
1.0
 10
21.42892889826537
 20
24.21957269409296
 30
0.0
 10
21.42892889826537
 20
24.21957269409297
 30
0.0
 10
21.41110553521208
 20
24.26838432137867
 30
0.0
 10
21.35870419949759
 20
24.4118045642266
 30
0.0
 10
21.33692699948653
 20
24.47139869058808
 30
0.0
 10
21.28454415772879
 20
24.6146943838413
 30
0.0
 10
21.25379346803524
 20
24.69879218257896
 30
0.0
 10
21.150153862589
 20
24.98209665730765
 30
0.0
 10
21.06555061125592
 20
25.21321659473925
 30
0.0
 10
20.86543465158913
 20
25.75911490491927
 30
0.0
 10
20.74887768550654
 20
26.076727628664
 30
0.0
 10
20.49390826975289
 20
26.77023526128587
 30
0.0
 10
20.35461390888504
 20
27.1485455238114
 30
0.0
 10
20.12735005319488
 20
27.76438928132798
 30
0.0
 10
20.04857645994207
 20
27.97763402354007
 30
0.0
 10
19.88829917200064
 20
28.41100378774648
 30
0.0
 10
19.72446023185026
 20
28.85350858841381
 30
0.0
 10
19.55354535565479
 20
29.31398368401197
 30
0.0
 10
19.37901597484176
 20
29.78355417705296
 30
0.0
 10
19.28954455195719
 20
30.02395844581467
 30
0.0
 10
19.10891875568005
 20
30.50857434459747
 30
0.0
 10
19.01797260938199
 20
30.75223060459008
 30
0.0
 10
18.88059663098834
 20
31.11971102782792
 30
0.0
 10
18.83464493075299
 20
31.24253779908114
 30
0.0
 10
18.7424179712587
 20
31.48886100929935
 30
0.0
 10
18.69571112867907
 20
31.61349521209189
 30
0.0
 10
18.64996526805091
 20
31.73549230157582
 30
0.0
  0
SPLINE
  5
312
330
1F
100
AcDbEntity
  8
0
  6
Continuous
 62
     7
370
    15
100
AcDbSpline
210
0.0
220
0.0
230
1.0
 70
     8
 71
     3
 72
    31
 73
    27
 74
     0
 42
0.000000001
 43
0.00000001
 40
0.0
 40
0.0
 40
0.0
 40
0.0
 40
0.124999999999963
 40
0.124999999999963
 40
0.1874999999999445
 40
0.1874999999999445
 40
0.2499999999999261
 40
0.2499999999999261
 40
0.3749999999999374
 40
0.3749999999999374
 40
0.4999999999999487
 40
0.4999999999999487
 40
0.62499999999996
 40
0.62499999999996
 40
0.6874999999999664
 40
0.6874999999999664
 40
0.7499999999999728
 40
0.8124999999999791
 40
0.8124999999999791
 40
0.8749999999999856
 40
0.8749999999999856
 40
0.9374999999999919
 40
0.9374999999999919
 40
0.9687499999999959
 40
0.9687499999999959
 40
1.0
 40
1.0
 40
1.0
 40
1.0
 10
40.20398197669694
 20
50.97846427459115
 30
0.0
 10
40.20398197669694
 20
50.97846427459115
 30
0.0
 10
40.15215480664141
 20
50.97992655450928
 30
0.0
 10
39.99985651929616
 20
50.98423941653895
 30
0.0
 10
39.93657181365828
 20
50.98603319849173
 30
0.0
 10
39.78439534771528
 20
50.99035596482051
 30
0.0
 10
39.69507401355577
 20
50.9928972515311
 30
0.0
 10
39.39412473204729
 20
51.00148342213522
 30
0.0
 10
39.14857802719985
 20
51.00851564621098
 30
0.0
 10
38.56848073305675
 20
51.02527034685026
 30
0.0
 10
38.23084459722664
 20
51.03508452979264
 30
0.0
 10
37.49333116076858
 20
51.05675328566797
 30
0.0
 10
37.09092866229968
 20
51.06867903643321
 30
0.0
 10
36.4356709117778
 20
51.08835047708711
 30
0.0
 10
36.20864011870417
 20
51.09520583922777
 30
0.0
 10
35.74720735187142
 20
51.10923246618623
 30
0.0
 10
35.27598709715507
 20
51.12364725702565
 30
0.0
 10
34.78549161293715
 20
51.13886069206306
 30
0.0
 10
34.28522965209241
 20
51.15449506501809
 30
0.0
 10
34.02909994583309
 20
51.16255819594839
 30
0.0
 10
33.51244219212529
 20
51.17895456760093
 30
0.0
 10
33.25261924813466
 20
51.18726484909177
 30
0.0
 10
32.86066573298147
 20
51.19990603555159
 30
0.0
 10
32.72964403336287
 20
51.20414908731161
 30
0.0
 10
32.46685510928871
 20
51.21269546915332
 30
0.0
 10
32.33412574702904
 20
51.21703369347305
 30
0.0
 10
32.20398197669694
 20
51.22129913197395
 30
0.0
  0
SPLINE
  5
320
330
1F
100
AcDbEntity
  8
0
  6
Continuous
 62
     7
370
    15
100
AcDbSpline
210
0.0
220
0.0
230
1.0
 70
     8
 71
     3
 72
    29
 73
    25
 74
     0
 42
0.000000001
 43
0.00000001
 40
0.0
 40
0.0
 40
0.0
 40
0.0
 40
0.1249999999999613
 40
0.1249999999999613
 40
0.1874999999999426
 40
0.1874999999999426
 40
0.249999999999924
 40
0.249999999999924
 40
0.3749999999999396
 40
0.3749999999999396
 40
0.4999999999999553
 40
0.4999999999999553
 40
0.6249999999999709
 40
0.6249999999999709
 40
0.6874999999999758
 40
0.6874999999999758
 40
0.7499999999999806
 40
0.8124999999999855
 40
0.8124999999999855
 40
0.8749999999999903
 40
0.8749999999999903
 40
0.9374999999999951
 40
0.9374999999999951
 40
1.0
 40
1.0
 40
1.0
 40
1.0
 10
-900.7369702784288
 20
110.0247555890447
 30
0.0
 10
-900.7369702784287
 20
110.0247555890446
 30
0.0
 10
-900.7226861265666
 20
109.9749432554533
 30
0.0
 10
-900.6807162432881
 20
109.82856205956
 30
0.0
 10
-900.6632770084367
 20
109.7677357716974
 30
0.0
 10
-900.6213453951074
 20
109.621469597441
 30
0.0
 10
-900.5967341154936
 20
109.5356148192819
 30
0.0
 10
-900.5138179795189
 20
109.2463347506234
 30
0.0
 10
-900.446174720652
 20
109.0103022810027
 30
0.0
 10
-900.2864171906357
 20
108.4526572376386
 30
0.0
 10
-900.1934493989199
 20
108.128061771627
 30
0.0
 10
-899.990446581164
 20
107.4189731919497
 30
0.0
 10
-899.8797183072289
 20
107.0320624387125
 30
0.0
 10
-899.6994950417131
 20
106.401992843291
 30
0.0
 10
-899.6370580565857
 20
106.1836585680543
 30
0.0
 10
-899.5101883729968
 20
105.7398921063101
 30
0.0
 10
-899.3806574598642
 20
105.2867014207737
 30
0.0
 10
-899.2458957586025
 20
104.8149472285457
 30
0.0
 10
-899.1084882565106
 20
104.3337853871666
 30
0.0
 10
-899.0381584875315
 20
104.0874384649892
 30
0.0
 10
-898.8963088136568
 20
103.5904165143512
 30
0.0
 10
-898.8249892120898
 20
103.3404440304706
 30
0.0
 10
-898.6815708057112
 20
102.8376022965763
 30
0.0
 10
-898.6087325494925
 20
102.5821285620621
 30
0.0
 10
-898.5373545233422
 20
102.3317115608973
 30
0.0
  0
SPLINE
  5
322
330
1F
100
AcDbEntity
  8
0
  6
Continuous
 62
     7
370
    15
100
AcDbSpline
210
0.0
220
0.0
230
1.0
 70
     8
 71
     3
 72
    31
 73
    27
 74
     0
 42
0.000000001
 43
0.00000001
 40
0.0
 40
0.0
 40
0.0
 40
0.0
 40
0.1249999999999877
 40
0.1249999999999877
 40
0.1874999999999827
 40
0.1874999999999827
 40
0.2499999999999777
 40
0.2499999999999777
 40
0.3749999999999712
 40
0.3749999999999712
 40
0.4999999999999648
 40
0.4999999999999648
 40
0.6249999999999584
 40
0.6249999999999584
 40
0.6874999999999659
 40
0.6874999999999659
 40
0.7499999999999736
 40
0.8124999999999811
 40
0.8124999999999811
 40
0.8749999999999888
 40
0.8749999999999888
 40
0.9374999999999963
 40
0.9374999999999963
 40
0.9687499999999982
 40
0.9687499999999982
 40
1.0
 40
1.0
 40
1.0
 40
1.0
 10
-936.0209649448715
 20
99.23735585508936
 30
0.0
 10
-936.0209649448715
 20
99.23735585508936
 30
0.0
 10
-936.0031415818181
 20
99.1885442278036
 30
0.0
 10
-935.9507402461043
 20
99.0451239849557
 30
0.0
 10
-935.9289630460928
 20
98.98552985859423
 30
0.0
 10
-935.8765802043351
 20
98.84223416534104
 30
0.0
 10
-935.8458295146415
 20
98.75813636660335
 30
0.0
 10
-935.7421899091953
 20
98.47483189187466
 30
0.0
 10
-935.6575866578622
 20
98.24371195444306
 30
0.0
 10
-935.4574706981957
 20
97.69781364426308
 30
0.0
 10
-935.3409137321129
 20
97.3802009205183
 30
0.0
 10
-935.0859443163589
 20
96.68669328789646
 30
0.0
 10
-934.9466499554915
 20
96.30838302537094
 30
0.0
 10
-934.7193860998011
 20
95.69253926785436
 30
0.0
 10
-934.6406125065485
 20
95.47929452564219
 30
0.0
 10
-934.4803352186067
 20
95.04592476143581
 30
0.0
 10
-934.3164962784564
 20
94.60341996076845
 30
0.0
 10
-934.1455814022606
 20
94.14294486517036
 30
0.0
 10
-933.9710520214479
 20
93.67337437212936
 30
0.0
 10
-933.8815805985636
 20
93.43297010336767
 30
0.0
 10
-933.7009548022858
 20
92.94835420458485
 30
0.0
 10
-933.6100086559891
 20
92.70469794459174
 30
0.0
 10
-933.4726326775966
 20
92.33721752135361
 30
0.0
 10
-933.4266809773593
 20
92.21439075010123
 30
0.0
 10
-933.3344540178647
 20
91.96806753988305
 30
0.0
 10
-933.287747175285
 20
91.84343333709033
 30
0.0
 10
-933.242001314657
 20
91.7214362476065
 30
0.0
  0
SPLINE
  5
324
330
1F
100
AcDbEntity
  8
0
  6
Continuous
 62
     7
370
    15
100
AcDbSpline
210
0.0
220
0.0
230
1.0
 70
     8
 71
     3
 72
    31
 73
    27
 74
     0
 42
0.000000001
 43
0.00000001
 40
0.0
 40
0.0
 40
0.0
 40
0.0
 40
0.1249999999999878
 40
0.1249999999999878
 40
0.1874999999999843
 40
0.1874999999999843
 40
0.2499999999999808
 40
0.2499999999999808
 40
0.3749999999999839
 40
0.3749999999999839
 40
0.499999999999987
 40
0.499999999999987
 40
0.6249999999999901
 40
0.6249999999999901
 40
0.6874999999999917
 40
0.6874999999999917
 40
0.7499999999999933
 40
0.812499999999995
 40
0.812499999999995
 40
0.8749999999999967
 40
0.8749999999999967
 40
0.9374999999999983
 40
0.9374999999999983
 40
0.9687499999999991
 40
0.9687499999999991
 40
1.0
 40
1.0
 40
1.0
 40
1.0
 10
-954.7960180233031
 20
72.47846427459118
 30
0.0
 10
-954.7960180233031
 20
72.47846427459119
 30
0.0
 10
-954.7441908532475
 20
72.47700199467282
 30
0.0
 10
-954.5918925659024
 20
72.47268913264317
 30
0.0
 10
-954.5286078602646
 20
72.47089535069028
 30
0.0
 10
-954.3764313943216
 20
72.46657258436151
 30
0.0
 10
-954.2871100601623
 20
72.46403129765096
 30
0.0
 10
-953.9861607786532
 20
72.45544512704679
 30
0.0
 10
-953.740614073806
 20
72.44841290297111
 30
0.0
 10
-953.1605167796629
 20
72.43165820233186
 30
0.0
 10
-952.8228806438327
 20
72.42184401938948
 30
0.0
 10
-952.0853672073747
 20
72.40017526351419
 30
0.0
 10
-951.6829647089058
 20
72.38824951274891
 30
0.0
 10
-951.0277069583836
 20
72.36857807209505
 30
0.0
 10
-950.8006761653104
 20
72.36172270995425
 30
0.0
 10
-950.3392433984776
 20
72.34769608299582
 30
0.0
 10
-949.8680231437611
 20
72.33328129215663
 30
0.0
 10
-949.3775276595431
 20
72.31806785711909
 30
0.0
 10
-948.8772656986985
 20
72.30243348416408
 30
0.0
 10
-948.6211359924393
 20
72.2943703532338
 30
0.0
 10
-948.1044782387318
 20
72.27797398158131
 30
0.0
 10
-947.844655294741
 20
72.26966370009048
 30
0.0
 10
-947.4527017795878
 20
72.25702251363077
 30
0.0
 10
-947.321680079969
 20
72.2527794618705
 30
0.0
 10
-947.0588911558948
 20
72.24423308002889
 30
0.0
 10
-946.9261617936354
 20
72.23989485570927
 30
0.0
 10
-946.7960180233032
 20
72.23562941720837
 30
0.0
  0
SPLINE
  5
331
330
1F
100
AcDbEntity
  8
0
  6
Continuous
 62
     7
370
    15
100
AcDbSpline
210
0.0
220
0.0
230
1.0
 70
     8
 71
     3
 72
    29
 73
    25
 74
     0
 42
0.000000001
 43
0.00000001
 40
0.0
 40
0.0
 40
0.0
 40
0.0
 40
0.1249999999999643
 40
0.1249999999999643
 40
0.1874999999999457
 40
0.1874999999999457
 40
0.2499999999999272
 40
0.2499999999999272
 40
0.3749999999999419
 40
0.3749999999999419
 40
0.4999999999999567
 40
0.4999999999999567
 40
0.624999999999972
 40
0.624999999999972
 40
0.6874999999999767
 40
0.6874999999999767
 40
0.7499999999999813
 40
0.812499999999986
 40
0.812499999999986
 40
0.8749999999999907
 40
0.8749999999999907
 40
0.9374999999999953
 40
0.9374999999999953
 40
1.0
 40
1.0
 40
1.0
 40
1.0
 10
-900.7369702784288
 20
13.43217296013765
 30
0.0
 10
-900.7369702784292
 20
13.43217296013765
 30
0.0
 10
-900.7226861265665
 20
13.48198529372895
 30
0.0
 10
-900.6807162432881
 20
13.6283664896223
 30
0.0
 10
-900.6632770084366
 20
13.68919277748494
 30
0.0
 10
-900.6213453951076
 20
13.83545895174134
 30
0.0
 10
-900.5967341154935
 20
13.92131372990048
 30
0.0
 10
-900.5138179795191
 20
14.21059379855891
 30
0.0
 10
-900.4461747206519
 20
14.44662626817955
 30
0.0
 10
-900.2864171906353
 20
15.00427131154371
 30
0.0
 10
-900.1934493989197
 20
15.32886677755532
 30
0.0
 10
-899.990446581164
 20
16.0379553572326
 30
0.0
 10
-899.8797183072287
 20
16.42486611046984
 30
0.0
 10
-899.6994950417132
 20
17.05493570589139
 30
0.0
 10
-899.6370580565857
 20
17.27326998112794
 30
0.0
 10
-899.5101883729969
 20
17.71703644287215
 30
0.0
 10
-899.3806574389209
 20
18.17022717248605
 30
0.0
 10
-899.2458957586023
 20
18.64198132063661
 30
0.0
 10
-899.1084882565106
 20
19.12314316201571
 30
0.0
 10
-899.0381584875319
 20
19.36949008419315
 30
0.0
 10
-898.8963088136567
 20
19.8665120348312
 30
0.0
 10
-898.8249892120897
 20
20.11648451871174
 30
0.0
 10
-898.681570805711
 20
20.61932625260603
 30
0.0
 10
-898.6087325494931
 20
20.87479998712026
 30
0.0
 10
-898.5373545233421
 20
21.12521698828498
 30
0.0
  0
SPLINE
  5
333
330
1F
100
AcDbEntity
  8
0
  6
Continuous
 62
     7
370
    15
100
AcDbSpline
210
0.0
220
0.0
230
1.0
 70
     8
 71
     3
 72
    31
 73
    27
 74
     0
 42
0.000000001
 43
0.00000001
 40
0.0
 40
0.0
 40
0.0
 40
0.0
 40
0.1249999999999812
 40
0.1249999999999812
 40
0.1874999999999726
 40
0.1874999999999726
 40
0.2499999999999641
 40
0.2499999999999641
 40
0.3749999999999508
 40
0.3749999999999508
 40
0.4999999999999375
 40
0.4999999999999375
 40
0.6249999999999242
 40
0.6249999999999242
 40
0.6874999999999359
 40
0.6874999999999359
 40
0.7499999999999477
 40
0.8124999999999596
 40
0.8124999999999596
 40
0.8749999999999714
 40
0.8749999999999714
 40
0.9374999999999831
 40
0.9374999999999831
 40
0.9687499999999916
 40
0.9687499999999916
 40
1.0
 40
1.0
 40
1.0
 40
1.0
 10
-936.0209649448715
 20
24.21957269409296
 30
0.0
 10
-936.0209649448715
 20
24.21957269409296
 30
0.0
 10
-936.0031415818185
 20
24.26838432137869
 30
0.0
 10
-935.950740246104
 20
24.41180456422661
 30
0.0
 10
-935.9289630460928
 20
24.47139869058809
 30
0.0
 10
-935.8765802043349
 20
24.6146943838413
 30
0.0
 10
-935.8458295146413
 20
24.69879218257899
 30
0.0
 10
-935.7421899091954
 20
24.98209665730768
 30
0.0
 10
-935.657586657862
 20
25.21321659473924
 30
0.0
 10
-935.4574706981953
 20
25.75911490491925
 30
0.0
 10
-935.3409137321128
 20
26.07672762866401
 30
0.0
 10
-935.085944316359
 20
26.77023526128589
 30
0.0
 10
-934.9466499554915
 20
27.14854552381145
 30
0.0
 10
-934.7193860998015
 20
27.76438928132801
 30
0.0
 10
-934.6406125065485
 20
27.97763402354014
 30
0.0
 10
-934.4803352186067
 20
28.41100378774654
 30
0.0
 10
-934.3164963127675
 20
28.85350864901729
 30
0.0
 10
-934.145581402261
 20
29.31398368401203
 30
0.0
 10
-933.9710520214483
 20
29.78355417705303
 30
0.0
 10
-933.8815805985637
 20
30.02395844581476
 30
0.0
 10
-933.7009548022866
 20
30.50857434459754
 30
0.0
 10
-933.6100086559884
 20
30.75223060459022
 30
0.0
 10
-933.4726326775947
 20
31.1197110278281
 30
0.0
 10
-933.4266809773593
 20
31.24253779908123
 30
0.0
 10
-933.3344540178648
 20
31.48886100929942
 30
0.0
 10
-933.2877471752885
 20
31.61349521209327
 30
0.0
 10
-933.242001314657
 20
31.73549230157587
 30
0.0
  0
SPLINE
  5
336
330
1F
100
AcDbEntity
  8
0
  6
Continuous
 62
     7
370
    15
100
AcDbSpline
210
0.0
220
0.0
230
1.0
 70
     8
 71
     3
 72
    31
 73
    27
 74
     0
 42
0.000000001
 43
0.00000001
 40
0.0
 40
0.0
 40
0.0
 40
0.0
 40
0.1249999999999878
 40
0.1249999999999878
 40
0.1874999999999844
 40
0.1874999999999844
 40
0.2499999999999809
 40
0.2499999999999809
 40
0.3749999999999841
 40
0.3749999999999841
 40
0.4999999999999872
 40
0.4999999999999872
 40
0.6249999999999903
 40
0.6249999999999903
 40
0.687499999999992
 40
0.687499999999992
 40
0.7499999999999936
 40
0.8124999999999951
 40
0.8124999999999951
 40
0.8749999999999967
 40
0.8749999999999967
 40
0.9374999999999983
 40
0.9374999999999983
 40
0.9687499999999991
 40
0.9687499999999991
 40
1.0
 40
1.0
 40
1.0
 40
1.0
 10
-954.7960180233031
 20
50.97846427459115
 30
0.0
 10
-954.796018023303
 20
50.97846427459114
 30
0.0
 10
-954.7441908532475
 20
50.97992655450953
 30
0.0
 10
-954.5918925659023
 20
50.98423941653918
 30
0.0
 10
-954.5286078602646
 20
50.98603319849202
 30
0.0
 10
-954.3764313943218
 20
50.99035596482082
 30
0.0
 10
-954.287110060162
 20
50.99289725153136
 30
0.0
 10
-953.9861607786535
 20
51.00148342213551
 30
0.0
 10
-953.7406140738063
 20
51.00851564621117
 30
0.0
 10
-953.1605167796631
 20
51.02527034685042
 30
0.0
 10
-952.822880643833
 20
51.03508452979283
 30
0.0
 10
-952.0853672073747
 20
51.05675328566813
 30
0.0
 10
-951.6829647089061
 20
51.06867903643338
 30
0.0
 10
-951.027706958384
 20
51.08835047708726
 30
0.0
 10
-950.8006761653106
 20
51.0952058392281
 30
0.0
 10
-950.3392433984773
 20
51.10923246618657
 30
0.0
 10
-949.8680231437611
 20
51.12364725702591
 30
0.0
 10
-949.377527659543
 20
51.13886069206323
 30
0.0
 10
-948.8772656986982
 20
51.15449506501824
 30
0.0
 10
-948.6211359924392
 20
51.16255819594864
 30
0.0
 10
-948.1044782387315
 20
51.17895456760117
 30
0.0
 10
-947.8446552947407
 20
51.18726484909197
 30
0.0
 10
-947.4527017795879
 20
51.1999060355518
 30
0.0
 10
-947.3216800799688
 20
51.20414908731212
 30
0.0
 10
-947.0588911558953
 20
51.21269546915416
 30
0.0
 10
-946.9261617936356
 20
51.21703369347309
 30
0.0
 10
-946.7960180233032
 20
51.22129913197395
 30
0.0
  0
CIRCLE
  5
567
330
1F
100
AcDbEntity
  8
0
  6
Continuous
 62
     7
370
    15
100
AcDbCircle
 10
-887.7960180233
 20
61.7284642746
 30
0.0
 40
28.50249999999994
  0
CIRCLE
  5
580
330
1F
100
AcDbEntity
  8
0
  6
PHANTOM
 62
     8
370
     0
100
AcDbCircle
 10
-26.7960180233
 20
61.7284642746
 30
0.0
 40
27.62549999999992
  0
CIRCLE
  5
5B1
330
1F
100
AcDbEntity
  8
0
  6
PHANTOM
 62
     8
370
     0
100
AcDbCircle
 10
-887.7960180233
 20
61.7284642746
 30
0.0
 40
27.62549999999999
  0
LINE
  5
5B6
330
1F
100
AcDbEntity
  8
0
  6
Continuous
 62
     7
370
    15
100
AcDbLine
 10
-563.2960180233
 20
30.4051711167
 30
0.0
 11
-563.240221362
 21
28.7027278376
 31
0.0
  0
LINE
  5
5B7
330
1F
100
AcDbEntity
  8
0
  6
Continuous
 62
     7
370
    15
100
AcDbLine
 10
-511.3518146846
 20
28.7027278375
 30
0.0
 11
-511.2960180233
 21
30.4051711167
 31
0.0
  0
LINE
  5
5B8
330
1F
100
AcDbEntity
  8
0
  6
Continuous
 62
     7
370
    15
100
AcDbLine
 10
-803.2960180233
 20
24.9801912311
 30
0.0
 11
-803.2798928513
 21
24.0646318825
 31
0.0
  0
LINE
  5
5B9
330
1F
100
AcDbEntity
  8
0
  6
Continuous
 62
     7
370
    15
100
AcDbLine
 10
-751.3121431952
 20
24.0646318834
 30
0.0
 11
-751.2960180233
 21
24.9801912311
 31
0.0
  0
LINE
  5
5BA
330
1F
100
AcDbEntity
  8
0
  6
Continuous
 62
     7
370
    15
100
AcDbLine
 10
-403.2960180233
 20
9.7548212716
 30
0.0
 11
-403.2926907533
 21
9.3388802041
 31
0.0
  0
LINE
  5
5BB
330
1F
100
AcDbEntity
  8
0
  6
Continuous
 62
     7
370
    15
100
AcDbLine
 10
-351.2993452932
 20
9.3388802127
 30
0.0
 11
-351.2960180233
 21
9.7548212716
 31
0.0
  0
LINE
  5
5BC
330
1F
100
AcDbEntity
  8
0
  6
Continuous
 62
     7
370
    15
100
AcDbLine
 10
-163.2960180233
 20
-9.0779113396
 30
0.0
 11
-163.2419972072
 21
-10.7530722831
 31
0.0
  0
LINE
  5
5BD
330
1F
100
AcDbEntity
  8
0
  6
Continuous
 62
     7
370
    15
100
AcDbLine
 10
-111.3500388394
 20
-10.753072283
 30
0.0
 11
-111.2960180233
 21
-9.0779113396
 31
0.0
  0
LINE
  5
5BE
330
1F
100
AcDbEntity
  8
0
  6
Continuous
 62
     7
370
    15
100
AcDbLine
 10
-163.2255709733
 20
101.4347527221
 30
0.0
 11
-163.2960180233
 21
99.5220886604
 31
0.0
  0
LINE
  5
5BF
330
1F
100
AcDbEntity
  8
0
  6
Continuous
 62
     7
370
    15
100
AcDbLine
 10
-111.2960180233
 20
99.5220886604
 30
0.0
 11
-111.3664650733
 21
101.4347527221
 31
0.0
  0
LINE
  5
5C0
330
1F
100
AcDbEntity
  8
0
  6
Continuous
 62
     7
370
    15
100
AcDbLine
 10
-723.2960180233
 20
28.8230933516
 30
0.0
 11
-723.2801519621
 21
27.9149174604
 31
0.0
  0
LINE
  5
5C1
330
1F
100
AcDbEntity
  8
0
  6
Continuous
 62
     7
370
    15
100
AcDbLine
 10
-671.3118840845
 20
27.9149174604
 30
0.0
 11
-671.2960180233
 21
28.8230933516
 31
0.0
  0
LINE
  5
5C2
330
1F
100
AcDbEntity
  8
0
  6
Continuous
 62
     7
370
    15
100
AcDbLine
 10
-96.9626918532
 20
95.0017525609
 30
0.0
 11
-96.9626918532
 21
94.6911697068
 31
0.0
  0
LINE
  5
5C3
330
1F
100
AcDbEntity
  8
0
  6
Continuous
 62
     7
370
    15
100
AcDbLine
 10
-113.0460180233
 20
72.7284642746
 30
0.0
 11
-113.0460180233
 21
71.350734788
 31
0.0
  0
LINE
  5
5C4
330
1F
100
AcDbEntity
  8
0
  6
Continuous
 62
     7
370
    15
100
AcDbLine
 10
-104.5460180233
 20
71.350734788
 30
0.0
 11
-104.5460180233
 21
72.7284642746
 31
0.0
  0
LINE
  5
5C5
330
1F
100
AcDbEntity
  8
0
  6
Continuous
 62
     7
370
    15
100
AcDbLine
 10
-102.9820077868
 20
93.3888817175
 30
0.0
 11
-102.9820077868
 21
93.0782988634
 31
0.0
  0
LINE
  5
5C6
330
1F
100
AcDbEntity
  8
0
  6
Continuous
 62
     7
370
    15
100
AcDbLine
 10
-95.577765573
 20
28.0840861099
 30
0.0
 11
-95.577765573
 21
28.394668964
 31
0.0
  0
LINE
  5
5C7
330
1F
100
AcDbEntity
  8
0
  6
Continuous
 62
     7
370
    15
100
AcDbLine
 10
-102.8923483526
 20
30.3546055128
 30
0.0
 11
-102.8923483526
 21
30.0440226587
 31
0.0
  0
LINE
  5
5C8
330
1F
100
AcDbEntity
  8
0
  6
Continuous
 62
     7
370
    15
100
AcDbLine
 10
-104.5460180233
 20
50.7284642746
 30
0.0
 11
-104.5460180233
 21
51.350734788
 31
0.0
  0
LINE
  5
5C9
330
1F
100
AcDbEntity
  8
0
  6
Continuous
 62
     7
370
    15
100
AcDbLine
 10
-113.0460180233
 20
51.350734788
 30
0.0
 11
-113.0460180233
 21
50.7284642746
 31
0.0
  0
LINE
  5
5CA
330
1F
100
AcDbEntity
  8
0
  6
Continuous
 62
     7
370
    15
100
AcDbLine
 10
-102.9820077868
 20
30.3786296858
 30
0.0
 11
-102.9820077868
 21
30.0680468317
 31
0.0
  0
LINE
  5
5CB
330
1F
100
AcDbEntity
  8
0
  6
Continuous
 62
     7
370
    15
100
AcDbLine
 10
-819.0142704736
 20
95.3728424393
 30
0.0
 11
-819.0142704736
 21
95.0622595852
 31
0.0
  0
LINE
  5
5CC
330
1F
100
AcDbEntity
  8
0
  6
Continuous
 62
     7
370
    15
100
AcDbLine
 10
-811.699687694
 20
93.1023230364
 30
0.0
 11
-811.699687694
 21
93.4129058905
 31
0.0
  0
LINE
  5
5CD
330
1F
100
AcDbEntity
  8
0
  6
Continuous
 62
     7
370
    15
100
AcDbLine
 10
-810.0460180233
 20
72.7284642746
 30
0.0
 11
-810.0460180233
 21
71.350734788
 31
0.0
  0
LINE
  5
5CE
330
1F
100
AcDbEntity
  8
0
  6
Continuous
 62
     7
370
    15
100
AcDbLine
 10
-801.5460180233
 20
71.350734788
 30
0.0
 11
-801.5460180233
 21
72.7284642746
 31
0.0
  0
LINE
  5
5CF
330
1F
100
AcDbEntity
  8
0
  6
Continuous
 62
     7
370
    15
100
AcDbLine
 10
-811.6100282598
 20
93.0782988634
 30
0.0
 11
-811.6100282598
 21
93.3888817175
 31
0.0
  0
LINE
  5
5D0
330
1F
100
AcDbEntity
  8
0
  6
Continuous
 62
     7
370
    15
100
AcDbLine
 10
-817.6293441934
 20
28.4551759883
 30
0.0
 11
-817.6293441934
 21
28.7657588424
 31
0.0
  0
LINE
  5
5D1
330
1F
100
AcDbEntity
  8
0
  6
Continuous
 62
     7
370
    15
100
AcDbLine
 10
-801.5460180233
 20
50.7284642746
 30
0.0
 11
-801.5460180233
 21
51.350734788
 31
0.0
  0
LINE
  5
5D2
330
1F
100
AcDbEntity
  8
0
  6
Continuous
 62
     7
370
    15
100
AcDbLine
 10
-810.0460180233
 20
51.350734788
 30
0.0
 11
-810.0460180233
 21
50.7284642746
 31
0.0
  0
LINE
  5
5D3
330
1F
100
AcDbEntity
  8
0
  6
Continuous
 62
     7
370
    15
100
AcDbLine
 10
-811.6100282598
 20
30.0680468317
 30
0.0
 11
-811.6100282598
 21
30.3786296858
 31
0.0
  0
LINE
  5
5D4
330
1F
100
AcDbEntity
  8
0
  6
Continuous
 62
     7
370
    15
100
AcDbLine
 10
-234.7960180233
 20
75.6662713445
 30
0.0
 11
-234.7960180233
 21
71.350734788
 31
0.0
  0
LINE
  5
5D5
330
1F
100
AcDbEntity
  8
0
  6
Continuous
 62
     7
370
    15
100
AcDbLine
 10
-234.7960180233
 20
51.350734788
 30
0.0
 11
-234.7960180233
 21
4.5895974231
 31
0.0
  0
LINE
  5
5D6
330
1F
100
AcDbEntity
  8
0
  6
Continuous
 62
     7
370
    15
100
AcDbLine
 10
-199.7960180233
 20
4.5895974231
 30
0.0
 11
-199.7960180233
 21
51.350734788
 31
0.0
  0
LINE
  5
5D7
330
1F
100
AcDbEntity
  8
0
  6
Continuous
 62
     7
370
    15
100
AcDbLine
 10
-199.7960180233
 20
71.350734788
 30
0.0
 11
-199.7960180233
 21
75.6662713445
 31
0.0
  0
LINE
  5
5D8
330
1F
100
AcDbEntity
  8
0
  6
Continuous
 62
     7
370
    15
100
AcDbLine
 10
-314.7960180233
 20
93.15097461
 30
0.0
 11
-314.7960180233
 21
71.350734788
 31
0.0
  0
LINE
  5
5D9
330
1F
100
AcDbEntity
  8
0
  6
Continuous
 62
     7
370
    15
100
AcDbLine
 10
-314.7960180233
 20
51.350734788
 30
0.0
 11
-314.7960180233
 21
22.0743006886
 31
0.0
  0
LINE
  5
5DA
330
1F
100
AcDbEntity
  8
0
  6
Continuous
 62
     7
370
    15
100
AcDbLine
 10
-279.7960180233
 20
22.0743006886
 30
0.0
 11
-279.7960180233
 21
51.350734788
 31
0.0
  0
LINE
  5
5DB
330
1F
100
AcDbEntity
  8
0
  6
Continuous
 62
     7
370
    15
100
AcDbLine
 10
-279.7960180233
 20
71.350734788
 30
0.0
 11
-279.7960180233
 21
93.15097461
 31
0.0
  0
LINE
  5
5DC
330
1F
100
AcDbEntity
  8
0
  6
Continuous
 62
     7
370
    15
100
AcDbLine
 10
-563.2960180233
 20
139.0051711167
 30
0.0
 11
-563.240221362
 21
137.3027278367
 31
0.0
  0
LINE
  5
5DD
330
1F
100
AcDbEntity
  8
0
  6
Continuous
 62
     7
370
    15
100
AcDbLine
 10
-511.3518146846
 20
137.3027278368
 30
0.0
 11
-511.2960180233
 21
139.0051711167
 31
0.0
  0
LINE
  5
5DE
330
1F
100
AcDbEntity
  8
0
  6
Continuous
 62
     7
370
    15
100
AcDbLine
 10
-803.2960180233
 20
133.5801912311
 30
0.0
 11
-803.2798928518
 21
132.6646318954
 31
0.0
  0
LINE
  5
5DF
330
1F
100
AcDbEntity
  8
0
  6
Continuous
 62
     7
370
    15
100
AcDbLine
 10
-751.3121431948
 20
132.6646318946
 30
0.0
 11
-751.2960180233
 21
133.5801912311
 31
0.0
  0
LINE
  5
5E0
330
1F
100
AcDbEntity
  8
0
  6
Continuous
 62
     7
370
    15
100
AcDbLine
 10
-403.2960180233
 20
118.3548212716
 30
0.0
 11
-403.2926907539
 21
117.9388802434
 31
0.0
  0
LINE
  5
5E1
330
1F
100
AcDbEntity
  8
0
  6
Continuous
 62
     7
370
    15
100
AcDbLine
 10
-351.2993452927
 20
117.9388802425
 30
0.0
 11
-351.2960180233
 21
118.3548212716
 31
0.0
  0
LINE
  5
5E2
330
1F
100
AcDbEntity
  8
0
  6
Continuous
 62
     7
370
    15
100
AcDbLine
 10
-163.2255709733
 20
-7.1652472779
 30
0.0
 11
-163.2960180233
 21
-9.0779113396
 31
0.0
  0
LINE
  5
5E3
330
1F
100
AcDbEntity
  8
0
  6
Continuous
 62
     7
370
    15
100
AcDbLine
 10
-111.2960180233
 20
-9.0779113396
 30
0.0
 11
-111.3664650733
 21
-7.1652472779
 31
0.0
  0
LINE
  5
5E4
330
1F
100
AcDbEntity
  8
0
  6
Continuous
 62
     7
370
    15
100
AcDbLine
 10
-163.2960180233
 20
99.5220886604
 30
0.0
 11
-163.2419972073
 21
97.846927717
 31
0.0
  0
LINE
  5
5E5
330
1F
100
AcDbEntity
  8
0
  6
Continuous
 62
     7
370
    15
100
AcDbLine
 10
-111.3500388394
 20
97.846927717
 30
0.0
 11
-111.2960180233
 21
99.5220886604
 31
0.0
  0
LINE
  5
5E6
330
1F
100
AcDbEntity
  8
0
  6
Continuous
 62
     7
370
    15
100
AcDbLine
 10
-798.7219566447
 20
51.350734788
 30
0.0
 11
-799.1366651383
 21
50.7284642746
 31
0.0
  0
LINE
  5
5E7
330
1F
100
AcDbEntity
  8
0
  6
Continuous
 62
     7
370
    15
100
AcDbLine
 10
-723.2960180233
 20
137.4230933516
 30
0.0
 11
-723.2801519621
 21
136.5149174604
 31
0.0
  0
LINE
  5
5E8
330
1F
100
AcDbEntity
  8
0
  6
Continuous
 62
     7
370
    15
100
AcDbLine
 10
-671.3118840845
 20
136.5149174604
 30
0.0
 11
-671.2960180233
 21
137.4230933516
 31
0.0
  0
LINE
  5
5E9
330
1F
100
AcDbEntity
  8
0
  6
Continuous
 62
     7
370
    15
100
AcDbLine
 10
-323.2960180233
 20
3.5933038462
 30
0.0
 11
-323.2945031039
 21
3.3126376493
 31
0.0
  0
LINE
  5
5EA
330
1F
100
AcDbEntity
  8
0
  6
Continuous
 62
     7
370
    15
100
AcDbLine
 10
-271.2975329427
 20
3.3126376493
 30
0.0
 11
-271.2960180233
 21
3.5933038462
 31
0.0
  0
LINE
  5
5EB
330
1F
100
AcDbEntity
  8
0
  6
Continuous
 62
     7
370
    15
100
AcDbLine
 10
-323.2230562419
 20
114.1397593966
 30
0.0
 11
-323.2960180233
 21
112.1933038462
 31
0.0
  0
LINE
  5
5EC
330
1F
100
AcDbEntity
  8
0
  6
Continuous
 62
     7
370
    15
100
AcDbLine
 10
-271.2960180233
 20
112.1933038462
 30
0.0
 11
-271.3689798047
 21
114.1397593966
 31
0.0
  0
LINE
  5
5ED
330
1F
100
AcDbEntity
  8
0
  6
Continuous
 62
     7
370
    15
100
AcDbLine
 10
-483.2588216924
 20
135.6073515647
 30
0.0
 11
-483.2960180233
 21
134.2170905674
 31
0.0
  0
LINE
  5
5EE
330
1F
100
AcDbEntity
  8
0
  6
Continuous
 62
     7
370
    15
100
AcDbLine
 10
-431.2960180233
 20
134.2170905674
 30
0.0
 11
-431.3332143542
 21
135.6073515645
 31
0.0
  0
LINE
  5
5EF
330
1F
100
AcDbEntity
  8
0
  6
Continuous
 62
     7
370
    15
100
AcDbLine
 10
-403.2912597016
 20
117.0255358609
 30
0.0
 11
-403.2960180233
 21
116.5281325143
 31
0.0
  0
LINE
  5
5F0
330
1F
100
AcDbEntity
  8
0
  6
Continuous
 62
     7
370
    15
100
AcDbLine
 10
-351.2960180233
 20
116.5281325143
 30
0.0
 11
-351.3007763451
 21
117.0255358609
 31
0.0
  0
LINE
  5
5F1
330
1F
100
AcDbEntity
  8
0
  6
Continuous
 62
     7
370
    15
100
AcDbLine
 10
-323.2960180233
 20
7.4862149468
 30
0.0
 11
-323.2121387426
 21
5.3994262982
 31
0.0
  0
LINE
  5
5F2
330
1F
100
AcDbEntity
  8
0
  6
Continuous
 62
     7
370
    15
100
AcDbLine
 10
-271.379897304
 20
5.3994262982
 30
0.0
 11
-271.2960180233
 21
7.4862149468
 31
0.0
  0
LINE
  5
5F3
330
1F
100
AcDbEntity
  8
0
  6
Continuous
 62
     7
370
    15
100
AcDbLine
 10
-643.2857465341
 20
136.9790709252
 30
0.0
 11
-643.2960180233
 21
136.248309723
 31
0.0
  0
LINE
  5
5F4
330
1F
100
AcDbEntity
  8
0
  6
Continuous
 62
     7
370
    15
100
AcDbLine
 10
-591.2960180233
 20
136.248309723
 30
0.0
 11
-591.3062895124
 21
136.9790709216
 31
0.0
  0
LINE
  5
5F5
330
1F
100
AcDbEntity
  8
0
  6
Continuous
 62
     7
370
    15
100
AcDbLine
 10
-323.2960180233
 20
9.0059751224
 30
0.0
 11
-323.2849114635
 21
8.2460950288
 31
0.0
  0
LINE
  5
5F6
330
1F
100
AcDbEntity
  8
0
  6
Continuous
 62
     7
370
    15
100
AcDbLine
 10
-271.3071245831
 20
8.2460950305
 30
0.0
 11
-271.2960180233
 21
9.0059751224
 31
0.0
  0
LINE
  5
5F7
330
1F
100
AcDbEntity
  8
0
  6
Continuous
 62
     7
370
    15
100
AcDbLine
 10
-723.2960180233
 20
27.9149174604
 30
0.0
 11
-723.290673324
 21
27.3877592304
 31
0.0
  0
LINE
  5
5F8
330
1F
100
AcDbEntity
  8
0
  6
Continuous
 62
     7
370
    15
100
AcDbLine
 10
-671.3013627223
 20
27.387759245
 30
0.0
 11
-671.2960180233
 21
27.9149174604
 31
0.0
  0
LINE
  5
5F9
330
1F
100
AcDbEntity
  8
0
  6
Continuous
 62
     7
370
    15
100
AcDbLine
 10
-723.2920524171
 20
136.9690053318
 30
0.0
 11
-723.2960180233
 21
136.5149174604
 31
0.0
  0
LINE
  5
5FA
330
1F
100
AcDbEntity
  8
0
  6
Continuous
 62
     7
370
    15
100
AcDbLine
 10
-671.2960180233
 20
136.5149174604
 30
0.0
 11
-671.2999836297
 21
136.9690053421
 31
0.0
  0
LINE
  5
5FB
330
1F
100
AcDbEntity
  8
0
  6
Continuous
 62
     7
370
    15
100
AcDbLine
 10
-643.2960180233
 20
4.8056904075
 30
0.0
 11
-643.2195375639
 21
2.812919816
 31
0.0
  0
LINE
  5
5FC
330
1F
100
AcDbEntity
  8
0
  6
Continuous
 62
     7
370
    15
100
AcDbLine
 10
-591.3724984827
 20
2.8129198161
 30
0.0
 11
-591.2960180233
 21
4.8056904075
 31
0.0
  0
LINE
  5
5FD
330
1F
100
AcDbEntity
  8
0
  6
Continuous
 62
     7
370
    15
100
AcDbLine
 10
-483.2522225492
 20
122.3628108638
 30
0.0
 11
-483.2960180233
 21
120.8543525086
 31
0.0
  0
LINE
  5
5FE
330
1F
100
AcDbEntity
  8
0
  6
Continuous
 62
     7
370
    15
100
AcDbLine
 10
-431.2960180233
 20
120.8543525086
 30
0.0
 11
-431.3398134974
 21
122.3628108639
 31
0.0
  0
LINE
  5
5FF
330
1F
100
AcDbEntity
  8
0
  6
Continuous
 62
     7
370
    15
100
AcDbLine
 10
-483.2913952435
 20
120.3640840596
 30
0.0
 11
-483.2960180233
 21
119.8738155832
 31
0.0
  0
LINE
  5
600
330
1F
100
AcDbEntity
  8
0
  6
Continuous
 62
     7
370
    15
100
AcDbLine
 10
-431.2960180233
 20
119.8738155832
 30
0.0
 11
-431.300640803
 21
120.3640840568
 31
0.0
  0
LINE
  5
601
330
1F
100
AcDbEntity
  8
0
  6
Continuous
 62
     7
370
    15
100
AcDbLine
 10
-563.2960180233
 20
1.4681362052
 30
0.0
 11
-563.2932194723
 21
1.0866695374
 31
0.0
  0
LINE
  5
602
330
1F
100
AcDbEntity
  8
0
  6
Continuous
 62
     7
370
    15
100
AcDbLine
 10
-511.2988165745
 20
1.0866695245
 30
0.0
 11
-511.2960180233
 21
1.4681362052
 31
0.0
  0
LINE
  5
603
330
1F
100
AcDbEntity
  8
0
  6
Continuous
 62
     7
370
    15
100
AcDbLine
 10
-243.2960180233
 20
3.9635850557
 30
0.0
 11
-243.2576537661
 21
2.5516822418
 31
0.0
  0
LINE
  5
604
330
1F
100
AcDbEntity
  8
0
  6
Continuous
 62
     7
370
    15
100
AcDbLine
 10
-191.3343822805
 20
2.5516822418
 30
0.0
 11
-191.2960180233
 21
3.9635850557
 31
0.0
  0
LINE
  5
605
330
1F
100
AcDbEntity
  8
0
  6
Continuous
 62
     7
370
    15
100
AcDbLine
 10
-323.2960180233
 20
112.1933038462
 30
0.0
 11
-323.2945031039
 21
111.9126376493
 31
0.0
  0
LINE
  5
606
330
1F
100
AcDbEntity
  8
0
  6
Continuous
 62
     7
370
    15
100
AcDbLine
 10
-271.2975329427
 20
111.9126376493
 30
0.0
 11
-271.2960180233
 21
112.1933038462
 31
0.0
  0
LINE
  5
607
330
1F
100
AcDbEntity
  8
0
  6
Continuous
 62
     7
370
    15
100
AcDbLine
 10
-323.2960180233
 20
116.0862149468
 30
0.0
 11
-323.2121387426
 21
113.9994262982
 31
0.0
  0
LINE
  5
608
330
1F
100
AcDbEntity
  8
0
  6
Continuous
 62
     7
370
    15
100
AcDbLine
 10
-271.379897304
 20
113.9994262981
 30
0.0
 11
-271.2960180233
 21
116.0862149468
 31
0.0
  0
LINE
  5
609
330
1F
100
AcDbEntity
  8
0
  6
Continuous
 62
     7
370
    15
100
AcDbLine
 10
-323.2960180233
 20
117.6059751224
 30
0.0
 11
-323.2849114637
 21
116.8460950365
 31
0.0
  0
LINE
  5
60A
330
1F
100
AcDbEntity
  8
0
  6
Continuous
 62
     7
370
    15
100
AcDbLine
 10
-271.3071245829
 20
116.8460950359
 30
0.0
 11
-271.2960180233
 21
117.6059751224
 31
0.0
  0
LINE
  5
60B
330
1F
100
AcDbEntity
  8
0
  6
Continuous
 62
     7
370
    15
100
AcDbLine
 10
-723.2960180233
 20
136.5149174604
 30
0.0
 11
-723.2906733246
 21
135.9877592592
 31
0.0
  0
LINE
  5
60C
330
1F
100
AcDbEntity
  8
0
  6
Continuous
 62
     7
370
    15
100
AcDbLine
 10
-671.3013627218
 20
135.9877592699
 30
0.0
 11
-671.2960180233
 21
136.5149174604
 31
0.0
  0
LINE
  5
60D
330
1F
100
AcDbEntity
  8
0
  6
Continuous
 62
     7
370
    15
100
AcDbLine
 10
-643.2960180233
 20
113.4056904075
 30
0.0
 11
-643.2195375639
 21
111.4129198167
 31
0.0
  0
LINE
  5
60E
330
1F
100
AcDbEntity
  8
0
  6
Continuous
 62
     7
370
    15
100
AcDbLine
 10
-591.3724984827
 20
111.4129198167
 30
0.0
 11
-591.2960180233
 21
113.4056904075
 31
0.0
  0
LINE
  5
60F
330
1F
100
AcDbEntity
  8
0
  6
Continuous
 62
     7
370
    15
100
AcDbLine
 10
-563.2960180233
 20
110.0681362052
 30
0.0
 11
-563.2932194712
 21
109.686669457
 31
0.0
  0
LINE
  5
610
330
1F
100
AcDbEntity
  8
0
  6
Continuous
 62
     7
370
    15
100
AcDbLine
 10
-511.2988165754
 20
109.6866694582
 30
0.0
 11
-511.2960180233
 21
110.0681362052
 31
0.0
  0
LINE
  5
611
330
1F
100
AcDbEntity
  8
0
  6
Continuous
 62
     7
370
    15
100
AcDbLine
 10
-243.2960180233
 20
112.5635850557
 30
0.0
 11
-243.2576537662
 21
111.1516822419
 31
0.0
  0
LINE
  5
612
330
1F
100
AcDbEntity
  8
0
  6
Continuous
 62
     7
370
    15
100
AcDbLine
 10
-191.3343822805
 20
111.1516822419
 30
0.0
 11
-191.2960180233
 21
112.5635850557
 31
0.0
  0
LINE
  5
613
330
1F
100
AcDbEntity
  8
0
  6
Continuous
 62
     7
370
    15
100
AcDbLine
 10
-73.7960180233
 20
72.7284642746
 30
0.0
 11
-73.7960180233
 21
71.350734788
 31
0.0
  0
LINE
  5
614
330
1F
100
AcDbEntity
  8
0
  6
Continuous
 62
     7
370
    15
100
AcDbLine
 10
-73.7960180233
 20
51.350734788
 30
0.0
 11
-73.7960180233
 21
50.7284642746
 31
0.0
  0
LINE
  5
615
330
1F
100
AcDbEntity
  8
0
  6
Continuous
 62
     7
370
    15
100
AcDbLine
 10
-65.7960180233
 20
50.7284642746
 30
0.0
 11
-65.7960180233
 21
51.350734788
 31
0.0
  0
LINE
  5
616
330
1F
100
AcDbEntity
  8
0
  6
Continuous
 62
     7
370
    15
100
AcDbLine
 10
-65.7960180233
 20
71.350734788
 30
0.0
 11
-65.7960180233
 21
72.7284642746
 31
0.0
  0
LINE
  5
617
330
1F
100
AcDbEntity
  8
0
  6
Continuous
 62
     7
370
    15
100
AcDbLine
 10
8.7039819767
 20
62.4784642746
 30
0.0
 11
8.7039819767
 21
60.9784642746
 31
0.0
  0
LINE
  5
618
330
1F
100
AcDbEntity
  8
0
  6
Continuous
 62
     7
370
    15
100
AcDbLine
 10
16.7039819767
 20
60.9784642746
 30
0.0
 11
16.7039819767
 21
62.4784642746
 31
0.0
  0
LINE
  5
619
330
1F
100
AcDbEntity
  8
0
  6
Continuous
 62
     7
370
    15
100
AcDbLine
 10
-848.7960180233
 20
72.7284642746
 30
0.0
 11
-848.7960180233
 21
71.350734788
 31
0.0
  0
LINE
  5
61A
330
1F
100
AcDbEntity
  8
0
  6
Continuous
 62
     7
370
    15
100
AcDbLine
 10
-848.7960180233
 20
51.350734788
 30
0.0
 11
-848.7960180233
 21
50.7284642746
 31
0.0
  0
LINE
  5
61B
330
1F
100
AcDbEntity
  8
0
  6
Continuous
 62
     7
370
    15
100
AcDbLine
 10
-840.7960180233
 20
50.7284642746
 30
0.0
 11
-840.7960180233
 21
51.350734788
 31
0.0
  0
LINE
  5
61C
330
1F
100
AcDbEntity
  8
0
  6
Continuous
 62
     7
370
    15
100
AcDbLine
 10
-840.7960180233
 20
71.350734788
 30
0.0
 11
-840.7960180233
 21
72.7284642746
 31
0.0
  0
LINE
  5
61D
330
1F
100
AcDbEntity
  8
0
  6
Continuous
 62
     7
370
    15
100
AcDbLine
 10
-931.2960180233
 20
62.4784642746
 30
0.0
 11
-931.2960180233
 21
60.9784642746
 31
0.0
  0
LINE
  5
61E
330
1F
100
AcDbEntity
  8
0
  6
Continuous
 62
     7
370
    15
100
AcDbLine
 10
-923.2960180233
 20
60.9784642746
 30
0.0
 11
-923.2960180233
 21
62.4784642746
 31
0.0
  0
LINE
  5
61F
330
1F
100
AcDbEntity
  8
0
  6
Continuous
 62
     7
370
    15
100
AcDbLine
 10
-323.223056242
 20
5.5397593963
 30
0.0
 11
-323.2960180233
 21
3.5933038462
 31
0.0
  0
LINE
  5
620
330
1F
100
AcDbEntity
  8
0
  6
Continuous
 62
     7
370
    15
100
AcDbLine
 10
-271.2960180233
 20
3.5933038462
 30
0.0
 11
-271.3689798047
 21
5.5397593964
 31
0.0
  0
LINE
  5
621
330
1F
100
AcDbEntity
  8
0
  6
Continuous
 62
     7
370
    15
100
AcDbLine
 10
-794.7960180233
 20
112.9874095084
 30
0.0
 11
-794.7960180233
 21
86.0394166489
 31
0.0
  0
LINE
  5
622
330
1F
100
AcDbEntity
  8
0
  6
Continuous
 62
     7
370
    15
100
AcDbLine
 10
-794.7960180233
 20
72.7284642746
 30
0.0
 11
-794.7960180233
 21
71.350734788
 31
0.0
  0
LINE
  5
623
330
1F
100
AcDbEntity
  8
0
  6
Continuous
 62
     7
370
    15
100
AcDbLine
 10
-794.7960180233
 20
51.350734788
 30
0.0
 11
-794.7960180233
 21
50.7284642746
 31
0.0
  0
LINE
  5
624
330
1F
100
AcDbEntity
  8
0
  6
Continuous
 62
     7
370
    15
100
AcDbLine
 10
-759.7960180233
 20
41.910735587
 30
0.0
 11
-759.7960180233
 21
51.350734788
 31
0.0
  0
LINE
  5
625
330
1F
100
AcDbEntity
  8
0
  6
Continuous
 62
     7
370
    15
100
AcDbLine
 10
-759.7960180233
 20
71.350734788
 30
0.0
 11
-759.7960180233
 21
112.9874095084
 31
0.0
  0
LINE
  5
626
330
1F
100
AcDbEntity
  8
0
  6
Continuous
 62
     7
370
    15
100
AcDbLine
 10
-634.7960180233
 20
90.6584861867
 30
0.0
 11
-634.7960180233
 21
71.350734788
 31
0.0
  0
LINE
  5
627
330
1F
100
AcDbEntity
  8
0
  6
Continuous
 62
     7
370
    15
100
AcDbLine
 10
-634.7960180233
 20
51.350734788
 30
0.0
 11
-634.7960180233
 21
19.5818122653
 31
0.0
  0
LINE
  5
628
330
1F
100
AcDbEntity
  8
0
  6
Continuous
 62
     7
370
    15
100
AcDbLine
 10
-599.7960180233
 20
19.5818122653
 30
0.0
 11
-599.7960180233
 21
51.350734788
 31
0.0
  0
LINE
  5
629
330
1F
100
AcDbEntity
  8
0
  6
Continuous
 62
     7
370
    15
100
AcDbLine
 10
-599.7960180233
 20
71.350734788
 30
0.0
 11
-599.7960180233
 21
90.6584861867
 31
0.0
  0
LINE
  5
62A
330
1F
100
AcDbEntity
  8
0
  6
Continuous
 62
     7
370
    15
100
AcDbLine
 10
-554.7960180233
 20
90.5435396835
 30
0.0
 11
-554.7960180233
 21
71.350734788
 31
0.0
  0
LINE
  5
62B
330
1F
100
AcDbEntity
  8
0
  6
Continuous
 62
     7
370
    15
100
AcDbLine
 10
-554.7960180233
 20
51.350734788
 30
0.0
 11
-554.7960180233
 21
19.4668657621
 31
0.0
  0
LINE
  5
62C
330
1F
100
AcDbEntity
  8
0
  6
Continuous
 62
     7
370
    15
100
AcDbLine
 10
-519.7960180233
 20
19.4668657621
 30
0.0
 11
-519.7960180233
 21
51.350734788
 31
0.0
  0
LINE
  5
62D
330
1F
100
AcDbEntity
  8
0
  6
Continuous
 62
     7
370
    15
100
AcDbLine
 10
-519.7960180233
 20
71.350734788
 30
0.0
 11
-519.7960180233
 21
90.5435396835
 31
0.0
  0
LINE
  5
62E
330
1F
100
AcDbEntity
  8
0
  6
Continuous
 62
     7
370
    15
100
AcDbLine
 10
-483.2588216924
 20
27.0073515641
 30
0.0
 11
-483.2960180233
 21
25.6170905674
 31
0.0
  0
LINE
  5
62F
330
1F
100
AcDbEntity
  8
0
  6
Continuous
 62
     7
370
    15
100
AcDbLine
 10
-431.2960180233
 20
25.6170905674
 30
0.0
 11
-431.3332143542
 21
27.0073515641
 31
0.0
  0
LINE
  5
630
330
1F
100
AcDbEntity
  8
0
  6
Continuous
 62
     7
370
    15
100
AcDbLine
 10
-803.212079091
 20
32.6288533836
 30
0.0
 11
-803.2960180233
 21
30.5413240461
 31
0.0
  0
LINE
  5
631
330
1F
100
AcDbEntity
  8
0
  6
Continuous
 62
     7
370
    15
100
AcDbLine
 10
-474.7960180233
 20
105.1096061805
 30
0.0
 11
-474.7960180233
 21
71.350734788
 31
0.0
  0
LINE
  5
632
330
1F
100
AcDbEntity
  8
0
  6
Continuous
 62
     7
370
    15
100
AcDbLine
 10
-474.7960180233
 20
51.350734788
 30
0.0
 11
-474.7960180233
 21
34.032932259
 31
0.0
  0
LINE
  5
633
330
1F
100
AcDbEntity
  8
0
  6
Continuous
 62
     7
370
    15
100
AcDbLine
 10
-439.7960180233
 20
34.032932259
 30
0.0
 11
-439.7960180233
 21
51.350734788
 31
0.0
  0
LINE
  5
634
330
1F
100
AcDbEntity
  8
0
  6
Continuous
 62
     7
370
    15
100
AcDbLine
 10
-439.7960180233
 20
71.350734788
 30
0.0
 11
-439.7960180233
 21
105.1096061805
 31
0.0
  0
LINE
  5
635
330
1F
100
AcDbEntity
  8
0
  6
Continuous
 62
     7
370
    15
100
AcDbLine
 10
-403.2912597015
 20
8.4255358619
 30
0.0
 11
-403.2960180233
 21
7.9281325143
 31
0.0
  0
LINE
  5
636
330
1F
100
AcDbEntity
  8
0
  6
Continuous
 62
     7
370
    15
100
AcDbLine
 10
-351.2960180233
 20
7.9281325143
 30
0.0
 11
-351.3007763451
 21
8.4255358617
 31
0.0
  0
LINE
  5
637
330
1F
100
AcDbEntity
  8
0
  6
Continuous
 62
     7
370
    15
100
AcDbLine
 10
-394.7960180233
 20
86.7761042995
 30
0.0
 11
-394.7960180233
 21
71.350734788
 31
0.0
  0
LINE
  5
638
330
1F
100
AcDbEntity
  8
0
  6
Continuous
 62
     7
370
    15
100
AcDbLine
 10
-394.7960180233
 20
51.350734788
 30
0.0
 11
-394.7960180233
 21
15.6994303781
 31
0.0
  0
LINE
  5
639
330
1F
100
AcDbEntity
  8
0
  6
Continuous
 62
     7
370
    15
100
AcDbLine
 10
-359.7960180233
 20
15.6994303781
 30
0.0
 11
-359.7960180233
 21
51.350734788
 31
0.0
  0
LINE
  5
63A
330
1F
100
AcDbEntity
  8
0
  6
Continuous
 62
     7
370
    15
100
AcDbLine
 10
-359.7960180233
 20
71.350734788
 30
0.0
 11
-359.7960180233
 21
86.7761042995
 31
0.0
  0
LINE
  5
63B
330
1F
100
AcDbEntity
  8
0
  6
Continuous
 62
     7
370
    15
100
AcDbLine
 10
-643.2857465355
 20
28.3790708742
 30
0.0
 11
-643.2960180233
 21
27.648309723
 31
0.0
  0
LINE
  5
63C
330
1F
100
AcDbEntity
  8
0
  6
Continuous
 62
     7
370
    15
100
AcDbLine
 10
-591.2960180233
 20
27.648309723
 30
0.0
 11
-591.3062895112
 21
28.3790708786
 31
0.0
  0
LINE
  5
63D
330
1F
100
AcDbEntity
  8
0
  6
Continuous
 62
     7
370
    15
100
AcDbLine
 10
-154.7960180233
 20
84.5857537446
 30
0.0
 11
-154.7960180233
 21
71.350734788
 31
0.0
  0
LINE
  5
63E
330
1F
100
AcDbEntity
  8
0
  6
Continuous
 62
     7
370
    15
100
AcDbLine
 10
-154.7960180233
 20
51.350734788
 30
0.0
 11
-154.7960180233
 21
13.5090798232
 31
0.0
  0
LINE
  5
63F
330
1F
100
AcDbEntity
  8
0
  6
Continuous
 62
     7
370
    15
100
AcDbLine
 10
-119.7960180233
 20
13.5090798232
 30
0.0
 11
-119.7960180233
 21
37.4175119002
 31
0.0
  0
LINE
  5
640
330
1F
100
AcDbEntity
  8
0
  6
Continuous
 62
     7
370
    15
100
AcDbLine
 10
-119.7960180233
 20
50.7284642746
 30
0.0
 11
-119.7960180233
 21
51.350734788
 31
0.0
  0
LINE
  5
641
330
1F
100
AcDbEntity
  8
0
  6
Continuous
 62
     7
370
    15
100
AcDbLine
 10
-119.7960180233
 20
71.350734788
 30
0.0
 11
-119.7960180233
 21
72.7284642746
 31
0.0
  0
LINE
  5
642
330
1F
100
AcDbEntity
  8
0
  6
Continuous
 62
     7
370
    15
100
AcDbLine
 10
-723.2920524156
 20
28.3690054191
 30
0.0
 11
-723.2960180233
 21
27.9149174604
 31
0.0
  0
LINE
  5
643
330
1F
100
AcDbEntity
  8
0
  6
Continuous
 62
     7
370
    15
100
AcDbLine
 10
-671.2960180233
 20
27.9149174604
 30
0.0
 11
-671.299983631
 21
28.3690054173
 31
0.0
  0
LINE
  5
644
330
1F
100
AcDbEntity
  8
0
  6
Continuous
 62
     7
370
    15
100
AcDbLine
 10
-483.2522225492
 20
13.7628108644
 30
0.0
 11
-483.2960180233
 21
12.2543525086
 31
0.0
  0
LINE
  5
645
330
1F
100
AcDbEntity
  8
0
  6
Continuous
 62
     7
370
    15
100
AcDbLine
 10
-431.2960180233
 20
12.2543525086
 30
0.0
 11
-431.3398134974
 21
13.7628108644
 31
0.0
  0
LINE
  5
646
330
1F
100
AcDbEntity
  8
0
  6
Continuous
 62
     7
370
    15
100
AcDbLine
 10
-483.2913952442
 20
11.7640840207
 30
0.0
 11
-483.2960180233
 21
11.2738155832
 31
0.0
  0
LINE
  5
647
330
1F
100
AcDbEntity
  8
0
  6
Continuous
 62
     7
370
    15
100
AcDbLine
 10
-431.2960180233
 20
11.2738155832
 30
0.0
 11
-431.3006408025
 21
11.7640840259
 31
0.0
  0
LINE
  5
648
330
1F
100
AcDbEntity
  8
0
  6
Continuous
 62
     7
370
    15
100
AcDbLine
 10
-714.7960180233
 20
96.563822421
 30
0.0
 11
-714.7960180233
 21
71.350734788
 31
0.0
  0
LINE
  5
649
330
1F
100
AcDbEntity
  8
0
  6
Continuous
 62
     7
370
    15
100
AcDbLine
 10
-714.7960180233
 20
51.350734788
 30
0.0
 11
-714.7960180233
 21
25.4871484996
 31
0.0
  0
LINE
  5
64A
330
1F
100
AcDbEntity
  8
0
  6
Continuous
 62
     7
370
    15
100
AcDbLine
 10
-679.7960180233
 20
25.4871484996
 30
0.0
 11
-679.7960180233
 21
51.350734788
 31
0.0
  0
LINE
  5
64B
330
1F
100
AcDbEntity
  8
0
  6
Continuous
 62
     7
370
    15
100
AcDbLine
 10
-679.7960180233
 20
71.350734788
 30
0.0
 11
-679.7960180233
 21
96.563822421
 31
0.0
  0
LINE
  5
64C
330
1F
100
AcDbEntity
  8
0
  6
Continuous
 62
     7
370
    15
100
AcDbLine
 10
-511.5199293456
 20
30.4051711167
 30
0.0
 11
-511.2960180233
 21
30.4051711167
 31
0.0
  0
LINE
  5
64D
330
1F
100
AcDbEntity
  8
0
  6
Continuous
 62
     7
370
    15
100
AcDbLine
 10
-563.2960180233
 20
30.4051711167
 30
0.0
 11
-563.072106701
 21
30.4051711167
 31
0.0
  0
LINE
  5
64E
330
1F
100
AcDbEntity
  8
0
  6
Continuous
 62
     7
370
    15
100
AcDbLine
 10
-563.072106701
 20
139.0051711167
 30
0.0
 11
-563.2960180233
 21
139.0051711167
 31
0.0
  0
LINE
  5
64F
330
1F
100
AcDbEntity
  8
0
  6
Continuous
 62
     7
370
    15
100
AcDbLine
 10
-511.2960180233
 20
139.0051711167
 30
0.0
 11
-511.5199293456
 21
139.0051711167
 31
0.0
  0
LINE
  5
650
330
1F
100
AcDbEntity
  8
0
  6
Continuous
 62
     7
370
    15
100
AcDbLine
 10
-555.2960180233
 20
157.766834156
 30
0.0
 11
-550.884398313
 21
157.766834156
 31
0.0
  0
LINE
  5
651
330
1F
100
AcDbEntity
  8
0
  6
Continuous
 62
     7
370
    15
100
AcDbLine
 10
-523.7076377336
 20
157.766834156
 30
0.0
 11
-519.2960180233
 21
157.766834156
 31
0.0
  0
LINE
  5
652
330
1F
100
AcDbEntity
  8
0
  6
Continuous
 62
     7
370
    15
100
AcDbLine
 10
-592.4760699678
 20
18.1725344816
 30
0.0
 11
-591.2960180233
 21
18.1725344816
 31
0.0
  0
LINE
  5
653
330
1F
100
AcDbEntity
  8
0
  6
Continuous
 62
     7
370
    15
100
AcDbLine
 10
-643.2960180233
 20
18.1725344816
 30
0.0
 11
-642.1159660788
 21
18.1725344816
 31
0.0
  0
LINE
  5
654
330
1F
100
AcDbEntity
  8
0
  6
Continuous
 62
     7
370
    15
100
AcDbLine
 10
-642.1159660788
 20
126.7725344816
 30
0.0
 11
-643.2960180233
 21
126.7725344816
 31
0.0
  0
LINE
  5
655
330
1F
100
AcDbEntity
  8
0
  6
Continuous
 62
     7
370
    15
100
AcDbLine
 10
-592.4760699678
 20
126.7725344816
 30
0.0
 11
-591.2960180233
 21
126.7725344816
 31
0.0
  0
LINE
  5
656
330
1F
100
AcDbEntity
  8
0
  6
Continuous
 62
     7
370
    15
100
AcDbLine
 10
-431.2960180233
 20
4.2210782217
 30
0.0
 11
-432.2708527749
 21
4.2210782217
 31
0.0
  0
LINE
  5
657
330
1F
100
AcDbEntity
  8
0
  6
Continuous
 62
     7
370
    15
100
AcDbLine
 10
-483.2960180233
 20
4.2210782217
 30
0.0
 11
-482.3211832717
 21
4.2210782217
 31
0.0
  0
LINE
  5
658
330
1F
100
AcDbEntity
  8
0
  6
Continuous
 62
     7
370
    15
100
AcDbLine
 10
-439.2960180233
 20
-14.5405848176
 30
0.0
 11
-454.1949324153
 21
-14.5405848176
 31
0.0
  0
LINE
  5
659
330
1F
100
AcDbEntity
  8
0
  6
Continuous
 62
     7
370
    15
100
AcDbLine
 10
-460.3971036313
 20
-14.5405848176
 30
0.0
 11
-475.2960180233
 21
-14.5405848176
 31
0.0
  0
LINE
  5
65A
330
1F
100
AcDbEntity
  8
0
  6
Continuous
 62
     7
370
    15
100
AcDbLine
 10
-431.2960180233
 20
112.8210782217
 30
0.0
 11
-432.2708527749
 21
112.8210782217
 31
0.0
  0
LINE
  5
65B
330
1F
100
AcDbEntity
  8
0
  6
Continuous
 62
     7
370
    15
100
AcDbLine
 10
-483.2960180233
 20
112.8210782217
 30
0.0
 11
-482.3211832717
 21
112.8210782217
 31
0.0
  0
LINE
  5
65C
330
1F
100
AcDbEntity
  8
0
  6
Continuous
 62
     7
370
    15
100
AcDbLine
 10
-751.3605788644
 20
24.9801912311
 30
0.0
 11
-751.2960180233
 21
24.9801912311
 31
0.0
  0
LINE
  5
65D
330
1F
100
AcDbEntity
  8
0
  6
Continuous
 62
     7
370
    15
100
AcDbLine
 10
-803.2960180233
 20
24.9801912311
 30
0.0
 11
-803.2314571823
 21
24.9801912311
 31
0.0
  0
LINE
  5
65E
330
1F
100
AcDbEntity
  8
0
  6
Continuous
 62
     7
370
    15
100
AcDbLine
 10
-751.2960180233
 20
133.5801912311
 30
0.0
 11
-751.3605788644
 21
133.5801912311
 31
0.0
  0
LINE
  5
65F
330
1F
100
AcDbEntity
  8
0
  6
Continuous
 62
     7
370
    15
100
AcDbLine
 10
-803.2314571823
 20
133.5801912311
 30
0.0
 11
-803.2960180233
 21
133.5801912311
 31
0.0
  0
LINE
  5
660
330
1F
100
AcDbEntity
  8
0
  6
Continuous
 62
     7
370
    15
100
AcDbLine
 10
-191.2960180233
 20
-8.3812310568
 30
0.0
 11
-191.9491003585
 21
-8.3812310568
 31
0.0
  0
LINE
  5
661
330
1F
100
AcDbEntity
  8
0
  6
Continuous
 62
     7
370
    15
100
AcDbLine
 10
-243.2960180233
 20
-8.3812310568
 30
0.0
 11
-242.6429356881
 21
-8.3812310568
 31
0.0
  0
LINE
  5
662
330
1F
100
AcDbEntity
  8
0
  6
Continuous
 62
     7
370
    15
100
AcDbLine
 10
-242.6429356881
 20
100.2187689432
 30
0.0
 11
-243.2960180233
 21
100.2187689432
 31
0.0
  0
LINE
  5
663
330
1F
100
AcDbEntity
  8
0
  6
Continuous
 62
     7
370
    15
100
AcDbLine
 10
-191.9491003585
 20
100.2187689432
 30
0.0
 11
-191.2960180233
 21
100.2187689432
 31
0.0
  0
LINE
  5
664
330
1F
100
AcDbEntity
  8
0
  6
Continuous
 62
     7
370
    15
100
AcDbLine
 10
-351.3093296573
 20
9.7548212716
 30
0.0
 11
-351.2960180233
 21
9.7548212716
 31
0.0
  0
LINE
  5
665
330
1F
100
AcDbEntity
  8
0
  6
Continuous
 62
     7
370
    15
100
AcDbLine
 10
-403.2960180233
 20
9.7548212716
 30
0.0
 11
-403.2786567847
 21
9.7548212716
 31
0.0
  0
LINE
  5
666
330
1F
100
AcDbEntity
  8
0
  6
Continuous
 62
     7
370
    15
100
AcDbLine
 10
-351.2960180233
 20
118.3548212716
 30
0.0
 11
-351.3093296573
 21
118.3548212716
 31
0.0
  0
LINE
  5
667
330
1F
100
AcDbEntity
  8
0
  6
Continuous
 62
     7
370
    15
100
AcDbLine
 10
-403.2960180233
 20
118.3548212716
 30
0.0
 11
-403.2786567847
 21
118.3548212716
 31
0.0
  0
LINE
  5
668
330
1F
100
AcDbEntity
  8
0
  6
Continuous
 62
     7
370
    15
100
AcDbLine
 10
-111.5127803822
 20
-9.0779113396
 30
0.0
 11
-111.2960180233
 21
-9.0779113396
 31
0.0
  0
LINE
  5
669
330
1F
100
AcDbEntity
  8
0
  6
Continuous
 62
     7
370
    15
100
AcDbLine
 10
-163.2960180233
 20
-9.0779113396
 30
0.0
 11
-163.0792556644
 21
-9.0779113396
 31
0.0
  0
LINE
  5
66A
330
1F
100
AcDbEntity
  8
0
  6
Continuous
 62
     7
370
    15
100
AcDbLine
 10
-111.2960180233
 20
99.5220886604
 30
0.0
 11
-111.5127803822
 21
99.5220886604
 31
0.0
  0
LINE
  5
66B
330
1F
100
AcDbEntity
  8
0
  6
Continuous
 62
     7
370
    15
100
AcDbLine
 10
-163.0792556644
 20
99.5220886604
 30
0.0
 11
-163.2960180233
 21
99.5220886604
 31
0.0
  0
LINE
  5
66C
330
1F
100
AcDbEntity
  8
0
  6
Continuous
 62
     7
370
    15
100
AcDbLine
 10
-751.2960180233
 20
23.1490725477
 30
0.0
 11
-803.2960180233
 21
23.1490725477
 31
0.0
  0
LINE
  5
66D
330
1F
100
AcDbEntity
  8
0
  6
Continuous
 62
     7
370
    15
100
AcDbLine
 10
-759.2960180233
 20
4.3874095084
 30
0.0
 11
-795.2960180233
 21
4.3874095084
 31
0.0
  0
LINE
  5
66E
330
1F
100
AcDbEntity
  8
0
  6
Continuous
 62
     7
370
    15
100
AcDbLine
 10
-795.2960180233
 20
150.510735587
 30
0.0
 11
-759.2960180233
 21
150.510735587
 31
0.0
  0
LINE
  5
66F
330
1F
100
AcDbEntity
  8
0
  6
Continuous
 62
     7
370
    15
100
AcDbLine
 10
-751.2960180233
 20
131.7490725477
 30
0.0
 11
-803.2960180233
 21
131.7490725477
 31
0.0
  0
LINE
  5
670
330
1F
100
AcDbEntity
  8
0
  6
Continuous
 62
     7
370
    15
100
AcDbLine
 10
-679.7960180233
 20
26.8606012118
 30
0.0
 11
-671.2960180233
 21
26.8606012118
 31
0.0
  0
LINE
  5
671
330
1F
100
AcDbEntity
  8
0
  6
Continuous
 62
     7
370
    15
100
AcDbLine
 10
-714.7960180233
 20
26.8606012118
 30
0.0
 11
-723.2960180233
 21
26.8606012118
 31
0.0
  0
LINE
  5
672
330
1F
100
AcDbEntity
  8
0
  6
Continuous
 62
     7
370
    15
100
AcDbLine
 10
-715.2960180233
 20
154.2222642511
 30
0.0
 11
-679.2960180233
 21
154.2222642511
 31
0.0
  0
LINE
  5
673
330
1F
100
AcDbEntity
  8
0
  6
Continuous
 62
     7
370
    15
100
AcDbLine
 10
-713.7452463844
 20
135.4606012118
 30
0.0
 11
-723.2960180233
 21
135.4606012118
 31
0.0
  0
LINE
  5
674
330
1F
100
AcDbEntity
  8
0
  6
Continuous
 62
     7
370
    15
100
AcDbLine
 10
-671.2960180233
 20
135.4606012118
 30
0.0
 11
-680.8467896622
 21
135.4606012118
 31
0.0
  0
LINE
  5
675
330
1F
100
AcDbEntity
  8
0
  6
Continuous
 62
     7
370
    15
100
AcDbLine
 10
-591.2960180233
 20
10.4284929967
 30
0.0
 11
-593.1365534186
 21
10.4284929967
 31
0.0
  0
LINE
  5
676
330
1F
100
AcDbEntity
  8
0
  6
Continuous
 62
     7
370
    15
100
AcDbLine
 10
-643.2960180233
 20
10.4284929967
 30
0.0
 11
-641.455482628
 21
10.4284929967
 31
0.0
  0
LINE
  5
677
330
1F
100
AcDbEntity
  8
0
  6
Continuous
 62
     7
370
    15
100
AcDbLine
 10
-635.2960180233
 20
137.790156036
 30
0.0
 11
-599.2960180233
 21
137.790156036
 31
0.0
  0
LINE
  5
678
330
1F
100
AcDbEntity
  8
0
  6
Continuous
 62
     7
370
    15
100
AcDbLine
 10
-591.2960180233
 20
119.0284929967
 30
0.0
 11
-593.1365534186
 21
119.0284929967
 31
0.0
  0
LINE
  5
679
330
1F
100
AcDbEntity
  8
0
  6
Continuous
 62
     7
370
    15
100
AcDbLine
 10
-641.455482628
 20
119.0284929967
 30
0.0
 11
-643.2960180233
 21
119.0284929967
 31
0.0
  0
LINE
  5
67A
330
1F
100
AcDbEntity
  8
0
  6
Continuous
 62
     7
370
    15
100
AcDbLine
 10
-114.2420931593
 20
17.6997684406
 30
0.0
 11
-111.2960180233
 21
17.6997684406
 31
0.0
  0
LINE
  5
67B
330
1F
100
AcDbEntity
  8
0
  6
Continuous
 62
     7
370
    15
100
AcDbLine
 10
-160.3499428873
 20
17.6997684406
 30
0.0
 11
-163.2960180233
 21
17.6997684406
 31
0.0
  0
LINE
  5
67C
330
1F
100
AcDbEntity
  8
0
  6
Continuous
 62
     7
370
    15
100
AcDbLine
 10
-155.2960180233
 20
145.0614314799
 30
0.0
 11
-119.2960180233
 21
145.0614314799
 31
0.0
  0
LINE
  5
67D
330
1F
100
AcDbEntity
  8
0
  6
Continuous
 62
     7
370
    15
100
AcDbLine
 10
-160.3499428873
 20
126.2997684406
 30
0.0
 11
-163.2960180233
 21
126.2997684406
 31
0.0
  0
LINE
  5
67E
330
1F
100
AcDbEntity
  8
0
  6
Continuous
 62
     7
370
    15
100
AcDbLine
 10
-111.2960180233
 20
126.2997684406
 30
0.0
 11
-114.2420931593
 21
126.2997684406
 31
0.0
  0
LINE
  5
67F
330
1F
100
AcDbEntity
  8
0
  6
Continuous
 62
     7
370
    15
100
AcDbLine
 10
-755.0592398502
 20
36.622219785
 30
0.0
 11
-751.2960180233
 21
36.622219785
 31
0.0
  0
LINE
  5
680
330
1F
100
AcDbEntity
  8
0
  6
Continuous
 62
     7
370
    15
100
AcDbLine
 10
-795.2960180233
 20
163.9838828243
 30
0.0
 11
-759.2960180233
 21
163.9838828243
 31
0.0
  0
LINE
  5
681
330
1F
100
AcDbEntity
  8
0
  6
Continuous
 62
     7
370
    15
100
AcDbLine
 10
-799.5327961965
 20
145.222219785
 30
0.0
 11
-803.2960180233
 21
145.222219785
 31
0.0
  0
LINE
  5
682
330
1F
100
AcDbEntity
  8
0
  6
Continuous
 62
     7
370
    15
100
AcDbLine
 10
-751.2960180233
 20
145.222219785
 30
0.0
 11
-755.0592398502
 21
145.222219785
 31
0.0
  0
LINE
  5
683
330
1F
100
AcDbEntity
  8
0
  6
Continuous
 62
     7
370
    15
100
AcDbLine
 10
-599.2126673935
 20
29.1098320815
 30
0.0
 11
-591.2960180233
 21
29.1098320815
 31
0.0
  0
LINE
  5
684
330
1F
100
AcDbEntity
  8
0
  6
Continuous
 62
     7
370
    15
100
AcDbLine
 10
-635.3793686531
 20
29.1098320815
 30
0.0
 11
-643.2960180233
 21
29.1098320815
 31
0.0
  0
LINE
  5
685
330
1F
100
AcDbEntity
  8
0
  6
Continuous
 62
     7
370
    15
100
AcDbLine
 10
-635.3793686531
 20
137.7098320815
 30
0.0
 11
-643.2960180233
 21
137.7098320815
 31
0.0
  0
LINE
  5
686
330
1F
100
AcDbEntity
  8
0
  6
Continuous
 62
     7
370
    15
100
AcDbLine
 10
-591.2960180233
 20
137.7098320815
 30
0.0
 11
-599.2126673935
 21
137.7098320815
 31
0.0
  0
LINE
  5
687
330
1F
100
AcDbEntity
  8
0
  6
Continuous
 62
     7
370
    15
100
AcDbLine
 10
-635.2960180233
 20
156.4714951207
 30
0.0
 11
-599.2960180233
 21
156.4714951207
 31
0.0
  0
LINE
  5
688
330
1F
100
AcDbEntity
  8
0
  6
Continuous
 62
     7
370
    15
100
AcDbLine
 10
-671.3701887289
 20
28.8230933516
 30
0.0
 11
-671.2960180233
 21
28.8230933516
 31
0.0
  0
LINE
  5
689
330
1F
100
AcDbEntity
  8
0
  6
Continuous
 62
     7
370
    15
100
AcDbLine
 10
-723.2960180233
 20
28.8230933516
 30
0.0
 11
-723.2218473177
 21
28.8230933516
 31
0.0
  0
LINE
  5
68A
330
1F
100
AcDbEntity
  8
0
  6
Continuous
 62
     7
370
    15
100
AcDbLine
 10
-671.2960180233
 20
137.4230933516
 30
0.0
 11
-671.3701887289
 21
137.4230933516
 31
0.0
  0
LINE
  5
68B
330
1F
100
AcDbEntity
  8
0
  6
Continuous
 62
     7
370
    15
100
AcDbLine
 10
-723.2218473177
 20
137.4230933516
 30
0.0
 11
-723.2960180233
 21
137.4230933516
 31
0.0
  0
LINE
  5
68C
330
1F
100
AcDbEntity
  8
0
  6
Continuous
 62
     7
370
    15
100
AcDbLine
 10
-681.5954004523
 20
156.1847563909
 30
0.0
 11
-679.2960180233
 21
156.1847563909
 31
0.0
  0
LINE
  5
68D
330
1F
100
AcDbEntity
  8
0
  6
Continuous
 62
     7
370
    15
100
AcDbLine
 10
-715.2960180233
 20
156.1847563909
 30
0.0
 11
-712.9966355943
 21
156.1847563909
 31
0.0
  0
LINE
  5
68E
330
1F
100
AcDbEntity
  8
0
  6
Continuous
 62
     7
370
    15
100
AcDbLine
 10
-671.2960180233
 20
6.7254854603
 30
0.0
 11
-723.2960180233
 21
6.7254854603
 31
0.0
  0
LINE
  5
68F
330
1F
100
AcDbEntity
  8
0
  6
Continuous
 62
     7
370
    15
100
AcDbLine
 10
-679.2960180233
 20
-12.036177579
 30
0.0
 11
-715.2960180233
 21
-12.036177579
 31
0.0
  0
LINE
  5
690
330
1F
100
AcDbEntity
  8
0
  6
Continuous
 62
     7
370
    15
100
AcDbLine
 10
-715.2960180233
 20
134.0871484996
 30
0.0
 11
-679.2960180233
 21
134.0871484996
 31
0.0
  0
LINE
  5
691
330
1F
100
AcDbEntity
  8
0
  6
Continuous
 62
     7
370
    15
100
AcDbLine
 10
-671.2960180233
 20
115.3254854603
 30
0.0
 11
-723.2960180233
 21
115.3254854603
 31
0.0
  0
LINE
  5
692
330
1F
100
AcDbEntity
  8
0
  6
Continuous
 62
     7
370
    15
100
AcDbLine
 10
-13.8550657682
 20
110.024755589
 30
0.0
 11
21.4289288983
 21
99.2373558551
 31
0.0
  0
LINE
  5
693
330
1F
100
AcDbEntity
  8
0
  6
Continuous
 62
     7
370
    15
100
AcDbLine
 10
40.2039819767
 20
62.4784642746
 30
0.0
 11
1.6966127126
 21
62.4784642746
 31
0.0
  0
LINE
  5
694
330
1F
100
AcDbEntity
  8
0
  6
Continuous
 62
     7
370
    15
100
AcDbLine
 10
-51.8986574513
 20
75.2284642746
 30
0.0
 11
-120.7960180233
 21
75.2284642746
 31
0.0
  0
LINE
  5
695
330
1F
100
AcDbEntity
  8
0
  6
Continuous
 62
     7
370
    15
100
AcDbLine
 10
40.2039819767
 20
72.4784642746
 30
0.0
 11
40.2039819767
 21
62.4784642746
 31
0.0
  0
LINE
  5
696
330
1F
100
AcDbEntity
  8
0
  6
Continuous
 62
     7
370
    15
100
AcDbLine
 10
-120.7960180233
 20
72.7284642746
 30
0.0
 11
-120.7960180233
 21
82.1664333027
 31
0.0
  0
LINE
  5
697
330
1F
100
AcDbEntity
  8
0
  6
Continuous
 62
     7
370
    15
100
AcDbLine
 10
-114.8665703841
 20
89.8938399131
 30
0.0
 11
-39.7369702784
 21
110.024755589
 31
0.0
  0
LINE
  5
698
330
1F
100
AcDbEntity
  8
0
  6
Continuous
 62
     7
370
    15
100
AcDbLine
 10
-95.748025488
 20
95.0166385784
 30
0.0
 11
-95.748025488
 21
95.3272214325
 31
0.0
  0
LINE
  5
699
330
1F
100
AcDbEntity
  8
0
  6
Continuous
 62
     7
370
    15
100
AcDbLine
 10
-98.7020354225
 20
94.225114002
 30
0.0
 11
-98.7020354225
 21
94.5356968562
 31
0.0
  0
LINE
  5
69A
330
1F
100
AcDbEntity
  8
0
  6
Continuous
 62
     7
370
    15
100
AcDbLine
 10
-99.8715839449
 20
93.9117344199
 30
0.0
 11
-99.8715839449
 21
94.2223172741
 31
0.0
  0
LINE
  5
69B
330
1F
100
AcDbEntity
  8
0
  6
Continuous
 62
     7
370
    15
100
AcDbLine
 10
-102.9820077868
 20
93.3888817175
 30
0.0
 11
-92.4687137213
 21
96.2059103722
 31
0.0
  0
LINE
  5
69C
330
1F
100
AcDbEntity
  8
0
  6
Continuous
 62
     7
370
    15
100
AcDbLine
 10
-102.7960180233
 20
93.1281346703
 30
0.0
 11
-102.7960180233
 21
93.4387175245
 31
0.0
  0
LINE
  5
69D
330
1F
100
AcDbEntity
  8
0
  6
Continuous
 62
     7
370
    15
100
AcDbLine
 10
-92.4687137213
 20
95.895327518
 30
0.0
 11
-92.4687137213
 21
96.2059103722
 31
0.0
  0
LINE
  5
69E
330
1F
100
AcDbEntity
  8
0
  6
Continuous
 62
     7
370
    15
100
AcDbLine
 10
21.4289288983
 20
24.2195726941
 30
0.0
 11
-13.8550657682
 21
13.4321729601
 31
0.0
  0
LINE
  5
69F
330
1F
100
AcDbEntity
  8
0
  6
Continuous
 62
     7
370
    15
100
AcDbLine
 10
40.2039819767
 20
60.9784642746
 30
0.0
 11
1.6966127126
 21
60.9784642746
 31
0.0
  0
LINE
  5
6A0
330
1F
100
AcDbEntity
  8
0
  6
Continuous
 62
     7
370
    15
100
AcDbLine
 10
-51.8986574513
 20
48.2284642746
 30
0.0
 11
-120.7960180233
 21
48.2284642746
 31
0.0
  0
LINE
  5
6A1
330
1F
100
AcDbEntity
  8
0
  6
Continuous
 62
     7
370
    15
100
AcDbLine
 10
-120.7960180233
 20
41.2904952464
 30
0.0
 11
-120.7960180233
 21
50.7284642746
 31
0.0
  0
LINE
  5
6A2
330
1F
100
AcDbEntity
  8
0
  6
Continuous
 62
     7
370
    15
100
AcDbLine
 10
40.2039819767
 20
60.9784642746
 30
0.0
 11
40.2039819767
 21
50.9784642746
 31
0.0
  0
LINE
  5
6A3
330
1F
100
AcDbEntity
  8
0
  6
Continuous
 62
     7
370
    15
100
AcDbLine
 10
-39.7369702784
 20
13.4321729601
 30
0.0
 11
-114.8665703841
 21
33.5630886361
 31
0.0
  0
LINE
  5
6A4
330
1F
100
AcDbEntity
  8
0
  6
Continuous
 62
     7
370
    15
100
AcDbLine
 10
-92.4687137213
 20
27.251018177
 30
0.0
 11
-102.9820077868
 21
30.0680468317
 31
0.0
  0
LINE
  5
6A5
330
1F
100
AcDbEntity
  8
0
  6
Continuous
 62
     7
370
    15
100
AcDbLine
 10
-92.4687137213
 20
27.5616010312
 30
0.0
 11
-92.4687137213
 21
27.251018177
 31
0.0
  0
LINE
  5
6A6
330
1F
100
AcDbEntity
  8
0
  6
Continuous
 62
     7
370
    15
100
AcDbLine
 10
-936.0209649449
 20
99.2373558551
 30
0.0
 11
-900.7369702784
 21
110.024755589
 31
0.0
  0
LINE
  5
6A7
330
1F
100
AcDbEntity
  8
0
  6
Continuous
 62
     7
370
    15
100
AcDbLine
 10
-793.7960180233
 20
82.1664333027
 30
0.0
 11
-793.7960180233
 21
72.7284642746
 31
0.0
  0
LINE
  5
6A8
330
1F
100
AcDbEntity
  8
0
  6
Continuous
 62
     7
370
    15
100
AcDbLine
 10
-862.6933785953
 20
75.2284642746
 30
0.0
 11
-793.7960180233
 21
75.2284642746
 31
0.0
  0
LINE
  5
6A9
330
1F
100
AcDbEntity
  8
0
  6
Continuous
 62
     7
370
    15
100
AcDbLine
 10
-954.7960180233
 20
62.4784642746
 30
0.0
 11
-954.7960180233
 21
72.4784642746
 31
0.0
  0
LINE
  5
6AA
330
1F
100
AcDbEntity
  8
0
  6
Continuous
 62
     7
370
    15
100
AcDbLine
 10
-954.7960180233
 20
62.4784642746
 30
0.0
 11
-916.2886487592
 21
62.4784642746
 31
0.0
  0
LINE
  5
6AB
330
1F
100
AcDbEntity
  8
0
  6
Continuous
 62
     7
370
    15
100
AcDbLine
 10
-874.8550657682
 20
110.024755589
 30
0.0
 11
-799.7254656625
 21
89.8938399131
 31
0.0
  0
LINE
  5
6AC
330
1F
100
AcDbEntity
  8
0
  6
Continuous
 62
     7
370
    15
100
AcDbLine
 10
-822.1233223253
 20
96.2059103722
 30
0.0
 11
-811.6100282598
 21
93.3888817175
 31
0.0
  0
LINE
  5
6AD
330
1F
100
AcDbEntity
  8
0
  6
Continuous
 62
     7
370
    15
100
AcDbLine
 10
-822.1233223253
 20
95.895327518
 30
0.0
 11
-822.1233223253
 21
96.2059103722
 31
0.0
  0
LINE
  5
6AE
330
1F
100
AcDbEntity
  8
0
  6
Continuous
 62
     7
370
    15
100
AcDbLine
 10
-900.7369702784
 20
13.4321729601
 30
0.0
 11
-936.0209649449
 21
24.2195726941
 31
0.0
  0
LINE
  5
6AF
330
1F
100
AcDbEntity
  8
0
  6
Continuous
 62
     7
370
    15
100
AcDbLine
 10
-954.7960180233
 20
60.9784642746
 30
0.0
 11
-916.2886487592
 21
60.9784642746
 31
0.0
  0
LINE
  5
6B0
330
1F
100
AcDbEntity
  8
0
  6
Continuous
 62
     7
370
    15
100
AcDbLine
 10
-862.6933785953
 20
48.2284642746
 30
0.0
 11
-793.7960180233
 21
48.2284642746
 31
0.0
  0
LINE
  5
6B1
330
1F
100
AcDbEntity
  8
0
  6
Continuous
 62
     7
370
    15
100
AcDbLine
 10
-793.7960180233
 20
50.7284642746
 30
0.0
 11
-793.7960180233
 21
41.2904952464
 31
0.0
  0
LINE
  5
6B2
330
1F
100
AcDbEntity
  8
0
  6
Continuous
 62
     7
370
    15
100
AcDbLine
 10
-799.7254656625
 20
33.5630886361
 30
0.0
 11
-874.8550657682
 21
13.4321729601
 31
0.0
  0
LINE
  5
6B3
330
1F
100
AcDbEntity
  8
0
  6
Continuous
 62
     7
370
    15
100
AcDbLine
 10
-954.7960180233
 20
50.9784642746
 30
0.0
 11
-954.7960180233
 21
60.9784642746
 31
0.0
  0
LINE
  5
6B4
330
1F
100
AcDbEntity
  8
0
  6
Continuous
 62
     7
370
    15
100
AcDbLine
 10
-818.8440105586
 20
28.4402899708
 30
0.0
 11
-818.8440105586
 21
28.1297071166
 31
0.0
  0
LINE
  5
6B5
330
1F
100
AcDbEntity
  8
0
  6
Continuous
 62
     7
370
    15
100
AcDbLine
 10
-814.7204521017
 20
29.5451941292
 30
0.0
 11
-814.7204521017
 21
29.2346112751
 31
0.0
  0
LINE
  5
6B6
330
1F
100
AcDbEntity
  8
0
  6
Continuous
 62
     7
370
    15
100
AcDbLine
 10
-815.8900006241
 20
29.2318145471
 30
0.0
 11
-815.8900006241
 21
28.921231693
 31
0.0
  0
LINE
  5
6B7
330
1F
100
AcDbEntity
  8
0
  6
Continuous
 62
     7
370
    15
100
AcDbLine
 10
-811.6100282598
 20
30.0680468317
 30
0.0
 11
-822.1233223253
 21
27.251018177
 31
0.0
  0
LINE
  5
6B8
330
1F
100
AcDbEntity
  8
0
  6
Continuous
 62
     7
370
    15
100
AcDbLine
 10
-811.7960180233
 20
30.3287938789
 30
0.0
 11
-811.7960180233
 21
30.0182110247
 31
0.0
  0
LINE
  5
6B9
330
1F
100
AcDbEntity
  8
0
  6
Continuous
 62
     7
370
    15
100
AcDbLine
 10
-822.1233223253
 20
27.5616010312
 30
0.0
 11
-822.1233223253
 21
27.251018177
 31
0.0
  0
LINE
  5
6BA
330
1F
100
AcDbEntity
  8
0
  6
Continuous
 62
     7
370
    15
100
AcDbLine
 10
-599.2960180233
 20
-17.9415138133
 30
0.0
 11
-635.2960180233
 21
-17.9415138133
 31
0.0
  0
LINE
  5
6BB
330
1F
100
AcDbEntity
  8
0
  6
Continuous
 62
     7
370
    15
100
AcDbLine
 10
-635.2960180233
 20
128.1818122653
 30
0.0
 11
-599.2960180233
 21
128.1818122653
 31
0.0
  0
LINE
  5
6BC
330
1F
100
AcDbEntity
  8
0
  6
Continuous
 62
     7
370
    15
100
AcDbLine
 10
-519.2960180233
 20
-18.0564603165
 30
0.0
 11
-555.2960180233
 21
-18.0564603165
 31
0.0
  0
LINE
  5
6BD
330
1F
100
AcDbEntity
  8
0
  6
Continuous
 62
     7
370
    15
100
AcDbLine
 10
-555.2960180233
 20
128.0668657621
 30
0.0
 11
-519.2960180233
 21
128.0668657621
 31
0.0
  0
LINE
  5
6BE
330
1F
100
AcDbEntity
  8
0
  6
Continuous
 62
     7
370
    15
100
AcDbLine
 10
-555.2960180233
 20
141.4357389818
 30
0.0
 11
-519.2960180233
 21
141.4357389818
 31
0.0
  0
LINE
  5
6BF
330
1F
100
AcDbEntity
  8
0
  6
Continuous
 62
     7
370
    15
100
AcDbLine
 10
-475.2960180233
 20
155.7592755997
 30
0.0
 11
-439.2960180233
 21
155.7592755997
 31
0.0
  0
LINE
  5
6C0
330
1F
100
AcDbEntity
  8
0
  6
Continuous
 62
     7
370
    15
100
AcDbLine
 10
-555.2960180233
 20
147.0046116161
 30
0.0
 11
-546.4625350192
 21
147.0046116161
 31
0.0
  0
LINE
  5
6C1
330
1F
100
AcDbEntity
  8
0
  6
Continuous
 62
     7
370
    15
100
AcDbLine
 10
-528.1295010274
 20
147.0046116161
 30
0.0
 11
-519.2960180233
 21
147.0046116161
 31
0.0
  0
LINE
  5
6C2
330
1F
100
AcDbEntity
  8
0
  6
Continuous
 62
     7
370
    15
100
AcDbLine
 10
-235.2960180233
 20
150.1463466695
 30
0.0
 11
-199.2960180233
 21
150.1463466695
 31
0.0
  0
LINE
  5
6C3
330
1F
100
AcDbEntity
  8
0
  6
Continuous
 62
     7
370
    15
100
AcDbLine
 10
-199.2960180233
 20
-32.9337286555
 30
0.0
 11
-235.2960180233
 21
-32.9337286555
 31
0.0
  0
LINE
  5
6C4
330
1F
100
AcDbEntity
  8
0
  6
Continuous
 62
     7
370
    15
100
AcDbLine
 10
-235.2960180233
 20
113.1895974231
 30
0.0
 11
-199.2960180233
 21
113.1895974231
 31
0.0
  0
LINE
  5
6C5
330
1F
100
AcDbEntity
  8
0
  6
Continuous
 62
     7
370
    15
100
AcDbLine
 10
-715.2960180233
 20
165.716415869
 30
0.0
 11
-679.2960180233
 21
165.716415869
 31
0.0
  0
LINE
  5
6C6
330
1F
100
AcDbEntity
  8
0
  6
Continuous
 62
     7
370
    15
100
AcDbLine
 10
-315.2960180233
 20
156.9641273905
 30
0.0
 11
-279.2960180233
 21
156.9641273905
 31
0.0
  0
LINE
  5
6C7
330
1F
100
AcDbEntity
  8
0
  6
Continuous
 62
     7
370
    15
100
AcDbLine
 10
-439.2960180233
 20
-3.4903938195
 30
0.0
 11
-475.2960180233
 21
-3.4903938195
 31
0.0
  0
LINE
  5
6C8
330
1F
100
AcDbEntity
  8
0
  6
Continuous
 62
     7
370
    15
100
AcDbLine
 10
-475.2960180233
 20
142.632932259
 30
0.0
 11
-439.2960180233
 21
142.632932259
 31
0.0
  0
LINE
  5
6C9
330
1F
100
AcDbEntity
  8
0
  6
Continuous
 62
     7
370
    15
100
AcDbLine
 10
-395.2960180233
 20
136.2846022471
 30
0.0
 11
-359.2960180233
 21
136.2846022471
 31
0.0
  0
LINE
  5
6CA
330
1F
100
AcDbEntity
  8
0
  6
Continuous
 62
     7
370
    15
100
AcDbLine
 10
-155.2960180233
 20
133.0399278982
 30
0.0
 11
-119.2960180233
 21
133.0399278982
 31
0.0
  0
LINE
  5
6CB
330
1F
100
AcDbEntity
  8
0
  6
Continuous
 62
     7
370
    15
100
AcDbLine
 10
-279.2960180233
 20
-15.44902539
 30
0.0
 11
-315.2960180233
 21
-15.44902539
 31
0.0
  0
LINE
  5
6CC
330
1F
100
AcDbEntity
  8
0
  6
Continuous
 62
     7
370
    15
100
AcDbLine
 10
-315.2960180233
 20
130.6743006886
 30
0.0
 11
-279.2960180233
 21
130.6743006886
 31
0.0
  0
LINE
  5
6CD
330
1F
100
AcDbEntity
  8
0
  6
Continuous
 62
     7
370
    15
100
AcDbLine
 10
-359.2960180233
 20
-21.8238957005
 30
0.0
 11
-395.2960180233
 21
-21.8238957005
 31
0.0
  0
LINE
  5
6CE
330
1F
100
AcDbEntity
  8
0
  6
Continuous
 62
     7
370
    15
100
AcDbLine
 10
-395.2960180233
 20
124.2994303781
 30
0.0
 11
-359.2960180233
 21
124.2994303781
 31
0.0
  0
LINE
  5
6CF
330
1F
100
AcDbEntity
  8
0
  6
Continuous
 62
     7
370
    15
100
AcDbLine
 10
-315.2960180233
 20
134.8478779861
 30
0.0
 11
-309.5424358953
 21
134.8478779861
 31
0.0
  0
LINE
  5
6D0
330
1F
100
AcDbEntity
  8
0
  6
Continuous
 62
     7
370
    15
100
AcDbLine
 10
-285.0496001514
 20
134.8478779861
 30
0.0
 11
-279.2960180233
 21
134.8478779861
 31
0.0
  0
LINE
  5
6D1
330
1F
100
AcDbEntity
  8
0
  6
Continuous
 62
     7
370
    15
100
AcDbLine
 10
-555.2960180233
 20
154.3619475968
 30
0.0
 11
-519.2960180233
 21
154.3619475968
 31
0.0
  0
LINE
  5
6D2
330
1F
100
AcDbEntity
  8
0
  6
Continuous
 62
     7
370
    15
100
AcDbLine
 10
-119.2960180233
 20
-24.0142462554
 30
0.0
 11
-155.2960180233
 21
-24.0142462554
 31
0.0
  0
LINE
  5
6D3
330
1F
100
AcDbEntity
  8
0
  6
Continuous
 62
     7
370
    15
100
AcDbLine
 10
-155.2960180233
 20
122.1090798232
 30
0.0
 11
-119.2960180233
 21
122.1090798232
 31
0.0
  0
LINE
  5
6D4
330
1F
100
AcDbEntity
  8
0
  6
Continuous
 62
     7
370
    15
100
AcDbLine
 10
-759.2960180233
 20
-10.4293431256
 30
0.0
 11
-795.2960180233
 21
-10.4293431256
 31
0.0
  0
LINE
  5
6D5
330
1F
100
AcDbEntity
  8
0
  6
Continuous
 62
     7
370
    15
100
AcDbLine
 10
-279.2960180233
 20
-20.7621362771
 30
0.0
 11
-287.4773999742
 21
-20.7621362771
 31
0.0
  0
LINE
  5
6D6
330
1F
100
AcDbEntity
  8
0
  6
Continuous
 62
     7
370
    15
100
AcDbLine
 10
-307.1146360724
 20
-20.7621362771
 30
0.0
 11
-315.2960180233
 21
-20.7621362771
 31
0.0
  0
LINE
  5
6D7
330
1F
100
AcDbEntity
  8
0
  6
Continuous
 62
     7
370
    15
100
AcDbLine
 10
-119.2960180233
 20
-31.1898962656
 30
0.0
 11
-135.4916367517
 21
-31.1898962656
 31
0.0
  0
LINE
  5
6D8
330
1F
100
AcDbEntity
  8
0
  6
Continuous
 62
     7
370
    15
100
AcDbLine
 10
-139.087824262
 20
-31.1898962656
 30
0.0
 11
-155.2960180233
 21
-31.1898962656
 31
0.0
  0
LINE
  5
6D9
330
1F
100
AcDbEntity
  8
0
  6
Continuous
 62
     7
370
    15
100
AcDbLine
 10
-395.2960180233
 20
144.6818268209
 30
0.0
 11
-359.2960180233
 21
144.6818268209
 31
0.0
  0
LINE
  5
6DA
330
1F
100
AcDbEntity
  8
0
  6
Continuous
 62
     7
370
    15
100
AcDbLine
 10
-439.2960180233
 20
-6.5073105307
 30
0.0
 11
-443.0941356109
 21
-6.5073105307
 31
0.0
  0
LINE
  5
6DB
330
1F
100
AcDbEntity
  8
0
  6
Continuous
 62
     7
370
    15
100
AcDbLine
 10
-471.4979004357
 20
-6.5073105307
 30
0.0
 11
-475.2960180233
 21
-6.5073105307
 31
0.0
  0
LINE
  5
6DC
330
1F
100
AcDbEntity
  8
0
  6
Continuous
 62
     7
370
    15
100
AcDbLine
 10
-439.2960180233
 20
-7.4878474561
 30
0.0
 11
-440.3772254969
 21
-7.4878474561
 31
0.0
  0
LINE
  5
6DD
330
1F
100
AcDbEntity
  8
0
  6
Continuous
 62
     7
370
    15
100
AcDbLine
 10
-474.2148105497
 20
-7.4878474561
 30
0.0
 11
-475.2960180233
 21
-7.4878474561
 31
0.0
  0
LINE
  5
6DE
330
1F
100
AcDbEntity
  8
0
  6
Continuous
 62
     7
370
    15
100
AcDbLine
 10
-395.2960180233
 20
164.4474343331
 30
0.0
 11
-359.2960180233
 21
164.4474343331
 31
0.0
  0
LINE
  5
6DF
330
1F
100
AcDbEntity
  8
0
  6
Continuous
 62
     7
370
    15
100
AcDbLine
 10
-555.2960180233
 20
49.166834156
 30
0.0
 11
-554.7960180233
 21
49.166834156
 31
0.0
  0
LINE
  5
6E0
330
1F
100
AcDbEntity
  8
0
  6
Continuous
 62
     7
370
    15
100
AcDbLine
 10
-519.7960180233
 20
49.166834156
 30
0.0
 11
-519.2960180233
 21
49.166834156
 31
0.0
  0
LINE
  5
6E1
330
1F
100
AcDbEntity
  8
0
  6
Continuous
 62
     7
370
    15
100
AcDbLine
 10
-439.2960180233
 20
94.0594151824
 30
0.0
 11
-439.7960180233
 21
94.0594151824
 31
0.0
  0
LINE
  5
6E2
330
1F
100
AcDbEntity
  8
0
  6
Continuous
 62
     7
370
    15
100
AcDbLine
 10
-474.7960180233
 20
94.0594151824
 30
0.0
 11
-475.2960180233
 21
94.0594151824
 31
0.0
  0
LINE
  5
6E3
330
1F
100
AcDbEntity
  8
0
  6
Continuous
 62
     7
370
    15
100
AcDbLine
 10
-793.7960180233
 20
41.910735587
 30
0.0
 11
-759.2960180233
 21
41.910735587
 31
0.0
  0
LINE
  5
6E4
330
1F
100
AcDbEntity
  8
0
  6
Continuous
 62
     7
370
    15
100
AcDbLine
 10
-759.2960180233
 20
112.9874095084
 30
0.0
 11
-795.2960180233
 21
112.9874095084
 31
0.0
  0
LINE
  5
6E5
330
1F
100
AcDbEntity
  8
0
  6
Continuous
 62
     7
370
    15
100
AcDbLine
 10
-679.7960180233
 20
45.6222642511
 30
0.0
 11
-679.2960180233
 21
45.6222642511
 31
0.0
  0
LINE
  5
6E6
330
1F
100
AcDbEntity
  8
0
  6
Continuous
 62
     7
370
    15
100
AcDbLine
 10
-715.2960180233
 20
45.6222642511
 30
0.0
 11
-714.7960180233
 21
45.6222642511
 31
0.0
  0
LINE
  5
6E7
330
1F
100
AcDbEntity
  8
0
  6
Continuous
 62
     7
370
    15
100
AcDbLine
 10
-599.7960180233
 20
29.190156036
 30
0.0
 11
-599.2960180233
 21
29.190156036
 31
0.0
  0
LINE
  5
6E8
330
1F
100
AcDbEntity
  8
0
  6
Continuous
 62
     7
370
    15
100
AcDbLine
 10
-635.2960180233
 20
29.190156036
 30
0.0
 11
-634.7960180233
 21
29.190156036
 31
0.0
  0
LINE
  5
6E9
330
1F
100
AcDbEntity
  8
0
  6
Continuous
 62
     7
370
    15
100
AcDbLine
 10
-119.7960180233
 20
36.4614314799
 30
0.0
 11
-119.2960180233
 21
36.4614314799
 31
0.0
  0
LINE
  5
6EA
330
1F
100
AcDbEntity
  8
0
  6
Continuous
 62
     7
370
    15
100
AcDbLine
 10
-155.2960180233
 20
36.4614314799
 30
0.0
 11
-154.7960180233
 21
36.4614314799
 31
0.0
  0
LINE
  5
6EB
330
1F
100
AcDbEntity
  8
0
  6
Continuous
 62
     7
370
    15
100
AcDbLine
 10
-599.7960180233
 20
47.8714951207
 30
0.0
 11
-599.2960180233
 21
47.8714951207
 31
0.0
  0
LINE
  5
6EC
330
1F
100
AcDbEntity
  8
0
  6
Continuous
 62
     7
370
    15
100
AcDbLine
 10
-635.2960180233
 20
47.8714951207
 30
0.0
 11
-634.7960180233
 21
47.8714951207
 31
0.0
  0
LINE
  5
6ED
330
1F
100
AcDbEntity
  8
0
  6
Continuous
 62
     7
370
    15
100
AcDbLine
 10
-679.7960180233
 20
47.5847563909
 30
0.0
 11
-679.2960180233
 21
47.5847563909
 31
0.0
  0
LINE
  5
6EE
330
1F
100
AcDbEntity
  8
0
  6
Continuous
 62
     7
370
    15
100
AcDbLine
 10
-715.2960180233
 20
47.5847563909
 30
0.0
 11
-714.7960180233
 21
47.5847563909
 31
0.0
  0
LINE
  5
6EF
330
1F
100
AcDbEntity
  8
0
  6
Continuous
 62
     7
370
    15
100
AcDbLine
 10
-715.2960180233
 20
25.4871484996
 30
0.0
 11
-679.2960180233
 21
25.4871484996
 31
0.0
  0
LINE
  5
6F0
330
1F
100
AcDbEntity
  8
0
  6
Continuous
 62
     7
370
    15
100
AcDbLine
 10
-679.2960180233
 20
96.563822421
 30
0.0
 11
-715.2960180233
 21
96.563822421
 31
0.0
  0
LINE
  5
6F1
330
1F
100
AcDbEntity
  8
0
  6
Continuous
 62
     7
370
    15
100
AcDbLine
 10
-271.2975329427
 20
3.5933038462
 30
0.0
 11
-271.2960180233
 21
3.5933038462
 31
0.0
  0
LINE
  5
6F2
330
1F
100
AcDbEntity
  8
0
  6
Continuous
 62
     7
370
    15
100
AcDbLine
 10
-323.2960180233
 20
3.5933038462
 30
0.0
 11
-323.2945031039
 21
3.5933038462
 31
0.0
  0
LINE
  5
6F3
330
1F
100
AcDbEntity
  8
0
  6
Continuous
 62
     7
370
    15
100
AcDbLine
 10
-271.2960180233
 20
112.1933038462
 30
0.0
 11
-271.2975329427
 21
112.1933038462
 31
0.0
  0
LINE
  5
6F4
330
1F
100
AcDbEntity
  8
0
  6
Continuous
 62
     7
370
    15
100
AcDbLine
 10
-323.2945031039
 20
112.1933038462
 30
0.0
 11
-323.2960180233
 21
112.1933038462
 31
0.0
  0
LINE
  5
6F5
330
1F
100
AcDbEntity
  8
0
  6
Continuous
 62
     7
370
    15
100
AcDbLine
 10
-591.2960180233
 20
0.820149226
 30
0.0
 11
-643.2960180233
 21
0.820149226
 31
0.0
  0
LINE
  5
6F6
330
1F
100
AcDbEntity
  8
0
  6
Continuous
 62
     7
370
    15
100
AcDbLine
 10
-591.2960180233
 20
109.420149226
 30
0.0
 11
-643.2960180233
 21
109.420149226
 31
0.0
  0
LINE
  5
6F7
330
1F
100
AcDbEntity
  8
0
  6
Continuous
 62
     7
370
    15
100
AcDbLine
 10
-511.2960180233
 20
0.7052027228
 30
0.0
 11
-563.2960180233
 21
0.7052027228
 31
0.0
  0
LINE
  5
6F8
330
1F
100
AcDbEntity
  8
0
  6
Continuous
 62
     7
370
    15
100
AcDbLine
 10
-511.2960180233
 20
109.3052027228
 30
0.0
 11
-563.2960180233
 21
109.3052027228
 31
0.0
  0
LINE
  5
6F9
330
1F
100
AcDbEntity
  8
0
  6
Continuous
 62
     7
370
    15
100
AcDbLine
 10
-514.9963940616
 20
14.0740759425
 30
0.0
 11
-511.2960180233
 21
14.0740759425
 31
0.0
  0
LINE
  5
6FA
330
1F
100
AcDbEntity
  8
0
  6
Continuous
 62
     7
370
    15
100
AcDbLine
 10
-563.2960180233
 20
14.0740759425
 30
0.0
 11
-559.595641985
 21
14.0740759425
 31
0.0
  0
LINE
  5
6FB
330
1F
100
AcDbEntity
  8
0
  6
Continuous
 62
     7
370
    15
100
AcDbLine
 10
-511.2960180233
 20
122.6740759425
 30
0.0
 11
-514.9963940616
 21
122.6740759425
 31
0.0
  0
LINE
  5
6FC
330
1F
100
AcDbEntity
  8
0
  6
Continuous
 62
     7
370
    15
100
AcDbLine
 10
-563.2960180233
 20
122.6740759425
 30
0.0
 11
-559.595641985
 21
122.6740759425
 31
0.0
  0
LINE
  5
6FD
330
1F
100
AcDbEntity
  8
0
  6
Continuous
 62
     7
370
    15
100
AcDbLine
 10
-434.8527760448
 20
28.3976125604
 30
0.0
 11
-431.2960180233
 21
28.3976125604
 31
0.0
  0
LINE
  5
6FE
330
1F
100
AcDbEntity
  8
0
  6
Continuous
 62
     7
370
    15
100
AcDbLine
 10
-483.2960180233
 20
28.3976125604
 30
0.0
 11
-479.7392600018
 21
28.3976125604
 31
0.0
  0
LINE
  5
6FF
330
1F
100
AcDbEntity
  8
0
  6
Continuous
 62
     7
370
    15
100
AcDbLine
 10
-434.8527760448
 20
136.9976125604
 30
0.0
 11
-431.2960180233
 21
136.9976125604
 31
0.0
  0
LINE
  5
700
330
1F
100
AcDbEntity
  8
0
  6
Continuous
 62
     7
370
    15
100
AcDbLine
 10
-483.2960180233
 20
136.9976125604
 30
0.0
 11
-479.7392600018
 21
136.9976125604
 31
0.0
  0
LINE
  5
701
330
1F
100
AcDbEntity
  8
0
  6
Continuous
 62
     7
370
    15
100
AcDbLine
 10
-511.8994108172
 20
19.6429485768
 30
0.0
 11
-511.2960180233
 21
19.6429485768
 31
0.0
  0
LINE
  5
702
330
1F
100
AcDbEntity
  8
0
  6
Continuous
 62
     7
370
    15
100
AcDbLine
 10
-563.2960180233
 20
19.6429485768
 30
0.0
 11
-562.6926252294
 21
19.6429485768
 31
0.0
  0
LINE
  5
703
330
1F
100
AcDbEntity
  8
0
  6
Continuous
 62
     7
370
    15
100
AcDbLine
 10
-562.6926252294
 20
128.2429485768
 30
0.0
 11
-563.2960180233
 21
128.2429485768
 31
0.0
  0
LINE
  5
704
330
1F
100
AcDbEntity
  8
0
  6
Continuous
 62
     7
370
    15
100
AcDbLine
 10
-511.2960180233
 20
128.2429485768
 30
0.0
 11
-511.8994108172
 21
128.2429485768
 31
0.0
  0
LINE
  5
705
330
1F
100
AcDbEntity
  8
0
  6
Continuous
 62
     7
370
    15
100
AcDbLine
 10
-191.2960180233
 20
22.7846836302
 30
0.0
 11
-199.7960180233
 21
22.7846836302
 31
0.0
  0
LINE
  5
706
330
1F
100
AcDbEntity
  8
0
  6
Continuous
 62
     7
370
    15
100
AcDbLine
 10
-234.7960180233
 20
22.7846836302
 30
0.0
 11
-243.2960180233
 21
22.7846836302
 31
0.0
  0
LINE
  5
707
330
1F
100
AcDbEntity
  8
0
  6
Continuous
 62
     7
370
    15
100
AcDbLine
 10
-191.2960180233
 20
131.3846836302
 30
0.0
 11
-243.2960180233
 21
131.3846836302
 31
0.0
  0
LINE
  5
708
330
1F
100
AcDbEntity
  8
0
  6
Continuous
 62
     7
370
    15
100
AcDbLine
 10
-191.2960180233
 20
-14.1720656162
 30
0.0
 11
-243.2960180233
 21
-14.1720656162
 31
0.0
  0
LINE
  5
709
330
1F
100
AcDbEntity
  8
0
  6
Continuous
 62
     7
370
    15
100
AcDbLine
 10
-191.2960180233
 20
94.4279343838
 30
0.0
 11
-243.2960180233
 21
94.4279343838
 31
0.0
  0
LINE
  5
70A
330
1F
100
AcDbEntity
  8
0
  6
Continuous
 62
     7
370
    15
100
AcDbLine
 10
-431.4451244711
 20
25.6170905674
 30
0.0
 11
-431.2960180233
 21
25.6170905674
 31
0.0
  0
LINE
  5
70B
330
1F
100
AcDbEntity
  8
0
  6
Continuous
 62
     7
370
    15
100
AcDbLine
 10
-483.2960180233
 20
25.6170905674
 30
0.0
 11
-483.1469115755
 21
25.6170905674
 31
0.0
  0
LINE
  5
70C
330
1F
100
AcDbEntity
  8
0
  6
Continuous
 62
     7
370
    15
100
AcDbLine
 10
-431.2960180233
 20
134.2170905674
 30
0.0
 11
-431.4451244711
 21
134.2170905674
 31
0.0
  0
LINE
  5
70D
330
1F
100
AcDbEntity
  8
0
  6
Continuous
 62
     7
370
    15
100
AcDbLine
 10
-483.2960180233
 20
134.2170905674
 30
0.0
 11
-483.1469115755
 21
134.2170905674
 31
0.0
  0
LINE
  5
70E
330
1F
100
AcDbEntity
  8
0
  6
Continuous
 62
     7
370
    15
100
AcDbLine
 10
-673.1061964532
 20
38.3547528297
 30
0.0
 11
-671.2960180233
 21
38.3547528297
 31
0.0
  0
LINE
  5
70F
330
1F
100
AcDbEntity
  8
0
  6
Continuous
 62
     7
370
    15
100
AcDbLine
 10
-723.2960180233
 20
38.3547528297
 30
0.0
 11
-721.4858395934
 21
38.3547528297
 31
0.0
  0
LINE
  5
710
330
1F
100
AcDbEntity
  8
0
  6
Continuous
 62
     7
370
    15
100
AcDbLine
 10
-671.2960180233
 20
146.9547528297
 30
0.0
 11
-673.1061964532
 21
146.9547528297
 31
0.0
  0
LINE
  5
711
330
1F
100
AcDbEntity
  8
0
  6
Continuous
 62
     7
370
    15
100
AcDbLine
 10
-721.4858395934
 20
146.9547528297
 30
0.0
 11
-723.2960180233
 21
146.9547528297
 31
0.0
  0
LINE
  5
712
330
1F
100
AcDbEntity
  8
0
  6
Continuous
 62
     7
370
    15
100
AcDbLine
 10
-752.01711957
 20
30.5413240461
 30
0.0
 11
-751.2960180233
 21
30.5413240461
 31
0.0
  0
LINE
  5
713
330
1F
100
AcDbEntity
  8
0
  6
Continuous
 62
     7
370
    15
100
AcDbLine
 10
-803.2960180233
 20
30.5413240461
 30
0.0
 11
-802.5749164766
 21
30.5413240461
 31
0.0
  0
LINE
  5
714
330
1F
100
AcDbEntity
  8
0
  6
Continuous
 62
     7
370
    15
100
AcDbLine
 10
-751.2960180233
 20
139.1413240461
 30
0.0
 11
-752.01711957
 21
139.1413240461
 31
0.0
  0
LINE
  5
715
330
1F
100
AcDbEntity
  8
0
  6
Continuous
 62
     7
370
    15
100
AcDbLine
 10
-802.5749164766
 20
139.1413240461
 30
0.0
 11
-803.2960180233
 21
139.1413240461
 31
0.0
  0
LINE
  5
716
330
1F
100
AcDbEntity
  8
0
  6
Continuous
 62
     7
370
    15
100
AcDbLine
 10
-279.7960180233
 20
29.6024643512
 30
0.0
 11
-271.2960180233
 21
29.6024643512
 31
0.0
  0
LINE
  5
717
330
1F
100
AcDbEntity
  8
0
  6
Continuous
 62
     7
370
    15
100
AcDbLine
 10
-314.7960180233
 20
29.6024643512
 30
0.0
 11
-323.2960180233
 21
29.6024643512
 31
0.0
  0
LINE
  5
718
330
1F
100
AcDbEntity
  8
0
  6
Continuous
 62
     7
370
    15
100
AcDbLine
 10
-310.9661135709
 20
138.2024643512
 30
0.0
 11
-323.2960180233
 21
138.2024643512
 31
0.0
  0
LINE
  5
719
330
1F
100
AcDbEntity
  8
0
  6
Continuous
 62
     7
370
    15
100
AcDbLine
 10
-271.2960180233
 20
138.2024643512
 30
0.0
 11
-283.6259224757
 21
138.2024643512
 31
0.0
  0
LINE
  5
71A
330
1F
100
AcDbEntity
  8
0
  6
Continuous
 62
     7
370
    15
100
AcDbLine
 10
-431.2960180233
 20
15.2712692198
 30
0.0
 11
-483.2960180233
 21
15.2712692198
 31
0.0
  0
LINE
  5
71B
330
1F
100
AcDbEntity
  8
0
  6
Continuous
 62
     7
370
    15
100
AcDbLine
 10
-431.2960180233
 20
123.8712692198
 30
0.0
 11
-483.2960180233
 21
123.8712692198
 31
0.0
  0
LINE
  5
71C
330
1F
100
AcDbEntity
  8
0
  6
Continuous
 62
     7
370
    15
100
AcDbLine
 10
-351.2960180233
 20
8.9229392078
 30
0.0
 11
-354.2231843163
 21
8.9229392078
 31
0.0
  0
LINE
  5
71D
330
1F
100
AcDbEntity
  8
0
  6
Continuous
 62
     7
370
    15
100
AcDbLine
 10
-403.2960180233
 20
8.9229392078
 30
0.0
 11
-400.3688517303
 21
8.9229392078
 31
0.0
  0
LINE
  5
71E
330
1F
100
AcDbEntity
  8
0
  6
Continuous
 62
     7
370
    15
100
AcDbLine
 10
-351.2960180233
 20
117.5229392078
 30
0.0
 11
-354.2231843163
 21
117.5229392078
 31
0.0
  0
LINE
  5
71F
330
1F
100
AcDbEntity
  8
0
  6
Continuous
 62
     7
370
    15
100
AcDbLine
 10
-400.3688517303
 20
117.5229392078
 30
0.0
 11
-403.2960180233
 21
117.5229392078
 31
0.0
  0
LINE
  5
720
330
1F
100
AcDbEntity
  8
0
  6
Continuous
 62
     7
370
    15
100
AcDbLine
 10
-111.2960180233
 20
5.678264859
 30
0.0
 11
-113.7054148017
 21
5.678264859
 31
0.0
  0
LINE
  5
721
330
1F
100
AcDbEntity
  8
0
  6
Continuous
 62
     7
370
    15
100
AcDbLine
 10
-160.8866212449
 20
5.678264859
 30
0.0
 11
-163.2960180233
 21
5.678264859
 31
0.0
  0
LINE
  5
722
330
1F
100
AcDbEntity
  8
0
  6
Continuous
 62
     7
370
    15
100
AcDbLine
 10
-160.8866212449
 20
114.278264859
 30
0.0
 11
-163.2960180233
 21
114.278264859
 31
0.0
  0
LINE
  5
723
330
1F
100
AcDbEntity
  8
0
  6
Continuous
 62
     7
370
    15
100
AcDbLine
 10
-111.2960180233
 20
114.278264859
 30
0.0
 11
-113.7054148017
 21
114.278264859
 31
0.0
  0
LINE
  5
724
330
1F
100
AcDbEntity
  8
0
  6
Continuous
 62
     7
370
    15
100
AcDbLine
 10
-351.3150565391
 20
7.9281325143
 30
0.0
 11
-351.2960180233
 21
7.9281325143
 31
0.0
  0
LINE
  5
725
330
1F
100
AcDbEntity
  8
0
  6
Continuous
 62
     7
370
    15
100
AcDbLine
 10
-403.2960180233
 20
7.9281325143
 30
0.0
 11
-403.2769795075
 21
7.9281325143
 31
0.0
  0
LINE
  5
726
330
1F
100
AcDbEntity
  8
0
  6
Continuous
 62
     7
370
    15
100
AcDbLine
 10
-351.2960180233
 20
116.5281325143
 30
0.0
 11
-351.3150565391
 21
116.5281325143
 31
0.0
  0
LINE
  5
727
330
1F
100
AcDbEntity
  8
0
  6
Continuous
 62
     7
370
    15
100
AcDbLine
 10
-403.2769795075
 20
116.5281325143
 30
0.0
 11
-403.2960180233
 21
116.5281325143
 31
0.0
  0
LINE
  5
728
330
1F
100
AcDbEntity
  8
0
  6
Continuous
 62
     7
370
    15
100
AcDbLine
 10
-196.2829886999
 20
1.1397794278
 30
0.0
 11
-191.2960180233
 21
1.1397794278
 31
0.0
  0
LINE
  5
729
330
1F
100
AcDbEntity
  8
0
  6
Continuous
 62
     7
370
    15
100
AcDbLine
 10
-238.3090473468
 20
1.1397794278
 30
0.0
 11
-243.2960180233
 21
1.1397794278
 31
0.0
  0
LINE
  5
72A
330
1F
100
AcDbEntity
  8
0
  6
Continuous
 62
     7
370
    15
100
AcDbLine
 10
-238.3090473468
 20
109.7397794278
 30
0.0
 11
-243.2960180233
 21
109.7397794278
 31
0.0
  0
LINE
  5
72B
330
1F
100
AcDbEntity
  8
0
  6
Continuous
 62
     7
370
    15
100
AcDbLine
 10
-191.2960180233
 20
109.7397794278
 30
0.0
 11
-196.2829886999
 21
109.7397794278
 31
0.0
  0
LINE
  5
72C
330
1F
100
AcDbEntity
  8
0
  6
Continuous
 62
     7
370
    15
100
AcDbLine
 10
-271.2960180233
 20
3.3126376493
 30
0.0
 11
-323.2960180233
 21
3.3126376493
 31
0.0
  0
LINE
  5
72D
330
1F
100
AcDbEntity
  8
0
  6
Continuous
 62
     7
370
    15
100
AcDbLine
 10
-271.2960180233
 20
111.9126376493
 30
0.0
 11
-323.2960180233
 21
111.9126376493
 31
0.0
  0
LINE
  5
72E
330
1F
100
AcDbEntity
  8
0
  6
Continuous
 62
     7
370
    15
100
AcDbLine
 10
-351.2960180233
 20
-3.0622326612
 30
0.0
 11
-403.2960180233
 21
-3.0622326612
 31
0.0
  0
LINE
  5
72F
330
1F
100
AcDbEntity
  8
0
  6
Continuous
 62
     7
370
    15
100
AcDbLine
 10
-351.2960180233
 20
105.5377673388
 30
0.0
 11
-403.2960180233
 21
105.5377673388
 31
0.0
  0
LINE
  5
730
330
1F
100
AcDbEntity
  8
0
  6
Continuous
 62
     7
370
    15
100
AcDbLine
 10
-271.6331800559
 20
7.4862149468
 30
0.0
 11
-271.2960180233
 21
7.4862149468
 31
0.0
  0
LINE
  5
731
330
1F
100
AcDbEntity
  8
0
  6
Continuous
 62
     7
370
    15
100
AcDbLine
 10
-323.2960180233
 20
7.4862149468
 30
0.0
 11
-322.9588559907
 21
7.4862149468
 31
0.0
  0
LINE
  5
732
330
1F
100
AcDbEntity
  8
0
  6
Continuous
 62
     7
370
    15
100
AcDbLine
 10
-271.2960180233
 20
116.0862149468
 30
0.0
 11
-271.6331800559
 21
116.0862149468
 31
0.0
  0
LINE
  5
733
330
1F
100
AcDbEntity
  8
0
  6
Continuous
 62
     7
370
    15
100
AcDbLine
 10
-322.9588559907
 20
116.0862149468
 30
0.0
 11
-323.2960180233
 21
116.0862149468
 31
0.0
  0
LINE
  5
734
330
1F
100
AcDbEntity
  8
0
  6
Continuous
 62
     7
370
    15
100
AcDbLine
 10
-591.337128363
 20
27.648309723
 30
0.0
 11
-591.2960180233
 21
27.648309723
 31
0.0
  0
LINE
  5
735
330
1F
100
AcDbEntity
  8
0
  6
Continuous
 62
     7
370
    15
100
AcDbLine
 10
-643.2960180233
 20
27.648309723
 30
0.0
 11
-643.2549076836
 21
27.648309723
 31
0.0
  0
LINE
  5
736
330
1F
100
AcDbEntity
  8
0
  6
Continuous
 62
     7
370
    15
100
AcDbLine
 10
-591.2960180233
 20
136.248309723
 30
0.0
 11
-591.337128363
 21
136.248309723
 31
0.0
  0
LINE
  5
737
330
1F
100
AcDbEntity
  8
0
  6
Continuous
 62
     7
370
    15
100
AcDbLine
 10
-643.2549076836
 20
136.248309723
 30
0.0
 11
-643.2960180233
 21
136.248309723
 31
0.0
  0
LINE
  5
738
330
1F
100
AcDbEntity
  8
0
  6
Continuous
 62
     7
370
    15
100
AcDbLine
 10
-512.3587044698
 20
27.0002845575
 30
0.0
 11
-511.2960180233
 21
27.0002845575
 31
0.0
  0
LINE
  5
739
330
1F
100
AcDbEntity
  8
0
  6
Continuous
 62
     7
370
    15
100
AcDbLine
 10
-563.2960180233
 20
27.0002845575
 30
0.0
 11
-562.2333315768
 21
27.0002845575
 31
0.0
  0
LINE
  5
73A
330
1F
100
AcDbEntity
  8
0
  6
Continuous
 62
     7
370
    15
100
AcDbLine
 10
-562.2333315768
 20
135.6002845575
 30
0.0
 11
-563.2960180233
 21
135.6002845575
 31
0.0
  0
LINE
  5
73B
330
1F
100
AcDbEntity
  8
0
  6
Continuous
 62
     7
370
    15
100
AcDbLine
 10
-511.2960180233
 20
135.6002845575
 30
0.0
 11
-512.3587044698
 21
135.6002845575
 31
0.0
  0
LINE
  5
73C
330
1F
100
AcDbEntity
  8
0
  6
Continuous
 62
     7
370
    15
100
AcDbLine
 10
-111.2960180233
 20
-5.2525832161
 30
0.0
 11
-163.2960180233
 21
-5.2525832161
 31
0.0
  0
LINE
  5
73D
330
1F
100
AcDbEntity
  8
0
  6
Continuous
 62
     7
370
    15
100
AcDbLine
 10
-111.2960180233
 20
103.3474167839
 30
0.0
 11
-163.2960180233
 21
103.3474167839
 31
0.0
  0
LINE
  5
73E
330
1F
100
AcDbEntity
  8
0
  6
Continuous
 62
     7
370
    15
100
AcDbLine
 10
-755.9310035983
 20
8.3323199137
 30
0.0
 11
-751.2960180233
 21
8.3323199137
 31
0.0
  0
LINE
  5
73F
330
1F
100
AcDbEntity
  8
0
  6
Continuous
 62
     7
370
    15
100
AcDbLine
 10
-798.6610324483
 20
8.3323199137
 30
0.0
 11
-803.2960180233
 21
8.3323199137
 31
0.0
  0
LINE
  5
740
330
1F
100
AcDbEntity
  8
0
  6
Continuous
 62
     7
370
    15
100
AcDbLine
 10
-803.2960180233
 20
116.9323199137
 30
0.0
 11
-798.6610324483
 21
116.9323199137
 31
0.0
  0
LINE
  5
741
330
1F
100
AcDbEntity
  8
0
  6
Continuous
 62
     7
370
    15
100
AcDbLine
 10
-751.2960180233
 20
116.9323199137
 30
0.0
 11
-755.9310035983
 21
116.9323199137
 31
0.0
  0
LINE
  5
742
330
1F
100
AcDbEntity
  8
0
  6
Continuous
 62
     7
370
    15
100
AcDbLine
 10
-271.3404727775
 20
9.0059751224
 30
0.0
 11
-271.2960180233
 21
9.0059751224
 31
0.0
  0
LINE
  5
743
330
1F
100
AcDbEntity
  8
0
  6
Continuous
 62
     7
370
    15
100
AcDbLine
 10
-323.2960180233
 20
9.0059751224
 30
0.0
 11
-323.2515632691
 21
9.0059751224
 31
0.0
  0
LINE
  5
744
330
1F
100
AcDbEntity
  8
0
  6
Continuous
 62
     7
370
    15
100
AcDbLine
 10
-271.2960180233
 20
117.6059751224
 30
0.0
 11
-271.3404727775
 21
117.6059751224
 31
0.0
  0
LINE
  5
745
330
1F
100
AcDbEntity
  8
0
  6
Continuous
 62
     7
370
    15
100
AcDbLine
 10
-323.2515632691
 20
117.6059751224
 30
0.0
 11
-323.2960180233
 21
117.6059751224
 31
0.0
  0
LINE
  5
746
330
1F
100
AcDbEntity
  8
0
  6
Continuous
 62
     7
370
    15
100
AcDbLine
 10
-191.846227106
 20
17.4641439712
 30
0.0
 11
-191.2960180233
 21
17.4641439712
 31
0.0
  0
LINE
  5
747
330
1F
100
AcDbEntity
  8
0
  6
Continuous
 62
     7
370
    15
100
AcDbLine
 10
-242.7458089406
 20
17.4641439712
 30
0.0
 11
-243.2960180233
 21
17.4641439712
 31
0.0
  0
LINE
  5
748
330
1F
100
AcDbEntity
  8
0
  6
Continuous
 62
     7
370
    15
100
AcDbLine
 10
-242.7458089406
 20
126.0641439712
 30
0.0
 11
-243.2960180233
 21
126.0641439712
 31
0.0
  0
LINE
  5
749
330
1F
100
AcDbEntity
  8
0
  6
Continuous
 62
     7
370
    15
100
AcDbLine
 10
-191.2960180233
 20
126.0641439712
 30
0.0
 11
-191.846227106
 21
126.0641439712
 31
0.0
  0
LINE
  5
74A
330
1F
100
AcDbEntity
  8
0
  6
Continuous
 62
     7
370
    15
100
AcDbLine
 10
-671.3174034096
 20
27.9149174604
 30
0.0
 11
-671.2960180233
 21
27.9149174604
 31
0.0
  0
LINE
  5
74B
330
1F
100
AcDbEntity
  8
0
  6
Continuous
 62
     7
370
    15
100
AcDbLine
 10
-723.2960180233
 20
27.9149174604
 30
0.0
 11
-723.274632637
 21
27.9149174604
 31
0.0
  0
LINE
  5
74C
330
1F
100
AcDbEntity
  8
0
  6
Continuous
 62
     7
370
    15
100
AcDbLine
 10
-671.2960180233
 20
136.5149174604
 30
0.0
 11
-671.3118840845
 21
136.5149174604
 31
0.0
  0
LINE
  5
74D
330
1F
100
AcDbEntity
  8
0
  6
Continuous
 62
     7
370
    15
100
AcDbLine
 10
-723.2801519621
 20
136.5149174604
 30
0.0
 11
-723.2960180233
 21
136.5149174604
 31
0.0
  0
LINE
  5
74E
330
1F
100
AcDbEntity
  8
0
  6
Continuous
 62
     7
370
    15
100
AcDbLine
 10
-271.8446751766
 20
-2.0004732378
 30
0.0
 11
-271.2960180233
 21
-2.0004732378
 31
0.0
  0
LINE
  5
74F
330
1F
100
AcDbEntity
  8
0
  6
Continuous
 62
     7
370
    15
100
AcDbLine
 10
-323.2960180233
 20
-2.0004732378
 30
0.0
 11
-322.74736087
 21
-2.0004732378
 31
0.0
  0
LINE
  5
750
330
1F
100
AcDbEntity
  8
0
  6
Continuous
 62
     7
370
    15
100
AcDbLine
 10
-271.2960180233
 20
106.5995267622
 30
0.0
 11
-271.8446751766
 21
106.5995267622
 31
0.0
  0
LINE
  5
751
330
1F
100
AcDbEntity
  8
0
  6
Continuous
 62
     7
370
    15
100
AcDbLine
 10
-322.74736087
 20
106.5995267622
 30
0.0
 11
-323.2960180233
 21
106.5995267622
 31
0.0
  0
LINE
  5
752
330
1F
100
AcDbEntity
  8
0
  6
Continuous
 62
     7
370
    15
100
AcDbLine
 10
-591.2960180233
 20
4.8056904075
 30
0.0
 11
-591.603305798
 21
4.8056904075
 31
0.0
  0
LINE
  5
753
330
1F
100
AcDbEntity
  8
0
  6
Continuous
 62
     7
370
    15
100
AcDbLine
 10
-643.2960180233
 20
4.8056904075
 30
0.0
 11
-642.9887302486
 21
4.8056904075
 31
0.0
  0
LINE
  5
754
330
1F
100
AcDbEntity
  8
0
  6
Continuous
 62
     7
370
    15
100
AcDbLine
 10
-591.2960180233
 20
113.4056904075
 30
0.0
 11
-591.603305798
 21
113.4056904075
 31
0.0
  0
LINE
  5
755
330
1F
100
AcDbEntity
  8
0
  6
Continuous
 62
     7
370
    15
100
AcDbLine
 10
-642.9887302486
 20
113.4056904075
 30
0.0
 11
-643.2960180233
 21
113.4056904075
 31
0.0
  0
LINE
  5
756
330
1F
100
AcDbEntity
  8
0
  6
Continuous
 62
     7
370
    15
100
AcDbLine
 10
-112.3058190059
 20
-12.4282332263
 30
0.0
 11
-111.2960180233
 21
-12.4282332263
 31
0.0
  0
LINE
  5
757
330
1F
100
AcDbEntity
  8
0
  6
Continuous
 62
     7
370
    15
100
AcDbLine
 10
-163.2960180233
 20
-12.4282332263
 30
0.0
 11
-162.2862170407
 21
-12.4282332263
 31
0.0
  0
LINE
  5
758
330
1F
100
AcDbEntity
  8
0
  6
Continuous
 62
     7
370
    15
100
AcDbLine
 10
-112.3058190059
 20
96.1717667737
 30
0.0
 11
-111.2960180233
 21
96.1717667737
 31
0.0
  0
LINE
  5
759
330
1F
100
AcDbEntity
  8
0
  6
Continuous
 62
     7
370
    15
100
AcDbLine
 10
-162.2862170407
 20
96.1717667737
 30
0.0
 11
-163.2960180233
 21
96.1717667737
 31
0.0
  0
LINE
  5
75A
330
1F
100
AcDbEntity
  8
0
  6
Continuous
 62
     7
370
    15
100
AcDbLine
 10
-352.689380312
 20
17.3201637816
 30
0.0
 11
-351.2960180233
 21
17.3201637816
 31
0.0
  0
LINE
  5
75B
330
1F
100
AcDbEntity
  8
0
  6
Continuous
 62
     7
370
    15
100
AcDbLine
 10
-403.2960180233
 20
17.3201637816
 30
0.0
 11
-401.9026557346
 21
17.3201637816
 31
0.0
  0
LINE
  5
75C
330
1F
100
AcDbEntity
  8
0
  6
Continuous
 62
     7
370
    15
100
AcDbLine
 10
-351.2960180233
 20
125.9201637816
 30
0.0
 11
-352.689380312
 21
125.9201637816
 31
0.0
  0
LINE
  5
75D
330
1F
100
AcDbEntity
  8
0
  6
Continuous
 62
     7
370
    15
100
AcDbLine
 10
-401.9026557346
 20
125.9201637816
 30
0.0
 11
-403.2960180233
 21
125.9201637816
 31
0.0
  0
LINE
  5
75E
330
1F
100
AcDbEntity
  8
0
  6
Continuous
 62
     7
370
    15
100
AcDbLine
 10
-431.4716455516
 20
12.2543525086
 30
0.0
 11
-431.2960180233
 21
12.2543525086
 31
0.0
  0
LINE
  5
75F
330
1F
100
AcDbEntity
  8
0
  6
Continuous
 62
     7
370
    15
100
AcDbLine
 10
-483.2960180233
 20
12.2543525086
 30
0.0
 11
-483.120390495
 21
12.2543525086
 31
0.0
  0
LINE
  5
760
330
1F
100
AcDbEntity
  8
0
  6
Continuous
 62
     7
370
    15
100
AcDbLine
 10
-431.2960180233
 20
120.8543525086
 30
0.0
 11
-431.4716455516
 21
120.8543525086
 31
0.0
  0
LINE
  5
761
330
1F
100
AcDbEntity
  8
0
  6
Continuous
 62
     7
370
    15
100
AcDbLine
 10
-483.2960180233
 20
120.8543525086
 30
0.0
 11
-483.120390495
 21
120.8543525086
 31
0.0
  0
LINE
  5
762
330
1F
100
AcDbEntity
  8
0
  6
Continuous
 62
     7
370
    15
100
AcDbLine
 10
-431.3145140765
 20
11.2738155832
 30
0.0
 11
-431.2960180233
 21
11.2738155832
 31
0.0
  0
LINE
  5
763
330
1F
100
AcDbEntity
  8
0
  6
Continuous
 62
     7
370
    15
100
AcDbLine
 10
-483.2960180233
 20
11.2738155832
 30
0.0
 11
-483.2775219701
 21
11.2738155832
 31
0.0
  0
LINE
  5
764
330
1F
100
AcDbEntity
  8
0
  6
Continuous
 62
     7
370
    15
100
AcDbLine
 10
-431.2960180233
 20
119.8738155832
 30
0.0
 11
-431.3145140765
 21
119.8738155832
 31
0.0
  0
LINE
  5
765
330
1F
100
AcDbEntity
  8
0
  6
Continuous
 62
     7
370
    15
100
AcDbLine
 10
-483.2775219701
 20
119.8738155832
 30
0.0
 11
-483.2960180233
 21
119.8738155832
 31
0.0
  0
LINE
  5
766
330
1F
100
AcDbEntity
  8
0
  6
Continuous
 62
     7
370
    15
100
AcDbLine
 10
-511.3072140396
 20
1.4681362052
 30
0.0
 11
-511.2960180233
 21
1.4681362052
 31
0.0
  0
LINE
  5
767
330
1F
100
AcDbEntity
  8
0
  6
Continuous
 62
     7
370
    15
100
AcDbLine
 10
-563.2960180233
 20
1.4681362052
 30
0.0
 11
-563.284822007
 21
1.4681362052
 31
0.0
  0
LINE
  5
768
330
1F
100
AcDbEntity
  8
0
  6
Continuous
 62
     7
370
    15
100
AcDbLine
 10
-511.2960180233
 20
110.0681362052
 30
0.0
 11
-511.3072140396
 21
110.0681362052
 31
0.0
  0
LINE
  5
769
330
1F
100
AcDbEntity
  8
0
  6
Continuous
 62
     7
370
    15
100
AcDbLine
 10
-563.284822007
 20
110.0681362052
 30
0.0
 11
-563.2960180233
 21
110.0681362052
 31
0.0
  0
LINE
  5
76A
330
1F
100
AcDbEntity
  8
0
  6
Continuous
 62
     7
370
    15
100
AcDbLine
 10
-191.4498167207
 20
3.9635850557
 30
0.0
 11
-191.2960180233
 21
3.9635850557
 31
0.0
  0
LINE
  5
76B
330
1F
100
AcDbEntity
  8
0
  6
Continuous
 62
     7
370
    15
100
AcDbLine
 10
-243.2960180233
 20
3.9635850557
 30
0.0
 11
-243.1422193259
 21
3.9635850557
 31
0.0
  0
LINE
  5
76C
330
1F
100
AcDbEntity
  8
0
  6
Continuous
 62
     7
370
    15
100
AcDbLine
 10
-191.2960180233
 20
112.5635850557
 30
0.0
 11
-191.4444449654
 21
112.5635850557
 31
0.0
  0
LINE
  5
76D
330
1F
100
AcDbEntity
  8
0
  6
Continuous
 62
     7
370
    15
100
AcDbLine
 10
-243.2960180233
 20
112.5635850557
 30
0.0
 11
-243.1422193259
 21
112.5635850557
 31
0.0
  0
LINE
  5
76E
330
1F
100
AcDbEntity
  8
0
  6
Continuous
 62
     7
370
    15
100
AcDbLine
 10
-359.7960180233
 20
37.0857712938
 30
0.0
 11
-351.2960180233
 21
37.0857712938
 31
0.0
  0
LINE
  5
76F
330
1F
100
AcDbEntity
  8
0
  6
Continuous
 62
     7
370
    15
100
AcDbLine
 10
-394.7960180233
 20
37.0857712938
 30
0.0
 11
-403.2960180233
 21
37.0857712938
 31
0.0
  0
LINE
  5
770
330
1F
100
AcDbEntity
  8
0
  6
Continuous
 62
     7
370
    15
100
AcDbLine
 10
-394.1874584495
 20
145.6857712938
 30
0.0
 11
-403.2960180233
 21
145.6857712938
 31
0.0
  0
LINE
  5
771
330
1F
100
AcDbEntity
  8
0
  6
Continuous
 62
     7
370
    15
100
AcDbLine
 10
-351.2960180233
 20
145.6857712938
 30
0.0
 11
-360.4045775971
 21
145.6857712938
 31
0.0
  0
LINE
  5
772
330
1F
100
AcDbEntity
  8
0
  6
Continuous
 62
     7
370
    15
100
AcDbLine
 10
-599.2960180233
 20
90.6584861867
 30
0.0
 11
-635.2960180233
 21
90.6584861867
 31
0.0
  0
LINE
  5
773
330
1F
100
AcDbEntity
  8
0
  6
Continuous
 62
     7
370
    15
100
AcDbLine
 10
-519.2960180233
 20
90.5435396835
 30
0.0
 11
-555.2960180233
 21
90.5435396835
 31
0.0
  0
LINE
  5
774
330
1F
100
AcDbEntity
  8
0
  6
Continuous
 62
     7
370
    15
100
AcDbLine
 10
-199.2960180233
 20
75.6662713445
 30
0.0
 11
-235.2960180233
 21
75.6662713445
 31
0.0
  0
LINE
  5
775
330
1F
100
AcDbEntity
  8
0
  6
Continuous
 62
     7
370
    15
100
AcDbLine
 10
-439.2960180233
 20
105.1096061805
 30
0.0
 11
-475.2960180233
 21
105.1096061805
 31
0.0
  0
LINE
  5
776
330
1F
100
AcDbEntity
  8
0
  6
Continuous
 62
     7
370
    15
100
AcDbLine
 10
-279.2960180233
 20
93.15097461
 30
0.0
 11
-315.2960180233
 21
93.15097461
 31
0.0
  0
LINE
  5
777
330
1F
100
AcDbEntity
  8
0
  6
Continuous
 62
     7
370
    15
100
AcDbLine
 10
-359.2960180233
 20
86.7761042995
 30
0.0
 11
-395.2960180233
 21
86.7761042995
 31
0.0
  0
LINE
  5
778
330
1F
100
AcDbEntity
  8
0
  6
Continuous
 62
     7
370
    15
100
AcDbLine
 10
-120.4214287401
 20
84.5857537446
 30
0.0
 11
-155.2960180233
 21
84.5857537446
 31
0.0
  0
LINE
  5
779
330
1F
100
AcDbEntity
  8
0
  6
Continuous
 62
     7
370
    15
100
AcDbLine
 10
-759.2960180233
 20
98.1706568744
 30
0.0
 11
-759.7960180233
 21
98.1706568744
 31
0.0
  0
LINE
  5
77A
330
1F
100
AcDbEntity
  8
0
  6
Continuous
 62
     7
370
    15
100
AcDbLine
 10
-794.7960180233
 20
98.1706568744
 30
0.0
 11
-795.2960180233
 21
98.1706568744
 31
0.0
  0
LINE
  5
77B
330
1F
100
AcDbEntity
  8
0
  6
Continuous
 62
     7
370
    15
100
AcDbLine
 10
-279.2960180233
 20
87.8378637229
 30
0.0
 11
-279.7960180233
 21
87.8378637229
 31
0.0
  0
LINE
  5
77C
330
1F
100
AcDbEntity
  8
0
  6
Continuous
 62
     7
370
    15
100
AcDbLine
 10
-314.7960180233
 20
87.8378637229
 30
0.0
 11
-315.2960180233
 21
87.8378637229
 31
0.0
  0
LINE
  5
77D
330
1F
100
AcDbEntity
  8
0
  6
Continuous
 62
     7
370
    15
100
AcDbLine
 10
-154.7960180233
 20
77.4101037344
 30
0.0
 11
-155.2960180233
 21
77.4101037344
 31
0.0
  0
LINE
  5
77E
330
1F
100
AcDbEntity
  8
0
  6
Continuous
 62
     7
370
    15
100
AcDbLine
 10
-439.2960180233
 20
102.0926894693
 30
0.0
 11
-439.7960180233
 21
102.0926894693
 31
0.0
  0
LINE
  5
77F
330
1F
100
AcDbEntity
  8
0
  6
Continuous
 62
     7
370
    15
100
AcDbLine
 10
-474.7960180233
 20
102.0926894693
 30
0.0
 11
-475.2960180233
 21
102.0926894693
 31
0.0
  0
LINE
  5
780
330
1F
100
AcDbEntity
  8
0
  6
Continuous
 62
     7
370
    15
100
AcDbLine
 10
-439.2960180233
 20
101.1121525439
 30
0.0
 11
-439.7960180233
 21
101.1121525439
 31
0.0
  0
LINE
  5
781
330
1F
100
AcDbEntity
  8
0
  6
Continuous
 62
     7
370
    15
100
AcDbLine
 10
-474.7960180233
 20
101.1121525439
 30
0.0
 11
-475.2960180233
 21
101.1121525439
 31
0.0
  0
LINE
  5
782
330
1F
100
AcDbEntity
  8
0
  6
Continuous
 62
     7
370
    15
100
AcDbLine
 10
1540.2039819767
 20
-62.5290886276
 30
0.0
 11
1540.2039819767
 21
147.4709113724
 31
0.0
  0
LINE
  5
783
330
1F
100
AcDbEntity
  8
0
  6
Continuous
 62
     7
370
    15
100
AcDbLine
 10
-2454.7960180233
 20
147.4709113724
 30
0.0
 11
-2454.7960180233
 21
-62.5290886276
 31
0.0
  0
LINE
  5
784
330
1F
100
AcDbEntity
  8
0
  6
Continuous
 62
     7
370
    15
100
AcDbLine
 10
-954.7960180233
 20
-1562.5290886276
 30
0.0
 11
40.2039819767
 21
-1562.5290886276
 31
0.0
  0
LINE
  5
785
330
1F
100
AcDbEntity
  8
0
  6
Continuous
 62
     7
370
    15
100
AcDbLine
 10
40.2039819767
 20
1647.4709113724
 30
0.0
 11
-954.7960180233
 21
1647.4709113724
 31
0.0
  0
LINE
  5
786
330
1F
100
AcDbEntity
  8
0
  6
Continuous
 62
     7
370
    15
100
AcDbLine
 10
-635.2960180233
 20
19.5818122653
 30
0.0
 11
-599.2960180233
 21
19.5818122653
 31
0.0
  0
LINE
  5
787
330
1F
100
AcDbEntity
  8
0
  6
Continuous
 62
     7
370
    15
100
AcDbLine
 10
-555.2960180233
 20
19.4668657621
 30
0.0
 11
-519.2960180233
 21
19.4668657621
 31
0.0
  0
LINE
  5
788
330
1F
100
AcDbEntity
  8
0
  6
Continuous
 62
     7
370
    15
100
AcDbLine
 10
-519.7960180233
 20
32.8357389818
 30
0.0
 11
-519.2960180233
 21
32.8357389818
 31
0.0
  0
LINE
  5
789
330
1F
100
AcDbEntity
  8
0
  6
Continuous
 62
     7
370
    15
100
AcDbLine
 10
-555.2960180233
 20
32.8357389818
 30
0.0
 11
-554.7960180233
 21
32.8357389818
 31
0.0
  0
LINE
  5
78A
330
1F
100
AcDbEntity
  8
0
  6
Continuous
 62
     7
370
    15
100
AcDbLine
 10
-439.7960180233
 20
47.1592755997
 30
0.0
 11
-439.2960180233
 21
47.1592755997
 31
0.0
  0
LINE
  5
78B
330
1F
100
AcDbEntity
  8
0
  6
Continuous
 62
     7
370
    15
100
AcDbLine
 10
-475.2960180233
 20
47.1592755997
 30
0.0
 11
-474.7960180233
 21
47.1592755997
 31
0.0
  0
LINE
  5
78C
330
1F
100
AcDbEntity
  8
0
  6
Continuous
 62
     7
370
    15
100
AcDbLine
 10
-555.2960180233
 20
38.4046116161
 30
0.0
 11
-554.7960180233
 21
38.4046116161
 31
0.0
  0
LINE
  5
78D
330
1F
100
AcDbEntity
  8
0
  6
Continuous
 62
     7
370
    15
100
AcDbLine
 10
-519.7960180233
 20
38.4046116161
 30
0.0
 11
-519.2960180233
 21
38.4046116161
 31
0.0
  0
LINE
  5
78E
330
1F
100
AcDbEntity
  8
0
  6
Continuous
 62
     7
370
    15
100
AcDbLine
 10
-199.7960180233
 20
41.5463466695
 30
0.0
 11
-199.2960180233
 21
41.5463466695
 31
0.0
  0
LINE
  5
78F
330
1F
100
AcDbEntity
  8
0
  6
Continuous
 62
     7
370
    15
100
AcDbLine
 10
-235.2960180233
 20
41.5463466695
 30
0.0
 11
-234.7960180233
 21
41.5463466695
 31
0.0
  0
LINE
  5
790
330
1F
100
AcDbEntity
  8
0
  6
Continuous
 62
     7
370
    15
100
AcDbLine
 10
-235.2960180233
 20
4.5895974231
 30
0.0
 11
-199.2960180233
 21
4.5895974231
 31
0.0
  0
LINE
  5
791
330
1F
100
AcDbEntity
  8
0
  6
Continuous
 62
     7
370
    15
100
AcDbLine
 10
-279.7960180233
 20
48.3641273905
 30
0.0
 11
-279.2960180233
 21
48.3641273905
 31
0.0
  0
LINE
  5
792
330
1F
100
AcDbEntity
  8
0
  6
Continuous
 62
     7
370
    15
100
AcDbLine
 10
-315.2960180233
 20
48.3641273905
 30
0.0
 11
-314.7960180233
 21
48.3641273905
 31
0.0
  0
LINE
  5
793
330
1F
100
AcDbEntity
  8
0
  6
Continuous
 62
     7
370
    15
100
AcDbLine
 10
-475.2960180233
 20
34.032932259
 30
0.0
 11
-439.2960180233
 21
34.032932259
 31
0.0
  0
LINE
  5
794
330
1F
100
AcDbEntity
  8
0
  6
Continuous
 62
     7
370
    15
100
AcDbLine
 10
-359.7960180233
 20
27.6846022471
 30
0.0
 11
-359.2960180233
 21
27.6846022471
 31
0.0
  0
LINE
  5
795
330
1F
100
AcDbEntity
  8
0
  6
Continuous
 62
     7
370
    15
100
AcDbLine
 10
-395.2960180233
 20
27.6846022471
 30
0.0
 11
-394.7960180233
 21
27.6846022471
 31
0.0
  0
LINE
  5
796
330
1F
100
AcDbEntity
  8
0
  6
Continuous
 62
     7
370
    15
100
AcDbLine
 10
-119.7960180233
 20
24.4399278982
 30
0.0
 11
-119.2960180233
 21
24.4399278982
 31
0.0
  0
LINE
  5
797
330
1F
100
AcDbEntity
  8
0
  6
Continuous
 62
     7
370
    15
100
AcDbLine
 10
-155.2960180233
 20
24.4399278982
 30
0.0
 11
-154.7960180233
 21
24.4399278982
 31
0.0
  0
LINE
  5
798
330
1F
100
AcDbEntity
  8
0
  6
Continuous
 62
     7
370
    15
100
AcDbLine
 10
-315.2960180233
 20
22.0743006886
 30
0.0
 11
-279.2960180233
 21
22.0743006886
 31
0.0
  0
LINE
  5
799
330
1F
100
AcDbEntity
  8
0
  6
Continuous
 62
     7
370
    15
100
AcDbLine
 10
-395.2960180233
 20
15.6994303781
 30
0.0
 11
-359.2960180233
 21
15.6994303781
 31
0.0
  0
LINE
  5
79A
330
1F
100
AcDbEntity
  8
0
  6
Continuous
 62
     7
370
    15
100
AcDbLine
 10
-279.7960180233
 20
26.2478779861
 30
0.0
 11
-279.2960180233
 21
26.2478779861
 31
0.0
  0
LINE
  5
79B
330
1F
100
AcDbEntity
  8
0
  6
Continuous
 62
     7
370
    15
100
AcDbLine
 10
-315.2960180233
 20
26.2478779861
 30
0.0
 11
-314.7960180233
 21
26.2478779861
 31
0.0
  0
LINE
  5
79C
330
1F
100
AcDbEntity
  8
0
  6
Continuous
 62
     7
370
    15
100
AcDbLine
 10
-555.2960180233
 20
45.7619475968
 30
0.0
 11
-554.7960180233
 21
45.7619475968
 31
0.0
  0
LINE
  5
79D
330
1F
100
AcDbEntity
  8
0
  6
Continuous
 62
     7
370
    15
100
AcDbLine
 10
-519.7960180233
 20
45.7619475968
 30
0.0
 11
-519.2960180233
 21
45.7619475968
 31
0.0
  0
LINE
  5
79E
330
1F
100
AcDbEntity
  8
0
  6
Continuous
 62
     7
370
    15
100
AcDbLine
 10
-155.2960180233
 20
13.5090798232
 30
0.0
 11
-119.2960180233
 21
13.5090798232
 31
0.0
  0
LINE
  5
79F
330
1F
100
AcDbEntity
  8
0
  6
Continuous
 62
     7
370
    15
100
AcDbLine
 10
-359.7960180233
 20
36.0818268209
 30
0.0
 11
-359.2960180233
 21
36.0818268209
 31
0.0
  0
LINE
  5
7A0
330
1F
100
AcDbEntity
  8
0
  6
Continuous
 62
     7
370
    15
100
AcDbLine
 10
-395.2960180233
 20
36.0818268209
 30
0.0
 11
-394.7960180233
 21
36.0818268209
 31
0.0
  0
LINE
  5
7A1
330
1F
100
AcDbEntity
  8
0
  6
Continuous
 62
     7
370
    15
100
AcDbLine
 10
-854.2960180233
 20
71.350734788
 30
0.0
 11
-60.2960180233
 21
71.350734788
 31
0.0
  0
LINE
  5
7A2
330
1F
100
AcDbEntity
  8
0
  6
Continuous
 62
     7
370
    15
100
AcDbLine
 10
-60.2960180233
 20
51.350734788
 30
0.0
 11
-854.2960180233
 21
51.350734788
 31
0.0
  0
LINE
  5
7A3
330
1F
100
AcDbEntity
  8
0
  6
Continuous
 62
     7
370
    15
100
AcDbLine
 10
-57.2960180233
 20
54.350734788
 30
0.0
 11
-57.2960180233
 21
68.350734788
 31
0.0
  0
LINE
  5
7A4
330
1F
100
AcDbEntity
  8
0
  6
Continuous
 62
     7
370
    15
100
AcDbLine
 10
-857.2960180233
 20
54.350734788
 30
0.0
 11
-857.2960180233
 21
68.350734788
 31
0.0
  0
LINE
  5
7A5
330
1F
100
AcDbEntity
  8
0
  6
Continuous
 62
     7
370
    15
100
AcDbLine
 10
-55.7960180233
 20
75.2284642746
 30
0.0
 11
-55.7960180233
 21
72.7284642746
 31
0.0
  0
LINE
  5
7A6
330
1F
100
AcDbEntity
  8
0
  6
Continuous
 62
     7
370
    15
100
AcDbLine
 10
-120.7960180233
 20
72.7284642746
 30
0.0
 11
-55.7960180233
 21
72.7284642746
 31
0.0
  0
LINE
  5
7A7
330
1F
100
AcDbEntity
  8
0
  6
Continuous
 62
     7
370
    15
100
AcDbLine
 10
-55.7960180233
 20
48.2284642746
 30
0.0
 11
-55.7960180233
 21
50.7284642746
 31
0.0
  0
LINE
  5
7A8
330
1F
100
AcDbEntity
  8
0
  6
Continuous
 62
     7
370
    15
100
AcDbLine
 10
-55.7960180233
 20
50.7284642746
 30
0.0
 11
-120.7960180233
 21
50.7284642746
 31
0.0
  0
LINE
  5
7A9
330
1F
100
AcDbEntity
  8
0
  6
Continuous
 62
     7
370
    15
100
AcDbLine
 10
-858.7960180233
 20
75.2284642746
 30
0.0
 11
-858.7960180233
 21
72.7284642746
 31
0.0
  0
LINE
  5
7AA
330
1F
100
AcDbEntity
  8
0
  6
Continuous
 62
     7
370
    15
100
AcDbLine
 10
-858.7960180233
 20
72.7284642746
 30
0.0
 11
-793.7960180233
 21
72.7284642746
 31
0.0
  0
LINE
  5
7AB
330
1F
100
AcDbEntity
  8
0
  6
Continuous
 62
     7
370
    15
100
AcDbLine
 10
-793.7960180233
 20
50.7284642746
 30
0.0
 11
-858.7960180233
 21
50.7284642746
 31
0.0
  0
LINE
  5
7AC
330
1F
100
AcDbEntity
  8
0
  6
Continuous
 62
     7
370
    15
100
AcDbLine
 10
-858.7960180233
 20
48.2284642746
 30
0.0
 11
-858.7960180233
 21
50.7284642746
 31
0.0
  0
LINE
  5
7AD
330
1F
100
AcDbEntity
  8
0
  6
PHANTOM
 62
     8
370
     0
100
AcDbLine
 10
18.6499652681
 20
91.7214362476
 30
0.0
 11
-16.0546815233
 21
102.3317115609
 31
0.0
  0
LINE
  5
7AE
330
1F
100
AcDbEntity
  8
0
  6
PHANTOM
 62
     8
370
     0
100
AcDbLine
 10
-39.7369702784
 20
110.024755589
 30
0.0
 11
-37.6664179176
 21
102.2973489787
 31
0.0
  0
LINE
  5
7AF
330
1F
100
AcDbEntity
  8
0
  6
PHANTOM
 62
     8
370
     0
100
AcDbLine
 10
-112.7960180233
 20
82.1664333027
 30
0.0
 11
-112.7960180233
 21
72.7284642746
 31
0.0
  0
LINE
  5
7B0
330
1F
100
AcDbEntity
  8
0
  6
PHANTOM
 62
     8
370
     0
100
AcDbLine
 10
-37.6664179176
 20
102.2973489787
 30
0.0
 11
-112.7960180233
 21
82.1664333027
 31
0.0
  0
LINE
  5
7B1
330
1F
100
AcDbEntity
  8
0
  6
PHANTOM
 62
     8
370
     0
100
AcDbLine
 10
32.2039819767
 20
62.4784642746
 30
0.0
 11
32.2039819767
 21
72.2356294172
 31
0.0
  0
LINE
  5
7B2
330
1F
100
AcDbEntity
  8
0
  6
PHANTOM
 62
     8
370
     0
100
AcDbLine
 10
-112.7960180233
 20
82.1664333027
 30
0.0
 11
-120.7960180233
 21
82.1664333027
 31
0.0
  0
LINE
  5
7B3
330
1F
100
AcDbEntity
  8
0
  6
PHANTOM
 62
     8
370
     0
100
AcDbLine
 10
-114.8665703841
 20
89.8938399131
 30
0.0
 11
-112.7960180233
 21
82.1664333027
 31
0.0
  0
LINE
  5
7B4
330
1F
100
AcDbEntity
  8
0
  6
PHANTOM
 62
     8
370
     0
100
AcDbLine
 10
-37.6664179176
 20
21.1595795705
 30
0.0
 11
-39.7369702784
 21
13.4321729601
 31
0.0
  0
LINE
  5
7B5
330
1F
100
AcDbEntity
  8
0
  6
PHANTOM
 62
     8
370
     0
100
AcDbLine
 10
-16.0546815233
 20
21.1252169883
 30
0.0
 11
18.6499652681
 21
31.7354923016
 31
0.0
  0
LINE
  5
7B6
330
1F
100
AcDbEntity
  8
0
  6
PHANTOM
 62
     8
370
     0
100
AcDbLine
 10
32.2039819767
 20
51.221299132
 30
0.0
 11
32.2039819767
 21
60.9784642746
 31
0.0
  0
LINE
  5
7B7
330
1F
100
AcDbEntity
  8
0
  6
PHANTOM
 62
     8
370
     0
100
AcDbLine
 10
-112.7960180233
 20
41.2904952464
 30
0.0
 11
-37.6664179176
 21
21.1595795705
 31
0.0
  0
LINE
  5
7B8
330
1F
100
AcDbEntity
  8
0
  6
PHANTOM
 62
     8
370
     0
100
AcDbLine
 10
-112.7960180233
 20
50.7284642746
 30
0.0
 11
-112.7960180233
 21
41.2904952464
 31
0.0
  0
LINE
  5
7B9
330
1F
100
AcDbEntity
  8
0
  6
PHANTOM
 62
     8
370
     0
100
AcDbLine
 10
-112.7960180233
 20
41.2904952464
 30
0.0
 11
-120.7960180233
 21
41.2904952464
 31
0.0
  0
LINE
  5
7BA
330
1F
100
AcDbEntity
  8
0
  6
PHANTOM
 62
     8
370
     0
100
AcDbLine
 10
-112.7960180233
 20
41.2904952464
 30
0.0
 11
-114.8665703841
 21
33.5630886361
 31
0.0
  0
LINE
  5
7BB
330
1F
100
AcDbEntity
  8
0
  6
PHANTOM
 62
     8
370
     0
100
AcDbLine
 10
-876.925618129
 20
102.2973489787
 30
0.0
 11
-874.8550657682
 21
110.024755589
 31
0.0
  0
LINE
  5
7BC
330
1F
100
AcDbEntity
  8
0
  6
PHANTOM
 62
     8
370
     0
100
AcDbLine
 10
-898.5373545233
 20
102.3317115609
 30
0.0
 11
-933.2420013147
 21
91.7214362476
 31
0.0
  0
LINE
  5
7BD
330
1F
100
AcDbEntity
  8
0
  6
PHANTOM
 62
     8
370
     0
100
AcDbLine
 10
-801.7960180233
 20
82.1664333027
 30
0.0
 11
-793.7960180233
 21
82.1664333027
 31
0.0
  0
LINE
  5
7BE
330
1F
100
AcDbEntity
  8
0
  6
PHANTOM
 62
     8
370
     0
100
AcDbLine
 10
-801.7960180233
 20
82.1664333027
 30
0.0
 11
-799.7254656625
 21
89.8938399131
 31
0.0
  0
LINE
  5
7BF
330
1F
100
AcDbEntity
  8
0
  6
PHANTOM
 62
     8
370
     0
100
AcDbLine
 10
-801.7960180233
 20
72.7284642746
 30
0.0
 11
-801.7960180233
 21
82.1664333027
 31
0.0
  0
LINE
  5
7C0
330
1F
100
AcDbEntity
  8
0
  6
PHANTOM
 62
     8
370
     0
100
AcDbLine
 10
-946.7960180233
 20
72.2356294172
 30
0.0
 11
-946.7960180233
 21
62.4784642746
 31
0.0
  0
LINE
  5
7C1
330
1F
100
AcDbEntity
  8
0
  6
PHANTOM
 62
     8
370
     0
100
AcDbLine
 10
-801.7960180233
 20
82.1664333027
 30
0.0
 11
-876.925618129
 21
102.2973489787
 31
0.0
  0
LINE
  5
7C2
330
1F
100
AcDbEntity
  8
0
  6
PHANTOM
 62
     8
370
     0
100
AcDbLine
 10
-933.2420013147
 20
31.7354923016
 30
0.0
 11
-898.5373545233
 21
21.1252169883
 31
0.0
  0
LINE
  5
7C3
330
1F
100
AcDbEntity
  8
0
  6
PHANTOM
 62
     8
370
     0
100
AcDbLine
 10
-874.8550657682
 20
13.4321729601
 30
0.0
 11
-876.925618129
 21
21.1595795705
 31
0.0
  0
LINE
  5
7C4
330
1F
100
AcDbEntity
  8
0
  6
PHANTOM
 62
     8
370
     0
100
AcDbLine
 10
-801.7960180233
 20
41.2904952464
 30
0.0
 11
-801.7960180233
 21
50.7284642746
 31
0.0
  0
LINE
  5
7C5
330
1F
100
AcDbEntity
  8
0
  6
PHANTOM
 62
     8
370
     0
100
AcDbLine
 10
-876.925618129
 20
21.1595795705
 30
0.0
 11
-801.7960180233
 21
41.2904952464
 31
0.0
  0
LINE
  5
7C6
330
1F
100
AcDbEntity
  8
0
  6
PHANTOM
 62
     8
370
     0
100
AcDbLine
 10
-946.7960180233
 20
60.9784642746
 30
0.0
 11
-946.7960180233
 21
51.221299132
 31
0.0
  0
LINE
  5
7C7
330
1F
100
AcDbEntity
  8
0
  6
PHANTOM
 62
     8
370
     0
100
AcDbLine
 10
-801.7960180233
 20
41.2904952464
 30
0.0
 11
-793.7960180233
 21
41.2904952464
 31
0.0
  0
LINE
  5
7C8
330
1F
100
AcDbEntity
  8
0
  6
PHANTOM
 62
     8
370
     0
100
AcDbLine
 10
-799.7254656625
 20
33.5630886361
 30
0.0
 11
-801.7960180233
 21
41.2904952464
 31
0.0
  0
LINE
  5
7C9
330
1F
100
AcDbEntity
  8
0
  6
PHANTOM
 62
     8
370
     0
100
AcDbLine
 10
-857.2960180233
 20
54.350734788
 30
0.0
 11
-57.2960180233
 21
54.350734788
 31
0.0
  0
LINE
  5
7CA
330
1F
100
AcDbEntity
  8
0
  6
PHANTOM
 62
     8
370
     0
100
AcDbLine
 10
-852.2960180233
 20
51.350734788
 30
0.0
 11
-852.2960180233
 21
71.350734788
 31
0.0
  0
LINE
  5
7CB
330
1F
100
AcDbEntity
  8
0
  6
PHANTOM
 62
     8
370
     0
100
AcDbLine
 10
-57.2960180233
 20
68.350734788
 30
0.0
 11
-857.2960180233
 21
68.350734788
 31
0.0
  0
LINE
  5
7CC
330
1F
100
AcDbEntity
  8
0
  6
PHANTOM
 62
     8
370
     0
100
AcDbLine
 10
-62.2960180233
 20
51.350734788
 30
0.0
 11
-62.2960180233
 21
71.350734788
 31
0.0
  0
ARC
  5
7CD
330
1F
100
AcDbEntity
  8
0
  6
Continuous
 62
     7
370
    15
100
AcDbCircle
 10
-537.2960180233
 20
139.0051711167
 30
0.0
 40
26.00000000000023
100
AcDbArc
 50
0.0
 51
180.0
  0
ARC
  5
7CE
330
1F
100
AcDbEntity
  8
0
  6
Continuous
 62
     7
370
    15
100
AcDbCircle
 10
-457.2960180233
 20
4.2210782217
 30
0.0
 40
26.00000000000023
100
AcDbArc
 50
180.0
 51
0.0
  0
ARC
  5
7CF
330
1F
100
AcDbEntity
  8
0
  6
Continuous
 62
     7
370
    15
100
AcDbCircle
 10
-777.2960180233
 20
23.1490725477
 30
0.0
 40
25.99999999999912
100
AcDbArc
 50
157.3984394617
 51
46.1869385396
  0
ARC
  5
7D0
330
1F
100
AcDbEntity
  8
0
  6
Continuous
 62
     7
370
    15
100
AcDbCircle
 10
-777.2960180233
 20
131.7490725477
 30
0.0
 40
26.00000000000005
100
AcDbArc
 50
313.8130614604
 51
226.1869385396
  0
ARC
  5
7D1
330
1F
100
AcDbEntity
  8
0
  6
Continuous
 62
     7
370
    15
100
AcDbCircle
 10
-697.2960180233
 20
26.8606012118
 30
0.0
 40
25.99999999999957
100
AcDbArc
 50
133.8130614604
 51
202.7812424032
  0
ARC
  5
7D2
330
1F
100
AcDbEntity
  8
0
  6
Continuous
 62
     7
370
    15
100
AcDbCircle
 10
-697.2960180233
 20
26.8606012118
 30
0.0
 40
26.00000000000054
100
AcDbArc
 50
337.2187575968
 51
46.1869385396
  0
ARC
  5
7D3
330
1F
100
AcDbEntity
  8
0
  6
Continuous
 62
     7
370
    15
100
AcDbCircle
 10
-697.2960180233
 20
135.4606012118
 30
0.0
 40
25.99999999999929
100
AcDbArc
 50
337.2187575968
 51
202.7812424032
  0
ARC
  5
7D4
330
1F
100
AcDbEntity
  8
0
  6
Continuous
 62
     7
370
    15
100
AcDbCircle
 10
-617.2960180233
 20
119.0284929967
 30
0.0
 40
26.00000000000023
100
AcDbArc
 50
0.0
 51
180.0
  0
ARC
  5
7D5
330
1F
100
AcDbEntity
  8
0
  6
Continuous
 62
     7
370
    15
100
AcDbCircle
 10
-137.2960180233
 20
17.6997684406
 30
0.0
 40
26.00000000000002
100
AcDbArc
 50
133.8130614604
 51
193.3667158374
  0
ARC
  5
7D6
330
1F
100
AcDbEntity
  8
0
  6
Continuous
 62
     7
370
    15
100
AcDbCircle
 10
-137.2960180233
 20
17.6997684406
 30
0.0
 40
26.00000000000001
100
AcDbArc
 50
346.6332841626
 51
46.1869385396
  0
ARC
  5
7D7
330
1F
100
AcDbEntity
  8
0
  6
Continuous
 62
     7
370
    15
100
AcDbCircle
 10
-137.2960180233
 20
126.2997684406
 30
0.0
 40
25.99999999999627
100
AcDbArc
 50
346.6332841626
 51
193.3667158374
  0
ARC
  5
7D8
330
1F
100
AcDbEntity
  8
0
  6
Continuous
 62
     7
370
    15
100
AcDbCircle
 10
-777.2960180233
 20
36.622219785
 30
0.0
 40
25.99999999999888
100
AcDbArc
 50
344.9833941527
 51
34.5052219953
  0
ARC
  5
7D9
330
1F
100
AcDbEntity
  8
0
  6
Continuous
 62
     7
370
    15
100
AcDbCircle
 10
-777.2960180233
 20
145.222219785
 30
0.0
 40
26.00000000000192
100
AcDbArc
 50
344.9833941527
 51
195.0166058473
  0
ARC
  5
7DA
330
1F
100
AcDbEntity
  8
0
  6
Continuous
 62
     7
370
    15
100
AcDbCircle
 10
-617.2960180233
 20
29.1098320815
 30
0.0
 40
26.0000000000031
100
AcDbArc
 50
133.8130614604
 51
201.0545434505
  0
ARC
  5
7DB
330
1F
100
AcDbEntity
  8
0
  6
Continuous
 62
     7
370
    15
100
AcDbCircle
 10
-617.2960180233
 20
29.1098320815
 30
0.0
 40
26.00000000000021
100
AcDbArc
 50
338.9454565495
 51
46.1869385396
  0
ARC
  5
7DC
330
1F
100
AcDbEntity
  8
0
  6
Continuous
 62
     7
370
    15
100
AcDbCircle
 10
-617.2960180233
 20
137.7098320815
 30
0.0
 40
26.00000000000104
100
AcDbArc
 50
338.9454565496
 51
201.0545434504
  0
ARC
  5
7DD
330
1F
100
AcDbEntity
  8
0
  6
Continuous
 62
     7
370
    15
100
AcDbCircle
 10
-697.2960180233
 20
137.4230933516
 30
0.0
 40
26.00000000000011
100
AcDbArc
 50
0.0
 51
180.0
  0
ARC
  5
7DE
330
1F
100
AcDbEntity
  8
0
  6
Continuous
 62
     7
370
    15
100
AcDbCircle
 10
-697.2960180233
 20
6.7254854603
 30
0.0
 40
26.00000000000022
100
AcDbArc
 50
133.8130614604
 51
46.1869385396
  0
ARC
  5
7DF
330
1F
100
AcDbEntity
  8
0
  6
Continuous
 62
     7
370
    15
100
AcDbCircle
 10
-697.2960180233
 20
115.3254854603
 30
0.0
 40
26.0000000000001
100
AcDbArc
 50
313.8130614604
 51
226.1869385396
  0
ARC
  5
7E0
330
1F
100
AcDbEntity
  8
0
  6
Continuous
 62
     7
370
    15
100
AcDbCircle
 10
-617.2960180233
 20
0.820149226
 30
0.0
 40
26.0000000000003
100
AcDbArc
 50
133.8130614604
 51
46.1869385396
  0
ARC
  5
7E1
330
1F
100
AcDbEntity
  8
0
  6
Continuous
 62
     7
370
    15
100
AcDbCircle
 10
-617.2960180233
 20
109.420149226
 30
0.0
 40
26.00000000000016
100
AcDbArc
 50
313.8130614604
 51
226.1869385396
  0
ARC
  5
7E2
330
1F
100
AcDbEntity
  8
0
  6
Continuous
 62
     7
370
    15
100
AcDbCircle
 10
-537.2960180233
 20
0.7052027228
 30
0.0
 40
26.00000000000023
100
AcDbArc
 50
133.8130614604
 51
46.1869385396
  0
ARC
  5
7E3
330
1F
100
AcDbEntity
  8
0
  6
Continuous
 62
     7
370
    15
100
AcDbCircle
 10
-537.2960180233
 20
109.3052027228
 30
0.0
 40
26.00000000000024
100
AcDbArc
 50
313.8130614604
 51
226.1869385396
  0
ARC
  5
7E4
330
1F
100
AcDbEntity
  8
0
  6
Continuous
 62
     7
370
    15
100
AcDbCircle
 10
-537.2960180233
 20
122.6740759425
 30
0.0
 40
26.00000000000475
100
AcDbArc
 50
345.1023168594
 51
194.8976831406
  0
ARC
  5
7E5
330
1F
100
AcDbEntity
  8
0
  6
Continuous
 62
     7
370
    15
100
AcDbCircle
 10
-457.2960180233
 20
136.9976125604
 30
0.0
 40
26.00000000000104
100
AcDbArc
 50
345.3786651848
 51
194.6213348152
  0
ARC
  5
7E6
330
1F
100
AcDbEntity
  8
0
  6
Continuous
 62
     7
370
    15
100
AcDbCircle
 10
-537.2960180233
 20
128.2429485768
 30
0.0
 40
26.0000000000004
100
AcDbArc
 50
0.0
 51
180.0
  0
ARC
  5
7E7
330
1F
100
AcDbEntity
  8
0
  6
Continuous
 62
     7
370
    15
100
AcDbCircle
 10
-217.2960180233
 20
131.3846836302
 30
0.0
 40
26.00000000000011
100
AcDbArc
 50
314.7075551674
 51
225.2924448326
  0
ARC
  5
7E8
330
1F
100
AcDbEntity
  8
0
  6
Continuous
 62
     7
370
    15
100
AcDbCircle
 10
-217.2960180233
 20
-14.1720656162
 30
0.0
 40
25.99999999999999
100
AcDbArc
 50
133.8130614604
 51
46.1869385396
  0
ARC
  5
7E9
330
1F
100
AcDbEntity
  8
0
  6
Continuous
 62
     7
370
    15
100
AcDbCircle
 10
-217.2960180233
 20
94.4279343838
 30
0.0
 40
25.99999999999996
100
AcDbArc
 50
313.8130614604
 51
226.1869385396
  0
ARC
  5
7EA
330
1F
100
AcDbEntity
  8
0
  6
Continuous
 62
     7
370
    15
100
AcDbCircle
 10
-697.2960180233
 20
146.9547528297
 30
0.0
 40
26.00000000000023
100
AcDbArc
 50
0.0
 51
180.0
  0
ARC
  5
7EB
330
1F
100
AcDbEntity
  8
0
  6
Continuous
 62
     7
370
    15
100
AcDbCircle
 10
-297.2960180233
 20
138.2024643512
 30
0.0
 40
25.9999999999986
100
AcDbArc
 50
334.8295554805
 51
205.1704445195
  0
ARC
  5
7EC
330
1F
100
AcDbEntity
  8
0
  6
Continuous
 62
     7
370
    15
100
AcDbCircle
 10
-457.2960180233
 20
15.2712692198
 30
0.0
 40
26.00000000000022
100
AcDbArc
 50
133.8130614604
 51
46.1869385396
  0
ARC
  5
7ED
330
1F
100
AcDbEntity
  8
0
  6
Continuous
 62
     7
370
    15
100
AcDbCircle
 10
-457.2960180233
 20
123.8712692198
 30
0.0
 40
26.00000000000017
100
AcDbArc
 50
313.8130614604
 51
226.1869385396
  0
ARC
  5
7EE
330
1F
100
AcDbEntity
  8
0
  6
Continuous
 62
     7
370
    15
100
AcDbCircle
 10
-377.2960180233
 20
117.5229392078
 30
0.0
 40
26.0000000000031
100
AcDbArc
 50
346.674427103
 51
193.325572897
  0
ARC
  5
7EF
330
1F
100
AcDbEntity
  8
0
  6
Continuous
 62
     7
370
    15
100
AcDbCircle
 10
-137.2960180233
 20
114.278264859
 30
0.0
 40
26.00000000002009
100
AcDbArc
 50
347.865422
 51
192.134578
  0
ARC
  5
7F0
330
1F
100
AcDbEntity
  8
0
  6
Continuous
 62
     7
370
    15
100
AcDbCircle
 10
-297.2960180233
 20
3.3126376493
 30
0.0
 40
26.00000000000012
100
AcDbArc
 50
133.8130614604
 51
46.1869385396
  0
ARC
  5
7F1
330
1F
100
AcDbEntity
  8
0
  6
Continuous
 62
     7
370
    15
100
AcDbCircle
 10
-297.2960180233
 20
111.9126376493
 30
0.0
 40
26.00000000000018
100
AcDbArc
 50
313.8130614604
 51
226.1869385396
  0
ARC
  5
7F2
330
1F
100
AcDbEntity
  8
0
  6
Continuous
 62
     7
370
    15
100
AcDbCircle
 10
-377.2960180233
 20
-3.0622326612
 30
0.0
 40
26.00000000000016
100
AcDbArc
 50
133.8130614604
 51
46.1869385396
  0
ARC
  5
7F3
330
1F
100
AcDbEntity
  8
0
  6
Continuous
 62
     7
370
    15
100
AcDbCircle
 10
-377.2960180233
 20
105.5377673388
 30
0.0
 40
26.00000000000005
100
AcDbArc
 50
313.8130614604
 51
226.1869385396
  0
ARC
  5
7F4
330
1F
100
AcDbEntity
  8
0
  6
Continuous
 62
     7
370
    15
100
AcDbCircle
 10
-297.2960180233
 20
116.0862149468
 30
0.0
 40
26.00000000000006
100
AcDbArc
 50
0.0
 51
180.0
  0
ARC
  5
7F5
330
1F
100
AcDbEntity
  8
0
  6
Continuous
 62
     7
370
    15
100
AcDbCircle
 10
-537.2960180233
 20
135.6002845575
 30
0.0
 40
26.00000000000028
100
AcDbArc
 50
0.0
 51
180.0
  0
ARC
  5
7F6
330
1F
100
AcDbEntity
  8
0
  6
Continuous
 62
     7
370
    15
100
AcDbCircle
 10
-137.2960180233
 20
-5.2525832161
 30
0.0
 40
26.00000000000008
100
AcDbArc
 50
133.8130614604
 51
46.1869385396
  0
ARC
  5
7F7
330
1F
100
AcDbEntity
  8
0
  6
Continuous
 62
     7
370
    15
100
AcDbCircle
 10
-137.2960180233
 20
103.3474167839
 30
0.0
 40
25.99999999999966
100
AcDbArc
 50
328.679588611
 51
226.1869385396
  0
ARC
  5
7F8
330
1F
100
AcDbEntity
  8
0
  6
Continuous
 62
     7
370
    15
100
AcDbCircle
 10
-777.2960180233
 20
8.3323199137
 30
0.0
 40
25.99999999999954
100
AcDbArc
 50
163.4448842738
 51
16.5551157262
  0
ARC
  5
7F9
330
1F
100
AcDbEntity
  8
0
  6
Continuous
 62
     7
370
    15
100
AcDbCircle
 10
-297.2960180233
 20
-2.0004732378
 30
0.0
 40
26.00000000000017
100
AcDbArc
 50
180.0
 51
0.0
  0
ARC
  5
7FA
330
1F
100
AcDbEntity
  8
0
  6
Continuous
 62
     7
370
    15
100
AcDbCircle
 10
-137.2960180233
 20
-12.4282332263
 30
0.0
 40
26.00000000000017
100
AcDbArc
 50
180.0
 51
0.0
  0
ARC
  5
7FB
330
1F
100
AcDbEntity
  8
0
  6
Continuous
 62
     7
370
    15
100
AcDbCircle
 10
-377.2960180233
 20
125.9201637816
 30
0.0
 40
26.0
100
AcDbArc
 50
0.0
 51
180.0
  0
ARC
  5
7FC
330
1F
100
AcDbEntity
  8
0
  6
Continuous
 62
     7
370
    15
100
AcDbCircle
 10
-457.2960180233
 20
12.2543525086
 30
0.0
 40
26.00000000000028
100
AcDbArc
 50
180.0
 51
0.0
  0
ARC
  5
7FD
330
1F
100
AcDbEntity
  8
0
  6
Continuous
 62
     7
370
    15
100
AcDbCircle
 10
-457.2960180233
 20
11.2738155832
 30
0.0
 40
26.00000000000023
100
AcDbArc
 50
180.0
 51
0.0
  0
ARC
  5
7FE
330
1F
100
AcDbEntity
  8
0
  6
Continuous
 62
     7
370
    15
100
AcDbCircle
 10
-377.2960180233
 20
145.6857712938
 30
0.0
 40
26.0000000000014
100
AcDbArc
 50
337.6596375257
 51
202.3403624743
  0
ARC
  5
7FF
330
1F
100
AcDbEntity
  8
0
  6
Continuous
 62
     7
370
    15
100
AcDbCircle
 10
-537.2960180233
 20
30.4051711167
 30
0.0
 40
26.00000000000023
100
AcDbArc
 50
133.8130614604
 51
180.0
  0
ARC
  5
800
330
1F
100
AcDbEntity
  8
0
  6
Continuous
 62
     7
370
    15
100
AcDbCircle
 10
-537.2960180233
 20
30.4051711167
 30
0.0
 40
25.99999999999989
100
AcDbArc
 50
0.0
 51
46.1869385396
  0
ARC
  5
801
330
1F
100
AcDbEntity
  8
0
  6
Continuous
 62
     7
370
    15
100
AcDbCircle
 10
-457.2960180233
 20
112.8210782217
 30
0.0
 40
26.00000000000012
100
AcDbArc
 50
180.0
 51
226.1869385396
  0
ARC
  5
802
330
1F
100
AcDbEntity
  8
0
  6
Continuous
 62
     7
370
    15
100
AcDbCircle
 10
-457.2960180233
 20
112.8210782217
 30
0.0
 40
26.00000000000023
100
AcDbArc
 50
313.8130614604
 51
0.0
  0
ARC
  5
803
330
1F
100
AcDbEntity
  8
0
  6
Continuous
 62
     7
370
    15
100
AcDbCircle
 10
-617.2960180233
 20
10.4284929967
 30
0.0
 40
26.00000000000031
100
AcDbArc
 50
133.8130614604
 51
180.0
  0
ARC
  5
804
330
1F
100
AcDbEntity
  8
0
  6
Continuous
 62
     7
370
    15
100
AcDbCircle
 10
-617.2960180233
 20
10.4284929967
 30
0.0
 40
26.00000000000013
100
AcDbArc
 50
0.0
 51
46.1869385396
  0
ARC
  5
805
330
1F
100
AcDbEntity
  8
0
  6
Continuous
 62
     7
370
    15
100
AcDbCircle
 10
-697.2960180233
 20
28.8230933516
 30
0.0
 40
25.99999999999957
100
AcDbArc
 50
133.8130614604
 51
180.0
  0
ARC
  5
806
330
1F
100
AcDbEntity
  8
0
  6
Continuous
 62
     7
370
    15
100
AcDbCircle
 10
-697.2960180233
 20
28.8230933516
 30
0.0
 40
26.00000000000013
100
AcDbArc
 50
0.0
 51
46.1869385396
  0
ARC
  5
807
330
1F
100
AcDbEntity
  8
0
  6
Continuous
 62
     7
370
    15
100
AcDbCircle
 10
-537.2960180233
 20
14.0740759425
 30
0.0
 40
26.00000000000023
100
AcDbArc
 50
133.8130614604
 51
194.8976831406
  0
ARC
  5
808
330
1F
100
AcDbEntity
  8
0
  6
Continuous
 62
     7
370
    15
100
AcDbCircle
 10
-537.2960180233
 20
14.0740759425
 30
0.0
 40
26.00000000000326
100
AcDbArc
 50
345.1023168594
 51
46.1869385396
  0
ARC
  5
809
330
1F
100
AcDbEntity
  8
0
  6
Continuous
 62
     7
370
    15
100
AcDbCircle
 10
-457.2960180233
 20
28.3976125604
 30
0.0
 40
26.00000000000101
100
AcDbArc
 50
133.8130614604
 51
194.6213348152
  0
ARC
  5
80A
330
1F
100
AcDbEntity
  8
0
  6
Continuous
 62
     7
370
    15
100
AcDbCircle
 10
-457.2960180233
 20
28.3976125604
 30
0.0
 40
26.00000000000009
100
AcDbArc
 50
345.3786651848
 51
46.1869385396
  0
ARC
  5
80B
330
1F
100
AcDbEntity
  8
0
  6
Continuous
 62
     7
370
    15
100
AcDbCircle
 10
-217.2960180233
 20
22.7846836302
 30
0.0
 40
25.99999999999997
100
AcDbArc
 50
133.8130614604
 51
225.2924448326
  0
ARC
  5
80C
330
1F
100
AcDbEntity
  8
0
  6
Continuous
 62
     7
370
    15
100
AcDbCircle
 10
-217.2960180233
 20
22.7846836302
 30
0.0
 40
26.00000000000034
100
AcDbArc
 50
314.7075551674
 51
46.1869385396
  0
ARC
  5
80D
330
1F
100
AcDbEntity
  8
0
  6
Continuous
 62
     7
370
    15
100
AcDbCircle
 10
-297.2960180233
 20
29.6024643512
 30
0.0
 40
25.99999999999967
100
AcDbArc
 50
133.8130614604
 51
205.1704445195
  0
ARC
  5
80E
330
1F
100
AcDbEntity
  8
0
  6
Continuous
 62
     7
370
    15
100
AcDbCircle
 10
-297.2960180233
 20
29.6024643512
 30
0.0
 40
26.00000000000138
100
AcDbArc
 50
334.8295554805
 51
46.1869385396
  0
ARC
  5
80F
330
1F
100
AcDbEntity
  8
0
  6
Continuous
 62
     7
370
    15
100
AcDbCircle
 10
-377.2960180233
 20
8.9229392078
 30
0.0
 40
26.00000000000012
100
AcDbArc
 50
133.8130614604
 51
193.325572897
  0
ARC
  5
810
330
1F
100
AcDbEntity
  8
0
  6
Continuous
 62
     7
370
    15
100
AcDbCircle
 10
-377.2960180233
 20
8.9229392078
 30
0.0
 40
25.99999999999966
100
AcDbArc
 50
346.674427103
 51
46.1869385396
  0
ARC
  5
811
330
1F
100
AcDbEntity
  8
0
  6
Continuous
 62
     7
370
    15
100
AcDbCircle
 10
-137.2960180233
 20
5.678264859
 30
0.0
 40
26.00000000000017
100
AcDbArc
 50
133.8130614604
 51
192.134578
  0
ARC
  5
812
330
1F
100
AcDbEntity
  8
0
  6
Continuous
 62
     7
370
    15
100
AcDbCircle
 10
-137.2960180233
 20
5.678264859
 30
0.0
 40
26.00000000000008
100
AcDbArc
 50
347.865422
 51
46.1869385396
  0
ARC
  5
813
330
1F
100
AcDbEntity
  8
0
  6
Continuous
 62
     7
370
    15
100
AcDbCircle
 10
-377.2960180233
 20
7.9281325143
 30
0.0
 40
25.99999999998857
100
AcDbArc
 50
180.0
 51
192.2016636307
  0
ARC
  5
814
330
1F
100
AcDbEntity
  8
0
  6
Continuous
 62
     7
370
    15
100
AcDbCircle
 10
-377.2960180233
 20
7.9281325143
 30
0.0
 40
25.99999999999449
100
AcDbArc
 50
347.7983363693
 51
0.0
  0
ARC
  5
815
330
1F
100
AcDbEntity
  8
0
  6
Continuous
 62
     7
370
    15
100
AcDbCircle
 10
-217.2960180233
 20
1.1397794278
 30
0.0
 40
25.99999999999897
100
AcDbArc
 50
155.4020564571
 51
197.1250730198
  0
ARC
  5
816
330
1F
100
AcDbEntity
  8
0
  6
Continuous
 62
     7
370
    15
100
AcDbCircle
 10
-217.2960180233
 20
1.1397794278
 30
0.0
 40
26.00000000000242
100
AcDbArc
 50
342.8749269802
 51
24.5979435429
  0
ARC
  5
817
330
1F
100
AcDbEntity
  8
0
  6
Continuous
 62
     7
370
    15
100
AcDbCircle
 10
-217.2960180233
 20
109.7397794278
 30
0.0
 40
25.99999999999971
100
AcDbArc
 50
155.4020564571
 51
197.1250730198
  0
ARC
  5
818
330
1F
100
AcDbEntity
  8
0
  6
Continuous
 62
     7
370
    15
100
AcDbCircle
 10
-217.2960180233
 20
109.7397794278
 30
0.0
 40
26.00000000000126
100
AcDbArc
 50
342.8749269802
 51
24.5979435429
  0
ARC
  5
819
330
1F
100
AcDbEntity
  8
0
  6
Continuous
 62
     7
370
    15
100
AcDbCircle
 10
-617.2960180233
 20
27.648309723
 30
0.0
 40
25.9999999999983
100
AcDbArc
 50
180.0
 51
199.3386102039
  0
ARC
  5
81A
330
1F
100
AcDbEntity
  8
0
  6
Continuous
 62
     7
370
    15
100
AcDbCircle
 10
-617.2960180233
 20
27.648309723
 30
0.0
 40
26.0000000000008
100
AcDbArc
 50
340.6613897961
 51
0.0
  0
ARC
  5
81B
330
1F
100
AcDbEntity
  8
0
  6
Continuous
 62
     7
370
    15
100
AcDbCircle
 10
-777.2960180233
 20
116.9323199137
 30
0.0
 40
26.00000000000364
100
AcDbArc
 50
163.4448842737
 51
226.1869385396
  0
ARC
  5
81C
330
1F
100
AcDbEntity
  8
0
  6
Continuous
 62
     7
370
    15
100
AcDbCircle
 10
-777.2960180233
 20
116.9323199137
 30
0.0
 40
25.9999999999991
100
AcDbArc
 50
313.8130614604
 51
16.5551157263
  0
ARC
  5
81D
330
1F
100
AcDbEntity
  8
0
  6
Continuous
 62
     7
370
    15
100
AcDbCircle
 10
-297.2960180233
 20
117.6059751224
 30
0.0
 40
26.0000000000083
100
AcDbArc
 50
156.6662569987
 51
180.0
  0
ARC
  5
81E
330
1F
100
AcDbEntity
  8
0
  6
Continuous
 62
     7
370
    15
100
AcDbCircle
 10
-297.2960180233
 20
117.6059751224
 30
0.0
 40
25.99999999998613
100
AcDbArc
 50
360.0
 51
23.3337430013
  0
ARC
  5
81F
330
1F
100
AcDbEntity
  8
0
  6
Continuous
 62
     7
370
    15
100
AcDbCircle
 10
-217.2960180233
 20
17.4641439712
 30
0.0
 40
26.00000000000026
100
AcDbArc
 50
180.0
 51
195.0478793624
  0
ARC
  5
820
330
1F
100
AcDbEntity
  8
0
  6
Continuous
 62
     7
370
    15
100
AcDbCircle
 10
-217.2960180233
 20
17.4641439712
 30
0.0
 40
26.00000000000387
100
AcDbArc
 50
344.9521206376
 51
0.0
  0
ARC
  5
821
330
1F
100
AcDbEntity
  8
0
  6
Continuous
 62
     7
370
    15
100
AcDbCircle
 10
-537.2960180233
 20
110.0681362052
 30
0.0
 40
26.00000000000853
100
AcDbArc
 50
165.9704718718
 51
180.0
  0
ARC
  5
822
330
1F
100
AcDbEntity
  8
0
  6
Continuous
 62
     7
370
    15
100
AcDbCircle
 10
-537.2960180233
 20
110.0681362052
 30
0.0
 40
26.00000000000017
100
AcDbArc
 50
0.0
 51
14.0295281282
  0
ARC
  5
823
330
1F
100
AcDbEntity
  8
0
  6
Continuous
 62
     7
370
    15
100
AcDbCircle
 10
-217.2960180233
 20
112.5635850557
 30
0.0
 40
25.99999999999943
100
AcDbArc
 50
158.7803556922
 51
180.0
  0
ARC
  5
824
330
1F
100
AcDbEntity
  8
0
  6
Continuous
 62
     7
370
    15
100
AcDbCircle
 10
-217.2960180233
 20
112.5635850557
 30
0.0
 40
26.00000000000105
100
AcDbArc
 50
0.0
 51
21.2196443078
  0
ARC
  5
825
330
1F
100
AcDbEntity
  8
0
  6
Continuous
 62
     7
370
    15
100
AcDbCircle
 10
-377.2960180233
 20
37.0857712938
 30
0.0
 40
26.00000000000156
100
AcDbArc
 50
146.7253861006
 51
202.3403624743
  0
ARC
  5
826
330
1F
100
AcDbEntity
  8
0
  6
Continuous
 62
     7
370
    15
100
AcDbCircle
 10
-377.2960180233
 20
37.0857712938
 30
0.0
 40
25.99999999999875
100
AcDbArc
 50
337.6596375257
 51
33.2746138994
  0
ARC
  5
827
330
1F
100
AcDbEntity
  8
0
  6
Continuous
 62
     7
370
    15
100
AcDbCircle
 10
-377.2960180233
 20
116.5281325143
 30
0.0
 40
25.99999999998636
100
AcDbArc
 50
180.0
 51
192.2016636308
  0
ARC
  5
828
330
1F
100
AcDbEntity
  8
0
  6
Continuous
 62
     7
370
    15
100
AcDbCircle
 10
-377.2960180233
 20
116.5281325143
 30
0.0
 40
25.99999999997942
100
AcDbArc
 50
347.7983363692
 51
0.0
  0
ARC
  5
829
330
1F
100
AcDbEntity
  8
0
  6
Continuous
 62
     7
370
    15
100
AcDbCircle
 10
-617.2960180233
 20
136.248309723
 30
0.0
 40
26.00000000000308
100
AcDbArc
 50
180.0
 51
199.3386102039
  0
ARC
  5
82A
330
1F
100
AcDbEntity
  8
0
  6
Continuous
 62
     7
370
    15
100
AcDbCircle
 10
-617.2960180233
 20
136.248309723
 30
0.0
 40
25.99999999999864
100
AcDbArc
 50
340.6613897961
 51
0.0
  0
ARC
  5
82B
330
1F
100
AcDbEntity
  8
0
  6
Continuous
 62
     7
370
    15
100
AcDbCircle
 10
-217.2960180233
 20
126.0641439712
 30
0.0
 40
25.99999999999918
100
AcDbArc
 50
180.0
 51
195.0478793624
  0
ARC
  5
82C
330
1F
100
AcDbEntity
  8
0
  6
Continuous
 62
     7
370
    15
100
AcDbCircle
 10
-217.2960180233
 20
126.0641439712
 30
0.0
 40
26.00000000000455
100
AcDbArc
 50
344.9521206376
 51
0.0
  0
ARC
  5
82D
330
1F
100
AcDbEntity
  8
0
  6
Continuous
 62
     7
370
    15
100
AcDbCircle
 10
-297.2960180233
 20
106.5995267622
 30
0.0
 40
25.9999999999996
100
AcDbArc
 50
180.0
 51
226.1869385396
  0
ARC
  5
82E
330
1F
100
AcDbEntity
  8
0
  6
Continuous
 62
     7
370
    15
100
AcDbCircle
 10
-297.2960180233
 20
106.5995267622
 30
0.0
 40
26.0000000000001
100
AcDbArc
 50
313.8130614604
 51
0.0
  0
ARC
  5
82F
330
1F
100
AcDbEntity
  8
0
  6
Continuous
 62
     7
370
    15
100
AcDbCircle
 10
-137.2960180233
 20
96.1717667737
 30
0.0
 40
26.00000000000014
100
AcDbArc
 50
180.0
 51
226.1869385396
  0
ARC
  5
830
330
1F
100
AcDbEntity
  8
0
  6
Continuous
 62
     7
370
    15
100
AcDbCircle
 10
-137.2960180233
 20
96.1717667737
 30
0.0
 40
25.99999999997588
100
AcDbArc
 50
347.8380659214
 51
0.0
  0
ARC
  5
831
330
1F
100
AcDbEntity
  8
0
  6
Continuous
 62
     7
370
    15
100
AcDbCircle
 10
-457.2960180233
 20
120.8543525086
 30
0.0
 40
26.00000000000029
100
AcDbArc
 50
180.0
 51
226.1869385396
  0
ARC
  5
832
330
1F
100
AcDbEntity
  8
0
  6
Continuous
 62
     7
370
    15
100
AcDbCircle
 10
-457.2960180233
 20
120.8543525086
 30
0.0
 40
25.99999999999983
100
AcDbArc
 50
313.8130614604
 51
0.0
  0
ARC
  5
833
330
1F
100
AcDbEntity
  8
0
  6
Continuous
 62
     7
370
    15
100
AcDbCircle
 10
-457.2960180233
 20
119.8738155832
 30
0.0
 40
26.00000000000006
100
AcDbArc
 50
180.0
 51
226.1869385396
  0
ARC
  5
834
330
1F
100
AcDbEntity
  8
0
  6
Continuous
 62
     7
370
    15
100
AcDbCircle
 10
-457.2960180233
 20
119.8738155832
 30
0.0
 40
26.0000000000002
100
AcDbArc
 50
313.8130614604
 51
0.0
  0
ARC
  5
835
330
1F
100
AcDbEntity
  8
0
  6
Continuous
 62
     7
370
    15
100
AcDbCircle
 10
-537.2960180233
 20
19.6429485768
 30
0.0
 40
26.00000000000014
100
AcDbArc
 50
133.8130614604
 51
180.0
  0
ARC
  5
836
330
1F
100
AcDbEntity
  8
0
  6
Continuous
 62
     7
370
    15
100
AcDbCircle
 10
-537.2960180233
 20
19.6429485768
 30
0.0
 40
26.00000000000029
100
AcDbArc
 50
0.0
 51
46.1869385396
  0
ARC
  5
837
330
1F
100
AcDbEntity
  8
0
  6
Continuous
 62
     7
370
    15
100
AcDbCircle
 10
-697.2960180233
 20
38.3547528297
 30
0.0
 40
26.00000000000183
100
AcDbArc
 50
150.010223762
 51
180.0
  0
ARC
  5
838
330
1F
100
AcDbEntity
  8
0
  6
Continuous
 62
     7
370
    15
100
AcDbCircle
 10
-697.2960180233
 20
38.3547528297
 30
0.0
 40
26.00000000000216
100
AcDbArc
 50
0.0
 51
29.989776238
  0
ARC
  5
839
330
1F
100
AcDbEntity
  8
0
  6
Continuous
 62
     7
370
    15
100
AcDbCircle
 10
-297.2960180233
 20
7.4862149468
 30
0.0
 40
25.99999999999972
100
AcDbArc
 50
133.8130614604
 51
180.0
  0
ARC
  5
83A
330
1F
100
AcDbEntity
  8
0
  6
Continuous
 62
     7
370
    15
100
AcDbCircle
 10
-297.2960180233
 20
7.4862149468
 30
0.0
 40
26.00000000000006
100
AcDbArc
 50
0.0
 51
46.1869385396
  0
ARC
  5
83B
330
1F
100
AcDbEntity
  8
0
  6
Continuous
 62
     7
370
    15
100
AcDbCircle
 10
-537.2960180233
 20
27.0002845575
 30
0.0
 40
26.00000000000014
100
AcDbArc
 50
133.8130614604
 51
180.0
  0
ARC
  5
83C
330
1F
100
AcDbEntity
  8
0
  6
Continuous
 62
     7
370
    15
100
AcDbCircle
 10
-537.2960180233
 20
27.0002845575
 30
0.0
 40
26.00000000000028
100
AcDbArc
 50
0.0
 51
46.1869385396
  0
ARC
  5
83D
330
1F
100
AcDbEntity
  8
0
  6
Continuous
 62
     7
370
    15
100
AcDbCircle
 10
-297.2960180233
 20
9.0059751224
 30
0.0
 40
25.99999999998727
100
AcDbArc
 50
156.6662569987
 51
180.0
  0
ARC
  5
83E
330
1F
100
AcDbEntity
  8
0
  6
Continuous
 62
     7
370
    15
100
AcDbCircle
 10
-297.2960180233
 20
9.0059751224
 30
0.0
 40
25.99999999998175
100
AcDbArc
 50
360.0
 51
23.3337430013
  0
ARC
  5
83F
330
1F
100
AcDbEntity
  8
0
  6
Continuous
 62
     7
370
    15
100
AcDbCircle
 10
-377.2960180233
 20
17.3201637816
 30
0.0
 40
26.00000000000028
100
AcDbArc
 50
133.8130614604
 51
180.0
  0
ARC
  5
840
330
1F
100
AcDbEntity
  8
0
  6
Continuous
 62
     7
370
    15
100
AcDbCircle
 10
-377.2960180233
 20
17.3201637816
 30
0.0
 40
25.99999999999972
100
AcDbArc
 50
0.0
 51
46.1869385396
  0
ARC
  5
841
330
1F
100
AcDbEntity
  8
0
  6
Continuous
 62
     7
370
    15
100
AcDbCircle
 10
-537.2960180233
 20
1.4681362052
 30
0.0
 40
26.00000000000523
100
AcDbArc
 50
165.9704718718
 51
180.0
  0
ARC
  5
842
330
1F
100
AcDbEntity
  8
0
  6
Continuous
 62
     7
370
    15
100
AcDbCircle
 10
-537.2960180233
 20
1.4681362052
 30
0.0
 40
25.99999999999437
100
AcDbArc
 50
0.0
 51
14.0295281282
  0
ARC
  5
843
330
1F
100
AcDbEntity
  8
0
  6
Continuous
 62
     7
370
    15
100
AcDbCircle
 10
-217.2960180233
 20
3.9635850557
 30
0.0
 40
25.99999999999864
100
AcDbArc
 50
158.7803556922
 51
180.0
  0
ARC
  5
844
330
1F
100
AcDbEntity
  8
0
  6
Continuous
 62
     7
370
    15
100
AcDbCircle
 10
-217.2960180233
 20
3.9635850557
 30
0.0
 40
26.00000000000114
100
AcDbArc
 50
0.0
 51
21.2196443078
  0
ARC
  5
845
330
1F
100
AcDbEntity
  8
0
  6
Continuous
 62
     7
370
    15
100
AcDbCircle
 10
-26.7960180233
 20
61.7284642746
 30
0.0
 40
50.00000000000011
100
AcDbArc
 50
75.0
 51
105.0
  0
ARC
  5
846
330
1F
100
AcDbEntity
  8
0
  6
Continuous
 62
     7
370
    15
100
AcDbCircle
 10
9.2534165538
 20
70.7284642746
 30
0.0
 40
31.00000000000002
100
AcDbArc
 50
3.2361595445
 51
66.8737517395
  0
ARC
  5
847
330
1F
100
AcDbEntity
  8
0
  6
Continuous
 62
     7
370
    15
100
AcDbCircle
 10
-112.7960180233
 20
82.1664333027
 30
0.0
 40
8.000000000000071
100
AcDbArc
 50
105.0
 51
180.0
  0
ARC
  5
848
330
1F
100
AcDbEntity
  8
0
  6
Continuous
 62
     7
370
    15
100
AcDbCircle
 10
-26.7960180233
 20
61.7284642746
 30
0.0
 40
50.00000000000016
100
AcDbArc
 50
255.0
 51
285.0
  0
ARC
  5
849
330
1F
100
AcDbEntity
  8
0
  6
Continuous
 62
     7
370
    15
100
AcDbCircle
 10
9.2534165538
 20
52.7284642746
 30
0.0
 40
31.00000000000001
100
AcDbArc
 50
293.1262482605
 51
356.7638404555
  0
ARC
  5
84A
330
1F
100
AcDbEntity
  8
0
  6
Continuous
 62
     7
370
    15
100
AcDbCircle
 10
-112.7960180233
 20
41.2904952464
 30
0.0
 40
8.000000000000156
100
AcDbArc
 50
180.0
 51
255.0
  0
ARC
  5
84B
330
1F
100
AcDbEntity
  8
0
  6
Continuous
 62
     7
370
    15
100
AcDbCircle
 10
-887.7960180233
 20
61.7284642746
 30
0.0
 40
50.00000000000006
100
AcDbArc
 50
75.0
 51
105.0
  0
ARC
  5
84C
330
1F
100
AcDbEntity
  8
0
  6
Continuous
 62
     7
370
    15
100
AcDbCircle
 10
-923.8454526004
 20
70.7284642746
 30
0.0
 40
31.00000000000008
100
AcDbArc
 50
113.1262482605
 51
176.7638404555
  0
ARC
  5
84D
330
1F
100
AcDbEntity
  8
0
  6
Continuous
 62
     7
370
    15
100
AcDbCircle
 10
-801.7960180233
 20
82.1664333027
 30
0.0
 40
8.000000000000341
100
AcDbArc
 50
0.0
 51
75.0
  0
ARC
  5
84E
330
1F
100
AcDbEntity
  8
0
  6
Continuous
 62
     7
370
    15
100
AcDbCircle
 10
-887.7960180233
 20
61.7284642746
 30
0.0
 40
49.99999999999996
100
AcDbArc
 50
255.0
 51
285.0
  0
ARC
  5
84F
330
1F
100
AcDbEntity
  8
0
  6
Continuous
 62
     7
370
    15
100
AcDbCircle
 10
-923.8454526004
 20
52.7284642746
 30
0.0
 40
30.99999999999976
100
AcDbArc
 50
183.2361595445
 51
246.8737517395
  0
ARC
  5
850
330
1F
100
AcDbEntity
  8
0
  6
Continuous
 62
     7
370
    15
100
AcDbCircle
 10
-801.7960180233
 20
41.2904952464
 30
0.0
 40
8.000000000000114
100
AcDbArc
 50
285.0
 51
0.0
  0
ARC
  5
851
330
1F
100
AcDbEntity
  8
0
  6
Continuous
 62
     7
370
    15
100
AcDbCircle
 10
-954.7960180233
 20
-62.5290886276
 30
0.0
 40
1500.000000000005
100
AcDbArc
 50
180.0
 51
270.0
  0
ARC
  5
852
330
1F
100
AcDbEntity
  8
0
  6
Continuous
 62
     7
370
    15
100
AcDbCircle
 10
40.2039819767
 20
-62.5290886276
 30
0.0
 40
1500.000000000004
100
AcDbArc
 50
270.0
 51
0.0
  0
ARC
  5
853
330
1F
100
AcDbEntity
  8
0
  6
Continuous
 62
     7
370
    15
100
AcDbCircle
 10
-954.7960180233
 20
147.4709113724
 30
0.0
 40
1500.000000000003
100
AcDbArc
 50
90.0
 51
180.0
  0
ARC
  5
854
330
1F
100
AcDbEntity
  8
0
  6
Continuous
 62
     7
370
    15
100
AcDbCircle
 10
40.2039819767
 20
147.4709113724
 30
0.0
 40
1500.000000000002
100
AcDbArc
 50
0.0
 51
90.0
  0
ARC
  5
855
330
1F
100
AcDbEntity
  8
0
  6
Continuous
 62
     7
370
    15
100
AcDbCircle
 10
-60.2960180233
 20
68.350734788
 30
0.0
 40
3.0
100
AcDbArc
 50
0.0
 51
90.0
  0
ARC
  5
856
330
1F
100
AcDbEntity
  8
0
  6
Continuous
 62
     7
370
    15
100
AcDbCircle
 10
-854.2960180233
 20
54.350734788
 30
0.0
 40
3.0
100
AcDbArc
 50
180.0
 51
270.0
  0
ARC
  5
857
330
1F
100
AcDbEntity
  8
0
  6
Continuous
 62
     7
370
    15
100
AcDbCircle
 10
-854.2960180233
 20
68.350734788
 30
0.0
 40
3.0
100
AcDbArc
 50
90.0
 51
180.0
  0
ARC
  5
858
330
1F
100
AcDbEntity
  8
0
  6
Continuous
 62
     7
370
    15
100
AcDbCircle
 10
-60.2960180233
 20
54.350734788
 30
0.0
 40
2.999999999999886
100
AcDbArc
 50
270.0
 51
0.0
  0
ARC
  5
859
330
1F
100
AcDbEntity
  8
0
  6
PHANTOM
 62
     8
370
     0
100
AcDbCircle
 10
-26.7960180233
 20
61.7284642746
 30
0.0
 40
41.99999999999984
100
AcDbArc
 50
75.182200008
 51
105.0
  0
ARC
  5
85A
330
1F
100
AcDbEntity
  8
0
  6
PHANTOM
 62
     8
370
     0
100
AcDbCircle
 10
9.2534165538
 20
70.7284642746
 30
0.0
 40
22.99999999999995
100
AcDbArc
 50
3.7572227311
 51
65.8864958731
  0
ARC
  5
85B
330
1F
100
AcDbEntity
  8
0
  6
PHANTOM
 62
     8
370
     0
100
AcDbCircle
 10
-26.7960180233
 20
61.7284642746
 30
0.0
 40
42.00000000000018
100
AcDbArc
 50
255.0
 51
284.817799992
  0
ARC
  5
85C
330
1F
100
AcDbEntity
  8
0
  6
PHANTOM
 62
     8
370
     0
100
AcDbCircle
 10
9.2534165538
 20
52.7284642746
 30
0.0
 40
22.99999999999991
100
AcDbArc
 50
294.1135041269
 51
356.2427772689
  0
ARC
  5
85D
330
1F
100
AcDbEntity
  8
0
  6
PHANTOM
 62
     8
370
     0
100
AcDbCircle
 10
-887.7960180233
 20
61.7284642746
 30
0.0
 40
41.99999999999981
100
AcDbArc
 50
75.0
 51
104.817799992
  0
ARC
  5
85E
330
1F
100
AcDbEntity
  8
0
  6
PHANTOM
 62
     8
370
     0
100
AcDbCircle
 10
-923.8454526004
 20
70.7284642746
 30
0.0
 40
23.00000000000049
100
AcDbArc
 50
114.1135041269
 51
176.2427772689
  0
ARC
  5
85F
330
1F
100
AcDbEntity
  8
0
  6
PHANTOM
 62
     8
370
     0
100
AcDbCircle
 10
-887.7960180233
 20
61.7284642746
 30
0.0
 40
42.00000000000026
100
AcDbArc
 50
255.182200008
 51
285.0
  0
ARC
  5
860
330
1F
100
AcDbEntity
  8
0
  6
PHANTOM
 62
     8
370
     0
100
AcDbCircle
 10
-923.8454526004
 20
52.7284642746
 30
0.0
 40
23.00000000000028
100
AcDbArc
 50
183.7572227311
 51
245.8864958731
  0
ENDSEC
  0
SECTION
  2
OBJECTS
  0
DICTIONARY
  5
C
330
0
100
AcDbDictionary
281
     1
  3
ACAD_GROUP
350
D
  3
ACAD_LAYOUT
350
1A
  3
ACAD_MLINESTYLE
350
17
  3
ACAD_PLOTSETTINGS
350
19
  3
ACAD_PLOTSTYLENAME
350
E
  3
ACAD_SCALELIST
350
47
  0
DICTIONARY
  5
D
102
{ACAD_REACTORS
330
C
102
}
330
C
100
AcDbDictionary
281
     1
  0
DICTIONARY
  5
1A
102
{ACAD_REACTORS
330
C
102
}
330
C
100
AcDbDictionary
281
     1
  3
Layout1
350
1E
  3
Layout2
350
26
  3
Model
350
22
  0
DICTIONARY
  5
17
102
{ACAD_REACTORS
330
C
102
}
330
C
100
AcDbDictionary
281
     1
  3
Standard
350
18
  0
DICTIONARY
  5
19
102
{ACAD_REACTORS
330
C
102
}
330
C
100
AcDbDictionary
281
     1
  0
ACDBDICTIONARYWDFLT
  5
E
102
{ACAD_REACTORS
330
C
102
}
330
C
100
AcDbDictionary
281
     1
  3
Normal
350
F
100
AcDbDictionaryWithDefault
340
F
  0
DICTIONARY
  5
47
102
{ACAD_REACTORS
330
C
102
}
330
C
100
AcDbDictionary
281
     1
  3
A0
350
48
  3
A1
350
49
  3
A2
350
4A
  3
A3
350
4B
  3
A4
350
4C
  3
A5
350
4D
  3
A6
350
4E
  3
A7
350
4F
  3
A8
350
50
  3
A9
350
51
  3
B0
350
52
  3
B1
350
53
  3
B2
350
54
  3
B3
350
55
  3
B4
350
56
  3
B5
350
57
  3
B6
350
58
  3
B7
350
59
  3
B8
350
5A
  3
B9
350
5B
  3
C0
350
5C
  3
C1
350
5D
  3
C2
350
5E
  3
C3
350
5F
  3
C4
350
60
  3
C5
350
61
  3
C6
350
62
  3
C7
350
63
  3
C8
350
64
  3
C9
350
65
  3
D0
350
66
  3
D1
350
67
  3
D2
350
68
  0
LAYOUT
  5
1E
102
{ACAD_REACTORS
330
1A
102
}
330
1A
100
AcDbPlotSettings
  1

  2
none_device
  4

  6

 40
0.0
 41
0.0
 42
0.0
 43
0.0
 44
0.0
 45
0.0
 46
0.0
 47
0.0
 48
0.0
 49
0.0
140
0.0
141
0.0
142
1.0
143
1.0
 70
   688
 72
     1
 73
     0
 74
     5
  7

 75
    16
147
1.0
148
0.0
149
0.0
100
AcDbLayout
  1
Layout1
 70
     1
 71
     1
 10
0.0
 20
0.0
 11
420.0
 21
297.0
 12
0.0
 22
0.0
 32
0.0
 14
1.0000000000E+20
 24
1.0000000000E+20
 34
1.0000000000E+20
 15
-1.0000000000E+20
 25
-1.0000000000E+20
 35
-1.0000000000E+20
146
0.0
 13
0.0
 23
0.0
 33
0.0
 16
1.0
 26
0.0
 36
0.0
 17
0.0
 27
1.0
 37
0.0
 76
     0
330
1B
  0
LAYOUT
  5
26
102
{ACAD_REACTORS
330
1A
102
}
330
1A
100
AcDbPlotSettings
  1

  2
none_device
  4

  6

 40
0.0
 41
0.0
 42
0.0
 43
0.0
 44
0.0
 45
0.0
 46
0.0
 47
0.0
 48
0.0
 49
0.0
140
0.0
141
0.0
142
1.0
143
1.0
 70
   688
 72
     1
 73
     0
 74
     5
  7

 75
    16
147
1.0
148
0.0
149
0.0
100
AcDbLayout
  1
Layout2
 70
     1
 71
     2
 10
0.0
 20
0.0
 11
0.0
 21
0.0
 12
0.0
 22
0.0
 32
0.0
 14
0.0
 24
0.0
 34
0.0
 15
0.0
 25
0.0
 35
0.0
146
0.0
 13
0.0
 23
0.0
 33
0.0
 16
1.0
 26
0.0
 36
0.0
 17
0.0
 27
1.0
 37
0.0
 76
     0
330
23
  0
LAYOUT
  5
22
102
{ACAD_REACTORS
330
1A
102
}
330
1A
100
AcDbPlotSettings
  1

  2
none_device
  4
ANSI_A_(11.00_x_8.50_Inches)
  6

 40
6.35
 41
19.05
 42
6.35000508
 43
19.05000254
 44
279.4
 45
215.9
 46
163.7995015685
 47
86.0720314192
 48
0.0
 49
0.0
140
0.0
141
0.0
142
0.0026214953
143
1.0
 70
  1696
 72
     0
 73
     0
 74
     0
  7

 75
     0
147
0.0179189148
148
-1300.4909072572
149
0.0
100
AcDbLayout
  1
Model
 70
     1
 71
     0
 10
0.0
 20
0.0
 11
420.0
 21
297.0
 12
0.0
 22
0.0
 32
0.0
 14
-2454.7960180233
 24
-1562.5290886276
 34
0.0
 15
1540.2039819767
 25
1647.4709113724
 35
0.0
146
0.0
 13
0.0
 23
0.0
 33
0.0
 16
1.0
 26
0.0
 36
0.0
 17
0.0
 27
1.0
 37
0.0
 76
     0
330
1F
331
29
  0
MLINESTYLE
  5
18
102
{ACAD_REACTORS
330
17
102
}
330
17
100
AcDbMlineStyle
  2
Standard
 70
     0
  3

 62
   256
 51
90.0
 52
90.0
 71
     2
 49
0.5
 62
   256
  6
BYLAYER
 49
-0.5
 62
   256
  6
BYLAYER
  0
ACDBPLACEHOLDER
  5
F
102
{ACAD_REACTORS
330
E
102
}
330
E
  0
SCALE
  5
48
102
{ACAD_REACTORS
330
47
102
}
330
47
100
AcDbScale
 70
     0
300
1:1
140
1.0
141
1.0
290
     1
  0
SCALE
  5
49
102
{ACAD_REACTORS
330
47
102
}
330
47
100
AcDbScale
 70
     0
300
1:2
140
1.0
141
2.0
290
     0
  0
SCALE
  5
4A
102
{ACAD_REACTORS
330
47
102
}
330
47
100
AcDbScale
 70
     0
300
1:4
140
1.0
141
4.0
290
     0
  0
SCALE
  5
4B
102
{ACAD_REACTORS
330
47
102
}
330
47
100
AcDbScale
 70
     0
300
1:5
140
1.0
141
5.0
290
     0
  0
SCALE
  5
4C
102
{ACAD_REACTORS
330
47
102
}
330
47
100
AcDbScale
 70
     0
300
1:8
140
1.0
141
8.0
290
     0
  0
SCALE
  5
4D
102
{ACAD_REACTORS
330
47
102
}
330
47
100
AcDbScale
 70
     0
300
1:10
140
1.0
141
10.0
290
     0
  0
SCALE
  5
4E
102
{ACAD_REACTORS
330
47
102
}
330
47
100
AcDbScale
 70
     0
300
1:16
140
1.0
141
16.0
290
     0
  0
SCALE
  5
4F
102
{ACAD_REACTORS
330
47
102
}
330
47
100
AcDbScale
 70
     0
300
1:20
140
1.0
141
20.0
290
     0
  0
SCALE
  5
50
102
{ACAD_REACTORS
330
47
102
}
330
47
100
AcDbScale
 70
     0
300
1:30
140
1.0
141
30.0
290
     0
  0
SCALE
  5
51
102
{ACAD_REACTORS
330
47
102
}
330
47
100
AcDbScale
 70
     0
300
1:40
140
1.0
141
40.0
290
     0
  0
SCALE
  5
52
102
{ACAD_REACTORS
330
47
102
}
330
47
100
AcDbScale
 70
     0
300
1:50
140
1.0
141
50.0
290
     0
  0
SCALE
  5
53
102
{ACAD_REACTORS
330
47
102
}
330
47
100
AcDbScale
 70
     0
300
1:100
140
1.0
141
100.0
290
     0
  0
SCALE
  5
54
102
{ACAD_REACTORS
330
47
102
}
330
47
100
AcDbScale
 70
     0
300
2:1
140
2.0
141
1.0
290
     0
  0
SCALE
  5
55
102
{ACAD_REACTORS
330
47
102
}
330
47
100
AcDbScale
 70
     0
300
4:1
140
4.0
141
1.0
290
     0
  0
SCALE
  5
56
102
{ACAD_REACTORS
330
47
102
}
330
47
100
AcDbScale
 70
     0
300
8:1
140
8.0
141
1.0
290
     0
  0
SCALE
  5
57
102
{ACAD_REACTORS
330
47
102
}
330
47
100
AcDbScale
 70
     0
300
10:1
140
10.0
141
1.0
290
     0
  0
SCALE
  5
58
102
{ACAD_REACTORS
330
47
102
}
330
47
100
AcDbScale
 70
     0
300
100:1
140
100.0
141
1.0
290
     0
  0
SCALE
  5
59
102
{ACAD_REACTORS
330
47
102
}
330
47
100
AcDbScale
 70
     0
300
1/128" = 1'-0"
140
0.0078125
141
12.0
290
     0
  0
SCALE
  5
5A
102
{ACAD_REACTORS
330
47
102
}
330
47
100
AcDbScale
 70
     0
300
1/64" = 1'-0"
140
0.015625
141
12.0
290
     0
  0
SCALE
  5
5B
102
{ACAD_REACTORS
330
47
102
}
330
47
100
AcDbScale
 70
     0
300
1/32" = 1'-0"
140
0.03125
141
12.0
290
     0
  0
SCALE
  5
5C
102
{ACAD_REACTORS
330
47
102
}
330
47
100
AcDbScale
 70
     0
300
1/16" = 1'-0"
140
0.0625
141
12.0
290
     0
  0
SCALE
  5
5D
102
{ACAD_REACTORS
330
47
102
}
330
47
100
AcDbScale
 70
     0
300
3/32" = 1'-0"
140
0.09375
141
12.0
290
     0
  0
SCALE
  5
5E
102
{ACAD_REACTORS
330
47
102
}
330
47
100
AcDbScale
 70
     0
300
1/8" = 1'-0"
140
0.125
141
12.0
290
     0
  0
SCALE
  5
5F
102
{ACAD_REACTORS
330
47
102
}
330
47
100
AcDbScale
 70
     0
300
3/16" = 1'-0"
140
0.1875
141
12.0
290
     0
  0
SCALE
  5
60
102
{ACAD_REACTORS
330
47
102
}
330
47
100
AcDbScale
 70
     0
300
1/4" = 1'-0"
140
0.25
141
12.0
290
     0
  0
SCALE
  5
61
102
{ACAD_REACTORS
330
47
102
}
330
47
100
AcDbScale
 70
     0
300
3/8" = 1'-0"
140
0.375
141
12.0
290
     0
  0
SCALE
  5
62
102
{ACAD_REACTORS
330
47
102
}
330
47
100
AcDbScale
 70
     0
300
1/2" = 1'-0"
140
0.5
141
12.0
290
     0
  0
SCALE
  5
63
102
{ACAD_REACTORS
330
47
102
}
330
47
100
AcDbScale
 70
     0
300
3/4" = 1'-0"
140
0.75
141
12.0
290
     0
  0
SCALE
  5
64
102
{ACAD_REACTORS
330
47
102
}
330
47
100
AcDbScale
 70
     0
300
1" = 1'-0"
140
1.0
141
12.0
290
     0
  0
SCALE
  5
65
102
{ACAD_REACTORS
330
47
102
}
330
47
100
AcDbScale
 70
     0
300
1-1/2" = 1'-0"
140
1.5
141
12.0
290
     0
  0
SCALE
  5
66
102
{ACAD_REACTORS
330
47
102
}
330
47
100
AcDbScale
 70
     0
300
3" = 1'-0"
140
3.0
141
12.0
290
     0
  0
SCALE
  5
67
102
{ACAD_REACTORS
330
47
102
}
330
47
100
AcDbScale
 70
     0
300
6" = 1'-0"
140
6.0
141
12.0
290
     0
  0
SCALE
  5
68
102
{ACAD_REACTORS
330
47
102
}
330
47
100
AcDbScale
 70
     0
300
1'-0" = 1'-0"
140
12.0
141
12.0
290
     0
  0
ENDSEC
  0
EOF
