  0
SECTION
  2
HEADER
  9
$ACADVER
  1
AC1015
  9
$ACADMAINTVER
 70
     6
  9
$DWGCODEPAGE
  3
ANSI_1251
  9
$INSBASE
 10
0.0
 20
0.0
 30
0.0
  9
$EXTMIN
 10
-3400.0
 20
-3693.9310229206
 30
0.0
  9
$EXTMAX
 10
3400.0
 20
3693.9310229206
 30
0.0
  9
$LIMMIN
 10
0.0
 20
0.0
  9
$LIMMAX
 10
420.0
 20
297.0
  9
$ORTHOMODE
 70
     0
  9
$REGENMODE
 70
     1
  9
$FILLMODE
 70
     1
  9
$QTEXTMODE
 70
     0
  9
$MIRRTEXT
 70
     1
  9
$LTSCALE
 40
1.0
  9
$ATTMODE
 70
     1
  9
$TEXTSIZE
 40
3.0
  9
$TRACEWID
 40
1.0
  9
$TEXTSTYLE
  7
Standard
  9
$CLAYER
  8
0
  9
$CELTYPE
  6
ByLayer
  9
$CECOLOR
 62
   256
  9
$CELTSCALE
 40
1.0
  9
$DISPSILH
 70
     0
  9
$DIMSCALE
 40
1.0
  9
$DIMASZ
 40
3.0
  9
$DIMEXO
 40
0.0
  9
$DIMDLI
 40
3.75
  9
$DIMRND
 40
0.0
  9
$DIMDLE
 40
0.0
  9
$DIMEXE
 40
2.0
  9
$DIMTP
 40
0.0
  9
$DIMTM
 40
0.0
  9
$DIMTXT
 40
3.0
  9
$DIMCEN
 40
2.5
  9
$DIMTSZ
 40
0.0
  9
$DIMTOL
 70
     0
  9
$DIMLIM
 70
     0
  9
$DIMTIH
 70
     1
  9
$DIMTOH
 70
     1
  9
$DIMSE1
 70
     0
  9
$DIMSE2
 70
     0
  9
$DIMTAD
 70
     1
  9
$DIMZIN
 70
     0
  9
$DIMBLK
  1

  9
$DIMASO
 70
     1
  9
$DIMSHO
 70
     1
  9
$DIMPOST
  1

  9
$DIMAPOST
  1

  9
$DIMALT
 70
     0
  9
$DIMALTD
 70
     3
  9
$DIMALTF
 40
0.0393700787
  9
$DIMLFAC
 40
1.0
  9
$DIMTOFL
 70
     1
  9
$DIMTVP
 40
0.0
  9
$DIMTIX
 70
     0
  9
$DIMSOXD
 70
     0
  9
$DIMSAH
 70
     0
  9
$DIMBLK1
  1

  9
$DIMBLK2
  1

  9
$DIMSTYLE
  2
ISO-25
  9
$DIMCLRD
 70
     0
  9
$DIMCLRE
 70
     0
  9
$DIMCLRT
 70
     0
  9
$DIMTFAC
 40
1.0
  9
$DIMGAP
 40
2.0
  9
$DIMJUST
 70
     0
  9
$DIMSD1
 70
     0
  9
$DIMSD2
 70
     0
  9
$DIMTOLJ
 70
     0
  9
$DIMTZIN
 70
     0
  9
$DIMALTZ
 70
     0
  9
$DIMALTTZ
 70
     0
  9
$DIMUPT
 70
     0
  9
$DIMDEC
 70
     2
  9
$DIMTDEC
 70
     2
  9
$DIMALTU
 70
     2
  9
$DIMALTTD
 70
     3
  9
$DIMTXSTY
  7
Standard
  9
$DIMAUNIT
 70
     0
  9
$DIMADEC
 70
     2
  9
$DIMALTRND
 40
0.0
  9
$DIMAZIN
 70
     0
  9
$DIMDSEP
 70
    44
  9
$DIMATFIT
 70
     3
  9
$DIMFRAC
 70
     0
  9
$DIMLDRBLK
  1

  9
$DIMLUNIT
 70
     2
  9
$DIMLWD
 70
    -2
  9
$DIMLWE
 70
    -2
  9
$DIMTMOVE
 70
     0
  9
$LUNITS
 70
     2
  9
$LUPREC
 70
     2
  9
$SKETCHINC
 40
1.0
  9
$FILLETRAD
 40
10.0
  9
$AUNITS
 70
     1
  9
$AUPREC
 70
     2
  9
$MENU
  1
.
  9
$ELEVATION
 40
0.0
  9
$PELEVATION
 40
0.0
  9
$THICKNESS
 40
0.0
  9
$LIMCHECK
 70
     0
  9
$CHAMFERA
 40
0.0
  9
$CHAMFERB
 40
0.0
  9
$CHAMFERC
 40
0.0
  9
$CHAMFERD
 40
0.0
  9
$SKPOLY
 70
     0
  9
$TDCREATE
 40
2459306.489647662
  9
$TDUCREATE
 40
2459306.364647662
  9
$TDUPDATE
 40
2459306.489692917
  9
$TDUUPDATE
 40
2459306.364692917
  9
$TDINDWG
 40
0.0000000116
  9
$TDUSRTIMER
 40
0.0000000116
  9
$USRTIMER
 70
     1
  9
$ANGBASE
 50
0.0
  9
$ANGDIR
 70
     0
  9
$PDMODE
 70
     0
  9
$PDSIZE
 40
-1.0
  9
$PLINEWID
 40
0.0
  9
$SPLFRAME
 70
     0
  9
$SPLINETYPE
 70
     6
  9
$SPLINESEGS
 70
     8
  9
$HANDSEED
  5
659
  9
$SURFTAB1
 70
     6
  9
$SURFTAB2
 70
     6
  9
$SURFTYPE
 70
     6
  9
$SURFU
 70
     6
  9
$SURFV
 70
     6
  9
$UCSBASE
  2

  9
$UCSNAME
  2

  9
$UCSORG
 10
0.0
 20
0.0
 30
0.0
  9
$UCSXDIR
 10
1.0
 20
0.0
 30
0.0
  9
$UCSYDIR
 10
0.0
 20
1.0
 30
0.0
  9
$UCSORTHOREF
  2

  9
$UCSORTHOVIEW
 70
     0
  9
$UCSORGTOP
 10
0.0
 20
0.0
 30
0.0
  9
$UCSORGBOTTOM
 10
0.0
 20
0.0
 30
0.0
  9
$UCSORGLEFT
 10
0.0
 20
0.0
 30
0.0
  9
$UCSORGRIGHT
 10
0.0
 20
0.0
 30
0.0
  9
$UCSORGFRONT
 10
0.0
 20
0.0
 30
0.0
  9
$UCSORGBACK
 10
0.0
 20
0.0
 30
0.0
  9
$PUCSBASE
  2

  9
$PUCSNAME
  2

  9
$PUCSORG
 10
0.0
 20
0.0
 30
0.0
  9
$PUCSXDIR
 10
1.0
 20
0.0
 30
0.0
  9
$PUCSYDIR
 10
0.0
 20
1.0
 30
0.0
  9
$PUCSORTHOREF
  2

  9
$PUCSORTHOVIEW
 70
     0
  9
$PUCSORGTOP
 10
0.0
 20
0.0
 30
0.0
  9
$PUCSORGBOTTOM
 10
0.0
 20
0.0
 30
0.0
  9
$PUCSORGLEFT
 10
0.0
 20
0.0
 30
0.0
  9
$PUCSORGRIGHT
 10
0.0
 20
0.0
 30
0.0
  9
$PUCSORGFRONT
 10
0.0
 20
0.0
 30
0.0
  9
$PUCSORGBACK
 10
0.0
 20
0.0
 30
0.0
  9
$USERI1
 70
     0
  9
$USERI2
 70
     0
  9
$USERI3
 70
     0
  9
$USERI4
 70
     0
  9
$USERI5
 70
     0
  9
$USERR1
 40
0.0
  9
$USERR2
 40
0.0
  9
$USERR3
 40
0.0
  9
$USERR4
 40
0.0
  9
$USERR5
 40
0.0
  9
$WORLDVIEW
 70
     1
  9
$SHADEDGE
 70
     3
  9
$SHADEDIF
 70
    70
  9
$TILEMODE
 70
     1
  9
$MAXACTVP
 70
    64
  9
$PINSBASE
 10
0.0
 20
0.0
 30
0.0
  9
$PLIMCHECK
 70
     0
  9
$PEXTMIN
 10
1.0000000000E+20
 20
1.0000000000E+20
 30
1.0000000000E+20
  9
$PEXTMAX
 10
-1.0000000000E+20
 20
-1.0000000000E+20
 30
-1.0000000000E+20
  9
$PLIMMIN
 10
0.0
 20
0.0
  9
$PLIMMAX
 10
420.0
 20
297.0
  9
$UNITMODE
 70
     0
  9
$VISRETAIN
 70
     1
  9
$PLINEGEN
 70
     0
  9
$PSLTSCALE
 70
     1
  9
$TREEDEPTH
 70
  3020
  9
$CMLSTYLE
  2
Standard
  9
$CMLJUST
 70
     0
  9
$CMLSCALE
 40
20.0
  9
$PROXYGRAPHICS
 70
     1
  9
$MEASUREMENT
 70
     1
  9
$CELWEIGHT
370
    -1
  9
$ENDCAPS
280
     0
  9
$JOINSTYLE
280
     0
  9
$LWDISPLAY
290
     1
  9
$INSUNITS
 70
     4
  9
$HYPERLINKBASE
  1

  9
$STYLESHEET
  1

  9
$XEDIT
290
     1
  9
$CEPSNTYPE
380
     0
  9
$PSTYLEMODE
290
     1
  9
$FINGERPRINTGUID
  2
{482FB4F3-A62A-4527-8376-C574C3454473}
  9
$VERSIONGUID
  2
{FAEB1C32-E019-11D5-929B-00C0DF256EC4}
  9
$EXTNAMES
290
     1
  9
$PSVPSCALE
 40
0.0
  9
$OLESTARTUP
290
     0
  0
ENDSEC
  0
SECTION
  2
CLASSES
  0
CLASS
  1
ACDBDICTIONARYWDFLT
  2
AcDbDictionaryWithDefault
  3
ObjectDBX Classes
 90
        0
280
     0
281
     0
  0
CLASS
  1
VISUALSTYLE
  2
AcDbVisualStyle
  3
ObjectDBX Classes
 90
     4095
280
     0
281
     0
  0
CLASS
  1
MATERIAL
  2
AcDbMaterial
  3
ObjectDBX Classes
 90
     1153
280
     0
281
     0
  0
CLASS
  1
SCALE
  2
AcDbScale
  3
ObjectDBX Classes
 90
     1153
280
     0
281
     0
  0
CLASS
  1
SUN
  2
AcDbSun
  3
SCENEOE
 90
     1153
280
     0
281
     0
  0
CLASS
  1
ACDBPLACEHOLDER
  2
AcDbPlaceHolder
  3
ObjectDBX Classes
 90
        0
280
     0
281
     0
  0
CLASS
  1
LAYOUT
  2
AcDbLayout
  3
ObjectDBX Classes
 90
        0
280
     0
281
     0
  0
ENDSEC
  0
SECTION
  2
TABLES
  0
TABLE
  2
VPORT
  5
8
330
0
100
AcDbSymbolTable
 70
     1
  0
VPORT
  5
29
330
8
100
AcDbSymbolTableRecord
100
AcDbViewportTableRecord
  2
*Active
 70
     0
 10
0.0
 20
0.0
 11
1.0
 21
1.0
 12
0.0
 22
0.0
 13
0.0
 23
0.0
 14
10.0
 24
10.0
 15
10.0
 25
10.0
 16
0.0
 26
0.0
 36
1.0
 17
0.0
 27
0.0
 37
0.0
 40
7535.619286758
 41
0.920428665
 42
50.0
 43
0.0
 44
0.0
 50
0.0
 51
0.0
 71
     0
 72
   100
 73
     1
 74
     3
 75
     0
 76
     0
 77
     0
 78
     0
281
     0
 65
     1
110
0.0
120
0.0
130
0.0
111
1.0
121
0.0
131
0.0
112
0.0
122
1.0
132
0.0
 79
     0
146
0.0
  0
ENDTAB
  0
TABLE
  2
LTYPE
  5
5
330
0
100
AcDbSymbolTable
 70
     6
  0
LTYPE
  5
14
330
5
100
AcDbSymbolTableRecord
100
AcDbLinetypeTableRecord
  2
ByBlock
 70
     0
  3

 72
    65
 73
     0
 40
0.0
  0
LTYPE
  5
15
330
5
100
AcDbSymbolTableRecord
100
AcDbLinetypeTableRecord
  2
ByLayer
 70
     0
  3

 72
    65
 73
     0
 40
0.0
  0
LTYPE
  5
16
330
5
100
AcDbSymbolTableRecord
100
AcDbLinetypeTableRecord
  2
Continuous
 70
     0
  3
Solid line
 72
    65
 73
     0
 40
0.0
  0
LTYPE
  5
6A
330
5
100
AcDbSymbolTableRecord
100
AcDbLinetypeTableRecord
  2
HIDDEN
 70
     0
  3
Hidden __ __ __ __ __ __ __ __ __ __ __ __ __ __
 72
    65
 73
     2
 40
1.905
 49
1.27
 74
     0
 49
-0.635
 74
     0
  0
LTYPE
  5
6B
330
5
100
AcDbSymbolTableRecord
100
AcDbLinetypeTableRecord
  2
PHANTOM
 70
     0
  3
Phantom ______  __  __  ______  __  __  ______
 72
    65
 73
     6
 40
12.7
 49
6.35
 74
     0
 49
-1.27
 74
     0
 49
1.27
 74
     0
 49
-1.27
 74
     0
 49
1.27
 74
     0
 49
-1.27
 74
     0
  0
LTYPE
  5
6C
330
5
100
AcDbSymbolTableRecord
100
AcDbLinetypeTableRecord
  2
CENTER
 70
     0
  3
Center ____ _ ____ _ ____ _ ____ _ ____ _ ____
 72
    65
 73
     4
 40
10.16
 49
6.35
 74
     0
 49
-1.27
 74
     0
 49
1.27
 74
     0
 49
-1.27
 74
     0
  0
LTYPE
  5
6D
330
5
100
AcDbSymbolTableRecord
100
AcDbLinetypeTableRecord
  2
CENTERX2
 70
     0
  3
Center (2x) ________  __  ________  __  _____
 72
    65
 73
     4
 40
20.32
 49
12.7
 74
     0
 49
-2.54
 74
     0
 49
2.54
 74
     0
 49
-2.54
 74
     0
  0
LTYPE
  5
6E
330
5
100
AcDbSymbolTableRecord
100
AcDbLinetypeTableRecord
  2
DOT2
 70
     0
  3
Dot (.5x) ........................................
 72
    65
 73
     2
 40
0.635
 49
0.0
 74
     0
 49
-0.635
 74
     0
  0
ENDTAB
  0
TABLE
  2
LAYER
  5
2
330
0
100
AcDbSymbolTable
 70
     1
  0
LAYER
  5
10
330
2
100
AcDbSymbolTableRecord
100
AcDbLayerTableRecord
  2
0
 70
     0
 62
     7
  6
Continuous
370
    -3
390
F
  0
ENDTAB
  0
TABLE
  2
STYLE
  5
3
330
0
100
AcDbSymbolTable
 70
     1
  0
STYLE
  5
11
330
3
100
AcDbSymbolTableRecord
100
AcDbTextStyleTableRecord
  2
Standard
 70
     0
 40
0.0
 41
1.0
 50
0.0
 71
     0
 42
3.0
  3
txt
  4

  0
ENDTAB
  0
TABLE
  2
VIEW
  5
6
330
0
100
AcDbSymbolTable
 70
     0
  0
ENDTAB
  0
TABLE
  2
UCS
  5
7
330
0
100
AcDbSymbolTable
 70
     0
  0
ENDTAB
  0
TABLE
  2
APPID
  5
9
330
0
100
AcDbSymbolTable
 70
     1
  0
APPID
  5
12
330
9
100
AcDbSymbolTableRecord
100
AcDbRegAppTableRecord
  2
ACAD
 70
     0
  0
ENDTAB
  0
TABLE
  2
DIMSTYLE
  5
A
330
0
100
AcDbSymbolTable
 70
     1
100
AcDbDimStyleTable
  0
DIMSTYLE
105
27
330
A
100
AcDbSymbolTableRecord
100
AcDbDimStyleTableRecord
  2
ISO-25
 70
     0
 41
2.5
 42
0.625
 43
3.75
 44
1.25
 73
     0
 74
     0
 77
     1
 78
     8
140
2.5
141
2.5
143
0.0393700787
147
0.625
171
     3
172
     1
178
     0
271
     2
272
     2
274
     3
278
    44
283
     0
284
     8
340
11
  0
ENDTAB
  0
TABLE
  2
BLOCK_RECORD
  5
1
330
0
100
AcDbSymbolTable
 70
     1
  0
BLOCK_RECORD
  5
1F
330
1
100
AcDbSymbolTableRecord
100
AcDbBlockTableRecord
  2
*Model_Space
340
22
  0
BLOCK_RECORD
  5
1B
330
1
100
AcDbSymbolTableRecord
100
AcDbBlockTableRecord
  2
*Paper_Space
340
1E
  0
BLOCK_RECORD
  5
23
330
1
100
AcDbSymbolTableRecord
100
AcDbBlockTableRecord
  2
*Paper_Space0
340
26
  0
ENDTAB
  0
ENDSEC
  0
SECTION
  2
BLOCKS
  0
BLOCK
  5
20
330
1F
100
AcDbEntity
  8
0
100
AcDbBlockBegin
  2
*Model_Space
 70
     0
 10
0.0
 20
0.0
 30
0.0
  3
*Model_Space
  1
*Model_Space
  0
ENDBLK
  5
21
330
1F
100
AcDbEntity
  8
0
100
AcDbBlockEnd
  0
BLOCK
  5
1C
330
1B
100
AcDbEntity
 67
     1
  8
0
100
AcDbBlockBegin
  2
*Paper_Space
 70
     0
 10
0.0
 20
0.0
 30
0.0
  3
*Paper_Space
  1
*Paper_Space
  0
ENDBLK
  5
1D
330
1B
100
AcDbEntity
 67
     1
  8
0
100
AcDbBlockEnd
  0
BLOCK
  5
24
330
23
100
AcDbEntity
  8
0
100
AcDbBlockBegin
  2
*Paper_Space0
 70
     0
 10
0.0
 20
0.0
 30
0.0
  3
*Paper_Space0
  1
*Paper_Space0
  0
ENDBLK
  5
25
330
23
100
AcDbEntity
  8
0
100
AcDbBlockEnd
  0
ENDSEC
  0
SECTION
  2
ENTITIES
  0
SPLINE
  5
9D
330
1F
100
AcDbEntity
  8
0
  6
Continuous
 62
     7
370
    15
100
AcDbSpline
210
0.0
220
0.0
230
1.0
 70
     8
 71
     3
 72
    10
 73
     6
 74
     0
 42
0.000000001
 43
0.00000001
 40
0.0
 40
0.0
 40
0.0
 40
0.0
 40
0.369294299631422
 40
0.7091319738505772
 40
1.0
 40
1.0
 40
1.0
 40
1.0
 10
5.488916871672623
 20
-173.7454378332141
 30
0.0
 10
5.777855638838893
 20
-173.3287457881906
 30
0.0
 10
6.332686077562338
 20
-172.5285989874677
 30
0.0
 10
6.814501322754755
 20
-171.2258557599142
 30
0.0
 10
6.915075877379931
 20
-170.3663850674107
 30
0.0
 10
6.961458718327123
 20
-169.9700155027855
 30
0.0
  0
SPLINE
  5
9E
330
1F
100
AcDbEntity
  8
0
  6
Continuous
 62
     7
370
    15
100
AcDbSpline
210
0.0
220
0.0
230
1.0
 70
     8
 71
     3
 72
    12
 73
     8
 74
     0
 42
0.000000001
 43
0.00000001
 40
0.0
 40
0.0
 40
0.0
 40
0.0
 40
0.0921477752359167
 40
0.3638603550201538
 40
0.5583093699777796
 40
0.774128356216464
 40
1.0
 40
1.0
 40
1.0
 40
1.0
 10
-6.951165265348822
 20
-169.9603243807471
 30
0.0
 10
-6.948409076217308
 20
-170.0937462774897
 30
0.0
 10
-6.937525818826362
 20
-170.6205841592719
 30
0.0
 10
-6.726008207269386
 20
-171.410693839965
 30
0.0
 10
-6.379913291562794
 20
-172.3332628204846
 30
0.0
 10
-5.946543195156507
 20
-173.1508797507593
 30
0.0
 10
-5.554774457462206
 20
-173.6565881052339
 30
0.0
 10
-5.354431858477117
 20
-173.915197116918
 30
0.0
  0
SPLINE
  5
9F
330
1F
100
AcDbEntity
  8
0
  6
Continuous
 62
     7
370
    15
100
AcDbSpline
210
0.0
220
0.0
230
1.0
 70
     8
 71
     3
 72
     9
 73
     5
 74
     0
 42
0.000000001
 43
0.00000001
 40
0.0
 40
0.0
 40
0.0
 40
0.0
 40
0.3111828937843335
 40
1.0
 40
1.0
 40
1.0
 40
1.0
 10
-6.365203946734105
 20
-169.0916368971214
 30
0.0
 10
-6.497964028094375
 20
-169.1739208597401
 30
0.0
 10
-6.924594424597722
 20
-169.43834401494
 30
0.0
 10
-6.956272599165901
 20
-169.7470388435973
 30
0.0
 10
-6.978093067702152
 20
-169.9596731221768
 30
0.0
  0
SPLINE
  5
A0
330
1F
100
AcDbEntity
  8
0
  6
Continuous
 62
     7
370
    15
100
AcDbSpline
210
0.0
220
0.0
230
1.0
 70
     8
 71
     3
 72
    13
 73
     9
 74
     0
 42
0.000000001
 43
0.00000001
 40
0.0
 40
0.0
 40
0.0
 40
0.0
 40
0.0132374678648084
 40
0.2498356632815145
 40
0.5240746355661691
 40
0.6955344306734267
 40
0.8905544516958571
 40
1.0
 40
1.0
 40
1.0
 40
1.0
 10
0.066370034470099
 20
-167.8932934555597
 30
0.0
 10
0.0310514372791273
 20
-167.8920158335945
 30
0.0
 10
-0.635529607184604
 20
-167.8679027982055
 30
0.0
 10
-2.059639458115768
 20
-167.9479295726755
 30
0.0
 10
-3.7589285708702
 20
-168.1442229876443
 30
0.0
 10
-5.095838216056798
 20
-168.4698338681621
 30
0.0
 10
-5.950765035312698
 20
-168.7671446401905
 30
0.0
 10
-6.255618840253453
 20
-169.0058353047806
 30
0.0
 10
-6.365203946734104
 20
-169.0916368971213
 30
0.0
  0
SPLINE
  5
A1
330
1F
100
AcDbEntity
  8
0
  6
Continuous
 62
     7
370
    15
100
AcDbSpline
210
0.0
220
0.0
230
1.0
 70
     8
 71
     3
 72
    12
 73
     8
 74
     0
 42
0.000000001
 43
0.00000001
 40
0.0
 40
0.0
 40
0.0
 40
0.0
 40
0.1945785792677011
 40
0.3762293109656552
 40
0.530626279462359
 40
0.7797552143879205
 40
1.0
 40
1.0
 40
1.0
 40
1.0
 10
6.638748853567274
 20
-169.2551271336662
 30
0.0
 10
6.426953961487421
 20
-169.0887957987186
 30
0.0
 10
6.017435880858311
 20
-168.7671842226918
 30
0.0
 10
5.004406834666592
 20
-168.419461181141
 30
0.0
 10
3.688938701997741
 20
-168.127379576126
 30
0.0
 10
2.052871370877665
 20
-167.9337346304848
 30
0.0
 10
0.700802778158979
 20
-167.9062092311977
 30
0.0
 10
0.066370034470099
 20
-167.8932934555596
 30
0.0
  0
SPLINE
  5
A2
330
1F
100
AcDbEntity
  8
0
  6
Continuous
 62
     7
370
    15
100
AcDbSpline
210
0.0
220
0.0
230
1.0
 70
     8
 71
     3
 72
     9
 73
     5
 74
     0
 42
0.000000001
 43
0.00000001
 40
0.0
 40
0.0
 40
0.0
 40
0.0
 40
0.9166738889424186
 40
1.0
 40
1.0
 40
1.0
 40
1.0
 10
6.893574534824943
 20
-169.7620840450135
 30
0.0
 10
6.890906309871261
 20
-169.5964955221052
 30
0.0
 10
6.887995541946189
 20
-169.4158549203538
 30
0.0
 10
6.657920141902899
 20
-169.2674898204573
 30
0.0
 10
6.638748853567274
 20
-169.2551271336662
 30
0.0
  0
SPLINE
  5
AC
330
1F
100
AcDbEntity
  8
0
  6
Continuous
 62
     7
370
    15
100
AcDbSpline
210
0.0
220
0.0
230
1.0
 70
     8
 71
     3
 72
    12
 73
     8
 74
     0
 42
0.000000001
 43
0.00000001
 40
0.0
 40
0.0
 40
0.0
 40
0.0
 40
0.3527416530462867
 40
0.496906939797686
 40
0.7372405598483017
 40
0.9901103683807921
 40
0.9999999999999999
 40
0.9999999999999999
 40
0.9999999999999999
 40
0.9999999999999999
 10
-5.354431858477132
 20
173.9151971169179
 30
0.0
 10
-5.659958798664271
 20
173.5041442014208
 30
0.0
 10
-6.09035440282112
 20
172.9250942237087
 30
0.0
 10
-6.538564156289242
 20
171.9532859224823
 30
0.0
 10
-6.813865358129007
 20
171.0748577283159
 30
0.0
 10
-6.975516664659184
 20
170.3549819035763
 30
0.0
 10
-6.974524429713272
 20
169.9749124079898
 30
0.0
 10
-6.974487084382922
 20
169.9606075088056
 30
0.0
  0
SPLINE
  5
AD
330
1F
100
AcDbEntity
  8
0
  6
Continuous
 62
     7
370
    15
100
AcDbSpline
210
0.0
220
0.0
230
1.0
 70
     8
 71
     3
 72
    12
 73
     8
 74
     0
 42
0.000000001
 43
0.00000001
 40
0.0
 40
0.0
 40
0.0
 40
0.0
 40
0.0103424254697347
 40
0.3167849713052847
 40
0.6380724187030514
 40
0.9726486686260986
 40
1.0
 40
1.0
 40
1.0
 40
1.0
 10
6.974718292712144
 20
169.9580167403358
 30
0.0
 10
6.97475710679295
 20
169.9722124947961
 30
0.0
 10
6.975945968874738
 20
170.4070236213079
 30
0.0
 10
6.77512333027851
 20
171.2759339944443
 30
0.0
 10
6.311086244683752
 20
172.5046467546565
 30
0.0
 10
5.856099301121104
 20
173.3480762903527
 30
0.0
 10
5.513436692680209
 20
173.7079236357648
 30
0.0
 10
5.487541240006149
 20
173.7351177610456
 30
0.0
  0
SPLINE
  5
AE
330
1F
100
AcDbEntity
  8
0
  6
Continuous
 62
     7
370
    15
100
AcDbSpline
210
0.0
220
0.0
230
1.0
 70
     8
 71
     3
 72
    19
 73
    15
 74
     0
 42
0.000000001
 43
0.00000001
 40
0.0
 40
0.0
 40
0.0
 40
0.0
 40
0.1393850700646776
 40
0.193340461153364
 40
0.2812909730462659
 40
0.3689310358503959
 40
0.4593516690671962
 40
0.5495337857488946
 40
0.6383798587892429
 40
0.7253427326027537
 40
0.8110365725375569
 40
0.8952108499399463
 40
0.9759882567475187
 40
1.0
 40
1.0
 40
1.0
 40
1.0
 10
-0.0000000000037197
 20
167.8683958327876
 30
0.0
 10
0.5073360178383031
 20
167.8759148469083
 30
0.0
 10
1.211059735190332
 20
167.8863444406721
 30
0.0
 10
2.195832820305402
 20
167.9533037768919
 30
0.0
 10
2.970987000760983
 20
168.0281621060685
 30
0.0
 10
3.80879076195301
 20
168.1454998304615
 30
0.0
 10
4.576434987481004
 20
168.2923170094743
 30
0.0
 10
5.25466914473881
 20
168.4670188761938
 30
0.0
 10
5.824604559753467
 20
168.6653797864237
 30
0.0
 10
6.284181858467987
 20
168.8876767674999
 30
0.0
 10
6.648707835524089
 20
169.1477661305848
 30
0.0
 10
6.90130394279878
 20
169.4726643098288
 30
0.0
 10
7.027288768982519
 20
169.8356378222521
 30
0.0
 10
6.95402760731934
 20
170.0051248941425
 30
0.0
 10
6.93724029486164
 20
170.0439617398705
 30
0.0
  0
SPLINE
  5
AF
330
1F
100
AcDbEntity
  8
0
  6
Continuous
 62
     7
370
    15
100
AcDbSpline
210
0.0
220
0.0
230
1.0
 70
     8
 71
     3
 72
    10
 73
     6
 74
     0
 42
0.000000001
 43
0.00000001
 40
0.0
 40
0.0
 40
0.0
 40
0.0
 40
0.1950264518741772
 40
0.7831813968382235
 40
0.9999999999999999
 40
0.9999999999999999
 40
0.9999999999999999
 40
0.9999999999999999
 10
-6.941260391831745
 20
170.0407844129762
 30
0.0
 10
-6.957938873333796
 20
169.9804486237661
 30
0.0
 10
-7.024915820893423
 20
169.7381539646633
 30
0.0
 10
-6.879638444103732
 20
169.4086683782543
 30
0.0
 10
-6.700664902372906
 20
169.247014190933
 30
0.0
 10
-6.652458606139519
 20
169.2034728408205
 30
0.0
  0
SPLINE
  5
B9
330
1F
100
AcDbEntity
  8
0
  6
Continuous
 62
     7
370
    15
100
AcDbSpline
210
0.0
220
0.0
230
1.0
 70
     8
 71
     3
 72
    10
 73
     6
 74
     0
 42
0.000000001
 43
0.00000001
 40
0.0
 40
0.0
 40
0.0
 40
0.0
 40
0.3692942996307725
 40
0.7091319738496511
 40
1.0
 40
1.0
 40
1.0
 40
1.0
 10
1569.410464091811
 20
1106.723504519377
 30
0.0
 10
1569.368581801819
 20
1106.21816923925
 30
0.0
 10
1569.288157947453
 20
1105.247806563707
 30
0.0
 10
1569.522265318961
 20
1103.87869021144
 30
0.0
 10
1569.864900545933
 20
1103.084079480611
 30
0.0
 10
1570.022916609686
 20
1102.717621947884
 30
0.0
  0
SPLINE
  5
BA
330
1F
100
AcDbEntity
  8
0
  6
Continuous
 62
     7
370
    15
100
AcDbSpline
210
0.0
220
0.0
230
1.0
 70
     8
 71
     3
 72
    12
 73
     8
 74
     0
 42
0.000000001
 43
0.00000001
 40
0.0
 40
0.0
 40
0.0
 40
0.0
 40
0.0921477752326235
 40
0.3638603550178359
 40
0.558309369975283
 40
0.7741283562133395
 40
1.0
 40
1.0
 40
1.0
 40
1.0
 10
1582.07644797387
 20
1109.665541181845
 30
0.0
 10
1582.007350095696
 20
1109.779709839276
 30
0.0
 10
1581.734505977431
 20
1110.230523199878
 30
0.0
 10
1581.156271512131
 20
1110.809019449353
 30
0.0
 10
1580.395260032749
 20
1111.434940165374
 30
0.0
 10
1579.611142054881
 20
1111.926332149357
 30
0.0
 10
1579.019006198389
 20
1112.168404062393
 30
0.0
 10
1578.716199912362
 20
1112.292194736668
 30
0.0
  0
SPLINE
  5
BB
330
1F
100
AcDbEntity
  8
0
  6
Continuous
 62
     7
370
    15
100
AcDbSpline
210
0.0
220
0.0
230
1.0
 70
     8
 71
     3
 72
     9
 73
     5
 74
     0
 42
0.000000001
 43
0.00000001
 40
0.0
 40
0.0
 40
0.0
 40
0.0
 40
0.3111828937843499
 40
1.0
 40
1.0
 40
1.0
 40
1.0
 10
1582.003334328127
 20
1108.620255093768
 30
0.0
 10
1582.077165949884
 20
1108.757895136401
 30
0.0
 10
1582.314427133683
 20
1109.200207504404
 30
0.0
 10
1582.187513823276
 20
1109.483384155322
 30
0.0
 10
1582.100093764061
 20
1109.678441076555
 30
0.0
  0
SPLINE
  5
BC
330
1F
100
AcDbEntity
  8
0
  6
Continuous
 62
     7
370
    15
100
AcDbSpline
210
0.0
220
0.0
230
1.0
 70
     8
 71
     3
 72
    13
 73
     9
 74
     0
 42
0.000000001
 43
0.00000001
 40
0.0
 40
0.0
 40
0.0
 40
0.0
 40
0.0132374678648786
 40
0.2498356632815913
 40
0.5240746355662108
 40
0.6955344306734632
 40
0.8905544516958543
 40
1.0
 40
1.0
 40
1.0
 40
1.0
 10
1577.032599594865
 20
1104.366672240315
 30
0.0
 10
1577.063825208241
 20
1104.383225085833
 30
0.0
 10
1577.653157844122
 20
1104.695633106855
 30
0.0
 10
1578.846459765575
 20
1105.476993251995
 30
0.0
 10
1580.21994059811
 20
1106.496632892331
 30
0.0
 10
1581.214932873147
 20
1107.447075009201
 30
0.0
 10
1581.806665830984
 20
1108.132017100224
 30
0.0
 10
1581.951331638209
 20
1108.491156181876
 30
0.0
 10
1582.003334328127
 20
1108.620255093768
 30
0.0
  0
SPLINE
  5
BD
330
1F
100
AcDbEntity
  8
0
  6
Continuous
 62
     7
370
    15
100
AcDbSpline
210
0.0
220
0.0
230
1.0
 70
     8
 71
     3
 72
    12
 73
     8
 74
     0
 42
0.000000001
 43
0.00000001
 40
0.0
 40
0.0
 40
0.0
 40
0.0
 40
0.1945785792676494
 40
0.3762293109656509
 40
0.5306262794623503
 40
0.7797552143879556
 40
1.0
 40
1.0
 40
1.0
 40
1.0
 10
1570.65983573518
 20
1102.259865391736
 30
0.0
 10
1570.926421159587
 20
1102.221715676266
 30
0.0
 10
1571.441880008734
 20
1102.147950921591
 30
0.0
 10
1572.493050418282
 20
1102.353328457222
 30
0.0
 10
1573.77832004155
 20
1102.758112433636
 30
0.0
 10
1575.292018385423
 20
1103.408444656956
 30
0.0
 10
1576.476706834019
 20
1104.060641258283
 30
0.0
 10
1577.032599594865
 20
1104.366672240315
 30
0.0
  0
SPLINE
  5
BE
330
1F
100
AcDbEntity
  8
0
  6
Continuous
 62
     7
370
    15
100
AcDbSpline
210
0.0
220
0.0
230
1.0
 70
     8
 71
     3
 72
     9
 73
     5
 74
     0
 42
0.000000001
 43
0.00000001
 40
0.0
 40
0.0
 40
0.0
 40
0.0
 40
0.9166738889420369
 40
1.0
 40
1.0
 40
1.0
 40
1.0
 10
1570.185671766
 20
1102.571490114959
 30
0.0
 10
1570.270776778047
 20
1102.429420360022
 30
0.0
 10
1570.363617877891
 20
1102.274436393913
 30
0.0
 10
1570.637051569063
 20
1102.260986148389
 30
0.0
 10
1570.65983573518
 20
1102.259865391736
 30
0.0
  0
SPLINE
  5
C7
330
1F
100
AcDbEntity
  8
0
  6
Continuous
 62
     7
370
    15
100
AcDbSpline
210
0.0
220
0.0
230
1.0
 70
     8
 71
     3
 72
    12
 73
     8
 74
     0
 42
0.000000001
 43
0.00000001
 40
0.0
 40
0.0
 40
0.0
 40
0.0
 40
0.3527416530463376
 40
0.4969069397977575
 40
0.737240559848836
 40
0.9901103683813505
 40
1.0
 40
1.0
 40
1.0
 40
1.0
 10
1752.63139702928
 20
811.0622371218101
 30
0.0
 10
1752.690464663274
 20
811.5709828590238
 30
0.0
 10
1752.773673201295
 20
812.2876526518619
 30
0.0
 10
1752.67593008341
 20
813.3533682050676
 30
0.0
 10
1752.475133820811
 20
814.2517599375359
 30
0.0
 10
1752.25519004645
 20
814.9560163425965
 30
0.0
 10
1752.064295997989
 20
815.2846700635035
 30
0.0
 10
1752.057111206392
 20
815.2970397969298
 30
0.0
  0
SPLINE
  5
C8
330
1F
100
AcDbEntity
  8
0
  6
Continuous
 62
     7
370
    15
100
AcDbSpline
210
0.0
220
0.0
230
1.0
 70
     8
 71
     3
 72
    12
 73
     8
 74
     0
 42
0.000000001
 43
0.00000001
 40
0.0
 40
0.0
 40
0.0
 40
0.0
 40
0.0103424254704258
 40
0.3167849713055103
 40
0.6380724187033151
 40
0.9726486686264952
 40
1.0
 40
1.0
 40
1.0
 40
1.0
 10
1739.975449602987
 20
808.3246807796926
 30
0.0
 10
1739.982513866237
 20
808.3123674886627
 30
0.0
 10
1740.198889844735
 20
807.9352155762161
 30
0.0
 10
1740.807262537974
 20
807.2831284387632
 30
0.0
 10
1741.823486822507
 20
806.4510505172647
 30
0.0
 10
1742.639231841871
 20
805.948112584831
 30
0.0
 10
1743.115910038412
 20
805.8078069464401
 30
0.0
 10
1743.15193322091
 20
805.7972038694504
 30
0.0
  0
SPLINE
  5
C9
330
1F
100
AcDbEntity
  8
0
  6
Continuous
 62
     7
370
    15
100
AcDbSpline
210
0.0
220
0.0
230
1.0
 70
     8
 71
     3
 72
    19
 73
    15
 74
     0
 42
0.000000001
 43
0.00000001
 40
0.0
 40
0.0
 40
0.0
 40
0.0
 40
0.1393850700647006
 40
0.193340461153428
 40
0.2812909730459939
 40
0.3689310358502795
 40
0.4593516690670505
 40
0.5495337857487927
 40
0.6383798587889409
 40
0.7253427326025313
 40
0.8110365725373926
 40
0.8952108499398636
 40
0.9759882567474965
 40
1.0
 40
1.0
 40
1.0
 40
1.0
 10
1744.970922374944
 20
813.6217047162663
 30
0.0
 10
1744.535316002298
 20
813.3615250501052
 30
0.0
 10
1743.931088182707
 20
813.0006308982786
 30
0.0
 10
1743.111729342146
 20
812.4502558695344
 30
0.0
 10
1742.47785529461
 20
811.9978495645553
 30
0.0
 10
1741.810964816228
 20
811.4773302338127
 30
0.0
 10
1741.219574005358
 20
810.9663607143113
 30
0.0
 10
1740.719556928819
 20
810.4759473810152
 30
0.0
 10
1740.325158836015
 20
810.0191940861308
 30
0.0
 10
1740.038301710863
 20
809.5968906039773
 30
0.0
 10
1739.852657635935
 20
809.1893836197629
 30
0.0
 10
1739.79635207976
 20
808.781715489257
 30
0.0
 10
1739.868732776006
 20
808.4043787935047
 30
0.0
 10
1740.016922339062
 20
808.2942292644666
 30
0.0
 10
1740.050879000976
 20
808.268989225692
 30
0.0
  0
SPLINE
  5
CA
330
1F
100
AcDbEntity
  8
0
  6
Continuous
 62
     7
370
    15
100
AcDbSpline
210
0.0
220
0.0
230
1.0
 70
     8
 71
     3
 72
    10
 73
     6
 74
     0
 42
0.000000001
 43
0.00000001
 40
0.0
 40
0.0
 40
0.0
 40
0.0
 40
0.1950264518752114
 40
0.7831813968411304
 40
0.9999999999999999
 40
0.9999999999999999
 40
0.9999999999999999
 40
0.9999999999999999
 10
1752.068424498644
 20
815.2109912148462
 30
0.0
 10
1752.052700592717
 20
815.2715827818108
 30
0.0
 10
1751.989557001218
 20
815.5149045855754
 30
0.0
 10
1751.699000309119
 20
815.727608785191
 30
0.0
 10
1751.463177581715
 20
815.7781186471738
 30
0.0
 10
1751.399659029499
 20
815.7917234143694
 30
0.0
  0
SPLINE
  5
D3
330
1F
100
AcDbEntity
  8
0
  6
Continuous
 62
     7
370
    15
100
AcDbSpline
210
0.0
220
0.0
230
1.0
 70
     8
 71
     3
 72
    20
 73
    16
 74
     0
 42
0.000000001
 43
0.00000001
 40
0.0
 40
0.0
 40
0.0
 40
0.0
 40
0.1249999999999999
 40
0.1249999999999999
 40
0.2499999999999998
 40
0.2499999999999998
 40
0.3749999999999998
 40
0.3749999999999998
 40
0.4999999999999997
 40
0.4999999999999997
 40
0.6249999999999996
 40
0.6249999999999996
 40
0.7499999999999996
 40
0.7499999999999996
 40
1.0
 40
1.0
 40
1.0
 40
1.0
 10
177.8735505914229
 20
-2.500000000000022
 30
0.0
 10
177.9101245911432
 20
-2.500000000000022
 30
0.0
 10
177.9458050609469
 20
-2.481318089499705
 30
0.0
 10
178.0153573601538
 20
-2.407982954503319
 30
0.0
 10
178.0495484969643
 20
-2.35255225768344
 30
0.0
 10
178.1141058288659
 20
-2.206852612584746
 30
0.0
 10
178.144253298816
 20
-2.11755641365315
 30
0.0
 10
178.1999216396106
 20
-1.906280889300009
 30
0.0
 10
178.2256288751736
 20
-1.782738314389485
 30
0.0
 10
178.2697020804378
 20
-1.511493479667345
 30
0.0
 10
178.2883215984304
 20
-1.363337447327858
 30
0.0
 10
178.3180894754861
 20
-1.041416662675409
 30
0.0
 10
178.3290799250844
 20
-0.8677720138672248
 30
0.0
 10
178.3484475034516
 20
-0.3311689467717054
 30
0.0
 10
178.3436390029827
 20
0.0604760829012459
 30
0.0
 10
178.319943510053
 20
0.4552238805970154
 30
0.0
  0
SPLINE
  5
D5
330
1F
100
AcDbEntity
  8
0
  6
Continuous
 62
     7
370
    15
100
AcDbSpline
210
0.0
220
0.0
230
1.0
 70
     8
 71
     3
 72
    16
 73
    12
 74
     0
 42
0.000000001
 43
0.00000001
 40
0.0
 40
0.0
 40
0.0
 40
0.0
 40
0.2500000000000006
 40
0.2500000000000006
 40
0.5000000000000012
 40
0.5000000000000012
 40
0.6250000000000012
 40
0.6250000000000012
 40
0.7500000000000011
 40
0.7500000000000011
 40
1.0
 40
1.0
 40
1.0
 40
1.0
 10
178.319943510053
 20
0.4552238805970149
 30
0.0
 10
178.2329479972103
 20
1.904498947628966
 30
0.0
 10
178.0982811207128
 20
3.32908316252874
 30
0.0
 10
177.7396351355432
 20
6.131965179300166
 30
0.0
 10
177.5156191486328
 20
7.510247711201297
 30
0.0
 10
177.1151349069506
 20
9.543384275289865
 30
0.0
 10
176.9703161505797
 20
10.21759897550537
 30
0.0
 10
176.6634029404675
 20
11.53806798907735
 30
0.0
 10
176.5011720463483
 20
12.18546157526689
 30
0.0
 10
175.990216767653
 20
14.09052959853984
 30
0.0
 10
175.6172222236294
 20
15.31125299188411
 30
0.0
 10
175.2170630721901
 20
16.48428773211333
 30
0.0
  0
SPLINE
  5
D6
330
1F
100
AcDbEntity
  8
0
  6
Continuous
 62
     7
370
    15
100
AcDbSpline
210
0.0
220
0.0
230
1.0
 70
     8
 71
     3
 72
     8
 73
     4
 74
     0
 42
0.000000001
 43
0.00000001
 40
0.0
 40
0.0
 40
0.0
 40
0.0
 40
1.0
 40
1.0
 40
1.0
 40
1.0
 10
174.7509315887883
 20
19.08619088501079
 30
0.0
 10
174.7752338032399
 20
18.23682396199345
 30
0.0
 10
174.9160880709233
 20
17.36657202114353
 30
0.0
 10
175.2170630721901
 20
16.48428773211329
 30
0.0
  0
SPLINE
  5
D7
330
1F
100
AcDbEntity
  8
0
  6
Continuous
 62
     7
370
    15
100
AcDbSpline
210
0.0
220
0.0
230
1.0
 70
     8
 71
     3
 72
    14
 73
    10
 74
     0
 42
0.000000001
 43
0.00000001
 40
0.0
 40
0.0
 40
0.0
 40
0.0
 40
0.1636465640015164
 40
0.3309317570709907
 40
0.5167381910478276
 40
0.707936718072914
 40
0.85268351568838
 40
0.9999296289803359
 40
1.0
 40
1.0
 40
1.0
 40
1.0
 10
174.7509315887883
 20
19.08619088501083
 30
0.0
 10
174.7188439152022
 20
20.20746913528638
 30
0.0
 10
174.6539551088594
 20
22.47495689950083
 30
0.0
 10
174.5704359257913
 20
25.39145901926455
 30
0.0
 10
174.5002089883519
 20
27.84284442352486
 30
0.0
 10
174.4532580151035
 20
29.48110730889239
 30
0.0
 10
174.4303380485111
 20
30.28072416893415
 30
0.0
 10
174.4212464133457
 20
30.59788337480973
 30
0.0
 10
174.4240549219912
 20
30.49990645445734
 30
0.0
 10
174.4240562635765
 20
30.4998596522558
 30
0.0
  0
SPLINE
  5
D8
330
1F
100
AcDbEntity
  8
0
  6
Continuous
 62
     7
370
    15
100
AcDbSpline
210
0.0
220
0.0
230
1.0
 70
     8
 71
     3
 72
    17
 73
    13
 74
     0
 42
0.000000001
 43
0.00000001
 40
0.0
 40
0.0
 40
0.0
 40
0.0
 40
0.0980464792532985
 40
0.19829726284155
 40
0.3095841693498186
 40
0.4240971064075374
 40
0.5354082411073507
 40
0.6499450306672121
 40
0.7612985786048027
 40
0.8758790141182752
 40
0.9632069750079001
 40
1.0
 40
1.0
 40
1.0
 40
1.0
 10
174.4240542601971
 20
-30.49992954166829
 30
0.0
 10
174.4258650072209
 20
-30.43676367960909
 30
0.0
 10
174.429527210915
 20
-30.30901184551205
 30
0.0
 10
174.4602865682793
 20
-29.23589433591217
 30
0.0
 10
174.5126475605382
 20
-27.40872503290167
 30
0.0
 10
174.5893919681599
 20
-24.72967503764828
 30
0.0
 10
174.6868478167852
 20
-21.32589539639818
 30
0.0
 10
174.8006508499669
 20
-17.34873093277679
 30
0.0
 10
174.9295140128118
 20
-12.84214974433021
 30
0.0
 10
175.0577795138508
 20
-8.352795272655028
 30
0.0
 10
175.1591991007055
 20
-4.800999240207728
 30
0.0
 10
175.2128620579961
 20
-2.920078700869973
 30
0.0
 10
175.2287692997467
 20
-2.362519832638348
 30
0.0
  0
SPLINE
  5
D9
330
1F
100
AcDbEntity
  8
0
  6
Continuous
 62
     7
370
    15
100
AcDbSpline
210
0.0
220
0.0
230
1.0
 70
     8
 71
     3
 72
    14
 73
    10
 74
     0
 42
0.000000001
 43
0.00000001
 40
0.0
 40
0.0
 40
0.0
 40
0.0
 40
0.1636465640015161
 40
0.3309317570709915
 40
0.5167381910478379
 40
0.7079367180729181
 40
0.8526835156883863
 40
0.9999296289803437
 40
1.0
 40
1.0
 40
1.0
 40
1.0
 10
1519.241073810166
 20
855.0954080377076
 30
0.0
 10
1519.829501675777
 20
854.1403964250511
 30
0.0
 10
1521.019440912599
 20
852.2091388216426
 30
0.0
 10
1522.55002170672
 20
849.7251334872693
 30
0.0
 10
1523.836532720702
 20
847.6372849214342
 30
0.0
 10
1524.696324898959
 20
846.241983131251
 30
0.0
 10
1525.11598260228
 20
845.560954600462
 30
0.0
 10
1525.282435792287
 20
845.2908324887002
 30
0.0
 10
1525.231015092239
 20
845.3742787363956
 30
0.0
 10
1525.230990529292
 20
845.3743185974984
 30
0.0
  0
SPLINE
  5
DA
330
1F
100
AcDbEntity
  8
0
  6
Continuous
 62
     7
370
    15
100
AcDbSpline
210
0.0
220
0.0
230
1.0
 70
     8
 71
     3
 72
    20
 73
    16
 74
     0
 42
0.000000001
 43
0.00000001
 40
0.0
 40
0.0
 40
0.0
 40
0.0
 40
0.1250000000000072
 40
0.1250000000000072
 40
0.2500000000000144
 40
0.2500000000000144
 40
0.3750000000000216
 40
0.3750000000000216
 40
0.5000000000000289
 40
0.5000000000000289
 40
0.6250000000000361
 40
0.6250000000000361
 40
0.7500000000000433
 40
0.7500000000000433
 40
1.0
 40
1.0
 40
1.0
 40
1.0
 10
1505.743710985038
 20
872.2282882137498
 30
0.0
 10
1505.712036972163
 20
872.2100012138895
 30
0.0
 10
1505.690477734144
 20
872.1759819699031
 30
0.0
 10
1505.666911243637
 20
872.0776957304026
 30
0.0
 10
1505.665016198985
 20
872.012595770402
 30
0.0
 10
1505.681957732107
 20
871.8541375104734
 30
0.0
 10
1505.700497356737
 20
871.7617309987627
 30
0.0
 10
1505.757924921598
 20
871.5509268570776
 30
0.0
 10
1505.797433089994
 20
871.4310822309748
 30
0.0
 10
1505.894886991971
 20
871.1741407108279
 30
0.0
 10
1505.952840032553
 20
871.0365240641015
 30
0.0
 10
1506.088020687132
 20
870.7428485480583
 30
0.0
 10
1506.165325002985
 20
870.5869726461602
 30
0.0
 10
1506.416853721657
 20
870.1125769691232
 30
0.0
 10
1506.616840520054
 20
869.775806674395
 30
0.0
 10
1506.834735317734
 20
869.4457927999673
 30
0.0
  0
SPLINE
  5
DC
330
1F
100
AcDbEntity
  8
0
  6
Continuous
 62
     7
370
    15
100
AcDbSpline
210
0.0
220
0.0
230
1.0
 70
     8
 71
     3
 72
    16
 73
    12
 74
     0
 42
0.000000001
 43
0.00000001
 40
0.0
 40
0.0
 40
0.0
 40
0.0
 40
0.249999999999984
 40
0.249999999999984
 40
0.499999999999968
 40
0.499999999999968
 40
0.6249999999999791
 40
0.6249999999999791
 40
0.7499999999999902
 40
0.7499999999999902
 40
1.0
 40
1.0
 40
1.0
 40
1.0
 10
1506.834735317734
 20
869.4457927999673
 30
0.0
 10
1507.634713175387
 20
868.2341815312673
 30
0.0
 10
1508.463630218931
 20
867.0677888495828
 30
0.0
 10
1510.17566776144
 20
864.8197448118325
 30
0.0
 10
1511.058812562908
 20
863.7381251190693
 30
0.0
 10
1512.422210372065
 20
862.177619326047
 30
0.0
 10
1512.884734444134
 20
861.6661416462407
 30
0.0
 10
1513.810763587634
 20
860.6760385406333
 30
0.0
 10
1514.274956456315
 20
860.1964946958058
 30
0.0
 10
1515.669990719499
 20
858.8021350310617
 30
0.0
 10
1516.603375166769
 20
857.9314548334436
 30
0.0
 10
1517.536440527587
 20
857.1156565246027
 30
0.0
  0
SPLINE
  5
DD
330
1F
100
AcDbEntity
  8
0
  6
Continuous
 62
     7
370
    15
100
AcDbSpline
210
0.0
220
0.0
230
1.0
 70
     8
 71
     3
 72
     8
 73
     4
 74
     0
 42
0.000000001
 43
0.00000001
 40
0.0
 40
0.0
 40
0.0
 40
0.0
 40
1.0
 40
1.0
 40
1.0
 40
1.0
 10
1519.241073810165
 20
855.0954080377076
 30
0.0
 10
1518.795344013573
 20
855.818830262949
 30
0.0
 10
1518.238234669103
 20
856.5020634175761
 30
0.0
 10
1517.536440527587
 20
857.1156565246027
 30
0.0
  0
SPLINE
  5
DE
330
1F
100
AcDbEntity
  8
0
  6
Continuous
 62
     7
370
    15
100
AcDbSpline
210
0.0
220
0.0
230
1.0
 70
     8
 71
     3
 72
    17
 73
    13
 74
     0
 42
0.000000001
 43
0.00000001
 40
0.0
 40
0.0
 40
0.0
 40
0.0
 40
0.0980464792532989
 40
0.1982972628415509
 40
0.3095841693498237
 40
0.4240971064075398
 40
0.5354082411073564
 40
0.6499450306672164
 40
0.7612985786048084
 40
0.8758790141182827
 40
0.963206975007909
 40
1.0
 40
1.0
 40
1.0
 40
1.0
 10
1494.731097667307
 20
898.2016866666218
 30
0.0
 10
1494.761112445414
 20
898.1460780519147
 30
0.0
 10
1494.821816801029
 20
898.0336106163594
 30
0.0
 10
1495.331737170948
 20
897.0888839131179
 30
0.0
 10
1496.19997587299
 20
895.4803283835668
 30
0.0
 10
1497.473038264018
 20
893.1218308258573
 30
0.0
 10
1499.090528843986
 20
890.1253432633382
 30
0.0
 10
1500.980554758034
 20
886.6241162862223
 30
0.0
 10
1503.12224657962
 20
882.656870911388
 30
0.0
 10
1505.255842633131
 20
878.704843141805
 30
0.0
 10
1506.943908710696
 20
875.5781877552168
 30
0.0
 10
1507.837895496109
 20
873.9224313070054
 30
0.0
 10
1508.102898854765
 20
873.4316175421365
 30
0.0
  0
LWPOLYLINE
  5
F0
330
1F
100
AcDbEntity
  8
0
  6
Continuous
 62
     7
370
    15
100
AcDbPolyline
 90
        3
 70
   128
 43
0.0
 10
1.4520591645
 20
167.9165125351
 10
0.0503779851
 20
167.8779325662
 10
-1.2613205516
 20
167.9069392815
  0
LWPOLYLINE
  5
F2
330
1F
100
AcDbEntity
  8
0
  6
Continuous
 62
     7
370
    15
100
AcDbPolyline
 90
        3
 70
   128
 43
0.0
 10
-6.466405493
 20
167.6959789992
 10
-6.4987725249
 20
168.3401909168
 10
-6.4953297818
 20
168.7900435276
  0
LWPOLYLINE
  5
F3
330
1F
100
AcDbEntity
  8
0
  6
Continuous
 62
     7
370
    15
100
AcDbPolyline
 90
       14
 70
   128
 43
0.0
 10
-6.4312555244
 20
167.6294707661
 10
-6.0228692565
 20
167.2763935982
 10
-5.2693012014
 20
166.9562580901
 10
-4.2137397393
 20
166.6874118004
 10
-2.9166810518
 20
166.4852628078
 10
-1.4524619735
 20
166.3613966452
 10
0.0950003894
 20
166.3229123116
 10
1.6370181041
 20
166.3720154157
 10
3.0852152807
 20
166.5058917674
 10
4.3565930578
 20
166.7168686653
 10
5.3782864214
 20
166.9928546327
 10
6.0917402333
 20
167.318032403
 10
6.4560651347
 20
167.6737654361
 10
6.5
 20
167.8511727939
  0
LWPOLYLINE
  5
F5
330
1F
100
AcDbEntity
  8
0
  6
Continuous
 62
     7
370
    15
100
AcDbPolyline
 90
        3
 70
   128
 43
0.0
 10
-6.4312555244
 20
167.6294707661
 10
-6.4869876603
 20
168.2713568358
 10
-6.5
 20
168.7675791401
  0
LWPOLYLINE
  5
F7
330
1F
100
AcDbEntity
  8
0
  6
Continuous
 62
     7
370
    15
100
AcDbPolyline
 90
       15
 70
   128
 43
0.0
 10
6.5
 20
-167.8511727939
 10
6.4507337172
 20
-167.6633481815
 10
6.0760317935
 20
-167.3082114952
 10
5.3531009726
 20
-166.9841929498
 10
4.32337379
 20
-166.7098626624
 10
3.045865862
 20
-166.5009430216
 10
1.5937935891
 20
-166.369407608
 10
0.0503779851
 20
-166.3227949653
 10
-1.4959248767
 20
-166.3637765525
 10
-2.9564934488
 20
-166.4900036371
 10
-4.2476197783
 20
-166.6942419058
 10
-5.2953069684
 20
-166.9647860762
 10
-6.0395100808
 20
-167.2861307492
 10
-6.4375774245
 20
-167.6398590527
 10
-6.5
 20
-167.8511727939
  0
LWPOLYLINE
  5
F8
330
1F
100
AcDbEntity
  8
0
  6
Continuous
 62
     7
370
    15
100
AcDbPolyline
 90
        3
 70
   128
 43
0.0
 10
-6.466405493
 20
-169.2511166001
 10
-6.4987725249
 20
-168.8578879662
 10
-6.4984921328
 20
-168.6616614917
  0
LWPOLYLINE
  5
F9
330
1F
100
AcDbEntity
  8
0
  6
Continuous
 62
     7
370
    15
100
AcDbPolyline
 90
        3
 70
   128
 43
0.0
 10
-6.4312555244
 20
-169.1846083671
 10
-6.0228692565
 20
-168.8315311992
 10
-5.9939957622
 20
-168.8150780695
  0
LWPOLYLINE
  5
FA
330
1F
100
AcDbEntity
  8
0
  6
Continuous
 62
     7
370
    15
100
AcDbPolyline
 90
       10
 70
   128
 43
0.0
 10
-1.6709435168
 20
-167.9292520063
 10
-1.4524619735
 20
-167.9165342461
 10
0.0950003894
 20
-167.8780499126
 10
1.6370181041
 20
-167.9271530166
 10
3.0852152807
 20
-168.0610293683
 10
4.3565930578
 20
-168.2720062662
 10
5.3782864214
 20
-168.5479922337
 10
6.0917402333
 20
-168.8731700039
 10
6.4560651347
 20
-169.228903037
 10
6.4911876173
 20
-169.3267491593
  0
LWPOLYLINE
  5
FB
330
1F
100
AcDbEntity
  8
0
  6
Continuous
 62
     7
370
    15
100
AcDbPolyline
 90
        3
 70
   128
 43
0.0
 10
-6.4312555244
 20
-169.1846083671
 10
-6.4869876603
 20
-168.7927994367
 10
-6.5
 20
-168.4899040486
  0
LWPOLYLINE
  5
FC
330
1F
100
AcDbEntity
  8
0
  6
Continuous
 62
     7
370
    15
100
AcDbPolyline
 90
        3
 70
   128
 43
0.0
 10
1743.7374606018
 20
812.8540048475
 10
1744.9320621268
 20
813.5882566703
 10
1746.0825297393
 20
814.2189853863
  0
LWPOLYLINE
  5
FE
330
1F
100
AcDbEntity
  8
0
  6
Continuous
 62
     7
370
    15
100
AcDbPolyline
 90
        3
 70
   128
 43
0.0
 10
1750.4847853863
 20
817.0042248207
 10
1750.8349220169
 20
816.4625044506
 10
1751.0568668194
 20
816.0711992902
  0
LWPOLYLINE
  5
FF
330
1F
100
AcDbEntity
  8
0
  6
Continuous
 62
     7
370
    15
100
AcDbPolyline
 90
       14
 70
   128
 43
0.0
 10
1750.4210905039
 20
817.0442476558
 10
1749.8908790375
 20
817.1458283187
 10
1749.0782022042
 20
817.0462897738
 10
1748.0296360179
 20
816.7513367594
 10
1746.805275748
 20
816.2778735786
 10
1745.4752917482
 20
815.653035283
 10
1744.1159078638
 20
814.912632512
 10
1742.8050329017
 20
814.0990991192
 10
1741.617795533
 20
813.2590602093
 10
1740.6222385292
 20
812.4406599676
 10
1739.8754191052
 20
811.6908024269
 10
1739.4201388648
 20
811.0524633111
 10
1739.2824907615
 20
810.5622270168
 10
1739.3331457309
 20
810.3866203055
  0
LWPOLYLINE
  5
101
330
1F
100
AcDbEntity
  8
0
  6
Continuous
 62
     7
370
    15
100
AcDbPolyline
 90
        3
 70
   128
 43
0.0
 10
1750.4210905039
 20
817.0442476558
 10
1750.7902989843
 20
816.516224081
 10
1751.0496791532
 20
816.0929891295
  0
LWPOLYLINE
  5
103
330
1F
100
AcDbEntity
  8
0
  6
Continuous
 62
     7
370
    15
100
AcDbPolyline
 90
       15
 70
   128
 43
0.0
 10
1571.481972937
 20
1101.1133796945
 10
1571.6185510956
 20
1100.9753519501
 10
1572.1206208236
 20
1100.8551455198
 10
1572.9087065524
 20
1100.9360026387
 10
1573.9376415951
 20
1101.2132892321
 10
1575.1484557347
 20
1101.6711134798
 10
1576.471754918
 20
1102.2832366065
 10
1577.831698361
 20
1103.0145766758
 10
1579.1503451277
 20
1103.8232192023
 10
1580.3521210727
 20
1104.6628193503
 10
1581.3681501393
 20
1105.4852580441
 10
1582.140201776
 20
1106.2433997636
 10
1582.6240282403
 20
1106.89379397
 10
1582.7919005207
 20
1107.3991653387
 10
1582.7403031862
 20
1107.6133796945
  0
LWPOLYLINE
  5
104
330
1F
100
AcDbEntity
  8
0
  6
Continuous
 62
     7
370
    15
100
AcDbPolyline
 90
        3
 70
   128
 43
0.0
 10
1582.0112375866
 20
1108.8089693411
 10
1582.2358825754
 20
1108.4846068706
 10
1582.3337529008
 20
1108.3145297209
  0
LWPOLYLINE
  5
105
330
1F
100
AcDbEntity
  8
0
  6
Continuous
 62
     7
370
    15
100
AcDbPolyline
 90
        3
 70
   128
 43
0.0
 10
1582.0140509373
 20
1108.7337965374
 10
1581.8369166388
 20
1108.2238296065
 10
1581.820138024
 20
1108.1951440311
  0
LWPOLYLINE
  5
106
330
1F
100
AcDbEntity
  8
0
  6
Continuous
 62
     7
370
    15
100
AcDbPolyline
 90
       10
 70
   128
 43
0.0
 10
1578.5191779892
 20
1105.2664700343
 10
1578.3363263026
 20
1105.1462153593
 10
1577.0154267517
 20
1104.3391557674
 10
1575.6554486856
 20
1103.6106714455
 10
1574.3343349652
 20
1103.0025131788
 10
1573.1278010634
 20
1102.5495356434
 10
1572.104995672
 20
1102.2776998205
 10
1571.3245376613
 20
1102.2025851244
 10
1570.8311565249
 20
1102.3284965173
 10
1570.7044041366
 20
1102.4601683633
  0
LWPOLYLINE
  5
107
330
1F
100
AcDbEntity
  8
0
  6
Continuous
 62
     7
370
    15
100
AcDbPolyline
 90
        3
 70
   128
 43
0.0
 10
1582.0140509373
 20
1108.7337965374
 10
1582.258220848
 20
1108.4223461182
 10
1582.4209375589
 20
1108.1665371873
  0
CIRCLE
  5
108
330
1F
100
AcDbEntity
  8
0
  6
Continuous
 62
     7
370
    15
100
AcDbCircle
 10
-106.9938580832
 20
1628.4279669975
 30
0.0
 40
5.000000000000227
  0
CIRCLE
  5
109
330
1F
100
AcDbEntity
  8
0
  6
Continuous
 62
     7
370
    15
100
AcDbCircle
 10
-255.0
 20
1550.6923788647
 30
0.0
 40
5.000000000000455
  0
CIRCLE
  5
10A
330
1F
100
AcDbEntity
  8
0
  6
Continuous
 62
     7
370
    15
100
AcDbCircle
 10
-203.5687904244
 20
1708.9813658725
 30
0.0
 40
5.000000000000227
  0
CIRCLE
  5
10B
330
1F
100
AcDbEntity
  8
0
  6
Continuous
 62
     7
370
    15
100
AcDbCircle
 10
-338.2174451758
 20
1611.1533918569
 30
0.0
 40
5.0
  0
CIRCLE
  5
10C
330
1F
100
AcDbEntity
  8
0
  6
Continuous
 62
     7
370
    15
100
AcDbCircle
 10
306.4312095756
 20
1708.9813658725
 30
0.0
 40
5.000000000000227
  0
CIRCLE
  5
10D
330
1F
100
AcDbEntity
  8
0
  6
Continuous
 62
     7
370
    15
100
AcDbCircle
 10
171.7825548242
 20
1611.1533918569
 30
0.0
 40
5.000000000000227
  0
CIRCLE
  5
10E
330
1F
100
AcDbEntity
  8
0
  6
Continuous
 62
     7
370
    15
100
AcDbCircle
 10
-414.1729559301
 20
1638.4626135594
 30
0.0
 40
5.0
  0
CIRCLE
  5
115
330
1F
100
AcDbEntity
  8
0
  6
Continuous
 62
     7
370
    15
100
AcDbCircle
 10
-255.0
 20
1638.1923788647
 30
0.0
 40
74.99999999999864
  0
CIRCLE
  5
118
330
1F
100
AcDbEntity
  8
0
  6
Continuous
 62
     7
370
    15
100
AcDbCircle
 10
255.0
 20
1638.1923788647
 30
0.0
 40
74.99999999999886
  0
CIRCLE
  5
119
330
1F
100
AcDbEntity
  8
0
  6
Continuous
 62
     7
370
    15
100
AcDbCircle
 10
414.17295593
 20
1638.4626135594
 30
0.0
 40
5.000000000000227
  0
CIRCLE
  5
11A
330
1F
100
AcDbEntity
  8
0
  6
Continuous
 62
     7
370
    15
100
AcDbCircle
 10
255.0
 20
1550.6923788647
 30
0.0
 40
5.000000000000227
  0
CIRCLE
  5
11B
330
1F
100
AcDbEntity
  8
0
  6
Continuous
 62
     7
370
    15
100
AcDbCircle
 10
203.5687904244
 20
1708.9813658725
 30
0.0
 40
5.0
  0
CIRCLE
  5
11C
330
1F
100
AcDbEntity
  8
0
  6
Continuous
 62
     7
370
    15
100
AcDbCircle
 10
338.2174451758
 20
1611.1533918569
 30
0.0
 40
4.999999999999773
  0
CIRCLE
  5
11D
330
1F
100
AcDbEntity
  8
0
  6
Continuous
 62
     7
370
    15
100
AcDbCircle
 10
-306.4312095756
 20
1708.9813658725
 30
0.0
 40
5.000000000000227
  0
CIRCLE
  5
11E
330
1F
100
AcDbEntity
  8
0
  6
Continuous
 62
     7
370
    15
100
AcDbCircle
 10
-171.7825548242
 20
1611.1533918569
 30
0.0
 40
5.0
  0
CIRCLE
  5
11F
330
1F
100
AcDbEntity
  8
0
  6
Continuous
 62
     7
370
    15
100
AcDbCircle
 10
0.0
 20
1550.6923788647
 30
0.0
 40
5.000000000000227
  0
CIRCLE
  5
120
330
1F
100
AcDbEntity
  8
0
  6
Continuous
 62
     7
370
    15
100
AcDbCircle
 10
106.9938580832
 20
1628.4279669975
 30
0.0
 40
5.0
  0
CIRCLE
  5
122
330
1F
100
AcDbEntity
  8
0
  6
Continuous
 62
     7
370
    15
100
AcDbCircle
 10
1193.9603566841
 20
-50.0
 30
0.0
 40
3.499999999999968
  0
CIRCLE
  5
123
330
1F
100
AcDbEntity
  8
0
  6
Continuous
 62
     7
370
    15
100
AcDbCircle
 10
1193.9603566841
 20
-50.0
 30
0.0
 40
2.49999999999982
  0
CIRCLE
  5
124
330
1F
100
AcDbEntity
  8
0
  6
Continuous
 62
     7
370
    15
100
AcDbCircle
 10
1107.3578163057
 20
-100.0
 30
0.0
 40
3.500000000000227
  0
CIRCLE
  5
125
330
1F
100
AcDbEntity
  8
0
  6
Continuous
 62
     7
370
    15
100
AcDbCircle
 10
1107.3578163057
 20
-100.0
 30
0.0
 40
2.499999999999773
  0
CIRCLE
  5
126
330
1F
100
AcDbEntity
  8
0
  6
Continuous
 62
     7
370
    15
100
AcDbCircle
 10
1020.7552759273
 20
-50.0
 30
0.0
 40
3.499999999999876
  0
CIRCLE
  5
127
330
1F
100
AcDbEntity
  8
0
  6
Continuous
 62
     7
370
    15
100
AcDbCircle
 10
1020.7552759273
 20
-50.0
 30
0.0
 40
2.499999999999977
  0
CIRCLE
  5
128
330
1F
100
AcDbEntity
  8
0
  6
Continuous
 62
     7
370
    15
100
AcDbCircle
 10
1020.7552759273
 20
50.0
 30
0.0
 40
3.499999999999823
  0
CIRCLE
  5
129
330
1F
100
AcDbEntity
  8
0
  6
Continuous
 62
     7
370
    15
100
AcDbCircle
 10
1020.7552759273
 20
50.0
 30
0.0
 40
2.499999999999862
  0
CIRCLE
  5
12A
330
1F
100
AcDbEntity
  8
0
  6
Continuous
 62
     7
370
    15
100
AcDbCircle
 10
1107.3578163057
 20
100.0
 30
0.0
 40
3.500000000000227
  0
CIRCLE
  5
12B
330
1F
100
AcDbEntity
  8
0
  6
Continuous
 62
     7
370
    15
100
AcDbCircle
 10
1107.3578163057
 20
100.0
 30
0.0
 40
2.499999999999801
  0
CIRCLE
  5
12C
330
1F
100
AcDbEntity
  8
0
  6
Continuous
 62
     7
370
    15
100
AcDbCircle
 10
1193.9603566841
 20
50.0
 30
0.0
 40
3.500000000000199
  0
CIRCLE
  5
12D
330
1F
100
AcDbEntity
  8
0
  6
Continuous
 62
     7
370
    15
100
AcDbCircle
 10
1193.9603566841
 20
50.0
 30
0.0
 40
2.499999999999848
  0
CIRCLE
  5
12E
330
1F
100
AcDbEntity
  8
0
  6
Continuous
 62
     7
370
    15
100
AcDbCircle
 10
0.0
 20
-1818.0
 30
0.0
 40
4.49999999999994
  0
CIRCLE
  5
12F
330
1F
100
AcDbEntity
  8
0
  6
Continuous
 62
     7
370
    15
100
AcDbCircle
 10
86.6025403784
 20
-1868.0
 30
0.0
 40
4.499999999999986
  0
CIRCLE
  5
130
330
1F
100
AcDbEntity
  8
0
  6
Continuous
 62
     7
370
    15
100
AcDbCircle
 10
86.6025403784
 20
-1968.0
 30
0.0
 40
4.499999999999872
  0
CIRCLE
  5
131
330
1F
100
AcDbEntity
  8
0
  6
Continuous
 62
     7
370
    15
100
AcDbCircle
 10
-86.6025403785
 20
-1968.0
 30
0.0
 40
4.499999999999872
  0
CIRCLE
  5
132
330
1F
100
AcDbEntity
  8
0
  6
Continuous
 62
     7
370
    15
100
AcDbCircle
 10
0.0
 20
-1917.9999999999
 30
0.0
 40
243.0000000000003
  0
CIRCLE
  5
133
330
1F
100
AcDbEntity
  8
0
  6
Continuous
 62
     7
370
    15
100
AcDbCircle
 10
0.0
 20
-2018.0
 30
0.0
 40
4.499999999999874
  0
CIRCLE
  5
134
330
1F
100
AcDbEntity
  8
0
  6
Continuous
 62
     7
370
    15
100
AcDbCircle
 10
-86.6025403785
 20
-1868.0
 30
0.0
 40
4.499999999999972
  0
CIRCLE
  5
135
330
1F
100
AcDbEntity
  8
0
  6
Continuous
 62
     7
370
    15
100
AcDbCircle
 10
1574.4341840801
 20
-1009.0
 30
0.0
 40
4.499999999999877
  0
CIRCLE
  5
136
330
1F
100
AcDbEntity
  8
0
  6
Continuous
 62
     7
370
    15
100
AcDbCircle
 10
1574.4341840801
 20
-909.0
 30
0.0
 40
4.500000000000256
  0
CIRCLE
  5
137
330
1F
100
AcDbEntity
  8
0
  6
Continuous
 62
     7
370
    15
100
AcDbCircle
 10
1661.0367244586
 20
-859.0
 30
0.0
 40
4.500000000000498
  0
CIRCLE
  5
138
330
1F
100
AcDbEntity
  8
0
  6
Continuous
 62
     7
370
    15
100
AcDbCircle
 10
1747.639264837
 20
-909.0
 30
0.0
 40
4.500000000000172
  0
CIRCLE
  5
139
330
1F
100
AcDbEntity
  8
0
  6
Continuous
 62
     7
370
    15
100
AcDbCircle
 10
1747.639264837
 20
-1009.0
 30
0.0
 40
4.499999999999317
  0
CIRCLE
  5
13A
330
1F
100
AcDbEntity
  8
0
  6
Continuous
 62
     7
370
    15
100
AcDbCircle
 10
1661.0367244586
 20
-1059.0
 30
0.0
 40
4.499999999999354
  0
CIRCLE
  5
13B
330
1F
100
AcDbEntity
  8
0
  6
Continuous
 62
     7
370
    15
100
AcDbCircle
 10
1661.0367244585
 20
-959.0
 30
0.0
 40
242.9999999999966
  0
CIRCLE
  5
13C
330
1F
100
AcDbEntity
  8
0
  6
Continuous
 62
     7
370
    15
100
AcDbCircle
 10
86.6025403784
 20
1868.0
 30
0.0
 40
4.499999999999972
  0
CIRCLE
  5
13D
330
1F
100
AcDbEntity
  8
0
  6
Continuous
 62
     7
370
    15
100
AcDbCircle
 10
-86.6025403784
 20
1968.0
 30
0.0
 40
4.499999999999872
  0
CIRCLE
  5
13E
330
1F
100
AcDbEntity
  8
0
  6
Continuous
 62
     7
370
    15
100
AcDbCircle
 10
0.0
 20
2018.0
 30
0.0
 40
4.499999999999873
  0
CIRCLE
  5
13F
330
1F
100
AcDbEntity
  8
0
  6
Continuous
 62
     7
370
    15
100
AcDbCircle
 10
0.0
 20
1917.9999999999
 30
0.0
 40
242.9999999999999
  0
CIRCLE
  5
140
330
1F
100
AcDbEntity
  8
0
  6
Continuous
 62
     7
370
    15
100
AcDbCircle
 10
-86.6025403784
 20
1868.0
 30
0.0
 40
4.499999999999986
  0
CIRCLE
  5
141
330
1F
100
AcDbEntity
  8
0
  6
Continuous
 62
     7
370
    15
100
AcDbCircle
 10
0.0
 20
1818.0
 30
0.0
 40
4.500000000000015
  0
CIRCLE
  5
142
330
1F
100
AcDbEntity
  8
0
  6
Continuous
 62
     7
370
    15
100
AcDbCircle
 10
86.6025403784
 20
1968.0
 30
0.0
 40
4.499999999999886
  0
CIRCLE
  5
143
330
1F
100
AcDbEntity
  8
0
  6
Continuous
 62
     7
370
    15
100
AcDbCircle
 10
-1574.4341840801
 20
1009.0
 30
0.0
 40
4.49999999999999
  0
CIRCLE
  5
144
330
1F
100
AcDbEntity
  8
0
  6
Continuous
 62
     7
370
    15
100
AcDbCircle
 10
-1574.4341840801
 20
909.0
 30
0.0
 40
4.500000000000142
  0
CIRCLE
  5
145
330
1F
100
AcDbEntity
  8
0
  6
Continuous
 62
     7
370
    15
100
AcDbCircle
 10
-1747.639264837
 20
909.0
 30
0.0
 40
4.500000000000468
  0
CIRCLE
  5
146
330
1F
100
AcDbEntity
  8
0
  6
Continuous
 62
     7
370
    15
100
AcDbCircle
 10
-1747.639264837
 20
1009.0
 30
0.0
 40
4.49999999999971
  0
CIRCLE
  5
147
330
1F
100
AcDbEntity
  8
0
  6
Continuous
 62
     7
370
    15
100
AcDbCircle
 10
-1661.0367244585
 20
959.0
 30
0.0
 40
243.0000000000008
  0
CIRCLE
  5
148
330
1F
100
AcDbEntity
  8
0
  6
Continuous
 62
     7
370
    15
100
AcDbCircle
 10
-1661.0367244586
 20
859.0
 30
0.0
 40
4.499999999999975
  0
CIRCLE
  5
149
330
1F
100
AcDbEntity
  8
0
  6
Continuous
 62
     7
370
    15
100
AcDbCircle
 10
-1661.0367244586
 20
1059.0
 30
0.0
 40
4.499999999999748
  0
CIRCLE
  5
14A
330
1F
100
AcDbEntity
  8
0
  6
Continuous
 62
     7
370
    15
100
AcDbCircle
 10
-1574.4341840801
 20
-1009.0
 30
0.0
 40
4.500000000000006
  0
CIRCLE
  5
14B
330
1F
100
AcDbEntity
  8
0
  6
Continuous
 62
     7
370
    15
100
AcDbCircle
 10
-1661.0367244586
 20
-1059.0
 30
0.0
 40
4.499999999999582
  0
CIRCLE
  5
14C
330
1F
100
AcDbEntity
  8
0
  6
Continuous
 62
     7
370
    15
100
AcDbCircle
 10
-1747.639264837
 20
-1009.0
 30
0.0
 40
4.500000000000006
  0
CIRCLE
  5
14D
330
1F
100
AcDbEntity
  8
0
  6
Continuous
 62
     7
370
    15
100
AcDbCircle
 10
-1747.639264837
 20
-909.0
 30
0.0
 40
4.500000000000188
  0
CIRCLE
  5
14E
330
1F
100
AcDbEntity
  8
0
  6
Continuous
 62
     7
370
    15
100
AcDbCircle
 10
-1661.0367244585
 20
-959.0
 30
0.0
 40
243.0000000000009
  0
CIRCLE
  5
14F
330
1F
100
AcDbEntity
  8
0
  6
Continuous
 62
     7
370
    15
100
AcDbCircle
 10
-1661.0367244586
 20
-859.0
 30
0.0
 40
4.500000000000188
  0
CIRCLE
  5
150
330
1F
100
AcDbEntity
  8
0
  6
Continuous
 62
     7
370
    15
100
AcDbCircle
 10
-1574.4341840801
 20
-909.0
 30
0.0
 40
4.49999999999999
  0
SPLINE
  5
154
330
1F
100
AcDbEntity
  8
0
  6
Continuous
 62
     7
370
    15
100
AcDbSpline
210
0.0
220
0.0
230
1.0
 70
     8
 71
     3
 72
    22
 73
    18
 74
     0
 42
0.000000001
 43
0.00000001
 40
0.0
 40
0.0
 40
0.0
 40
0.0
 40
0.125
 40
0.125
 40
0.25
 40
0.25
 40
0.375
 40
0.375
 40
0.5
 40
0.5
 40
0.625
 40
0.625
 40
0.75
 40
0.75
 40
0.875
 40
0.875
 40
1.0
 40
1.0
 40
1.0
 40
1.0
 10
1502.857801075276
 20
401.5471034280964
 30
0.0
 10
1496.293805881621
 20
412.9162766041439
 30
0.0
 10
1487.469359430354
 20
422.9786292711162
 30
0.0
 10
1466.639089380188
 20
438.9622576474983
 30
0.0
 10
1454.635668261856
 20
444.8816898687316
 30
0.0
 10
1429.274338337103
 20
451.6772377410484
 30
0.0
 10
1415.919354605688
 20
452.5525696206465
 30
0.0
 10
1389.887997386363
 20
449.1254764271328
 30
0.0
 10
1377.214626251744
 20
444.8234466213302
 30
0.0
 10
1354.476279899649
 20
431.6954562340211
 30
0.0
 10
1344.413927232677
 20
422.8710097827541
 30
0.0
 10
1328.430298856295
 20
402.0407397325883
 30
0.0
 10
1322.510866635061
 20
390.0373186142558
 30
0.0
 10
1315.715318762745
 20
364.6759886895029
 30
0.0
 10
1314.839986883146
 20
351.3210049580878
 30
0.0
 10
1318.26708007666
 20
325.2896477387629
 30
0.0
 10
1322.569109882463
 20
312.6162766041441
 30
0.0
 10
1329.133105076117
 20
301.2471034280965
 30
0.0
  0
SPLINE
  5
155
330
1F
100
AcDbEntity
  8
0
  6
Continuous
 62
     7
370
    15
100
AcDbSpline
210
0.0
220
0.0
230
1.0
 70
     8
 71
     3
 72
    22
 73
    18
 74
     0
 42
0.000000001
 43
0.00000001
 40
0.0
 40
0.0
 40
0.0
 40
0.0
 40
0.125
 40
0.125
 40
0.25
 40
0.25
 40
0.375
 40
0.375
 40
0.5
 40
0.5
 40
0.625
 40
0.625
 40
0.75
 40
0.75
 40
0.875
 40
0.875
 40
1.0
 40
1.0
 40
1.0
 40
1.0
 10
1329.133105076117
 20
301.2471034280965
 30
0.0
 10
1335.697100269772
 20
289.8779302520489
 30
0.0
 10
1344.521546721039
 20
279.8155775850766
 30
0.0
 10
1365.351816771205
 20
263.8319492086945
 30
0.0
 10
1377.355237889537
 20
257.9125169874613
 30
0.0
 10
1402.71656781429
 20
251.1169691151445
 30
0.0
 10
1416.071551545705
 20
250.2416372355463
 30
0.0
 10
1442.10290876503
 20
253.6687304290602
 30
0.0
 10
1454.776279899649
 20
257.9707602348627
 30
0.0
 10
1477.514626251744
 20
271.0987506221717
 30
0.0
 10
1487.576978918717
 20
279.9231970734389
 30
0.0
 10
1503.560607295098
 20
300.7534671236047
 30
0.0
 10
1509.480039516332
 20
312.7568882419371
 30
0.0
 10
1516.275587388649
 20
338.11821816669
 30
0.0
 10
1517.150919268247
 20
351.4732018981052
 30
0.0
 10
1513.723826074733
 20
377.5045591174299
 30
0.0
 10
1509.42179626893
 20
390.1779302520489
 30
0.0
 10
1502.857801075276
 20
401.5471034280965
 30
0.0
  0
SPLINE
  5
156
330
1F
100
AcDbEntity
  8
0
  6
Continuous
 62
     7
370
    15
100
AcDbSpline
210
0.0
220
0.0
230
1.0
 70
     8
 71
     3
 72
    34
 73
    30
 74
     0
 42
0.000000001
 43
0.00000001
 40
0.0
 40
0.0
 40
0.0
 40
0.0
 40
0.125
 40
0.125
 40
0.1875
 40
0.1875
 40
0.25
 40
0.25
 40
0.3125
 40
0.3125
 40
0.375
 40
0.375
 40
0.4375
 40
0.4375
 40
0.5
 40
0.5
 40
0.5625
 40
0.5625
 40
0.625
 40
0.625
 40
0.6875
 40
0.6875
 40
0.75
 40
0.75
 40
0.8125
 40
0.8125
 40
0.875
 40
0.875
 40
1.0
 40
1.0
 40
1.0
 40
1.0
 10
1229.20654611648
 20
311.0481908700021
 30
0.0
 10
1214.082032907962
 20
319.7803326423018
 30
0.0
 10
1197.911729098712
 20
326.7008264793941
 30
0.0
 10
1173.376311616214
 20
333.667838771157
 30
0.0
 10
1165.151161582941
 20
335.4211835330967
 30
0.0
 10
1148.79824221559
 20
337.6809901300571
 30
0.0
 10
1140.670284131839
 20
338.1874786031052
 30
0.0
 10
1124.689450038057
 20
337.8173344454245
 30
0.0
 10
1116.836176510932
 20
336.9406856330656
 30
0.0
 10
1101.606307120395
 20
333.6108749843914
 30
0.0
 10
1094.229158347657
 20
331.1575793236044
 30
0.0
 10
1080.306293290354
 20
324.433530359579
 30
0.0
 10
1073.760723786336
 20
320.1628860175337
 30
0.0
 10
1062.176546609701
 20
309.7551850639785
 30
0.0
 10
1057.139944655115
 20
303.6200948532142
 30
0.0
 10
1049.306165238086
 20
290.0515908876318
 30
0.0
 10
1046.511322238347
 20
282.6222205408287
 30
0.0
 10
1043.290077405895
 20
267.3861783471448
 30
0.0
 10
1042.864375667164
 20
259.5822267034056
 30
0.0
 10
1044.002610976679
 20
244.1626473883062
 30
0.0
 10
1045.566568997813
 20
236.5472013132244
 30
0.0
 10
1050.297803081537
 20
221.6928422003628
 30
0.0
 10
1053.4652397034
 20
214.4533834168254
 30
0.0
 10
1061.135102506677
 20
200.428503039105
 30
0.0
 10
1065.637713432935
 20
193.6427290942065
 30
0.0
 10
1075.771223037219
 20
180.6105887945219
 30
0.0
 10
1081.402239159287
 20
174.3640722967386
 30
0.0
 10
1099.703557533682
 20
156.5992836103198
 30
0.0
 10
1113.782032907962
 20
146.0556366431435
 30
0.0
 10
1128.906546116479
 20
137.3234948708437
 30
0.0
  0
SPLINE
  5
157
330
1F
100
AcDbEntity
  8
0
  6
Continuous
 62
     7
370
    15
100
AcDbSpline
210
0.0
220
0.0
230
1.0
 70
     8
 71
     3
 72
    34
 73
    30
 74
     0
 42
0.000000001
 43
0.00000001
 40
0.0
 40
0.0
 40
0.0
 40
0.0
 40
0.1249999999999998
 40
0.1249999999999998
 40
0.1874999999999998
 40
0.1874999999999998
 40
0.2499999999999997
 40
0.2499999999999997
 40
0.3124999999999997
 40
0.3124999999999997
 40
0.3749999999999996
 40
0.3749999999999996
 40
0.4374999999999995
 40
0.4374999999999995
 40
0.4999999999999994
 40
0.4999999999999994
 40
0.5624999999999996
 40
0.5624999999999996
 40
0.6249999999999997
 40
0.6249999999999997
 40
0.6874999999999999
 40
0.6874999999999999
 40
0.75
 40
0.75
 40
0.8125
 40
0.8125
 40
0.875
 40
0.875
 40
1.0
 40
1.0
 40
1.0
 40
1.0
 10
1128.906546116479
 20
137.3234948708437
 30
0.0
 10
1144.031059324997
 20
128.591353098544
 30
0.0
 10
1160.201363134247
 20
121.6708592614518
 30
0.0
 10
1184.736780616745
 20
114.7038469696889
 30
0.0
 10
1192.961930650018
 20
112.9505022077493
 30
0.0
 10
1209.314850017369
 20
110.6906956107888
 30
0.0
 10
1217.442808101119
 20
110.1842071377406
 30
0.0
 10
1233.423642194902
 20
110.5543512954214
 30
0.0
 10
1241.276915722026
 20
111.4310001077802
 30
0.0
 10
1256.506785112564
 20
114.7608107564544
 30
0.0
 10
1263.883933885302
 20
117.2141064172416
 30
0.0
 10
1277.806798942604
 20
123.9381553812668
 30
0.0
 10
1284.352368446623
 20
128.2087997233121
 30
0.0
 10
1295.936545623258
 20
138.6165006768675
 30
0.0
 10
1300.973147577844
 20
144.7515908876317
 30
0.0
 10
1308.806926994873
 20
158.320094853214
 30
0.0
 10
1311.601769994611
 20
165.7494652000174
 30
0.0
 10
1314.823014827064
 20
180.9855073937012
 30
0.0
 10
1315.248716565795
 20
188.7894590374403
 30
0.0
 10
1314.11048125628
 20
204.2090383525397
 30
0.0
 10
1312.546523235146
 20
211.8244844276215
 30
0.0
 10
1307.815289151422
 20
226.6788435404833
 30
0.0
 10
1304.647852529559
 20
233.9183023240205
 30
0.0
 10
1296.977989726282
 20
247.9431827017409
 30
0.0
 10
1292.475378800023
 20
254.7289566466394
 30
0.0
 10
1282.34186919574
 20
267.7610969463241
 30
0.0
 10
1276.710853073672
 20
274.0076134441072
 30
0.0
 10
1258.409534699278
 20
291.7724021305261
 30
0.0
 10
1244.331059324997
 20
302.3160490977024
 30
0.0
 10
1229.206546116479
 20
311.0481908700022
 30
0.0
  0
CIRCLE
  5
15D
330
1F
100
AcDbEntity
  8
0
  6
Continuous
 62
     7
370
    15
100
AcDbCircle
 10
1193.9603566841
 20
50.0
 30
0.0
 40
4.999999999999922
  0
CIRCLE
  5
15E
330
1F
100
AcDbEntity
  8
0
  6
Continuous
 62
     7
370
    15
100
AcDbCircle
 10
873.5228263964
 20
599.0140831103
 30
0.0
 40
5.000000000000146
  0
CIRCLE
  5
15F
330
1F
100
AcDbEntity
  8
0
  6
Continuous
 62
     7
370
    15
100
AcDbCircle
 10
1107.3578163057
 20
100.0
 30
0.0
 40
4.999999999999817
  0
CIRCLE
  5
160
330
1F
100
AcDbEntity
  8
0
  6
Continuous
 62
     7
370
    15
100
AcDbCircle
 10
1716.0367244586
 20
97.0
 30
0.0
 40
4.999999999999934
  0
CIRCLE
  5
161
330
1F
100
AcDbEntity
  8
0
  6
Continuous
 62
     7
370
    15
100
AcDbCircle
 10
813.7670735352
 20
564.5140831103
 30
0.0
 40
5.000000000000213
  0
SPLINE
  5
162
330
1F
100
AcDbEntity
  8
0
  6
Continuous
 62
     7
370
    15
100
AcDbSpline
210
0.0
220
0.0
230
1.0
 70
     8
 71
     3
 72
    38
 73
    34
 74
     0
 42
0.000000001
 43
0.00000001
 40
0.0
 40
0.0
 40
0.0
 40
0.0
 40
0.0625
 40
0.0625
 40
0.125
 40
0.125
 40
0.1875
 40
0.1875
 40
0.25
 40
0.25
 40
0.3125
 40
0.3125
 40
0.375
 40
0.375
 40
0.4375
 40
0.4375
 40
0.5
 40
0.5
 40
0.5625
 40
0.5625
 40
0.625
 40
0.625
 40
0.6875
 40
0.6875
 40
0.75
 40
0.75
 40
0.8125
 40
0.8125
 40
0.875
 40
0.875
 40
0.9375
 40
0.9375
 40
1.0
 40
1.0
 40
1.0
 40
1.0
 10
1381.145453075697
 20
411.7590740718719
 30
0.0
 10
1377.194771335474
 20
409.4781469056717
 30
0.0
 10
1373.468833446241
 20
406.8081775725454
 30
0.0
 10
1366.609266080203
 20
400.7924984462169
 30
0.0
 10
1363.475806219719
 20
397.446937402536
 30
0.0
 10
1357.921644295076
 20
390.2086126574726
 30
0.0
 10
1355.501079568515
 20
386.3160279379334
 30
0.0
 10
1351.465766413221
 20
378.1332223347885
 30
0.0
 10
1349.851117765557
 20
373.8432037871762
 30
0.0
 10
1347.48972820114
 20
365.0303779563082
 30
0.0
 10
1346.743045674397
 20
360.5077885875377
 30
0.0
 10
1346.146326577535
 20
351.4036144833373
 30
0.0
 10
1346.296304762471
 20
346.822254866553
 30
0.0
 10
1347.487187713413
 20
337.7766007941649
 30
0.0
 10
1348.52806303249
 20
333.3125300101837
 30
0.0
 10
1351.460783067285
 20
324.6730153827486
 30
0.0
 10
1353.352555265721
 20
320.4977851683192
 30
0.0
 10
1357.914409598121
 20
312.5964216878738
 30
0.0
 10
1360.584378931248
 20
308.8704837986406
 30
0.0
 10
1366.600058057576
 20
302.0109164326028
 30
0.0
 10
1369.945619101257
 20
298.8774565721189
 30
0.0
 10
1377.183943846321
 20
293.3232946474759
 30
0.0
 10
1381.07652856586
 20
290.9027299209152
 30
0.0
 10
1389.259334169005
 20
286.867416765621
 30
0.0
 10
1393.549352716617
 20
285.252768117957
 30
0.0
 10
1402.362178547485
 20
282.8913785535398
 30
0.0
 10
1406.884767916255
 20
282.1446960267969
 30
0.0
 10
1415.988942020456
 20
281.5479769299347
 30
0.0
 10
1420.57030163724
 20
281.6979551148711
 30
0.0
 10
1429.615955709628
 20
282.8888380658125
 30
0.0
 10
1434.080026493609
 20
283.92971338489
 30
0.0
 10
1442.719541121045
 20
286.8624334196852
 30
0.0
 10
1446.894771335474
 20
288.7542056181209
 30
0.0
 10
1450.845453075697
 20
291.0351327843211
 30
0.0
  0
SPLINE
  5
163
330
1F
100
AcDbEntity
  8
0
  6
Continuous
 62
     7
370
    15
100
AcDbSpline
210
0.0
220
0.0
230
1.0
 70
     8
 71
     3
 72
    38
 73
    34
 74
     0
 42
0.000000001
 43
0.00000001
 40
0.0
 40
0.0
 40
0.0
 40
0.0
 40
0.0625000000000002
 40
0.0625000000000002
 40
0.1250000000000003
 40
0.1250000000000003
 40
0.1875000000000005
 40
0.1875000000000005
 40
0.2500000000000007
 40
0.2500000000000007
 40
0.3125000000000008
 40
0.3125000000000008
 40
0.3750000000000006
 40
0.3750000000000006
 40
0.4375000000000003
 40
0.4375000000000003
 40
0.5
 40
0.5
 40
0.5624999999999997
 40
0.5624999999999997
 40
0.6249999999999994
 40
0.6249999999999994
 40
0.6874999999999991
 40
0.6874999999999991
 40
0.7499999999999993
 40
0.7499999999999993
 40
0.8124999999999994
 40
0.8124999999999994
 40
0.8749999999999997
 40
0.8749999999999997
 40
0.9374999999999998
 40
0.9374999999999998
 40
1.0
 40
1.0
 40
1.0
 40
1.0
 10
1450.845453075697
 20
291.0351327843211
 30
0.0
 10
1454.796134815919
 20
293.3160599505212
 30
0.0
 10
1458.522072705152
 20
295.9860292836476
 30
0.0
 10
1465.38164007119
 20
302.0017084099759
 30
0.0
 10
1468.515099931674
 20
305.3472694536568
 30
0.0
 10
1474.069261856317
 20
312.5855941987204
 30
0.0
 10
1476.489826582878
 20
316.4781789182594
 30
0.0
 10
1480.525139738172
 20
324.6609845214046
 30
0.0
 10
1482.139788385836
 20
328.9510030690166
 30
0.0
 10
1484.501177950253
 20
337.7638288998849
 30
0.0
 10
1485.247860476996
 20
342.2864182686554
 30
0.0
 10
1485.844579573858
 20
351.3905923728556
 30
0.0
 10
1485.694601388922
 20
355.9719519896399
 30
0.0
 10
1484.50371843798
 20
365.0176060620279
 30
0.0
 10
1483.462843118903
 20
369.4816768460092
 30
0.0
 10
1480.530123084108
 20
378.1211914734443
 30
0.0
 10
1478.638350885672
 20
382.2964216878738
 30
0.0
 10
1474.076496553272
 20
390.1977851683192
 30
0.0
 10
1471.406527220146
 20
393.9237230575524
 30
0.0
 10
1465.390848093817
 20
400.7832904235902
 30
0.0
 10
1462.045287050136
 20
403.9167502840741
 30
0.0
 10
1454.806962305073
 20
409.4709122087171
 30
0.0
 10
1450.914377585534
 20
411.8914769352777
 30
0.0
 10
1442.731571982389
 20
415.926790090572
 30
0.0
 10
1438.441553434776
 20
417.5414387382359
 30
0.0
 10
1429.628727603908
 20
419.9028283026533
 30
0.0
 10
1425.106138235138
 20
420.6495108293961
 30
0.0
 10
1416.001964130937
 20
421.2462299262582
 30
0.0
 10
1411.420604514153
 20
421.0962517413218
 30
0.0
 10
1402.374950441765
 20
419.9053687903804
 30
0.0
 10
1397.910879657784
 20
418.864493471303
 30
0.0
 10
1389.271365030349
 20
415.9317734365078
 30
0.0
 10
1385.096134815919
 20
414.040001238072
 30
0.0
 10
1381.145453075697
 20
411.7590740718719
 30
0.0
  0
SPLINE
  5
164
330
1F
100
AcDbEntity
  8
0
  6
Continuous
 62
     7
370
    15
100
AcDbSpline
210
0.0
220
0.0
230
1.0
 70
     8
 71
     3
 72
    38
 73
    34
 74
     0
 42
0.000000001
 43
0.00000001
 40
0.0
 40
0.0
 40
0.0
 40
0.0
 40
0.0625
 40
0.0625
 40
0.1249999999999999
 40
0.1249999999999999
 40
0.1874999999999999
 40
0.1874999999999999
 40
0.2499999999999998
 40
0.2499999999999998
 40
0.3124999999999998
 40
0.3124999999999998
 40
0.3749999999999998
 40
0.3749999999999998
 40
0.4374999999999997
 40
0.4374999999999997
 40
0.4999999999999997
 40
0.4999999999999997
 40
0.5624999999999997
 40
0.5624999999999997
 40
0.6249999999999997
 40
0.6249999999999997
 40
0.6874999999999998
 40
0.6874999999999998
 40
0.7499999999999998
 40
0.7499999999999998
 40
0.8124999999999999
 40
0.8124999999999999
 40
0.875
 40
0.875
 40
0.9375
 40
0.9375
 40
1.0
 40
1.0
 40
1.0
 40
1.0
 10
1079.723432302404
 20
281.5358428704231
 30
0.0
 10
1077.448816371446
 20
277.5960925102973
 30
0.0
 10
1075.811476395905
 20
273.288393284416
 30
0.0
 10
1073.873848581058
 20
264.0963978141228
 30
0.0
 10
1073.573763477908
 20
259.2122021213706
 30
0.0
 10
1074.326126795379
 20
249.0520383651127
 30
0.0
 10
1075.378660893894
 20
243.7763983502003
 30
0.0
 10
1078.799240747587
 20
233.037074303057
 30
0.0
 10
1081.167200290244
 20
227.5737243328418
 30
0.0
 10
1087.129188975087
 20
216.6709707524003
 30
0.0
 10
1090.723048919614
 20
211.2318589135349
 30
0.0
 10
1098.999104320946
 20
200.5883737446385
 30
0.0
 10
1103.681081159862
 20
195.3842662341608
 30
0.0
 10
1113.953253162503
 20
185.4120775028371
 30
0.0
 10
1119.543187833344
 20
180.6442411853729
 30
0.0
 10
1131.415986847417
 20
171.7287241423684
 30
0.0
 10
1137.698555136765
 20
167.5812625706693
 30
0.0
 10
1150.714537096193
 20
160.0664818826259
 30
0.0
 10
1157.447628323179
 20
156.6993489288896
 30
0.0
 10
1171.10509207733
 20
150.8749618901777
 30
0.0
 10
1178.029126784761
 20
148.4178546184657
 30
0.0
 10
1191.80138155874
 20
144.5079870777976
 30
0.0
 10
1198.649259286298
 20
143.0553299506047
 30
0.0
 10
1212.004815528031
 20
141.2097983143723
 30
0.0
 10
1218.512154526776
 20
140.8169802242008
 30
0.0
 10
1230.935210441062
 20
141.1051233562723
 30
0.0
 10
1236.850590076362
 20
141.7860852223049
 30
0.0
 10
1247.861407447508
 20
144.1934381969054
 30
0.0
 10
1252.956512770901
 20
145.9197369366983
 30
0.0
 10
1262.131654349166
 20
150.3482530690214
 30
0.0
 10
1266.211449344569
 20
153.0502322380225
 30
0.0
 10
1273.20313702589
 20
159.3242648839067
 30
0.0
 10
1276.115043999596
 20
162.8960925102971
 30
0.0
 10
1278.389659930554
 20
166.8358428704228
 30
0.0
  0
SPLINE
  5
165
330
1F
100
AcDbEntity
  8
0
  6
Continuous
 62
     7
370
    15
100
AcDbSpline
210
0.0
220
0.0
230
1.0
 70
     8
 71
     3
 72
    38
 73
    34
 74
     0
 42
0.000000001
 43
0.00000001
 40
0.0
 40
0.0
 40
0.0
 40
0.0
 40
0.0624999999999999
 40
0.0624999999999999
 40
0.1249999999999998
 40
0.1249999999999998
 40
0.1874999999999998
 40
0.1874999999999998
 40
0.2499999999999998
 40
0.2499999999999998
 40
0.3124999999999999
 40
0.3124999999999999
 40
0.3749999999999999
 40
0.3749999999999999
 40
0.4374999999999999
 40
0.4374999999999999
 40
0.5
 40
0.5
 40
0.5625
 40
0.5625
 40
0.625
 40
0.625
 40
0.6875
 40
0.6875
 40
0.7499999999999999
 40
0.7499999999999999
 40
0.8124999999999999
 40
0.8124999999999999
 40
0.8749999999999999
 40
0.8749999999999999
 40
0.9374999999999999
 40
0.9374999999999999
 40
1.0
 40
1.0
 40
1.0
 40
1.0
 10
1278.389659930554
 20
166.8358428704228
 30
0.0
 10
1280.664275861513
 20
170.7755932305486
 30
0.0
 10
1282.301615837054
 20
175.0832924564299
 30
0.0
 10
1284.239243651901
 20
184.2752879267231
 30
0.0
 10
1284.539328755051
 20
189.1594836194754
 30
0.0
 10
1283.78696543758
 20
199.3196473757332
 30
0.0
 10
1282.734431339065
 20
204.5952873906456
 30
0.0
 10
1279.313851485372
 20
215.3346114377889
 30
0.0
 10
1276.945891942715
 20
220.7979614080041
 30
0.0
 10
1270.983903257872
 20
231.7007149884458
 30
0.0
 10
1267.390043313344
 20
237.1398268273109
 30
0.0
 10
1259.113987912013
 20
247.7833119962074
 30
0.0
 10
1254.432011073097
 20
252.987419506685
 30
0.0
 10
1244.159839070456
 20
262.9596082380087
 30
0.0
 10
1238.569904399614
 20
267.7274445554731
 30
0.0
 10
1226.697105385542
 20
276.6429615984774
 30
0.0
 10
1220.414537096194
 20
280.7904231701766
 30
0.0
 10
1207.398555136765
 20
288.30520385822
 30
0.0
 10
1200.66546390978
 20
291.6723368119563
 30
0.0
 10
1187.008000155629
 20
297.496723850668
 30
0.0
 10
1180.083965448198
 20
299.9538311223803
 30
0.0
 10
1166.311710674218
 20
303.8636986630482
 30
0.0
 10
1159.463832946661
 20
305.3163557902412
 30
0.0
 10
1146.108276704928
 20
307.1618874264736
 30
0.0
 10
1139.600937706182
 20
307.5547055166451
 30
0.0
 10
1127.177881791897
 20
307.2665623845737
 30
0.0
 10
1121.262502156597
 20
306.585600518541
 30
0.0
 10
1110.251684785451
 20
304.1782475439404
 30
0.0
 10
1105.156579462058
 20
302.4519488041476
 30
0.0
 10
1095.981437883793
 20
298.0234326718245
 30
0.0
 10
1091.90164288839
 20
295.3214535028234
 30
0.0
 10
1084.909955207069
 20
289.0474208569392
 30
0.0
 10
1081.998048233363
 20
285.4755932305489
 30
0.0
 10
1079.723432302404
 20
281.535842870423
 30
0.0
  0
SPLINE
  5
168
330
1F
100
AcDbEntity
  8
0
  6
Continuous
 62
     7
370
    15
100
AcDbSpline
210
0.0
220
0.0
230
1.0
 70
     8
 71
     3
 72
    15
 73
    11
 74
     0
 42
0.000000001
 43
0.00000001
 40
0.0
 40
0.0
 40
0.0
 40
0.0
 40
0.3926990816987241
 40
0.7853981633974483
 40
1.178097245096172
 40
1.570796326794897
 40
1.963495408493621
 40
2.356194490192345
 40
2.748893571891069
 40
3.141592653589793
 40
3.141592653589793
 40
3.141592653589793
 40
3.141592653589793
 10
1136.460356684145
 20
-149.5929214352093
 30
0.0
 10
1143.004460641062
 20
-138.2582008918174
 30
0.0
 10
1160.601900748641
 20
-118.192166225931
 30
0.0
 10
1196.507181388466
 20
-100.4856413080308
 30
0.0
 10
1236.455329011515
 20
-97.86730137976187
 30
0.0
 10
1274.364600273038
 20
-110.7357649598928
 30
0.0
 10
1304.463652271868
 20
-137.1319251212614
 30
0.0
 10
1322.170177189768
 20
-173.0372057610871
 30
0.0
 10
1324.788517118037
 20
-212.9853533841359
 30
0.0
 10
1316.209541397949
 20
-238.2582008918176
 30
0.0
 10
1309.665437441033
 20
-249.5929214352097
 30
0.0
  0
SPLINE
  5
169
330
1F
100
AcDbEntity
  8
0
  6
Continuous
 62
     7
370
    15
100
AcDbSpline
210
0.0
220
0.0
230
1.0
 70
     8
 71
     3
 72
    15
 73
    11
 74
     0
 42
0.000000001
 43
0.00000001
 40
3.141592653589793
 40
3.141592653589793
 40
3.141592653589793
 40
3.141592653589793
 40
3.534291735288518
 40
3.926990816987241
 40
4.319689898685965
 40
4.71238898038469
 40
5.105088062083414
 40
5.497787143782138
 40
5.890486225480862
 40
6.283185307179586
 40
6.283185307179586
 40
6.283185307179586
 40
6.283185307179586
 10
1309.665437441033
 20
-249.5929214352097
 30
0.0
 10
1303.121333484116
 20
-260.9276419786017
 30
0.0
 10
1285.523893376537
 20
-280.9936766444881
 30
0.0
 10
1249.618612736711
 20
-298.7002015623884
 30
0.0
 10
1209.670465113663
 20
-301.3185414906572
 30
0.0
 10
1171.76119385214
 20
-288.4500779105263
 30
0.0
 10
1141.66214185331
 20
-262.0539177491576
 30
0.0
 10
1123.95561693541
 20
-226.1486371093319
 30
0.0
 10
1121.337277007141
 20
-186.2004894862831
 30
0.0
 10
1129.916252727228
 20
-160.9276419786014
 30
0.0
 10
1136.460356684145
 20
-149.5929214352093
 30
0.0
  0
CIRCLE
  5
16A
330
1F
100
AcDbEntity
  8
0
  6
Continuous
 62
     7
370
    15
100
AcDbCircle
 10
1223.0628970626
 20
-199.5929214352
 30
0.0
 40
70.00000000000115
  0
LWPOLYLINE
  5
16B
330
1F
100
AcDbEntity
  8
0
  6
Continuous
 62
     7
370
    15
100
AcDbPolyline
 90
        3
 70
   128
 43
0.0
 10
5.3936643204
 20
-173.8426978799
 10
4.8496566366
 20
-174.1469793857
 10
4.4365141194
 20
-174.2920772066
  0
LWPOLYLINE
  5
16C
330
1F
100
AcDbEntity
  8
0
  6
Continuous
 62
     7
370
    15
100
AcDbPolyline
 90
        3
 70
   128
 43
0.0
 10
-4.8346325349
 20
-174.1530603827
 10
-5.2488388298
 20
-173.9475070752
 10
-5.5039277787
 20
-173.7314131156
  0
SPLINE
  5
16E
330
1F
100
AcDbEntity
  8
0
  6
Continuous
 62
     7
370
    15
100
AcDbSpline
210
0.0
220
0.0
230
1.0
 70
     8
 71
     3
 72
    13
 73
     9
 74
     0
 42
0.000000001
 43
0.00000001
 40
0.0
 40
0.0
 40
0.0
 40
0.0
 40
0.1256461644428625
 40
0.2494913428865167
 40
0.3737157349740154
 40
0.5004799757386821
 40
0.7494946228600974
 40
1.0
 40
1.0
 40
1.0
 40
1.0
 10
4.269817580488971
 20
-173.8398419472135
 30
0.0
 10
4.287065039012278
 20
-173.8442931246813
 30
0.0
 10
4.321312734574174
 20
-173.8531316773643
 30
0.0
 10
4.362736915806503
 20
-173.8682212684997
 30
0.0
 10
4.395865805717768
 20
-173.8844381187975
 30
0.0
 10
4.427300224892416
 20
-173.9072152853664
 30
0.0
 10
4.445768969399794
 20
-173.9374469649682
 30
0.0
 10
4.425285225586685
 20
-173.9610130284965
 30
0.0
 10
4.41501278860735
 20
-173.972831224655
 30
0.0
  0
SPLINE
  5
16F
330
1F
100
AcDbEntity
  8
0
  6
Continuous
 62
     7
370
    15
100
AcDbSpline
210
0.0
220
0.0
230
1.0
 70
     8
 71
     3
 72
    13
 73
     9
 74
     0
 42
0.000000001
 43
0.00000001
 40
0.0
 40
0.0
 40
0.0
 40
0.0
 40
0.1100248147950197
 40
0.2209603874396426
 40
0.333655559904081
 40
0.5567720593103112
 40
0.7765622899521409
 40
1.0
 40
1.0
 40
1.0
 40
1.0
 10
2.99795974355485
 20
-173.4443383833897
 30
0.0
 10
2.998364798679867
 20
-173.4505438135643
 30
0.0
 10
2.999178261874738
 20
-173.4630060409098
 30
0.0
 10
3.009420200425803
 20
-173.4816966128069
 30
0.0
 10
3.03153063493819
 20
-173.5063595050637
 30
0.0
 10
3.075643442729609
 20
-173.5360574807656
 30
0.0
 10
3.153423966732752
 20
-173.5692024830178
 30
0.0
 10
3.224261719997715
 20
-173.587912036751
 30
0.0
 10
3.25997207108666
 20
-173.5973437973834
 30
0.0
  0
SPLINE
  5
170
330
1F
100
AcDbEntity
  8
0
  6
Continuous
 62
     7
370
    15
100
AcDbSpline
210
0.0
220
0.0
230
1.0
 70
     8
 71
     3
 72
    17
 73
    13
 74
     0
 42
0.000000001
 43
0.00000001
 40
0.0
 40
0.0
 40
0.0
 40
0.0
 40
0.0630669778108748
 40
0.125091369675025
 40
0.1871698534387009
 40
0.2503962922996016
 40
0.3751123327322428
 40
0.5002614739443418
 40
0.6249776657199357
 40
0.750126934083919
 40
0.8749563300886605
 40
1.0
 40
1.0
 40
1.0
 40
1.0
 10
2.712781090246276
 20
-172.8918888044934
 30
0.0
 10
2.737880402273993
 20
-172.8905967058465
 30
0.0
 10
2.787664099359707
 20
-172.888033868763
 30
0.0
 10
2.864045443012647
 20
-172.8871329397693
 30
0.0
 10
2.940228096530162
 20
-172.888504234843
 30
0.0
 10
3.03993731827
 20
-172.893490934416
 30
0.0
 10
3.158961582857433
 20
-172.9051924532933
 30
0.0
 10
3.279565340659924
 20
-172.9277351789704
 30
0.0
 10
3.37321746731429
 20
-172.9566145198064
 30
0.0
 10
3.429238279560804
 20
-172.9903051322659
 30
0.0
 10
3.450951001162677
 20
-173.0264354498661
 30
0.0
 10
3.430570636136625
 20
-173.0500086166224
 30
0.0
 10
3.420371715225933
 20
-173.0618053073615
 30
0.0
  0
SPLINE
  5
171
330
1F
100
AcDbEntity
  8
0
  6
Continuous
 62
     7
370
    15
100
AcDbSpline
210
0.0
220
0.0
230
1.0
 70
     8
 71
     3
 72
    15
 73
    11
 74
     0
 42
0.000000001
 43
0.00000001
 40
0.0
 40
0.0
 40
0.0
 40
0.0
 40
0.1010712209655739
 40
0.2005080375237716
 40
0.2994234813879952
 40
0.3989480780983384
 40
0.5001919491902933
 40
0.6675459720669422
 40
0.8324050451739162
 40
1.0
 40
1.0
 40
1.0
 40
1.0
 10
0.4324046447601576
 20
-172.9183489778592
 30
0.0
 10
0.4556763941094935
 20
-172.9236265691424
 30
0.0
 10
0.5018435695646095
 20
-172.9340964087361
 30
0.0
 10
0.5790489572421127
 20
-172.9474972733092
 30
0.0
 10
0.6610480171026859
 20
-172.9589389476715
 30
0.0
 10
0.7484303037125897
 20
-172.9682710920902
 30
0.0
 10
0.8601876804331605
 20
-172.977065225472
 30
0.0
 10
0.9968493276727437
 20
-172.9831804064945
 30
0.0
 10
1.157825216435702
 20
-172.9839095500717
 30
0.0
 10
1.262149393504611
 20
-172.9788395596994
 30
0.0
 10
1.314740742305031
 20
-172.9762837031417
 30
0.0
  0
SPLINE
  5
172
330
1F
100
AcDbEntity
  8
0
  6
Continuous
 62
     7
370
    15
100
AcDbSpline
210
0.0
220
0.0
230
1.0
 70
     8
 71
     3
 72
    17
 73
    13
 74
     0
 42
0.000000001
 43
0.00000001
 40
0.0
 40
0.0
 40
0.0
 40
0.0
 40
0.0630669778110496
 40
0.1250913696752065
 40
0.1871698534387134
 40
0.250396292299579
 40
0.3751123327320736
 40
0.5002614739443619
 40
0.6249776657198917
 40
0.75012693408402
 40
0.8749563300889452
 40
1.0
 40
1.0
 40
1.0
 40
1.0
 10
-1.557036490246341
 20
-172.7349856546175
 30
0.0
 10
-1.549245617070593
 20
-172.7292284054016
 30
0.0
 10
-1.533792664822906
 20
-172.7178090824061
 30
0.0
 10
-1.498920102990433
 20
-172.7018043941506
 30
0.0
 10
-1.455778313963356
 20
-172.6869762789979
 30
0.0
 10
-1.387557752161397
 20
-172.6691649382466
 30
0.0
 10
-1.28494907507244
 20
-172.6507777102978
 30
0.0
 10
-1.141622624990352
 20
-172.6374894392613
 30
0.0
 10
-0.9884343176630691
 20
-172.6328578801908
 30
0.0
 10
-0.8363418155082171
 20
-172.6382951618015
 30
0.0
 10
-0.6924179557569795
 20
-172.651938762744
 30
0.0
 10
-0.6157884657354634
 20
-172.6678755841611
 30
0.0
 10
-0.5774408646421754
 20
-172.675850828029
 30
0.0
  0
SPLINE
  5
173
330
1F
100
AcDbEntity
  8
0
  6
Continuous
 62
     7
370
    15
100
AcDbSpline
210
0.0
220
0.0
230
1.0
 70
     8
 71
     3
 72
    15
 73
    11
 74
     0
 42
0.000000001
 43
0.00000001
 40
0.0
 40
0.0
 40
0.0
 40
0.0
 40
0.1010712209658493
 40
0.2005080375241027
 40
0.2994234813882621
 40
0.3989480780984697
 40
0.5001919491903172
 40
0.667545972067022
 40
0.8324050451741157
 40
1.0
 40
1.0
 40
1.0
 40
1.0
 10
-2.599772231930499
 20
-173.2125894193569
 30
0.0
 10
-2.568699055864961
 20
-173.2104891782217
 30
0.0
 10
-2.507055182435879
 20
-173.2063226585703
 30
0.0
 10
-2.419097275275703
 20
-173.1973010595611
 30
0.0
 10
-2.335958204585011
 20
-173.1863236866289
 30
0.0
 10
-2.25789689239932
 20
-173.1731953135788
 30
0.0
 10
-2.169629522945236
 20
-173.1548342149763
 30
0.0
 10
-2.078776565607086
 20
-173.1300621583678
 30
0.0
 10
-1.995603194728836
 20
-173.0976457541509
 30
0.0
 10
-1.962113816078283
 20
-173.073866283338
 30
0.0
 10
-1.94523132878528
 20
-173.0618787030959
 30
0.0
  0
SPLINE
  5
174
330
1F
100
AcDbEntity
  8
0
  6
Continuous
 62
     7
370
    15
100
AcDbSpline
210
0.0
220
0.0
230
1.0
 70
     8
 71
     3
 72
    15
 73
    11
 74
     0
 42
0.000000001
 43
0.00000001
 40
0.0
 40
0.0
 40
0.0
 40
0.0
 40
0.083970855989135
 40
0.1666181875865974
 40
0.2494108222709899
 40
0.3338100015818634
 40
0.5000663041676813
 40
0.6668999312476034
 40
0.8333071438022305
 40
1.0
 40
1.0
 40
1.0
 40
1.0
 10
-4.418187169892913
 20
-173.4641151034961
 30
0.0
 10
-4.423692666716587
 20
-173.4582211831734
 30
0.0
 10
-4.434616884312305
 20
-173.4465262407987
 30
0.0
 10
-4.438450796982724
 20
-173.4285727656424
 30
0.0
 10
-4.432605740280109
 20
-173.4106502472134
 30
0.0
 10
-4.41137717603586
 20
-173.3871982703534
 30
0.0
 10
-4.361649625893595
 20
-173.3591716477867
 30
0.0
 10
-4.265580669993527
 20
-173.3309316254544
 30
0.0
 10
-4.143368813058755
 20
-173.3084414099165
 30
0.0
 10
-4.046359053893463
 20
-173.3008055313099
 30
0.0
 10
-3.997812579871745
 20
-173.2969843180052
 30
0.0
  0
SPLINE
  5
175
330
1F
100
AcDbEntity
  8
0
  6
Continuous
 62
     7
370
    15
100
AcDbSpline
210
0.0
220
0.0
230
1.0
 70
     8
 71
     3
 72
    15
 73
    11
 74
     0
 42
0.000000001
 43
0.00000001
 40
0.0
 40
0.0
 40
0.0
 40
0.0
 40
0.1010712209656325
 40
0.2005080375239804
 40
0.2994234813880042
 40
0.3989480780982885
 40
0.5001919491903163
 40
0.6675459720671684
 40
0.8324050451739817
 40
1.0
 40
1.0
 40
1.0
 40
1.0
 10
-3.032176876694299
 20
-173.9771792388353
 30
0.0
 10
-3.024375449978127
 20
-173.9698014064169
 30
0.0
 10
-3.008898752004146
 20
-173.9551650471718
 30
0.0
 10
-2.998146232521622
 20
-173.9327425835896
 30
0.0
 10
-2.9970062216915
 20
-173.910323536295
 30
0.0
 10
-3.00632719611572
 20
-173.8878630188262
 30
0.0
 10
-3.029817203382058
 20
-173.8607077868419
 30
0.0
 10
-3.075625893283448
 20
-173.829820549211
 30
0.0
 10
-3.153428411168171
 20
-173.7966750014166
 30
0.0
 10
-3.224263209586536
 20
-173.7779655209762
 30
0.0
 10
-3.259972071093951
 20
-173.7685337972918
 30
0.0
  0
SPLINE
  5
176
330
1F
100
AcDbEntity
  8
0
  6
Continuous
 62
     7
370
    15
100
AcDbSpline
210
0.0
220
0.0
230
1.0
 70
     8
 71
     3
 72
    11
 73
     7
 74
     0
 42
0.000000001
 43
0.00000001
 40
0.0
 40
0.0
 40
0.0
 40
0.0
 40
0.1654886308159092
 40
0.3341888246279557
 40
0.6668089354442873
 40
1.0
 40
1.0
 40
1.0
 40
1.0
 10
-3.366870694368661
 20
-174.4084930130166
 30
0.0
 10
-3.378427291958198
 20
-174.4031966841231
 30
0.0
 10
-3.401764760798835
 20
-174.3925012428774
 30
0.0
 10
-3.432424669513049
 20
-174.3696220528316
 30
0.0
 10
-3.451075142230991
 20
-174.3394398967031
 30
0.0
 10
-3.430612040147445
 20
-174.3158682282559
 30
0.0
 10
-3.420371715233223
 20
-174.3040722873137
 30
0.0
  0
SPLINE
  5
177
330
1F
100
AcDbEntity
  8
0
  6
Continuous
 62
     7
370
    15
100
AcDbSpline
210
0.0
220
0.0
230
1.0
 70
     8
 71
     3
 72
    13
 73
     9
 74
     0
 42
0.000000001
 43
0.00000001
 40
0.0
 40
0.0
 40
0.0
 40
0.0
 40
0.1256461644432042
 40
0.2494913428864666
 40
0.3737157349740707
 40
0.5004799757387806
 40
0.7494946228601969
 40
1.0
 40
1.0
 40
1.0
 40
1.0
 10
4.41501278860735
 20
-173.972831224655
 30
0.0
 10
4.407242888021295
 20
-173.9785690693444
 30
0.0
 10
4.391814458988867
 20
-173.9899625136503
 30
0.0
 10
4.356951777890682
 20
-174.00594288986
 30
0.0
 10
4.31378977001392
 20
-174.0207976504607
 30
0.0
 10
4.245618965605352
 20
-174.0385875087972
 30
0.0
 10
4.143510447431037
 20
-174.0574643060632
 30
0.0
 10
4.046475064088394
 20
-174.0650760478311
 30
0.0
 10
3.997812579864455
 20
-174.06889327667
 30
0.0
  0
SPLINE
  5
178
330
1F
100
AcDbEntity
  8
0
  6
Continuous
 62
     7
370
    15
100
AcDbSpline
210
0.0
220
0.0
230
1.0
 70
     8
 71
     3
 72
    14
 73
    10
 74
     0
 42
0.000000001
 43
0.00000001
 40
0.0
 40
0.0
 40
0.0
 40
0.0
 40
0.25
 40
0.25
 40
0.5
 40
0.5
 40
0.75
 40
0.75
 40
1.0
 40
1.0
 40
1.0
 40
1.0
 10
5.008402583270992
 20
-174.0117935597957
 30
0.0
 10
4.637498212784905
 20
-174.3241265645788
 30
0.0
 10
3.754061079404685
 20
-174.5890419460442
 30
0.0
 10
1.35106088725824
 20
-174.9074065457589
 30
0.0
 10
-0.0702628612881274
 20
-174.9478404014723
 30
0.0
 10
-2.726809582434611
 20
-174.7734099266022
 30
0.0
 10
-3.853427770771631
 20
-174.5656766522659
 30
0.0
 10
-5.207351980748321
 20
-174.0006301092986
 30
0.0
 10
-5.379306953764368
 20
-173.6664170396625
 30
0.0
 10
-5.008402583278285
 20
-173.3540840348795
 30
0.0
  0
LWPOLYLINE
  5
17A
330
1F
100
AcDbEntity
  8
0
  6
Continuous
 62
     7
370
    15
100
AcDbPolyline
 90
        3
 70
   128
 43
0.0
 10
-0.5774408646
 20
-172.675850828
 10
-0.589847924
 20
-172.677230977
 10
-0.6007904713
 20
-172.6758905026
  0
LWPOLYLINE
  5
17B
330
1F
100
AcDbEntity
  8
0
  6
Continuous
 62
     7
370
    15
100
AcDbPolyline
 90
        3
 70
   128
 43
0.0
 10
0.4324046448
 20
-172.9183489779
 10
0.4199975854
 20
-172.9197291268
 10
0.4090550381
 20
-172.9183886524
  0
LWPOLYLINE
  5
17E
330
1F
100
AcDbEntity
  8
0
  6
Continuous
 62
     7
370
    15
100
AcDbPolyline
 90
        3
 70
   128
 43
0.0
 10
2.7127810902
 20
-172.8918888045
 10
2.7170990305
 20
-172.8943671271
 10
2.7188067779
 20
-172.8945109948
  0
LWPOLYLINE
  5
180
330
1F
100
AcDbEntity
  8
0
  6
Continuous
 62
     7
370
    15
100
AcDbPolyline
 90
        3
 70
   128
 43
0.0
 10
1.3147407423
 20
-172.9762837031
 10
1.3190586826
 20
-172.9787620257
 10
1.32076643
 20
-172.9789058934
  0
LWPOLYLINE
  5
181
330
1F
100
AcDbEntity
  8
0
  6
Continuous
 62
     7
370
    15
100
AcDbPolyline
 90
        3
 70
   128
 43
0.0
 10
-2.5997722319
 20
-173.2125894194
 10
-2.5954542917
 20
-173.215067742
 10
-2.5937465443
 20
-173.2152116096
  0
LWPOLYLINE
  5
183
330
1F
100
AcDbEntity
  8
0
  6
Continuous
 62
     7
370
    15
100
AcDbPolyline
 90
        3
 70
   128
 43
0.0
 10
4.2698175805
 20
-173.8398419472
 10
4.2574105211
 20
-173.8412220962
 10
4.2464679738
 20
-173.8398816218
  0
LWPOLYLINE
  5
184
330
1F
100
AcDbEntity
  8
0
  6
Continuous
 62
     7
370
    15
100
AcDbPolyline
 90
        8
 70
   128
 43
0.0
 10
-3.1896081407
 20
-173.6720140405
 10
-3.1031576331
 20
-173.6956909259
 10
-3.0305896404
 20
-173.7218186089
 10
-2.9731458211
 20
-173.7499500376
 10
-2.9318090547
 20
-173.7796038755
 10
-2.9072866248
 20
-173.8102727372
 10
-2.899998117
 20
-173.84143187
 10
-2.9008656916
 20
-173.8491031834
  0
LWPOLYLINE
  5
189
330
1F
100
AcDbEntity
  8
0
  6
Continuous
 62
     7
370
    15
100
AcDbPolyline
 90
        3
 70
   128
 43
0.0
 10
-3.3208123634
 20
-174.2950991668
 10
-3.328158527
 20
-174.2890646261
 10
-3.3413819096
 20
-174.2710928816
  0
LWPOLYLINE
  5
18B
330
1F
100
AcDbEntity
  8
0
  6
Continuous
 62
     7
370
    15
100
AcDbPolyline
 90
        3
 70
   128
 43
0.0
 10
4.4839959779
 20
174.2773697125
 10
5.1623672865
 20
173.9988626271
 10
5.5063990826
 20
173.7282957642
  0
SPLINE
  5
18C
330
1F
100
AcDbEntity
  8
0
  6
Continuous
 62
     7
370
    15
100
AcDbSpline
210
0.0
220
0.0
230
1.0
 70
     8
 71
     3
 72
    13
 73
     9
 74
     0
 42
0.000000001
 43
0.00000001
 40
0.0
 40
0.0
 40
0.0
 40
0.0
 40
0.1256461644430873
 40
0.2494913428864698
 40
0.373715734974107
 40
0.5004799757389605
 40
0.7494946228603653
 40
1.0
 40
1.0
 40
1.0
 40
1.0
 10
-3.997812579871766
 20
173.2969843180051
 30
0.0
 10
-4.022371996348704
 20
173.2986904306105
 30
0.0
 10
-4.071138799732622
 20
173.3020782007582
 30
0.0
 10
-4.139816550984706
 20
173.3099384319829
 30
0.0
 10
-4.203882714882635
 20
173.3197733958802
 30
0.0
 10
-4.280953628238484
 20
173.3354260362633
 30
0.0
 10
-4.363358811525092
 20
173.3590342723595
 30
0.0
 10
-4.397760574239757
 20
173.3816864702942
 30
0.0
 10
-4.415012788614654
 20
173.3930463700201
 30
0.0
  0
SPLINE
  5
18D
330
1F
100
AcDbEntity
  8
0
  6
Continuous
 62
     7
370
    15
100
AcDbSpline
210
0.0
220
0.0
230
1.0
 70
     8
 71
     3
 72
    15
 73
    11
 74
     0
 42
0.000000001
 43
0.00000001
 40
0.0
 40
0.0
 40
0.0
 40
0.0
 40
0.1010712209658156
 40
0.2005080375240153
 40
0.2994234813882269
 40
0.3989480780983836
 40
0.5001919491904053
 40
0.6675459720671003
 40
0.8324050451740377
 40
1.0
 40
1.0
 40
1.0
 40
1.0
 10
-1.945231328785314
 20
173.0618787030958
 30
0.0
 10
-1.954813800856277
 20
173.0691395909921
 30
0.0
 10
-1.973823788577978
 20
173.0835439522815
 30
0.0
 10
-2.014029335924022
 20
173.1040325121248
 30
0.0
 10
-2.062449248092458
 20
173.1233471323161
 30
0.0
 10
-2.119908151327873
 20
173.1414228423658
 30
0.0
 10
-2.199829968819596
 20
173.1617879909851
 30
0.0
 10
-2.307064263133513
 20
173.1826263331082
 30
0.0
 10
-2.446639566273573
 20
173.2014987208464
 30
0.0
 10
-2.54844873549711
 20
173.2088722932753
 30
0.0
 10
-2.599772231930522
 20
173.2125894193568
 30
0.0
  0
SPLINE
  5
18E
330
1F
100
AcDbEntity
  8
0
  6
Continuous
 62
     7
370
    15
100
AcDbSpline
210
0.0
220
0.0
230
1.0
 70
     8
 71
     3
 72
    17
 73
    13
 74
     0
 42
0.000000001
 43
0.00000001
 40
0.0
 40
0.0
 40
0.0
 40
0.0
 40
0.0630669778109161
 40
0.125091369674957
 40
0.1871698534386513
 40
0.2503962922995326
 40
0.3751123327321633
 40
0.5002614739442552
 40
0.6249776657199267
 40
0.750126934083979
 40
0.8749563300887684
 40
1.0
 40
1.0
 40
1.0
 40
1.0
 10
-0.5774408646422149
 20
172.675850828029
 30
0.0
 10
-0.5960622940051612
 20
172.6716879988876
 30
0.0
 10
-0.6329973142831306
 20
172.6634311580323
 30
0.0
 10
-0.6963437845235884
 20
172.6533556157198
 30
0.0
 10
-0.7645266100735356
 20
172.6452477855561
 30
0.0
 10
-0.8607981536396216
 20
172.637366268777
 30
0.0
 10
-0.9883849784752857
 20
172.6328751533994
 30
0.0
 10
-1.141208797648613
 20
172.6374644579246
 30
0.0
 10
-1.284941222369184
 20
172.6507569846106
 30
0.0
 10
-1.407086842530088
 20
172.6727490806604
 30
0.0
 10
-1.505262941002959
 20
172.7010074253527
 30
0.0
 10
-1.539768777223534
 20
172.7236531050715
 30
0.0
 10
-1.557036490246379
 20
172.7349856546174
 30
0.0
  0
SPLINE
  5
18F
330
1F
100
AcDbEntity
  8
0
  6
Continuous
 62
     7
370
    15
100
AcDbSpline
210
0.0
220
0.0
230
1.0
 70
     8
 71
     3
 72
    15
 73
    11
 74
     0
 42
0.000000001
 43
0.00000001
 40
0.0
 40
0.0
 40
0.0
 40
0.0
 40
0.1010712209656882
 40
0.2005080375239151
 40
0.2994234813880963
 40
0.3989480780983377
 40
0.5001919491904134
 40
0.6675459720670389
 40
0.832405045173923
 40
1.0
 40
1.0
 40
1.0
 40
1.0
 10
1.314740742304977
 20
172.9762837031416
 30
0.0
 10
1.283207748745939
 20
172.9779627816434
 30
0.0
 10
1.220651675955214
 20
172.9812937865725
 30
0.0
 10
1.125089797670679
 20
172.9833506472913
 30
0.0
 10
1.029744341741388
 20
172.9831477727892
 30
0.0
 10
0.9344422805305647
 20
172.9804847517218
 30
0.0
 10
0.8194767891369182
 20
172.9743921235669
 30
0.0
 10
0.6891122936923263
 20
172.9629742055098
 30
0.0
 10
0.5498178787624638
 20
172.9439874181586
 30
0.0
 10
0.4717565209303854
 20
172.9269418825384
 30
0.0
 10
0.4324046447601033
 20
172.9183489778591
 30
0.0
  0
SPLINE
  5
190
330
1F
100
AcDbEntity
  8
0
  6
Continuous
 62
     7
370
    15
100
AcDbSpline
210
0.0
220
0.0
230
1.0
 70
     8
 71
     3
 72
    17
 73
    13
 74
     0
 42
0.000000001
 43
0.00000001
 40
0.0
 40
0.0
 40
0.0
 40
0.0
 40
0.0630669778109878
 40
0.1250913696753106
 40
0.1871698534388302
 40
0.2503962922996263
 40
0.375112332732058
 40
0.5002614739442701
 40
0.6249776657199488
 40
0.7501269340839832
 40
0.8749563300889182
 40
1.0
 40
1.0
 40
1.0
 40
1.0
 10
3.420371715225901
 20
173.0618053073614
 30
0.0
 10
3.426392647183294
 20
173.0559318427277
 30
0.0
 10
3.438334976614862
 20
173.0442820101009
 30
0.0
 10
3.443769835337962
 20
173.0263444243391
 30
0.0
 10
3.439539457656403
 20
173.0084058238829
 30
0.0
 10
3.420431211658032
 20
172.9848604204504
 30
0.0
 10
3.373178519900418
 20
172.9566332037957
 30
0.0
 10
3.279864260274931
 20
172.927806959706
 30
0.0
 10
3.159041841650279
 20
172.9051836895667
 30
0.0
 10
3.016972422283734
 20
172.8913061203408
 30
0.0
 10
2.863809249925197
 20
172.8854428059047
 30
0.0
 10
2.763152582211015
 20
172.8897389102828
 30
0.0
 10
2.712781090246243
 20
172.8918888044933
 30
0.0
  0
SPLINE
  5
191
330
1F
100
AcDbEntity
  8
0
  6
Continuous
 62
     7
370
    15
100
AcDbSpline
210
0.0
220
0.0
230
1.0
 70
     8
 71
     3
 72
    15
 73
    11
 74
     0
 42
0.000000001
 43
0.00000001
 40
0.0
 40
0.0
 40
0.0
 40
0.0
 40
0.1010712209657442
 40
0.2005080375241819
 40
0.2994234813881927
 40
0.3989480780982791
 40
0.5001919491903923
 40
0.6675459720671219
 40
0.8324050451739157
 40
1.0
 40
1.0
 40
1.0
 40
1.0
 10
3.259972071086629
 20
173.5973437973833
 30
0.0
 10
3.238021549598509
 20
173.5917619879888
 30
0.0
 10
3.194475464529375
 20
173.5806886316284
 30
0.0
 10
3.139119133590972
 20
173.5622569325042
 30
0.0
 10
3.092193589830037
 20
173.5427394378107
 30
0.0
 10
3.054350431854602
 20
173.5220007066933
 30
0.0
 10
3.019306757952882
 20
173.4955429299194
 30
0.0
 10
2.996176556822075
 20
173.463286669739
 30
0.0
 10
2.996457445032393
 20
173.4254274946497
 30
0.0
 10
3.020205256423826
 20
173.4010083866006
 30
0.0
 10
3.032176876686972
 20
173.3886983558398
 30
0.0
  0
SPLINE
  5
192
330
1F
100
AcDbEntity
  8
0
  6
Continuous
 62
     7
370
    15
100
AcDbSpline
210
0.0
220
0.0
230
1.0
 70
     8
 71
     3
 72
    13
 73
     9
 74
     0
 42
0.000000001
 43
0.00000001
 40
0.0
 40
0.0
 40
0.0
 40
0.0
 40
0.0993453822066338
 40
0.2006185058191359
 40
0.4001144632691906
 40
0.6003031698116923
 40
0.7999802086897478
 40
1.0
 40
1.0
 40
1.0
 40
1.0
 10
4.355369684762906
 20
174.0058957994434
 30
0.0
 10
4.367384983076931
 20
174.0006583006642
 30
0.0
 10
4.391648729827812
 20
173.9900816723807
 30
0.0
 10
4.424574041163607
 20
173.9673576156768
 30
0.0
 10
4.444077027751521
 20
173.9373659744006
 30
0.0
 10
4.42403424418422
 20
173.9014957113055
 30
0.0
 10
4.369078451925525
 20
173.867374209347
 30
0.0
 10
4.302923447624011
 20
173.8490246130406
 30
0.0
 10
4.269817580488953
 20
173.8398419472134
 30
0.0
  0
SPLINE
  5
193
330
1F
100
AcDbEntity
  8
0
  6
Continuous
 62
     7
370
    15
100
AcDbSpline
210
0.0
220
0.0
230
1.0
 70
     8
 71
     3
 72
    17
 73
    13
 74
     0
 42
0.000000001
 43
0.00000001
 40
0.0
 40
0.0
 40
0.0
 40
0.0
 40
0.0630669778109987
 40
0.1250913696753189
 40
0.1871698534390231
 40
0.2503962922996456
 40
0.3751123327322807
 40
0.5002614739443038
 40
0.6249776657199473
 40
0.7501269340839738
 40
0.8749563300889142
 40
1.0
 40
1.0
 40
1.0
 40
1.0
 10
-3.420371715233218
 20
174.3040722873136
 30
0.0
 10
-3.42639264719062
 20
174.3099457519474
 30
0.0
 10
-3.438334976622202
 20
174.3215955845742
 30
0.0
 10
-3.443769835345302
 20
174.3395331703358
 30
0.0
 10
-3.439539457663778
 20
174.3574717707921
 30
0.0
 10
-3.420431211665266
 20
174.3810171742247
 30
0.0
 10
-3.373178519907726
 20
174.4092443908793
 30
0.0
 10
-3.279864260282249
 20
174.4380706349691
 30
0.0
 10
-3.159041841657393
 20
174.4606939051083
 30
0.0
 10
-3.016972422291093
 20
174.4745714743341
 30
0.0
 10
-2.863809249932503
 20
174.4804347887703
 30
0.0
 10
-2.763152582218329
 20
174.4761386843922
 30
0.0
 10
-2.71278109025356
 20
174.4739887901817
 30
0.0
  0
SPLINE
  5
194
330
1F
100
AcDbEntity
  8
0
  6
Continuous
 62
     7
370
    15
100
AcDbSpline
210
0.0
220
0.0
230
1.0
 70
     8
 71
     3
 72
    12
 73
     8
 74
     0
 42
0.000000001
 43
0.00000001
 40
0.0
 40
0.0
 40
0.0
 40
0.0
 40
0.2020749854388743
 40
0.4008676308403353
 40
0.5986127766040753
 40
0.7975805633498795
 40
0.9999999999999999
 40
0.9999999999999999
 40
0.9999999999999999
 40
0.9999999999999999
 10
-3.027196624176721
 20
173.8656802701894
 30
0.0
 10
-3.020041838817783
 20
173.8730947601491
 30
0.0
 10
-3.005848484554862
 20
173.8878033051853
 30
0.0
 10
-2.997041583294606
 20
173.9102770930256
 30
0.0
 10
-2.998044200456786
 20
173.9326882129231
 30
0.0
 10
-3.00886384905561
 20
173.9551327787889
 30
0.0
 10
-3.0243614446471
 20
173.9697884094225
 30
0.0
 10
-3.032176876694288
 20
173.9771792388352
 30
0.0
  0
SPLINE
  5
195
330
1F
100
AcDbEntity
  8
0
  6
Continuous
 62
     7
370
    15
100
AcDbSpline
210
0.0
220
0.0
230
1.0
 70
     8
 71
     3
 72
    13
 73
     9
 74
     0
 42
0.000000001
 43
0.00000001
 40
0.0
 40
0.0
 40
0.0
 40
0.0
 40
0.1256461644431199
 40
0.2494913428867393
 40
0.3737157349737785
 40
0.5004799757389813
 40
0.7494946228602261
 40
1.0
 40
1.0
 40
1.0
 40
1.0
 10
-4.415012788614654
 20
173.3930463700201
 30
0.0
 10
-4.421008905885181
 20
173.3989006824018
 30
0.0
 10
-4.432915193327862
 20
173.4105253926686
 30
0.0
 10
-4.438304937595336
 20
173.4284409798518
 30
0.0
 10
-4.434115972935141
 20
173.4464048341343
 30
0.0
 10
-4.415002954701369
 20
173.4699258013989
 30
0.0
 10
-4.369256713878142
 20
173.4985108321467
 30
0.0
 10
-4.303029839126117
 20
173.516842473166
 30
0.0
 10
-4.269817580496269
 20
173.5260356474616
 30
0.0
  0
SPLINE
  5
196
330
1F
100
AcDbEntity
  8
0
  6
Continuous
 62
     7
370
    15
100
AcDbSpline
210
0.0
220
0.0
230
1.0
 70
     8
 71
     3
 72
    14
 73
    10
 74
     0
 42
0.000000001
 43
0.00000001
 40
0.0
 40
0.0
 40
0.0
 40
0.0
 40
0.25
 40
0.25
 40
0.5
 40
0.5
 40
0.75
 40
0.75
 40
1.0
 40
1.0
 40
1.0
 40
1.0
 10
-5.008402583278296
 20
173.3540840348794
 30
0.0
 10
-5.379306953764382
 20
173.6664170396624
 30
0.0
 10
-5.207351980748332
 20
174.0006301092985
 30
0.0
 10
-3.853427770771644
 20
174.5656766522658
 30
0.0
 10
-2.726809582434627
 20
174.7734099266021
 30
0.0
 10
-0.0702628612881385
 20
174.9478404014723
 30
0.0
 10
1.351060887258229
 20
174.9074065457588
 30
0.0
 10
3.754061079404671
 20
174.5890419460441
 30
0.0
 10
4.637498212784894
 20
174.3241265645787
 30
0.0
 10
5.00840258327098
 20
174.0117935597956
 30
0.0
  0
SPLINE
  5
197
330
1F
100
AcDbEntity
  8
0
  6
Continuous
 62
     7
370
    15
100
AcDbSpline
210
0.0
220
0.0
230
1.0
 70
     8
 71
     3
 72
    13
 73
     9
 74
     0
 42
0.000000001
 43
0.00000001
 40
0.0
 40
0.0
 40
0.0
 40
0.0
 40
0.0790229534458235
 40
0.2351185737011673
 40
0.3945267669780925
 40
0.5539349602550245
 40
0.7100305805103588
 40
1.0
 40
1.0
 40
1.0
 40
1.0
 10
-0.0175131445450468
 20
167.9037828985292
 30
0.0
 10
-0.2376174190085399
 20
167.8970802086437
 30
0.0
 10
-0.8924980685006636
 20
167.877137561386
 30
0.0
 10
-1.979378272767134
 20
167.9488224684617
 30
0.0
 10
-3.204879316250878
 20
168.067820359832
 30
0.0
 10
-4.289570303633149
 20
168.251340606911
 30
0.0
 10
-5.473767682321892
 20
168.541557931724
 30
0.0
 10
-5.939317705026082
 20
168.8172459422024
 30
0.0
 10
-6.241953549126539
 20
168.9964599249982
 30
0.0
  0
LWPOLYLINE
  5
198
330
1F
100
AcDbEntity
  8
0
  6
Continuous
 62
     7
370
    15
100
AcDbPolyline
 90
        3
 70
   128
 43
0.0
 10
-0.5774408646
 20
172.675850828
 10
-0.589847924
 20
172.677230977
 10
-0.6007904713
 20
172.6758905026
  0
LWPOLYLINE
  5
19A
330
1F
100
AcDbEntity
  8
0
  6
Continuous
 62
     7
370
    15
100
AcDbPolyline
 90
        3
 70
   128
 43
0.0
 10
0.4324046448
 20
172.9183489779
 10
0.4199975854
 20
172.9197291268
 10
0.4090550381
 20
172.9183886524
  0
LWPOLYLINE
  5
19E
330
1F
100
AcDbEntity
  8
0
  6
Continuous
 62
     7
370
    15
100
AcDbPolyline
 90
        3
 70
   128
 43
0.0
 10
2.7127810902
 20
172.8918888045
 10
2.7170990305
 20
172.8943671271
 10
2.7188067779
 20
172.8945109948
  0
LWPOLYLINE
  5
19F
330
1F
100
AcDbEntity
  8
0
  6
Continuous
 62
     7
370
    15
100
AcDbPolyline
 90
        3
 70
   128
 43
0.0
 10
1.3147407423
 20
172.9762837031
 10
1.3190586826
 20
172.9787620257
 10
1.32076643
 20
172.9789058934
  0
LWPOLYLINE
  5
1A1
330
1F
100
AcDbEntity
  8
0
  6
Continuous
 62
     7
370
    15
100
AcDbPolyline
 90
        3
 70
   128
 43
0.0
 10
-2.5997722319
 20
173.2125894194
 10
-2.5954542917
 20
173.215067742
 10
-2.5937465443
 20
173.2152116096
  0
LWPOLYLINE
  5
1A2
330
1F
100
AcDbEntity
  8
0
  6
Continuous
 62
     7
370
    15
100
AcDbPolyline
 90
        3
 70
   128
 43
0.0
 10
-3.9978125799
 20
173.296984318
 10
-3.9934946396
 20
173.2994626406
 10
-3.9917868922
 20
173.2996065083
  0
LWPOLYLINE
  5
1A6
330
1F
100
AcDbEntity
  8
0
  6
Continuous
 62
     7
370
    15
100
AcDbPolyline
 90
        3
 70
   128
 43
0.0
 10
3.2599720711
 20
173.5973437974
 10
3.2475650117
 20
173.5987239463
 10
3.2366224644
 20
173.597383472
  0
LWPOLYLINE
  5
1A7
330
1F
100
AcDbEntity
  8
0
  6
Continuous
 62
     7
370
    15
100
AcDbPolyline
 90
        3
 70
   128
 43
0.0
 10
-2.9373246903
 20
173.9030891167
 10
-2.9100682397
 20
173.8725481325
 10
-2.9008656916
 20
173.8491031834
  0
LWPOLYLINE
  5
1AD
330
1F
100
AcDbEntity
  8
0
  6
Continuous
 62
     7
370
    15
100
AcDbPolyline
 90
        3
 70
   128
 43
0.0
 10
1569.4443251976
 20
1106.8553604662
 10
1569.7633089188
 20
1107.3908798221
 10
1570.0485519236
 20
1107.7231094796
  0
LWPOLYLINE
  5
1AE
330
1F
100
AcDbEntity
  8
0
  6
Continuous
 62
     7
370
    15
100
AcDbPolyline
 90
        3
 70
   128
 43
0.0
 10
1578.1471088603
 20
1112.2382907057
 10
1578.608598688
 20
1112.267379467
 10
1578.9375591777
 20
1112.2077810828
  0
SPLINE
  5
1B0
330
1F
100
AcDbEntity
  8
0
  6
Continuous
 62
     7
370
    15
100
AcDbSpline
210
0.0
220
0.0
230
1.0
 70
     8
 71
     3
 72
    13
 73
     9
 74
     0
 42
0.000000001
 43
0.00000001
 40
0.0
 40
0.0
 40
0.0
 40
0.0
 40
0.1256461644426197
 40
0.2494913428864854
 40
0.3737157349738551
 40
0.5004799757387156
 40
0.7494946228601417
 40
1.0
 40
1.0
 40
1.0
 40
1.0
 10
1570.419032990711
 20
1107.414810525914
 30
0.0
 10
1570.401870664746
 20
1107.410041629417
 30
0.0
 10
1570.367792014027
 20
1107.400572192792
 30
0.0
 10
1570.32437282518
 20
1107.392928071431
 30
0.0
 10
1570.28757393977
 20
1107.390407830804
 30
0.0
 10
1570.248962350925
 20
1107.39441622609
 30
0.0
 10
1570.217852109207
 20
1107.411363256372
 30
0.0
 10
1570.223808519949
 20
1107.442013937961
 30
0.0
 10
1570.226795613253
 20
1107.45738501455
 30
0.0
  0
SPLINE
  5
1B1
330
1F
100
AcDbEntity
  8
0
  6
Continuous
 62
     7
370
    15
100
AcDbSpline
210
0.0
220
0.0
230
1.0
 70
     8
 71
     3
 72
    13
 73
     9
 74
     0
 42
0.000000001
 43
0.00000001
 40
0.0
 40
0.0
 40
0.0
 40
0.0
 40
0.1100248147950513
 40
0.2209603874396269
 40
0.3336555599040923
 40
0.556772059310299
 40
0.7765622899521196
 40
1.0
 40
1.0
 40
1.0
 40
1.0
 10
1571.718245969411
 20
1107.708223310823
 30
0.0
 10
1571.714792466295
 20
1107.713394843433
 30
0.0
 10
1571.707856872831
 20
1107.723780717305
 30
0.0
 10
1571.689641807913
 20
1107.734846258103
 30
0.0
 10
1571.658162163808
 20
1107.745149732072
 30
0.0
 10
1571.605110363777
 20
1107.748812529575
 30
0.0
 10
1571.521177952946
 20
1107.738626681533
 30
0.0
 10
1571.450475882204
 20
1107.719410753726
 30
0.0
 10
1571.414833930666
 20
1107.709723722492
 30
0.0
  0
SPLINE
  5
1B2
330
1F
100
AcDbEntity
  8
0
  6
Continuous
 62
     7
370
    15
100
AcDbSpline
210
0.0
220
0.0
230
1.0
 70
     8
 71
     3
 72
    17
 73
    13
 74
     0
 42
0.000000001
 43
0.00000001
 40
0.0
 40
0.0
 40
0.0
 40
0.0
 40
0.0630669778110919
 40
0.1250913696749561
 40
0.1871698534387421
 40
0.2503962922995737
 40
0.3751123327322646
 40
0.5002614739443824
 40
0.6249776657199885
 40
0.7501269340839699
 40
0.87495633008865
 40
1.0
 40
1.0
 40
1.0
 40
1.0
 10
1572.241442717241
 20
1107.372377267843
 30
0.0
 10
1572.220352124731
 20
1107.358708621576
 30
0.0
 10
1572.178519596903
 20
1107.331597291013
 30
0.0
 10
1572.11282187742
 20
1107.292626391792
 30
0.0
 10
1572.04616011661
 20
1107.255722641402
 30
0.0
 10
1571.957316047804
 20
1107.210186639044
 30
0.0
 10
1571.848387251567
 20
1107.160808319361
 30
0.0
 10
1571.732669970679
 20
1107.120029013567
 30
0.0
 10
1571.63712517946
 20
1107.098213193048
 30
0.0
 10
1571.571764426684
 20
1107.099379713184
 30
0.0
 10
1571.534895499392
 20
1107.119813125271
 30
0.0
 10
1571.540758829864
 20
1107.150418269043
 30
0.0
 10
1571.543693009095
 20
1107.165733963359
 30
0.0
  0
SPLINE
  5
1B3
330
1F
100
AcDbEntity
  8
0
  6
Continuous
 62
     7
370
    15
100
AcDbSpline
210
0.0
220
0.0
230
1.0
 70
     8
 71
     3
 72
    15
 73
    11
 74
     0
 42
0.000000001
 43
0.00000001
 40
0.0
 40
0.0
 40
0.0
 40
0.0
 40
0.1010712209655166
 40
0.2005080375237981
 40
0.2994234813880046
 40
0.398948078098374
 40
0.500191949190299
 40
0.6675459720669176
 40
0.8324050451740077
 40
1.0
 40
1.0
 40
1.0
 40
1.0
 10
1574.203076562541
 20
1108.535480672909
 30
0.0
 10
1574.180283840772
 20
1108.528415326357
 30
0.0
 10
1574.135066974211
 20
1108.514398885691
 30
0.0
 10
1574.061504714886
 20
1108.487401681004
 30
0.0
 10
1573.984770608779
 20
1108.456310931734
 30
0.0
 10
1573.904429256525
 20
1108.420701662568
 30
0.0
 10
1573.803247462533
 20
1108.37243891712
 30
0.0
 10
1573.681837413789
 20
1108.309403995615
 30
0.0
 10
1573.542063632935
 20
1108.229547508094
 30
0.0
 10
1573.454251240551
 20
1108.1729946791
 30
0.0
 10
1573.40998372475
 20
1108.144485567992
 30
0.0
  0
SPLINE
  5
1B4
330
1F
100
AcDbEntity
  8
0
  6
Continuous
 62
     7
370
    15
100
AcDbSpline
210
0.0
220
0.0
230
1.0
 70
     8
 71
     3
 72
    17
 73
    13
 74
     0
 42
0.000000001
 43
0.00000001
 40
0.0
 40
0.0
 40
0.0
 40
0.0
 40
0.0630669778110921
 40
0.1250913696752179
 40
0.1871698534387458
 40
0.2503962922995763
 40
0.375112332732111
 40
0.5002614739443005
 40
0.6249776657198642
 40
0.7501269340840226
 40
0.8749563300889153
 40
1.0
 40
1.0
 40
1.0
 40
1.0
 10
1576.017664786411
 20
1109.371403944363
 30
0.0
 10
1576.013796316931
 20
1109.362522583698
 30
0.0
 10
1576.006123329219
 20
1109.344906683766
 30
0.0
 10
1575.983925148905
 20
1109.313609936242
 30
0.0
 10
1575.953977321219
 20
1109.279197517315
 30
0.0
 10
1575.903802252014
 20
1109.229662162848
 30
0.0
 10
1575.82413414498
 20
1109.162434017795
 30
0.0
 10
1575.706653933693
 20
1109.079262812463
 30
0.0
 10
1575.57630474752
 20
1108.998657610985
 30
0.0
 10
1575.441870136124
 20
1108.927320183911
 30
0.0
 10
1575.310406616897
 20
1108.867173959051
 30
0.0
 10
1575.236075121151
 20
1108.842660906243
 30
0.0
 10
1575.198877502496
 20
1108.830393869487
 30
0.0
  0
SPLINE
  5
1B5
330
1F
100
AcDbEntity
  8
0
  6
Continuous
 62
     7
370
    15
100
AcDbSpline
210
0.0
220
0.0
230
1.0
 70
     8
 71
     3
 72
    15
 73
    11
 74
     0
 42
0.000000001
 43
0.00000001
 40
0.0
 40
0.0
 40
0.0
 40
0.0
 40
0.1010712209659122
 40
0.2005080375241244
 40
0.2994234813883163
 40
0.3989480780984299
 40
0.5001919491903827
 40
0.6675459720670657
 40
0.8324050451741722
 40
1.0
 40
1.0
 40
1.0
 40
1.0
 10
1576.681898545774
 20
1110.306388808412
 30
0.0
 10
1576.656038506492
 20
1110.289033358202
 30
0.0
 10
1576.604736605941
 20
1110.254603109624
 30
0.0
 10
1576.533073623381
 20
1110.20281122212
 30
0.0
 10
1576.466561762582
 20
1110.151735002948
 30
0.0
 10
1576.405522869702
 20
1110.101334842284
 30
0.0
 10
1576.33826163473
 20
1110.041299979725
 30
0.0
 10
1576.271966693971
 20
1109.974420270729
 30
0.0
 10
1576.21614464398
 20
1109.904760155739
 30
0.0
 10
1576.199031726718
 20
1109.867421840601
 30
0.0
 10
1576.190404853964
 20
1109.848599047935
 30
0.0
  0
SPLINE
  5
1B6
330
1F
100
AcDbEntity
  8
0
  6
Continuous
 62
     7
370
    15
100
AcDbSpline
210
0.0
220
0.0
230
1.0
 70
     8
 71
     3
 72
    15
 73
    11
 74
     0
 42
0.000000001
 43
0.00000001
 40
0.0
 40
0.0
 40
0.0
 40
0.0
 40
0.0839708559893785
 40
0.1666181875865462
 40
0.2494108222709673
 40
0.3338100015818367
 40
0.5000663041676716
 40
0.6668999312476583
 40
0.8333071438020322
 40
1.0
 40
1.0
 40
1.0
 40
1.0
 10
1578.130929234601
 20
1111.433423909562
 30
0.0
 10
1578.138644094872
 20
1111.431072373246
 30
0.0
 10
1578.153952216014
 20
1111.426406364852
 30
0.0
 10
1578.16624921936
 20
1111.412775155616
 30
0.0
 10
1578.170148510984
 20
1111.394331271005
 30
0.0
 10
1578.163490023492
 20
1111.363406981154
 30
0.0
 10
1578.134438013084
 20
1111.314271438957
 30
0.0
 10
1578.065359867926
 20
1111.241780384264
 30
0.0
 10
1577.970766402945
 20
1111.161197357804
 30
0.0
 10
1577.890571426397
 20
1111.106079613368
 30
0.0
 10
1577.850439553283
 20
1111.078497108562
 30
0.0
  0
SPLINE
  5
1B7
330
1F
100
AcDbEntity
  8
0
  6
Continuous
 62
     7
370
    15
100
AcDbSpline
210
0.0
220
0.0
230
1.0
 70
     8
 71
     3
 72
    15
 73
    11
 74
     0
 42
0.000000001
 43
0.00000001
 40
0.0
 40
0.0
 40
0.0
 40
0.0
 40
0.1010712209656183
 40
0.2005080375239877
 40
0.2994234813880107
 40
0.3989480780982915
 40
0.500191949190328
 40
0.6675459720670989
 40
0.8324050451739036
 40
1.0
 40
1.0
 40
1.0
 40
1.0
 10
1576.674077043114
 20
1111.184745337938
 30
0.0
 10
1576.671009725601
 20
1111.17445523428
 30
0.0
 10
1576.664924691612
 20
1111.154041426368
 30
0.0
 10
1576.666823968376
 20
1111.129246743549
 30
0.0
 10
1576.677046213684
 20
1111.109261273648
 30
0.0
 10
1576.696348673059
 20
1111.094470382151
 30
0.0
 10
1576.730269232078
 20
1111.082698265039
 30
0.0
 10
1576.785384340062
 20
1111.078853477549
 30
0.0
 10
1576.869336070926
 20
1111.089049850079
 30
0.0
 10
1576.940035546049
 20
1111.108264363935
 30
0.0
 10
1576.975676189096
 20
1111.117950682377
 30
0.0
  0
SPLINE
  5
1B8
330
1F
100
AcDbEntity
  8
0
  6
Continuous
 62
     7
370
    15
100
AcDbSpline
210
0.0
220
0.0
230
1.0
 70
     8
 71
     3
 72
    13
 73
     9
 74
     0
 42
0.000000001
 43
0.00000001
 40
0.0
 40
0.0
 40
0.0
 40
0.0
 40
0.1256461644432335
 40
0.2494913428865666
 40
0.3737157349739627
 40
0.5004799757386393
 40
0.7494946228601871
 40
1.0
 40
1.0
 40
1.0
 40
1.0
 10
1570.226795613253
 20
1107.45738501455
 30
0.0
 10
1570.2306556222
 20
1107.466239084107
 30
0.0
 10
1570.23832031153
 20
1107.48382031083
 30
0.0
 10
1570.2605220909
 20
1107.515091063138
 30
0.0
 10
1570.290474105899
 20
1107.549536667123
 30
0.0
 10
1570.340616825145
 20
1107.599028538577
 30
0.0
 10
1570.419606997194
 20
1107.666430583639
 30
0.0
 10
1570.499836233351
 20
1107.721540237048
 30
0.0
 10
1570.54007056648
 20
1107.749177296307
 30
0.0
  0
SPLINE
  5
1B9
330
1F
100
AcDbEntity
  8
0
  6
Continuous
 62
     7
370
    15
100
AcDbSpline
210
0.0
220
0.0
230
1.0
 70
     8
 71
     3
 72
    14
 73
    10
 74
     0
 42
0.000000001
 43
0.00000001
 40
0.0
 40
0.0
 40
0.0
 40
0.0
 40
0.25
 40
0.25
 40
0.5
 40
0.5
 40
0.75
 40
0.75
 40
1.0
 40
1.0
 40
1.0
 40
1.0
 10
1569.693423809157
 20
1107.194432489241
 30
0.0
 10
1569.858469913981
 20
1107.650372991067
 30
0.0
 10
1570.491091223402
 20
1108.321515007959
 30
0.0
 10
1572.412968135243
 20
1109.798726935051
 30
0.0
 10
1573.623653680629
 20
1110.544405555545
 30
0.0
 10
1576.011505864917
 20
1111.721617693687
 30
0.0
 10
1577.091052473551
 20
1112.105024495069
 30
0.0
 10
1578.546108505673
 20
1112.292641939527
 30
0.0
 10
1578.86213241543
 20
1112.089182417453
 30
0.0
 10
1578.697086310606
 20
1111.633241915628
 30
0.0
  0
LWPOLYLINE
  5
1BB
330
1F
100
AcDbEntity
  8
0
  6
Continuous
 62
     7
370
    15
100
AcDbPolyline
 90
        3
 70
   128
 43
0.0
 10
1575.1988775025
 20
1108.8303938695
 10
1575.2089322567
 20
1108.8377926432
 10
1575.2190790178
 20
1108.842103032
  0
LWPOLYLINE
  5
1BC
330
1F
100
AcDbEntity
  8
0
  6
Continuous
 62
     7
370
    15
100
AcDbPolyline
 90
        3
 70
   128
 43
0.0
 10
1574.2030765625
 20
1108.5354806729
 10
1574.2131313167
 20
1108.5428794467
 10
1574.2232780778
 20
1108.5471898354
  0
LWPOLYLINE
  5
1BF
330
1F
100
AcDbEntity
  8
0
  6
Continuous
 62
     7
370
    15
100
AcDbPolyline
 90
        3
 70
   128
 43
0.0
 10
1572.2414427172
 20
1107.3723772678
 10
1572.23646411
 20
1107.3723645881
 10
1572.2349132235
 20
1107.3716353074
  0
LWPOLYLINE
  5
1C1
330
1F
100
AcDbEntity
  8
0
  6
Continuous
 62
     7
370
    15
100
AcDbPolyline
 90
        3
 70
   128
 43
0.0
 10
1573.4099837247
 20
1108.144485568
 10
1573.4050051175
 20
1108.1444728882
 10
1573.403454231
 20
1108.1437436076
  0
LWPOLYLINE
  5
1C2
330
1F
100
AcDbEntity
  8
0
  6
Continuous
 62
     7
370
    15
100
AcDbPolyline
 90
        3
 70
   128
 43
0.0
 10
1576.6818985458
 20
1110.3063888084
 10
1576.6769199385
 20
1110.3063761286
 10
1576.675369052
 20
1110.305646848
  0
LWPOLYLINE
  5
1C5
330
1F
100
AcDbEntity
  8
0
  6
Continuous
 62
     7
370
    15
100
AcDbPolyline
 90
        3
 70
   128
 43
0.0
 10
1570.4190329907
 20
1107.4148105259
 10
1570.4290877449
 20
1107.4222092997
 10
1570.439234506
 20
1107.4265196884
  0
LWPOLYLINE
  5
1C6
330
1F
100
AcDbEntity
  8
0
  6
Continuous
 62
     7
370
    15
100
AcDbPolyline
 90
        8
 70
   128
 43
0.0
 10
1576.9629991162
 20
1110.9991801559
 10
1576.8762923379
 20
1110.9764596863
 10
1576.8003827712
 20
1110.9628029272
 10
1576.7365692499
 20
1110.9584435494
 10
1576.6859436412
 20
1110.9634561431
 10
1576.6493721631
 20
1110.9777549415
 10
1576.6274805638
 20
1111.0010952882
 10
1576.6243962487
 20
1111.0081726278
  0
LWPOLYLINE
  5
1CB
330
1F
100
AcDbEntity
  8
0
  6
Continuous
 62
     7
370
    15
100
AcDbPolyline
 90
        3
 70
   128
 43
0.0
 10
1744.2921548874
 20
805.8293725353
 10
1743.5654145583
 20
805.7313810921
 10
1743.1321908518
 20
805.7936829708
  0
SPLINE
  5
1CC
330
1F
100
AcDbEntity
  8
0
  6
Continuous
 62
     7
370
    15
100
AcDbSpline
210
0.0
220
0.0
230
1.0
 70
     8
 71
     3
 72
    13
 73
     9
 74
     0
 42
0.000000001
 43
0.00000001
 40
0.0
 40
0.0
 40
0.0
 40
0.0
 40
0.1256461644428954
 40
0.2494913428865383
 40
0.3737157349739187
 40
0.5004799757389413
 40
0.7494946228601004
 40
1.0
 40
1.0
 40
1.0
 40
1.0
 10
1751.147423871288
 20
810.9193154713101
 30
0.0
 10
1751.169546006162
 20
810.9301176426904
 30
0.0
 10
1751.213473181827
 20
810.9515671493725
 30
0.0
 10
1751.276879974699
 20
810.9790988650783
 30
0.0
 10
1751.337280382107
 20
811.002614618447
 30
0.0
 10
1751.411852071157
 20
811.0275944909167
 30
0.0
 10
1751.495021171335
 20
811.0483517503624
 30
0.0
 10
1751.536140070748
 20
811.0459352528566
 30
0.0
 10
1751.556760876531
 20
811.0447233982969
 30
0.0
  0
SPLINE
  5
1CD
330
1F
100
AcDbEntity
  8
0
  6
Continuous
 62
     7
370
    15
100
AcDbSpline
210
0.0
220
0.0
230
1.0
 70
     8
 71
     3
 72
    15
 73
    11
 74
     0
 42
0.000000001
 43
0.00000001
 40
0.0
 40
0.0
 40
0.0
 40
0.0
 40
0.1010712209658247
 40
0.2005080375239133
 40
0.2994234813881186
 40
0.3989480780983868
 40
0.5001919491903662
 40
0.6675459720670361
 40
0.8324050451740793
 40
1.0
 40
1.0
 40
1.0
 40
1.0
 10
1749.252283557061
 20
810.0966322808508
 30
0.0
 10
1749.264212665254
 20
810.0951354035142
 30
0.0
 10
1749.287877978191
 20
810.0921658545731
 30
0.0
 10
1749.332941283487
 20
810.0945250149346
 30
0.0
 10
1749.384531467569
 20
810.1020080192687
 30
0.0
 10
1749.443330192471
 20
810.1150834467923
 30
0.0
 10
1749.522727091044
 20
810.1374076194816
 30
0.0
 10
1749.626013885138
 20
810.1729782329872
 30
0.0
 10
1749.756325837268
 20
810.2264219173461
 30
0.0
 10
1749.848181950368
 20
810.2709408009177
 30
0.0
 10
1749.894487965131
 20
810.2933834235188
 30
0.0
  0
SPLINE
  5
1CE
330
1F
100
AcDbEntity
  8
0
  6
Continuous
 62
     7
370
    15
100
AcDbSpline
210
0.0
220
0.0
230
1.0
 70
     8
 71
     3
 72
    17
 73
    13
 74
     0
 42
0.000000001
 43
0.00000001
 40
0.0
 40
0.0
 40
0.0
 40
0.0
 40
0.0630669778108561
 40
0.1250913696749749
 40
0.1871698534386636
 40
0.2503962922994428
 40
0.3751123327321216
 40
0.5002614739443211
 40
0.6249776657198511
 40
0.7501269340839747
 40
0.8749563300887339
 40
1.0
 40
1.0
 40
1.0
 40
1.0
 10
1747.874728330525
 20
809.747046995156
 30
0.0
 10
1747.888773546838
 20
809.7599628256256
 30
0.0
 10
1747.91663179226
 20
809.7855809697
 30
0.0
 10
1747.966453673572
 20
809.8259798804202
 30
0.0
 10
1748.021447817519
 20
809.8670928800861
 30
0.0
 10
1748.100880661519
 20
809.9220542456204
 30
0.0
 10
1748.209128535326
 20
809.9897370780465
 30
0.0
 10
1748.343772497296
 20
810.0621745333287
 30
0.0
 10
1748.474894691794
 20
810.1225290798983
 30
0.0
 10
1748.59167194984
 20
810.1645561761173
 30
0.0
 10
1748.690824117507
 20
810.189171780981
 30
0.0
 10
1748.732029888113
 20
810.1868129651691
 30
0.0
 10
1748.752650441029
 20
810.1856325458841
 30
0.0
  0
SPLINE
  5
1CF
330
1F
100
AcDbEntity
  8
0
  6
Continuous
 62
     7
370
    15
100
AcDbSpline
210
0.0
220
0.0
230
1.0
 70
     8
 71
     3
 72
    15
 73
    11
 74
     0
 42
0.000000001
 43
0.00000001
 40
0.0
 40
0.0
 40
0.0
 40
0.0
 40
0.1010712209657868
 40
0.2005080375238732
 40
0.299423481388249
 40
0.3989480780981908
 40
0.5001919491903837
 40
0.6675459720672272
 40
0.8324050451740893
 40
1.0
 40
1.0
 40
1.0
 40
1.0
 10
1746.386267427892
 20
808.5407736897029
 30
0.0
 10
1746.414415340622
 20
808.5550860618449
 30
0.0
 10
1746.470255991285
 20
808.5834793633517
 30
0.0
 10
1746.554043435872
 20
808.6294790088594
 30
0.0
 10
1746.636513585591
 20
808.6773274312965
 30
0.0
 10
1746.717716081098
 20
808.7272847057972
 30
0.0
 10
1746.814232803127
 20
808.790043822252
 30
0.0
 10
1746.921422808904
 20
808.8651142770699
 30
0.0
 10
1747.032561917164
 20
808.9512045247174
 30
0.0
 10
1747.09164226829
 20
809.0049970705016
 30
0.0
 10
1747.1214255404
 20
809.0321146823313
 30
0.0
  0
SPLINE
  5
1D0
330
1F
100
AcDbEntity
  8
0
  6
Continuous
 62
     7
370
    15
100
AcDbSpline
210
0.0
220
0.0
230
1.0
 70
     8
 71
     3
 72
    17
 73
    13
 74
     0
 42
0.000000001
 43
0.00000001
 40
0.0
 40
0.0
 40
0.0
 40
0.0
 40
0.0630669778109486
 40
0.1250913696752933
 40
0.1871698534388032
 40
0.2503962922995843
 40
0.3751123327320302
 40
0.5002614739442546
 40
0.6249776657200202
 40
0.7501269340839806
 40
0.8749563300888222
 40
1.0
 40
1.0
 40
1.0
 40
1.0
 10
1744.605498316457
 20
807.4138943214158
 30
0.0
 10
1744.597347304111
 20
807.4159704250181
 30
0.0
 10
1744.58118002713
 20
807.4200883113069
 30
0.0
 10
1744.567504508527
 20
807.4329052868973
 30
0.0
 10
1744.56219882284
 20
807.4505557594421
 30
0.0
 10
1744.56697434758
 20
807.4805007999558
 30
0.0
 10
1744.593782770711
 20
807.5285726325357
 30
0.0
 10
1744.660182168038
 20
807.600194022026
 30
0.0
 10
1744.753505816844
 20
807.6801975579954
 30
0.0
 10
1744.869602758503
 20
807.7632505951713
 30
0.0
 10
1744.999314299472
 20
807.8449099606028
 30
0.0
 10
1745.088633582961
 20
807.8915177589307
 30
0.0
 10
1745.133331521735
 20
807.9148416419115
 30
0.0
  0
SPLINE
  5
1D1
330
1F
100
AcDbEntity
  8
0
  6
Continuous
 62
     7
370
    15
100
AcDbSpline
210
0.0
220
0.0
230
1.0
 70
     8
 71
     3
 72
    15
 73
    11
 74
     0
 42
0.000000001
 43
0.00000001
 40
0.0
 40
0.0
 40
0.0
 40
0.0
 40
0.1010712209657555
 40
0.2005080375242275
 40
0.2994234813882045
 40
0.3989480780983072
 40
0.5001919491903628
 40
0.6675459720671223
 40
0.8324050451738787
 40
1.0
 40
1.0
 40
1.0
 40
1.0
 10
1745.01217772805
 20
807.0303042064219
 30
0.0
 10
1745.028396532588
 20
807.0461134559006
 30
0.0
 10
1745.060571870313
 20
807.0774763063483
 30
0.0
 10
1745.099296009604
 20
807.1211167914945
 30
0.0
 10
1745.13017597524
 20
807.1614822095975
 30
0.0
 10
1745.152579745848
 20
807.1983640565751
 30
0.0
 10
1745.169699569302
 20
807.2387990003398
 30
0.0
 10
1745.173602780985
 20
807.2782988416527
 30
0.0
 10
1745.154429937116
 20
807.310945404941
 30
0.0
 10
1745.121654175141
 20
807.3202190671536
 30
0.0
 10
1745.105131432489
 20
807.3248940563824
 30
0.0
  0
SPLINE
  5
1D2
330
1F
100
AcDbEntity
  8
0
  6
Continuous
 62
     7
370
    15
100
AcDbSpline
210
0.0
220
0.0
230
1.0
 70
     8
 71
     3
 72
    13
 73
     9
 74
     0
 42
0.000000001
 43
0.00000001
 40
0.0
 40
0.0
 40
0.0
 40
0.0
 40
0.099345382206677
 40
0.200618505819114
 40
0.4001144632692311
 40
0.6003031698117219
 40
0.7999802086898063
 40
1.0
 40
1.0
 40
1.0
 40
1.0
 10
1744.267811568392
 20
806.128788987033
 30
0.0
 10
1744.254787265429
 20
806.127317144871
 30
0.0
 10
1744.228485930209
 20
806.1243449002751
 30
0.0
 10
1744.188609745813
 20
806.1275618549901
 30
0.0
 10
1744.15672384334
 20
806.1437838849424
 30
0.0
 10
1744.156146271524
 20
806.1848698358069
 30
0.0
 10
1744.186678632726
 20
806.2418978194477
 30
0.0
 10
1744.234795748886
 20
806.290866538149
 30
0.0
 10
1744.258874937925
 20
806.3153718935971
 30
0.0
  0
SPLINE
  5
1D3
330
1F
100
AcDbEntity
  8
0
  6
Continuous
 62
     7
370
    15
100
AcDbSpline
210
0.0
220
0.0
230
1.0
 70
     8
 71
     3
 72
    17
 73
    13
 74
     0
 42
0.000000001
 43
0.00000001
 40
0.0
 40
0.0
 40
0.0
 40
0.0
 40
0.0630669778109487
 40
0.1250913696752936
 40
0.1871698534389927
 40
0.2503962922996086
 40
0.375112332732253
 40
0.5002614739442944
 40
0.624977665719998
 40
0.7501269340840278
 40
0.8749563300888219
 40
1.0
 40
1.0
 40
1.0
 40
1.0
 10
1751.150889397982
 20
809.7584312737239
 30
0.0
 10
1751.159040410329
 20
809.7563551701217
 30
0.0
 10
1751.17520768731
 20
809.7522372838331
 30
0.0
 10
1751.18888320591
 20
809.7394203082418
 30
0.0
 10
1751.1941888916
 20
809.7217698356983
 30
0.0
 10
1751.189413366859
 20
809.6918247951836
 30
0.0
 10
1751.162604943728
 20
809.643752962604
 30
0.0
 10
1751.096205546401
 20
809.5721315731137
 30
0.0
 10
1751.002881897595
 20
809.4921280371442
 30
0.0
 10
1750.886784955936
 20
809.4090749999687
 30
0.0
 10
1750.757073414967
 20
809.3274156345369
 30
0.0
 10
1750.667754131478
 20
809.280807836209
 30
0.0
 10
1750.623056192704
 20
809.2574839532282
 30
0.0
  0
SPLINE
  5
1D4
330
1F
100
AcDbEntity
  8
0
  6
Continuous
 62
     7
370
    15
100
AcDbSpline
210
0.0
220
0.0
230
1.0
 70
     8
 71
     3
 72
    12
 73
     8
 74
     0
 42
0.000000001
 43
0.00000001
 40
0.0
 40
0.0
 40
0.0
 40
0.0
 40
0.2020749854388575
 40
0.4008676308403338
 40
0.5986127766040552
 40
0.7975805633498714
 40
0.9999999999999999
 40
0.9999999999999999
 40
0.9999999999999999
 40
0.9999999999999999
 10
1750.59119377243
 20
809.9415023518417
 30
0.0
 10
1750.58870479153
 20
809.9315038225009
 30
0.0
 10
1750.583767258691
 20
809.9116691717153
 30
0.0
 10
1750.587377152392
 20
809.8878028498967
 30
0.0
 10
1750.599451004273
 20
809.868895559319
 30
0.0
 10
1750.620043377753
 20
809.8548678194019
 30
0.0
 10
1750.640792504549
 20
809.8499244687602
 30
0.0
 10
1750.65125628195
 20
809.8474315387573
 30
0.0
  0
SPLINE
  5
1D5
330
1F
100
AcDbEntity
  8
0
  6
Continuous
 62
     7
370
    15
100
AcDbSpline
210
0.0
220
0.0
230
1.0
 70
     8
 71
     3
 72
    13
 73
     9
 74
     0
 42
0.000000001
 43
0.00000001
 40
0.0
 40
0.0
 40
0.0
 40
0.0
 40
0.1256461644431166
 40
0.2494913428866962
 40
0.3737157349737619
 40
0.500479975738972
 40
0.7494946228602958
 40
0.9999999999999999
 40
0.9999999999999999
 40
0.9999999999999999
 40
0.9999999999999999
 10
1751.556760876531
 20
811.0447233982969
 30
0.0
 10
1751.564880822602
 20
811.0426514736878
 30
0.0
 10
1751.581004325125
 20
811.0385373230064
 30
0.0
 10
1751.594629774173
 20
811.0257168415163
 30
0.0
 10
1751.599983951502
 20
811.0080652050272
 30
0.0
 10
1751.595192075802
 20
810.9781389407378
 30
0.0
 10
1751.569867184495
 20
810.9305104575307
 30
0.0
 10
1751.521678849056
 20
810.8815213533388
 30
0.0
 10
1751.497512776514
 20
810.8569537015425
 30
0.0
  0
SPLINE
  5
1D6
330
1F
100
AcDbEntity
  8
0
  6
Continuous
 62
     7
370
    15
100
AcDbSpline
210
0.0
220
0.0
230
1.0
 70
     8
 71
     3
 72
    14
 73
    10
 74
     0
 42
0.000000001
 43
0.00000001
 40
0.0
 40
0.0
 40
0.0
 40
0.0
 40
0.25
 40
0.25
 40
0.4999999999999999
 40
0.4999999999999999
 40
0.7499999999999999
 40
0.7499999999999999
 40
0.9999999999999999
 40
0.9999999999999999
 40
0.9999999999999999
 40
0.9999999999999999
 10
1752.051170345486
 20
811.3751606676515
 30
0.0
 10
1752.528549455093
 20
811.2901245363121
 30
0.0
 10
1752.546738614972
 20
810.9147100412224
 30
0.0
 10
1751.656729125817
 20
809.7484032757038
 30
0.0
 10
1750.78491579152
 20
809.0051918887488
 30
0.0
 10
1748.571494082101
 20
807.5258573057438
 30
0.0
 10
1747.320374681002
 20
806.8502121776913
 30
0.0
 10
1745.080133169447
 20
805.9244239126367
 30
0.0
 10
1744.18259647856
 20
805.7121287961489
 30
0.0
 10
1743.705217368953
 20
805.7971649274883
 30
0.0
  0
LWPOLYLINE
  5
1D8
330
1F
100
AcDbEntity
  8
0
  6
Continuous
 62
     7
370
    15
100
AcDbPolyline
 90
        3
 70
   128
 43
0.0
 10
1747.8747283305
 20
809.7470469952
 10
1747.8861632336
 20
809.7520552808
 10
1747.8949695204
 20
809.7586874393
  0
LWPOLYLINE
  5
1DA
330
1F
100
AcDbEntity
  8
0
  6
Continuous
 62
     7
370
    15
100
AcDbPolyline
 90
        3
 70
   128
 43
0.0
 10
1747.1214255404
 20
809.0321146823
 10
1747.1328604435
 20
809.037122968
 10
1747.1416667302
 20
809.0437551265
  0
LWPOLYLINE
  5
1DE
330
1F
100
AcDbEntity
  8
0
  6
Continuous
 62
     7
370
    15
100
AcDbPolyline
 90
        3
 70
   128
 43
0.0
 10
1745.1333315217
 20
807.9148416419
 10
1745.1308312371
 20
807.9105363815
 10
1745.1294242183
 20
807.9095579147
  0
LWPOLYLINE
  5
1DF
330
1F
100
AcDbEntity
  8
0
  6
Continuous
 62
     7
370
    15
100
AcDbPolyline
 90
        3
 70
   128
 43
0.0
 10
1746.3862674279
 20
808.5407736897
 10
1746.3837671432
 20
808.5364684292
 10
1746.3823601244
 20
808.5354899625
  0
LWPOLYLINE
  5
1E1
330
1F
100
AcDbEntity
  8
0
  6
Continuous
 62
     7
370
    15
100
AcDbPolyline
 90
        3
 70
   128
 43
0.0
 10
1749.8944879651
 20
810.2933834235
 10
1749.8919876805
 20
810.2890781631
 10
1749.8905806617
 20
810.2880996963
  0
LWPOLYLINE
  5
1E2
330
1F
100
AcDbEntity
  8
0
  6
Continuous
 62
     7
370
    15
100
AcDbPolyline
 90
        3
 70
   128
 43
0.0
 10
1751.1474238713
 20
810.9193154713
 10
1751.1449235866
 20
810.9150102109
 10
1751.1435165678
 20
810.9140317441
  0
LWPOLYLINE
  5
1E6
330
1F
100
AcDbEntity
  8
0
  6
Continuous
 62
     7
370
    15
100
AcDbPolyline
 90
        3
 70
   128
 43
0.0
 10
1745.0121777281
 20
807.0303042064
 10
1745.0236126311
 20
807.0353124921
 10
1745.0324189179
 20
807.0419446506
  0
LWPOLYLINE
  5
1E7
330
1F
100
AcDbEntity
  8
0
  6
Continuous
 62
     7
370
    15
100
AcDbPolyline
 90
        3
 70
   128
 43
0.0
 10
1750.5320668179
 20
809.8641693734
 10
1750.4931915471
 20
809.8769904164
 10
1750.4734994321
 20
809.8926930638
  0
SPLINE
  5
1E9
330
1F
100
AcDbEntity
  8
0
  6
Continuous
 62
     7
370
    15
100
AcDbSpline
210
0.0
220
0.0
230
1.0
 70
     8
 71
     3
 72
    15
 73
    11
 74
     0
 42
0.000000001
 43
0.00000001
 40
0.0
 40
0.0
 40
0.0
 40
0.0
 40
0.3926990816987241
 40
0.7853981633974483
 40
1.178097245096172
 40
1.570796326794897
 40
1.963495408493621
 40
2.356194490192345
 40
2.748893571891069
 40
3.141592653589793
 40
3.141592653589793
 40
3.141592653589793
 40
3.141592653589793
 10
1329.392912697253
 20
301.3971034280966
 30
0.0
 10
1322.848808740336
 20
312.7318239714886
 30
0.0
 10
1314.269833020249
 20
338.0046714791703
 30
0.0
 10
1316.888172948518
 20
377.9528191022192
 30
0.0
 10
1334.594697866418
 20
413.8580997420448
 30
0.0
 10
1364.693749865248
 20
440.2542599034133
 30
0.0
 10
1402.60302112677
 20
453.1227234835443
 30
0.0
 10
1442.551168749819
 20
450.5043835552752
 30
0.0
 10
1478.456449389645
 20
432.797858637375
 30
0.0
 10
1496.053889497224
 20
412.7318239714886
 30
0.0
 10
1502.59799345414
 20
401.3971034280966
 30
0.0
  0
SPLINE
  5
1EA
330
1F
100
AcDbEntity
  8
0
  6
Continuous
 62
     7
370
    15
100
AcDbSpline
210
0.0
220
0.0
230
1.0
 70
     8
 71
     3
 72
    15
 73
    11
 74
     0
 42
0.000000001
 43
0.00000001
 40
3.141592653589793
 40
3.141592653589793
 40
3.141592653589793
 40
3.141592653589793
 40
3.534291735288518
 40
3.926990816987241
 40
4.319689898685965
 40
4.71238898038469
 40
5.105088062083414
 40
5.497787143782138
 40
5.890486225480862
 40
6.283185307179586
 40
6.283185307179586
 40
6.283185307179586
 40
6.283185307179586
 10
1502.59799345414
 20
401.3971034280966
 30
0.0
 10
1509.142097411057
 20
390.0623828847046
 30
0.0
 10
1517.721073131144
 20
364.7895353770227
 30
0.0
 10
1515.102733202875
 20
324.8413877539739
 30
0.0
 10
1497.396208284975
 20
288.9361071141483
 30
0.0
 10
1467.297156286146
 20
262.5399469527797
 30
0.0
 10
1429.387885024623
 20
249.6714833726489
 30
0.0
 10
1389.439737401574
 20
252.2898233009178
 30
0.0
 10
1353.534456761748
 20
269.9963482188182
 30
0.0
 10
1335.937016654169
 20
290.0623828847045
 30
0.0
 10
1329.392912697253
 20
301.3971034280966
 30
0.0
  0
CIRCLE
  5
1EB
330
1F
100
AcDbEntity
  8
0
  6
Continuous
 62
     7
370
    15
100
AcDbCircle
 10
1415.9954530757
 20
351.3971034281
 30
0.0
 40
69.99999999999949
  0
SPLINE
  5
1EC
330
1F
100
AcDbEntity
  8
0
  6
Continuous
 62
     7
370
    15
100
AcDbSpline
210
0.0
220
0.0
230
1.0
 70
     8
 71
     3
 72
    15
 73
    11
 74
     0
 42
0.000000001
 43
0.00000001
 40
0.0
 40
0.0
 40
0.0
 40
0.0
 40
0.3926990816987241
 40
0.7853981633974483
 40
1.178097245096172
 40
1.570796326794897
 40
1.963495408493621
 40
2.356194490192345
 40
2.748893571891069
 40
3.141592653589793
 40
3.141592653589793
 40
3.141592653589793
 40
3.141592653589793
 10
790.05019517037
 20
-50.40707856478774
 30
0.0
 10
783.5060912134535
 20
-39.07235802139571
 30
0.0
 10
774.9271154933663
 20
-13.7995105137139
 30
0.0
 10
777.5454554216352
 20
26.14863710933485
 30
0.0
 10
795.2519803395356
 20
62.05391774916051
 30
0.0
 10
825.3510323383651
 20
88.450077910529
 30
0.0
 10
863.260303599888
 20
101.3185414906599
 30
0.0
 10
903.2084512229367
 20
98.70020156239084
 30
0.0
 10
939.1137318627623
 20
80.99367664449049
 30
0.0
 10
956.7111719703413
 20
60.92764197860413
 30
0.0
 10
963.2552759272579
 20
49.59292143521207
 30
0.0
  0
SPLINE
  5
1ED
330
1F
100
AcDbEntity
  8
0
  6
Continuous
 62
     7
370
    15
100
AcDbSpline
210
0.0
220
0.0
230
1.0
 70
     8
 71
     3
 72
    15
 73
    11
 74
     0
 42
0.000000001
 43
0.00000001
 40
3.141592653589793
 40
3.141592653589793
 40
3.141592653589793
 40
3.141592653589793
 40
3.534291735288518
 40
3.926990816987241
 40
4.319689898685965
 40
4.71238898038469
 40
5.105088062083414
 40
5.497787143782138
 40
5.890486225480862
 40
6.283185307179586
 40
6.283185307179586
 40
6.283185307179586
 40
6.283185307179586
 10
963.2552759272579
 20
49.59292143521206
 30
0.0
 10
969.7993798841744
 20
38.25820089182
 30
0.0
 10
978.3783556042615
 20
12.98535338413817
 30
0.0
 10
975.7600156759926
 20
-26.96279423891057
 30
0.0
 10
958.0534907580922
 20
-62.86807487873617
 30
0.0
 10
927.9544387592626
 20
-89.26423504010475
 30
0.0
 10
890.0451674977398
 20
-102.1326986202355
 30
0.0
 10
850.0970198746912
 20
-99.51435869196659
 30
0.0
 10
814.1917392348654
 20
-81.80783377406615
 30
0.0
 10
796.5942991272866
 20
-61.74179910817978
 30
0.0
 10
790.05019517037
 20
-50.40707856478774
 30
0.0
  0
CIRCLE
  5
1EE
330
1F
100
AcDbEntity
  8
0
  6
Continuous
 62
     7
370
    15
100
AcDbCircle
 10
876.6527355488
 20
-0.4070785648
 30
0.0
 40
69.99999999999947
  0
SPLINE
  5
1EF
330
1F
100
AcDbEntity
  8
0
  6
Continuous
 62
     7
370
    15
100
AcDbSpline
210
0.0
220
0.0
230
1.0
 70
     8
 71
     3
 72
    21
 73
    17
 74
     0
 42
0.000000001
 43
0.00000001
 40
3.141592653589793
 40
3.141592653589793
 40
3.141592653589793
 40
3.141592653589793
 40
3.534291735288518
 40
3.730641276137879
 40
3.926990816987241
 40
4.123340357836604
 40
4.319689898685965
 40
4.516039439535327
 40
4.71238898038469
 40
4.908738521234052
 40
5.105088062083414
 40
5.301437602932776
 40
5.497787143782138
 40
5.6941366846315
 40
5.890486225480862
 40
6.283185307179586
 40
6.283185307179586
 40
6.283185307179586
 40
6.283185307179586
 10
1229.05654591208
 20
310.7883833492733
 30
0.0
 10
1244.160310946187
 20
302.0682205410549
 30
0.0
 10
1265.249080741408
 20
286.2740644461918
 30
0.0
 10
1287.735809148468
 20
261.3289898705721
 30
0.0
 10
1301.21677198378
 20
241.0114896063815
 30
0.0
 10
1310.695360707202
 20
219.3458446179929
 30
0.0
 10
1315.372116492567
 20
196.5688416674241
 30
0.0
 10
1314.098649736299
 20
173.2417704624319
 30
0.0
 10
1305.746567059987
 20
151.0413251574467
 30
0.0
 10
1290.696458788699
 20
132.7079867327604
 30
0.0
 10
1271.131355907421
 20
119.941596568461
 30
0.0
 10
1249.067514837474
 20
112.6032844105978
 30
0.0
 10
1225.565221526443
 20
109.9791605429112
 30
0.0
 10
1201.229268738601
 20
111.4952666936697
 30
0.0
 10
1168.382836253287
 20
118.4968074543747
 30
0.0
 10
1144.160310946188
 20
128.8631397841665
 30
0.0
 10
1129.056545912081
 20
137.5833025923848
 30
0.0
  0
SPLINE
  5
1F0
330
1F
100
AcDbEntity
  8
0
  6
Continuous
 62
     7
370
    15
100
AcDbSpline
210
0.0
220
0.0
230
1.0
 70
     8
 71
     3
 72
    58
 73
    54
 74
     0
 42
0.000000001
 43
0.00000001
 40
0.0
 40
0.0
 40
0.0
 40
0.0
 40
0.0624999999999991
 40
0.0624999999999991
 40
0.1249999999999982
 40
0.1249999999999982
 40
0.1874999999999973
 40
0.1874999999999973
 40
0.2187499999999971
 40
0.2187499999999971
 40
0.2499999999999968
 40
0.2499999999999968
 40
0.2812499999999966
 40
0.2812499999999966
 40
0.3124999999999964
 40
0.3124999999999964
 40
0.3437499999999962
 40
0.3437499999999962
 40
0.3749999999999959
 40
0.3749999999999959
 40
0.4062499999999957
 40
0.4062499999999957
 40
0.4374999999999954
 40
0.4374999999999954
 40
0.4687499999999952
 40
0.4687499999999952
 40
0.499999999999995
 40
0.499999999999995
 40
0.5312499999999948
 40
0.5312499999999948
 40
0.5624999999999946
 40
0.5624999999999946
 40
0.5937499999999943
 40
0.5937499999999943
 40
0.6249999999999941
 40
0.6249999999999941
 40
0.6562499999999939
 40
0.6562499999999939
 40
0.6874999999999937
 40
0.6874999999999937
 40
0.7187499999999934
 40
0.7187499999999934
 40
0.7499999999999931
 40
0.7499999999999931
 40
0.7812499999999929
 40
0.7812499999999929
 40
0.8124999999999927
 40
0.8124999999999927
 40
0.8749999999999951
 40
0.8749999999999951
 40
0.9374999999999976
 40
0.9374999999999976
 40
1.0
 40
1.0
 40
1.0
 40
1.0
 10
1278.649467347291
 20
166.6858429708297
 30
0.0
 10
1280.107800680625
 20
169.2117503985344
 30
0.0
 10
1281.400800022205
 20
172.0456992849851
 30
0.0
 10
1283.427463496533
 20
178.4379631871815
 30
0.0
 10
1284.161004783315
 20
181.9974391711747
 30
0.0
 10
1284.77049619645
 20
189.922442598835
 30
0.0
 10
1284.645309318708
 20
194.2897314063568
 30
0.0
 10
1283.550372885456
 20
201.4527080620244
 30
0.0
 10
1283.033884529968
 20
203.9416384520788
 30
0.0
 10
1281.653458768025
 20
209.1114195747995
 30
0.0
 10
1280.78940815562
 20
211.7923291760452
 30
0.0
 10
1278.672357964878
 20
217.3254906835071
 30
0.0
 10
1277.419221497309
 20
220.1777842255553
 30
0.0
 10
1274.489374598899
 20
226.0214958199502
 30
0.0
 10
1272.812514859252
 20
229.0129247464677
 30
0.0
 10
1269.011816112583
 20
235.0902078957421
 30
0.0
 10
1266.887834431857
 20
238.1760290210929
 30
0.0
 10
1262.185167923504
 20
244.3851998329818
 30
0.0
 10
1259.606372427216
 20
247.5084634096048
 30
0.0
 10
1254.005939571261
 20
253.7251841760144
 30
0.0
 10
1250.984250741601
 20
256.8185017398311
 30
0.0
 10
1244.532014348826
 20
262.9009519862277
 30
0.0
 10
1241.101496387915
 20
265.8899028025075
 30
0.0
 10
1233.88811060435
 20
271.6870763911321
 30
0.0
 10
1230.105362177584
 20
274.4950982955605
 30
0.0
 10
1222.264332649897
 20
279.8575484052595
 30
0.0
 10
1218.206250971881
 20
282.4117879024066
 30
0.0
 10
1209.906840852279
 20
287.2034545690734
 30
0.0
 10
1205.665763721392
 20
289.4407366442941
 30
0.0
 10
1197.101230936022
 20
293.5500423522454
 30
0.0
 10
1192.778038419022
 20
295.4219876337353
 30
0.0
 10
1184.150845929342
 20
298.7703761752882
 30
0.0
 10
1179.847079611326
 20
300.2468164694359
 30
0.0
 10
1171.353404984304
 20
302.7933919736028
 30
0.0
 10
1167.163668977236
 20
303.8635924805121
 30
0.0
 10
1158.979614437314
 20
305.605349222753
 30
0.0
 10
1154.985391089099
 20
306.2770198453922
 30
0.0
 10
1147.25675817539
 20
307.2450631012076
 30
0.0
 10
1143.522367848939
 20
307.5415746312138
 30
0.0
 10
1136.358936882342
 20
307.7944347233229
 30
0.0
 10
1132.929853568538
 20
307.7509233931822
 30
0.0
 10
1126.404127426198
 20
307.3663894392064
 30
0.0
 10
1123.30740052595
 20
307.0254906835061
 30
0.0
 10
1117.457017001874
 20
306.0923291760442
 30
0.0
 10
1114.703255875743
 20
305.5001641559195
 30
0.0
 10
1109.535881210491
 20
304.1107573724403
 30
0.0
 10
1107.122160086708
 20
303.3135842140241
 30
0.0
 10
1100.371372119559
 20
300.6803386529154
 30
0.0
 10
1096.52659562771
 20
298.6051092655004
 30
0.0
 10
1089.968087040845
 20
294.1147725045067
 30
0.0
 10
1087.252261057938
 20
291.6997691234321
 30
0.0
 10
1082.729729868106
 20
286.7484951186436
 30
0.0
 10
1080.921957810203
 20
284.211750398533
 30
0.0
 10
1079.46362447687
 20
281.6858429708284
 30
0.0
  0
SPLINE
  5
1F1
330
1F
100
AcDbEntity
  8
0
  6
Continuous
 62
     7
370
    15
100
AcDbSpline
210
0.0
220
0.0
230
1.0
 70
     8
 71
     3
 72
    21
 73
    17
 74
     0
 42
0.000000001
 43
0.00000001
 40
0.0
 40
0.0
 40
0.0
 40
0.0
 40
0.3926990816987241
 40
0.589048622548086
 40
0.7853981633974483
 40
0.9817477042468106
 40
1.178097245096172
 40
1.374446785945534
 40
1.570796326794897
 40
1.767145867644259
 40
1.963495408493621
 40
2.159844949342983
 40
2.356194490192345
 40
2.552544031041707
 40
2.748893571891069
 40
3.141592653589793
 40
3.141592653589793
 40
3.141592653589793
 40
3.141592653589793
 10
1129.056545912085
 20
137.5833025923825
 30
0.0
 10
1113.952780877977
 20
146.3034654006012
 30
0.0
 10
1092.864011082754
 20
162.0976214954651
 30
0.0
 10
1070.377282675693
 20
187.0426960710859
 30
0.0
 10
1056.896319840381
 20
207.3601963352765
 30
0.0
 10
1047.417731116959
 20
229.0258413236651
 30
0.0
 10
1042.740975331594
 20
251.8028442742339
 30
0.0
 10
1044.014442087862
 20
275.1299154792262
 30
0.0
 10
1052.366524764174
 20
297.3303607842113
 30
0.0
 10
1067.416633035462
 20
315.6636992088976
 30
0.0
 10
1086.981735916739
 20
328.4300893731971
 30
0.0
 10
1109.045576986687
 20
335.7684015310602
 30
0.0
 10
1132.547870297718
 20
338.3925253987468
 30
0.0
 10
1156.88382308556
 20
336.8764192479883
 30
0.0
 10
1189.730255570874
 20
329.8748784872833
 30
0.0
 10
1213.952780877973
 20
319.5085461574915
 30
0.0
 10
1229.05654591208
 20
310.7883833492733
 30
0.0
  0
SPLINE
  5
1F2
330
1F
100
AcDbEntity
  8
0
  6
Continuous
 62
     7
370
    15
100
AcDbSpline
210
0.0
220
0.0
230
1.0
 70
     8
 71
     3
 72
    58
 73
    54
 74
     0
 42
0.000000001
 43
0.00000001
 40
0.0
 40
0.0
 40
0.0
 40
0.0
 40
0.0625000000000009
 40
0.0625000000000009
 40
0.1250000000000017
 40
0.1250000000000017
 40
0.1875000000000026
 40
0.1875000000000026
 40
0.2187500000000028
 40
0.2187500000000028
 40
0.250000000000003
 40
0.250000000000003
 40
0.2812500000000032
 40
0.2812500000000032
 40
0.3125000000000034
 40
0.3125000000000034
 40
0.3437500000000036
 40
0.3437500000000036
 40
0.3750000000000038
 40
0.3750000000000038
 40
0.4062500000000041
 40
0.4062500000000041
 40
0.4375000000000042
 40
0.4375000000000042
 40
0.4687500000000044
 40
0.4687500000000044
 40
0.5000000000000047
 40
0.5000000000000047
 40
0.5312500000000049
 40
0.5312500000000049
 40
0.5625000000000051
 40
0.5625000000000051
 40
0.5937500000000053
 40
0.5937500000000053
 40
0.6250000000000054
 40
0.6250000000000054
 40
0.6562500000000057
 40
0.6562500000000057
 40
0.6875000000000059
 40
0.6875000000000059
 40
0.7187500000000061
 40
0.7187500000000061
 40
0.7500000000000063
 40
0.7500000000000063
 40
0.7812500000000066
 40
0.7812500000000066
 40
0.8125000000000068
 40
0.8125000000000068
 40
0.8750000000000044
 40
0.8750000000000044
 40
0.9375000000000022
 40
0.9375000000000022
 40
1.0
 40
1.0
 40
1.0
 40
1.0
 10
1079.46362447687
 20
281.6858429708283
 30
0.0
 10
1078.005291143536
 20
279.1599355431238
 30
0.0
 10
1076.712291801957
 20
276.3259866566729
 30
0.0
 10
1074.685628327628
 20
269.9337227544764
 30
0.0
 10
1073.952087040846
 20
266.3742467704834
 30
0.0
 10
1073.342595627711
 20
258.4492433428231
 30
0.0
 10
1073.467782505454
 20
254.0819545353012
 30
0.0
 10
1074.562718938705
 20
246.9189778796337
 30
0.0
 10
1075.079207294194
 20
244.4300474895792
 30
0.0
 10
1076.459633056137
 20
239.2602663668585
 30
0.0
 10
1077.323683668541
 20
236.5793567656128
 30
0.0
 10
1079.440733859283
 20
231.0461952581509
 30
0.0
 10
1080.693870326853
 20
228.1939017161029
 30
0.0
 10
1083.623717225262
 20
222.3501901217079
 30
0.0
 10
1085.300576964909
 20
219.3587611951903
 30
0.0
 10
1089.101275711578
 20
213.2814780459159
 30
0.0
 10
1091.225257392304
 20
210.1956569205652
 30
0.0
 10
1095.927923900657
 20
203.9864861086763
 30
0.0
 10
1098.506719396946
 20
200.8632225320533
 30
0.0
 10
1104.107152252901
 20
194.6465017656436
 30
0.0
 10
1107.128841082561
 20
191.5531842018272
 30
0.0
 10
1113.581077475335
 20
185.4707339554304
 30
0.0
 10
1117.011595436246
 20
182.4817831391505
 30
0.0
 10
1124.224981219812
 20
176.6846095505259
 30
0.0
 10
1128.007729646577
 20
173.8765876460976
 30
0.0
 10
1135.848759174265
 20
168.5141375363986
 30
0.0
 10
1139.90684085228
 20
165.9598980392514
 30
0.0
 10
1148.206250971882
 20
161.1682313725848
 30
0.0
 10
1152.447328102769
 20
158.930949297364
 30
0.0
 10
1161.011860888139
 20
154.8216435894126
 30
0.0
 10
1165.335053405139
 20
152.9496983079227
 30
0.0
 10
1173.96224589482
 20
149.6013097663699
 30
0.0
 10
1178.266012212835
 20
148.1248694722222
 30
0.0
 10
1186.759686839857
 20
145.5782939680551
 30
0.0
 10
1190.949422846925
 20
144.5080934611459
 30
0.0
 10
1199.133477386847
 20
142.7663367189052
 30
0.0
 10
1203.127700735062
 20
142.0946660962658
 30
0.0
 10
1210.856333648771
 20
141.1266228404504
 30
0.0
 10
1214.590723975223
 20
140.8301113104443
 30
0.0
 10
1221.75415494182
 20
140.5772512183352
 30
0.0
 10
1225.183238255624
 20
140.6207625484759
 30
0.0
 10
1231.708964397963
 20
141.0052965024516
 30
0.0
 10
1234.805691298212
 20
141.346195258152
 30
0.0
 10
1240.656074822288
 20
142.279356765614
 30
0.0
 10
1243.409835948419
 20
142.8715217857387
 30
0.0
 10
1248.577210613672
 20
144.2609285692179
 30
0.0
 10
1250.990931737454
 20
145.0581017276339
 30
0.0
 10
1257.741719704602
 20
147.6913472887427
 30
0.0
 10
1261.586496196451
 20
149.7665766761578
 30
0.0
 10
1268.145004783316
 20
154.2569134371514
 30
0.0
 10
1270.860830766223
 20
156.6719168182259
 30
0.0
 10
1275.383361956056
 20
161.6231908230147
 30
0.0
 10
1277.191134013958
 20
164.1599355431252
 30
0.0
 10
1278.649467347292
 20
166.6858429708297
 30
0.0
  0
CIRCLE
  5
1F3
330
1F
100
AcDbEntity
  8
0
  6
Continuous
 62
     7
370
    15
100
AcDbCircle
 10
1716.0367244586
 20
-97.0
 30
0.0
 40
4.999999999999902
  0
SPLINE
  5
1F4
330
1F
100
AcDbEntity
  8
0
  6
Continuous
 62
     7
370
    15
100
AcDbSpline
210
0.0
220
0.0
230
1.0
 70
     8
 71
     3
 72
    22
 73
    18
 74
     0
 42
0.000000001
 43
0.00000001
 40
0.0
 40
0.0
 40
0.0
 40
0.0
 40
0.1249999999999998
 40
0.1249999999999998
 40
0.2499999999999997
 40
0.2499999999999997
 40
0.3749999999999995
 40
0.3749999999999995
 40
0.4999999999999996
 40
0.4999999999999996
 40
0.6249999999999996
 40
0.6249999999999996
 40
0.7499999999999997
 40
0.7499999999999997
 40
0.8749999999999998
 40
0.8749999999999998
 40
1.0
 40
1.0
 40
1.0
 40
1.0
 10
1309.925245062168
 20
-249.7429214352096
 30
0.0
 10
1316.489240255823
 20
-238.373748259162
 30
0.0
 10
1320.791270061625
 20
-225.7003771245432
 30
0.0
 10
1324.218363255139
 20
-199.6690199052184
 30
0.0
 10
1323.343031375541
 20
-186.3140361738032
 30
0.0
 10
1316.547483503224
 20
-160.9527062490503
 30
0.0
 10
1310.628051281991
 20
-148.9492851307178
 30
0.0
 10
1294.644422905609
 20
-128.1190150805519
 30
0.0
 10
1284.582070238637
 20
-119.2945686292849
 30
0.0
 10
1261.843723886542
 20
-106.1665782419758
 30
0.0
 10
1249.170352751923
 20
-101.8645484361732
 30
0.0
 10
1223.138995532598
 20
-98.4374552426594
 30
0.0
 10
1209.784011801183
 20
-99.31278712225752
 30
0.0
 10
1184.42268187643
 20
-106.1083349945743
 30
0.0
 10
1172.419260758097
 20
-112.0277672158075
 30
0.0
 10
1151.588990707932
 20
-128.0113955921895
 30
0.0
 10
1142.764544256664
 20
-138.0737482591619
 30
0.0
 10
1136.20054906301
 20
-149.4429214352094
 30
0.0
  0
SPLINE
  5
1F5
330
1F
100
AcDbEntity
  8
0
  6
Continuous
 62
     7
370
    15
100
AcDbSpline
210
0.0
220
0.0
230
1.0
 70
     8
 71
     3
 72
    22
 73
    18
 74
     0
 42
0.000000001
 43
0.00000001
 40
0.0
 40
0.0
 40
0.0
 40
0.0
 40
0.1249999999999999
 40
0.1249999999999999
 40
0.2499999999999998
 40
0.2499999999999998
 40
0.3749999999999998
 40
0.3749999999999998
 40
0.4999999999999997
 40
0.4999999999999997
 40
0.6249999999999996
 40
0.6249999999999996
 40
0.7499999999999997
 40
0.7499999999999997
 40
0.8749999999999999
 40
0.8749999999999999
 40
1.0
 40
1.0
 40
1.0
 40
1.0
 10
1136.20054906301
 20
-149.4429214352094
 30
0.0
 10
1129.636553869355
 20
-160.812094611257
 30
0.0
 10
1125.334524063552
 20
-173.4854657458758
 30
0.0
 10
1121.907430870039
 20
-199.5168229652005
 30
0.0
 10
1122.782762749637
 20
-212.8718066966157
 30
0.0
 10
1129.578310621954
 20
-238.2331366213687
 30
0.0
 10
1135.497742843187
 20
-250.2365577397012
 30
0.0
 10
1151.481371219569
 20
-271.066827789867
 30
0.0
 10
1161.543723886541
 20
-279.8912742411341
 30
0.0
 10
1184.282070238636
 20
-293.0192646284432
 30
0.0
 10
1196.955441373255
 20
-297.3212944342458
 30
0.0
 10
1222.98679859258
 20
-300.7483876277595
 30
0.0
 10
1236.341782323995
 20
-299.8730557481614
 30
0.0
 10
1261.703112248748
 20
-293.0775078758447
 30
0.0
 10
1273.706533367081
 20
-287.1580756546115
 30
0.0
 10
1294.536803417246
 20
-271.1744472782295
 30
0.0
 10
1303.361249868514
 20
-261.1120946112571
 30
0.0
 10
1309.925245062168
 20
-249.7429214352097
 30
0.0
  0
CIRCLE
  5
1F6
330
1F
100
AcDbEntity
  8
0
  6
Continuous
 62
     7
370
    15
100
AcDbCircle
 10
1107.3578163057
 20
-100.0
 30
0.0
 40
5.000000000000127
  0
CIRCLE
  5
1F7
330
1F
100
AcDbEntity
  8
0
  6
Continuous
 62
     7
370
    15
100
AcDbCircle
 10
873.5228263964
 20
-599.0140831103
 30
0.0
 40
4.999999999999975
  0
CIRCLE
  5
1F8
330
1F
100
AcDbEntity
  8
0
  6
Continuous
 62
     7
370
    15
100
AcDbCircle
 10
1193.9603566841
 20
-50.0
 30
0.0
 40
4.99999999999969
  0
SPLINE
  5
1FC
330
1F
100
AcDbEntity
  8
0
  6
Continuous
 62
     7
370
    15
100
AcDbSpline
210
0.0
220
0.0
230
1.0
 70
     8
 71
     3
 72
    42
 73
    38
 74
     0
 42
0.000000001
 43
0.00000001
 40
0.0
 40
0.0
 40
0.0
 40
0.0
 40
0.03125
 40
0.03125
 40
0.0624999999999999
 40
0.0624999999999999
 40
0.0937499999999999
 40
0.0937499999999999
 40
0.1249999999999999
 40
0.1249999999999999
 40
0.1874999999999999
 40
0.1874999999999999
 40
0.2499999999999999
 40
0.2499999999999999
 40
0.3125
 40
0.3125
 40
0.375
 40
0.375
 40
0.5
 40
0.5
 40
0.625
 40
0.625
 40
0.6874999999999999
 40
0.6874999999999999
 40
0.7499999999999999
 40
0.7499999999999999
 40
0.8125
 40
0.8125
 40
0.875
 40
0.875
 40
0.9062500000000001
 40
0.9062500000000001
 40
0.9375000000000001
 40
0.9375000000000001
 40
0.96875
 40
0.96875
 40
1.0
 40
1.0
 40
1.0
 40
1.0
 10
1564.048185194863
 20
-145.8688703580192
 30
0.0
 10
1561.041217335953
 20
-144.8716663977623
 30
0.0
 10
1557.942013682735
 20
-144.1546099371927
 30
0.0
 10
1551.721504698333
 20
-143.2927907428584
 30
0.0
 10
1548.601245258442
 20
-143.148187744607
 30
0.0
 10
1542.47144126265
 20
-143.3729726925324
 30
0.0
 10
1539.462419918158
 20
-143.742358468718
 30
0.0
 10
1533.626565084945
 20
-144.9068473139401
 30
0.0
 10
1530.799910576652
 20
-145.7019215088983
 30
0.0
 10
1522.6288070815
 20
-148.5907302988835
 30
0.0
 10
1517.59209134149
 20
-151.1884995236366
 30
0.0
 10
1508.230243092626
 20
-157.2820624904182
 30
0.0
 10
1503.903568327191
 20
-160.7788219436159
 30
0.0
 10
1495.819344357049
 20
-168.4737823834875
 30
0.0
 10
1492.061007906555
 20
-172.6726990846697
 30
0.0
 10
1485.060957780289
 20
-181.6455408005866
 30
0.0
 10
1481.818969017339
 20
-186.4198122349047
 30
0.0
 10
1472.867198005501
 20
-201.433649902732
 30
0.0
 10
1467.931091070664
 20
-212.3648821795175
 30
0.0
 10
1460.421169677217
 20
-235.0102918981225
 30
0.0
 10
1457.847216465738
 20
-246.7248877352098
 30
0.0
 10
1456.053626667618
 20
-264.1126006785589
 30
0.0
 10
1455.800328295371
 20
-269.8780146968461
 30
0.0
 10
1456.051544101695
 20
-281.2556014729504
 30
0.0
 10
1456.556071853791
 20
-286.868216379208
 30
0.0
 10
1458.440208016095
 20
-297.8689947286024
 30
0.0
 10
1459.820019996631
 20
-303.2582024716528
 30
0.0
 10
1463.685507344316
 20
-313.738360859281
 30
0.0
 10
1466.17184229217
 20
-318.8310074126768
 30
0.0
 10
1470.997531857587
 20
-326.0299565562535
 30
0.0
 10
1472.78895178856
 20
-328.3565277061765
 30
0.0
 10
1476.772513981601
 20
-332.7774402996541
 30
0.0
 10
1478.964529984336
 20
-334.871651642143
 30
0.0
 10
1483.745306143197
 20
-338.714723931146
 30
0.0
 10
1486.333648066444
 20
-340.4632704954951
 30
0.0
 10
1491.836449230752
 20
-343.4892651575594
 30
0.0
 10
1494.749974389812
 20
-344.7662163701307
 30
0.0
 10
1497.756942248721
 20
-345.7634203303876
 30
0.0
  0
SPLINE
  5
1FD
330
1F
100
AcDbEntity
  8
0
  6
Continuous
 62
     7
370
    15
100
AcDbSpline
210
0.0
220
0.0
230
1.0
 70
     8
 71
     3
 72
    42
 73
    38
 74
     0
 42
0.000000001
 43
0.00000001
 40
0.0
 40
0.0
 40
0.0
 40
0.0
 40
0.0312500000000001
 40
0.0312500000000001
 40
0.0625000000000002
 40
0.0625000000000002
 40
0.0937500000000002
 40
0.0937500000000002
 40
0.1250000000000003
 40
0.1250000000000003
 40
0.1875000000000003
 40
0.1875000000000003
 40
0.2500000000000004
 40
0.2500000000000004
 40
0.3125000000000004
 40
0.3125000000000004
 40
0.3750000000000004
 40
0.3750000000000004
 40
0.5000000000000006
 40
0.5000000000000006
 40
0.6250000000000007
 40
0.6250000000000007
 40
0.6875000000000004
 40
0.6875000000000004
 40
0.7500000000000002
 40
0.7500000000000002
 40
0.8125000000000002
 40
0.8125000000000002
 40
0.8750000000000001
 40
0.8750000000000001
 40
0.9062500000000001
 40
0.9062500000000001
 40
0.9375000000000001
 40
0.9375000000000001
 40
0.96875
 40
0.96875
 40
1.0
 40
1.0
 40
1.0
 40
1.0
 10
1497.756942248721
 20
-345.7634203303876
 30
0.0
 10
1500.763910107631
 20
-346.7606242906446
 30
0.0
 10
1503.863113760848
 20
-347.4776807512141
 30
0.0
 10
1510.083622745251
 20
-348.3394999455482
 30
0.0
 10
1513.203882185142
 20
-348.4841029437997
 30
0.0
 10
1519.333686180934
 20
-348.2593179958744
 30
0.0
 10
1522.342707525426
 20
-347.8899322196887
 30
0.0
 10
1528.178562358639
 20
-346.7254433744666
 30
0.0
 10
1531.005216866932
 20
-345.9303691795085
 30
0.0
 10
1539.176320362084
 20
-343.0415603895233
 30
0.0
 10
1544.213036102094
 20
-340.4437911647701
 30
0.0
 10
1553.574884350958
 20
-334.3502281979885
 30
0.0
 10
1557.901559116393
 20
-330.8534687447909
 30
0.0
 10
1565.985783086535
 20
-323.1585083049195
 30
0.0
 10
1569.74411953703
 20
-318.9595916037372
 30
0.0
 10
1576.744169663295
 20
-309.9867498878203
 30
0.0
 10
1579.986158426246
 20
-305.2124784535021
 30
0.0
 10
1588.937929438083
 20
-290.1986407856747
 30
0.0
 10
1593.874036372919
 20
-279.2674085088892
 30
0.0
 10
1601.383957766367
 20
-256.6219987902845
 30
0.0
 10
1603.957910977846
 20
-244.9074029531973
 30
0.0
 10
1605.751500775967
 20
-227.5196900098481
 30
0.0
 10
1606.004799148213
 20
-221.7542759915606
 30
0.0
 10
1605.753583341889
 20
-210.3766892154563
 30
0.0
 10
1605.249055589793
 20
-204.7640743091989
 30
0.0
 10
1603.364919427488
 20
-193.7632959598044
 30
0.0
 10
1601.985107446953
 20
-188.374088216754
 30
0.0
 10
1598.119620099268
 20
-177.893929829126
 30
0.0
 10
1595.633285151414
 20
-172.8012832757301
 30
0.0
 10
1590.807595585997
 20
-165.6023341321536
 30
0.0
 10
1589.016175655024
 20
-163.2757629822305
 30
0.0
 10
1585.032613461983
 20
-158.854850388753
 30
0.0
 10
1582.840597459249
 20
-156.7606390462641
 30
0.0
 10
1578.059821300387
 20
-152.917566757261
 30
0.0
 10
1575.47147937714
 20
-151.1690201929117
 30
0.0
 10
1569.968678212832
 20
-148.1430255308476
 30
0.0
 10
1567.055153053772
 20
-146.866074318276
 30
0.0
 10
1564.048185194863
 20
-145.8688703580192
 30
0.0
  0
SPLINE
  5
200
330
1F
100
AcDbEntity
  8
0
  6
Continuous
 62
     7
370
    15
100
AcDbSpline
210
0.0
220
0.0
230
1.0
 70
     8
 71
     3
 72
    38
 73
    34
 74
     0
 42
0.000000001
 43
0.00000001
 40
0.0
 40
0.0
 40
0.0
 40
0.0
 40
0.0625
 40
0.0625
 40
0.125
 40
0.125
 40
0.1875
 40
0.1875
 40
0.25
 40
0.25
 40
0.3125
 40
0.3125
 40
0.375
 40
0.375
 40
0.4375
 40
0.4375
 40
0.5
 40
0.5
 40
0.5625
 40
0.5625
 40
0.625
 40
0.625
 40
0.6875
 40
0.6875
 40
0.75
 40
0.75
 40
0.8125
 40
0.8125
 40
0.875
 40
0.875
 40
0.9375
 40
0.9375
 40
1.0
 40
1.0
 40
1.0
 40
1.0
 10
1507.389003189614
 20
-316.7189130694451
 30
0.0
 10
1509.838972242269
 20
-317.5313989211232
 30
0.0
 10
1512.439064512162
 20
-317.891878341471
 30
0.0
 10
1517.849128653066
 20
-317.6928938985285
 30
0.0
 10
1520.65906286017
 20
-317.1330445164493
 30
0.0
 10
1526.382456707815
 20
-315.1076793471817
 30
0.0
 10
1529.295557535663
 20
-313.6421309681241
 30
0.0
 10
1535.109945093779
 20
-309.858085843865
 30
0.0
 10
1538.011009346793
 20
-307.5397421888042
 30
0.0
 10
1543.686740283422
 20
-302.1385199467622
 30
0.0
 10
1546.461262569618
 20
-299.0558130659097
 30
0.0
 10
1551.775287967059
 20
-292.2446824943249
 30
0.0
 10
1554.314667891368
 20
-288.5164415507819
 30
0.0
 10
1559.05960246756
 20
-280.558154251075
 30
0.0
 10
1561.265045950551
 20
-276.3283089591853
 30
0.0
 10
1565.256615887398
 20
-267.5300803297209
 30
0.0
 10
1567.042646610233
 20
-262.9619152006309
 30
0.0
 10
1570.126333007169
 20
-253.663370216758
 30
0.0
 10
1571.423912677455
 20
-248.9332195438086
 30
0.0
 10
1573.480664339201
 20
-239.4933450648246
 30
0.0
 10
1574.239782701888
 20
-234.7838534296882
 30
0.0
 10
1575.190557293299
 20
-225.5673048048857
 30
0.0
 10
1575.382182516318
 20
-221.0604754640968
 30
0.0
 10
1575.191162425099
 20
-212.4237007818106
 30
0.0
 10
1574.808506686926
 20
-208.2939755832172
 30
0.0
 10
1573.484975000792
 20
-200.5715804075782
 30
0.0
 10
1572.544112233743
 20
-196.9791343945314
 30
0.0
 10
1570.143065160785
 20
-190.470595915591
 30
0.0
 10
1568.682967766866
 20
-187.554759142924
 30
0.0
 10
1565.303992857845
 20
-182.5107657083187
 30
0.0
 10
1563.385422526638
 20
-180.3827973196711
 30
0.0
 10
1559.166342468549
 20
-176.9904895092476
 30
0.0
 10
1556.866093306626
 20
-175.7258634706398
 30
0.0
 10
1554.41612425397
 20
-174.9133776189616
 30
0.0
  0
SPLINE
  5
201
330
1F
100
AcDbEntity
  8
0
  6
Continuous
 62
     7
370
    15
100
AcDbSpline
210
0.0
220
0.0
230
1.0
 70
     8
 71
     3
 72
    38
 73
    34
 74
     0
 42
0.000000001
 43
0.00000001
 40
0.0
 40
0.0
 40
0.0
 40
0.0
 40
0.0625
 40
0.0625
 40
0.1249999999999999
 40
0.1249999999999999
 40
0.1874999999999999
 40
0.1874999999999999
 40
0.2499999999999999
 40
0.2499999999999999
 40
0.3124999999999999
 40
0.3124999999999999
 40
0.3749999999999999
 40
0.3749999999999999
 40
0.4374999999999998
 40
0.4374999999999998
 40
0.4999999999999999
 40
0.4999999999999999
 40
0.5624999999999999
 40
0.5624999999999999
 40
0.6249999999999998
 40
0.6249999999999998
 40
0.6874999999999998
 40
0.6874999999999998
 40
0.7499999999999998
 40
0.7499999999999998
 40
0.8124999999999999
 40
0.8124999999999999
 40
0.8749999999999999
 40
0.8749999999999999
 40
0.9375
 40
0.9375
 40
1.0
 40
1.0
 40
1.0
 40
1.0
 10
1554.41612425397
 20
-174.9133776189616
 30
0.0
 10
1551.966155201315
 20
-174.1008917672834
 30
0.0
 10
1549.366062931422
 20
-173.7404123469358
 30
0.0
 10
1543.955998790518
 20
-173.9393967898782
 30
0.0
 10
1541.146064583413
 20
-174.4992461719574
 30
0.0
 10
1535.422670735769
 20
-176.5246113412252
 30
0.0
 10
1532.509569907921
 20
-177.9901597202825
 30
0.0
 10
1526.695182349805
 20
-181.7742048445417
 30
0.0
 10
1523.794118096791
 20
-184.0925484996025
 30
0.0
 10
1518.118387160162
 20
-189.4937707416443
 30
0.0
 10
1515.343864873966
 20
-192.576477622497
 30
0.0
 10
1510.029839476525
 20
-199.3876081940818
 30
0.0
 10
1507.490459552216
 20
-203.1158491376249
 30
0.0
 10
1502.745524976023
 20
-211.0741364373317
 30
0.0
 10
1500.540081493033
 20
-215.3039817292216
 30
0.0
 10
1496.548511556186
 20
-224.1022103586857
 30
0.0
 10
1494.762480833351
 20
-228.6703754877757
 30
0.0
 10
1491.678794436415
 20
-237.9689204716488
 30
0.0
 10
1490.381214766129
 20
-242.6990711445981
 30
0.0
 10
1488.324463104383
 20
-252.1389456235821
 30
0.0
 10
1487.565344741696
 20
-256.8484372587184
 30
0.0
 10
1486.614570150284
 20
-266.0649858835209
 30
0.0
 10
1486.422944927266
 20
-270.5718152243098
 30
0.0
 10
1486.613965018485
 20
-279.208589906596
 30
0.0
 10
1486.996620756658
 20
-283.3383151051894
 30
0.0
 10
1488.320152442792
 20
-291.0607102808285
 30
0.0
 10
1489.261015209841
 20
-294.6531562938752
 30
0.0
 10
1491.662062282799
 20
-301.1616947728155
 30
0.0
 10
1493.122159676718
 20
-304.0775315454827
 30
0.0
 10
1496.501134585739
 20
-309.1215249800879
 30
0.0
 10
1498.419704916946
 20
-311.2494933687356
 30
0.0
 10
1502.638784975035
 20
-314.6418011791592
 30
0.0
 10
1504.939034136958
 20
-315.906427217767
 30
0.0
 10
1507.389003189614
 20
-316.7189130694451
 30
0.0
  0
SPLINE
  5
202
330
1F
100
AcDbEntity
  8
0
  6
Continuous
 62
     7
370
    15
100
AcDbSpline
210
0.0
220
0.0
230
1.0
 70
     8
 71
     3
 72
    38
 73
    34
 74
     0
 42
0.000000001
 43
0.00000001
 40
0.0
 40
0.0
 40
0.0
 40
0.0
 40
0.0624999999999999
 40
0.0624999999999999
 40
0.1249999999999998
 40
0.1249999999999998
 40
0.1874999999999998
 40
0.1874999999999998
 40
0.2499999999999997
 40
0.2499999999999997
 40
0.3124999999999996
 40
0.3124999999999996
 40
0.3749999999999995
 40
0.3749999999999995
 40
0.4374999999999994
 40
0.4374999999999994
 40
0.4999999999999993
 40
0.4999999999999993
 40
0.5624999999999992
 40
0.5624999999999992
 40
0.6249999999999991
 40
0.6249999999999991
 40
0.6874999999999991
 40
0.6874999999999991
 40
0.749999999999999
 40
0.749999999999999
 40
0.8124999999999992
 40
0.8124999999999992
 40
0.8749999999999994
 40
0.8749999999999994
 40
0.9374999999999998
 40
0.9374999999999998
 40
1.0
 40
1.0
 40
1.0
 40
1.0
 10
1188.212897062589
 20
-259.9548920789849
 30
0.0
 10
1192.163578802812
 20
-262.2358192451849
 30
0.0
 10
1196.338809017241
 20
-264.1275914436207
 30
0.0
 10
1204.978323644676
 20
-267.0603114784159
 30
0.0
 10
1209.442394428657
 20
-268.1011867974933
 30
0.0
 10
1218.488048501045
 20
-269.2920697484349
 30
0.0
 10
1223.06940811783
 20
-269.4420479333712
 30
0.0
 10
1232.17358222203
 20
-268.8453288365092
 30
0.0
 10
1236.696171590801
 20
-268.0986463097662
 30
0.0
 10
1245.508997421669
 20
-265.737256745349
 30
0.0
 10
1249.799015969281
 20
-264.122608097685
 30
0.0
 10
1257.981821572426
 20
-260.0872949423907
 30
0.0
 10
1261.874406291965
 20
-257.6667302158302
 30
0.0
 10
1269.112731037028
 20
-252.1125682911872
 30
0.0
 10
1272.458292080709
 20
-248.9791084307033
 30
0.0
 10
1278.473971207038
 20
-242.1195410646655
 30
0.0
 10
1281.143940540164
 20
-238.3936031754322
 30
0.0
 10
1285.705794872565
 20
-230.4922396949868
 30
0.0
 10
1287.597567071
 20
-226.3170094805574
 30
0.0
 10
1290.530287105796
 20
-217.6774948531225
 30
0.0
 10
1291.571162424873
 20
-213.2134240691411
 30
0.0
 10
1292.762045375814
 20
-204.1677699967531
 30
0.0
 10
1292.912023560751
 20
-199.5864103799688
 30
0.0
 10
1292.315304463889
 20
-190.4822362757683
 30
0.0
 10
1291.568621937146
 20
-185.9596469069978
 30
0.0
 10
1289.207232372728
 20
-177.1468210761298
 30
0.0
 10
1287.592583725065
 20
-172.8568025285177
 30
0.0
 10
1283.55727056977
 20
-164.6739969253726
 30
0.0
 10
1281.13670584321
 20
-160.7814122058335
 30
0.0
 10
1275.582543918567
 20
-153.54308746077
 30
0.0
 10
1272.449084058083
 20
-150.197526417089
 30
0.0
 10
1265.589516692045
 20
-144.1818472907606
 30
0.0
 10
1261.863578802812
 20
-141.5118779576342
 30
0.0
 10
1257.912897062589
 20
-139.2309507914341
 30
0.0
  0
SPLINE
  5
203
330
1F
100
AcDbEntity
  8
0
  6
Continuous
 62
     7
370
    15
100
AcDbSpline
210
0.0
220
0.0
230
1.0
 70
     8
 71
     3
 72
    38
 73
    34
 74
     0
 42
0.000000001
 43
0.00000001
 40
0.0
 40
0.0
 40
0.0
 40
0.0
 40
0.0624999999999999
 40
0.0624999999999999
 40
0.1249999999999999
 40
0.1249999999999999
 40
0.1874999999999998
 40
0.1874999999999998
 40
0.2499999999999997
 40
0.2499999999999997
 40
0.3124999999999997
 40
0.3124999999999997
 40
0.3749999999999997
 40
0.3749999999999997
 40
0.4374999999999997
 40
0.4374999999999997
 40
0.4999999999999997
 40
0.4999999999999997
 40
0.5624999999999997
 40
0.5624999999999997
 40
0.6249999999999998
 40
0.6249999999999998
 40
0.6874999999999998
 40
0.6874999999999998
 40
0.7499999999999998
 40
0.7499999999999998
 40
0.8124999999999999
 40
0.8124999999999999
 40
0.8749999999999999
 40
0.8749999999999999
 40
0.9375
 40
0.9375
 40
1.0
 40
1.0
 40
1.0
 40
1.0
 10
1257.912897062589
 20
-139.2309507914341
 30
0.0
 10
1253.962215322366
 20
-136.950023625234
 30
0.0
 10
1249.786985107937
 20
-135.0582514267983
 30
0.0
 10
1241.147470480502
 20
-132.1255313920029
 30
0.0
 10
1236.683399696521
 20
-131.0846560729256
 30
0.0
 10
1227.637745624133
 20
-129.8937731219841
 30
0.0
 10
1223.056386007348
 20
-129.7437949370477
 30
0.0
 10
1213.952211903148
 20
-130.3405140339099
 30
0.0
 10
1209.429622534377
 20
-131.0871965606528
 30
0.0
 10
1200.616796703509
 20
-133.44858612507
 30
0.0
 10
1196.326778155897
 20
-135.0632347727339
 30
0.0
 10
1188.143972552752
 20
-139.0985479280282
 30
0.0
 10
1184.251387833213
 20
-141.5191126545888
 30
0.0
 10
1177.013063088149
 20
-147.0732745792318
 30
0.0
 10
1173.667502044468
 20
-150.2067344397157
 30
0.0
 10
1167.65182291814
 20
-157.0663018057535
 30
0.0
 10
1164.981853585014
 20
-160.7922396949868
 30
0.0
 10
1160.419999252614
 20
-168.693603175432
 30
0.0
 10
1158.528227054178
 20
-172.8688333898615
 30
0.0
 10
1155.595507019383
 20
-181.5083480172965
 30
0.0
 10
1154.554631700305
 20
-185.9724188012778
 30
0.0
 10
1153.363748749364
 20
-195.0180728736658
 30
0.0
 10
1153.213770564427
 20
-199.5994324904502
 30
0.0
 10
1153.810489661289
 20
-208.7036065946506
 30
0.0
 10
1154.557172188032
 20
-213.2261959634211
 30
0.0
 10
1156.918561752449
 20
-222.0390217942891
 30
0.0
 10
1158.533210400113
 20
-226.3290403419013
 30
0.0
 10
1162.568523555408
 20
-234.5118459450463
 30
0.0
 10
1164.989088281968
 20
-238.4044306645856
 30
0.0
 10
1170.543250206611
 20
-245.642755409649
 30
0.0
 10
1173.676710067095
 20
-248.98831645333
 30
0.0
 10
1180.536277433133
 20
-255.0039955796584
 30
0.0
 10
1184.262215322366
 20
-257.6739649127847
 30
0.0
 10
1188.212897062589
 20
-259.9548920789848
 30
0.0
  0
SPLINE
  5
204
330
1F
100
AcDbEntity
  8
0
  6
Continuous
 62
     7
370
    15
100
AcDbSpline
210
0.0
220
0.0
230
1.0
 70
     8
 71
     3
 72
    25
 73
    21
 74
     0
 42
0.000000001
 43
0.00000001
 40
3.141592653589793
 40
3.141592653589793
 40
3.141592653589793
 40
3.141592653589793
 40
3.239767424014474
 40
3.337942194439155
 40
3.436116964863837
 40
3.534291735288518
 40
3.730641276137879
 40
3.926990816987241
 40
4.123340357836604
 40
4.319689898685965
 40
4.71238898038469
 40
5.105088062083414
 40
5.301437602932776
 40
5.497787143782138
 40
5.6941366846315
 40
5.890486225480862
 40
5.988660995905543
 40
6.086835766330224
 40
6.185010536754906
 40
6.283185307179586
 40
6.283185307179586
 40
6.283185307179586
 40
6.283185307179586
 10
1563.953753452103
 20
-146.1536197439484
 30
0.0
 10
1566.943045227956
 20
-147.1449617659163
 30
0.0
 10
1572.737013788932
 20
-149.684333674645
 30
0.0
 10
1580.459024430898
 20
-154.9007772619139
 30
0.0
 10
1587.000396590195
 20
-161.150089311284
 30
0.0
 10
1594.131256775086
 20
-170.410810310829
 30
0.0
 10
1600.321201011532
 20
-183.0876372686279
 30
0.0
 10
1604.447323296572
 20
-199.2009465682921
 30
0.0
 10
1605.95726621004
 20
-215.994549864414
 30
0.0
 10
1604.946510337846
 20
-239.006456167767
 30
0.0
 10
1598.523393672692
 20
-268.2413125889865
 30
0.0
 10
1586.204544772617
 20
-295.5209610368794
 30
0.0
 10
1573.264362862644
 20
-314.576699051563
 30
0.0
 10
1562.018708694045
 20
-327.1401500738627
 30
0.0
 10
1549.081814760957
 20
-337.5948330944904
 30
0.0
 10
1536.543526576852
 20
-344.0607963468298
 30
0.0
 10
1525.292054376878
 20
-347.2253648389141
 30
0.0
 10
1516.312706044748
 20
-348.3275237871192
 30
0.0
 10
1507.003864764271
 20
-347.8960077750571
 30
0.0
 10
1500.840666221834
 20
-346.4700115959139
 30
0.0
 10
1497.851374445981
 20
-345.478669573946
 30
0.0
  0
SPLINE
  5
205
330
1F
100
AcDbEntity
  8
0
  6
Continuous
 62
     7
370
    15
100
AcDbSpline
210
0.0
220
0.0
230
1.0
 70
     8
 71
     3
 72
    54
 73
    50
 74
     0
 42
0.000000001
 43
0.00000001
 40
0.0
 40
0.0
 40
0.0
 40
0.0
 40
0.0625000000000005
 40
0.0625000000000005
 40
0.125000000000001
 40
0.125000000000001
 40
0.1875000000000016
 40
0.1875000000000016
 40
0.2500000000000021
 40
0.2500000000000021
 40
0.2812500000000023
 40
0.2812500000000023
 40
0.3125000000000026
 40
0.3125000000000026
 40
0.3437500000000028
 40
0.3437500000000028
 40
0.3750000000000031
 40
0.3750000000000031
 40
0.4062500000000033
 40
0.4062500000000033
 40
0.4375000000000036
 40
0.4375000000000036
 40
0.4687500000000038
 40
0.4687500000000038
 40
0.5000000000000041
 40
0.5000000000000041
 40
0.5312500000000043
 40
0.5312500000000043
 40
0.5625000000000044
 40
0.5625000000000044
 40
0.5937500000000044
 40
0.5937500000000044
 40
0.6250000000000044
 40
0.6250000000000044
 40
0.6562500000000046
 40
0.6562500000000046
 40
0.6875000000000046
 40
0.6875000000000046
 40
0.7187500000000046
 40
0.7187500000000046
 40
0.7500000000000046
 40
0.7500000000000046
 40
0.8125000000000034
 40
0.8125000000000034
 40
0.8750000000000023
 40
0.8750000000000023
 40
0.9375000000000011
 40
0.9375000000000011
 40
1.0
 40
1.0
 40
1.0
 40
1.0
 10
1507.294571446856
 20
-317.0036624553749
 30
0.0
 10
1508.876516286776
 20
-317.528284510979
 30
0.0
 10
1510.619328171379
 20
-317.9020456761089
 30
0.0
 10
1514.46730383514
 20
-318.1880477695269
 30
0.0
 10
1516.57312063055
 20
-318.100033307678
 30
0.0
 10
1521.166000311871
 20
-317.2632106066774
 30
0.0
 10
1523.653965126664
 20
-316.5134197861892
 30
0.0
 10
1528.98399355773
 20
-314.1311766723725
 30
0.0
 10
1531.826966546964
 20
-312.4967009774729
 30
0.0
 10
1536.280780189743
 20
-309.2327242564471
 30
0.0
 10
1537.796265202971
 20
-308.0097232832257
 30
0.0
 10
1540.867299706497
 20
-305.2771651077258
 30
0.0
 10
1542.422841474256
 20
-303.7675127627863
 30
0.0
 10
1545.546219261917
 20
-300.4538715585604
 30
0.0
 10
1547.114023011507
 20
-298.6497984704736
 30
0.0
 10
1550.228637926935
 20
-294.7512276708928
 30
0.0
 10
1551.775389469752
 20
-292.6566739165891
 30
0.0
 10
1554.810468117031
 20
-288.194919211766
 30
0.0
 10
1556.298710497625
 20
-285.8277075057003
 30
0.0
 10
1559.177373859626
 20
-280.853345993918
 30
0.0
 10
1560.567693513227
 20
-278.2462426797571
 30
0.0
 10
1563.211979551781
 20
-272.839241494024
 30
0.0
 10
1564.465842120524
 20
-270.0394492482828
 30
0.0
 10
1566.802683911757
 20
-264.3063618578066
 30
0.0
 10
1567.885573752879
 20
-261.3732205682978
 30
0.0
 10
1569.852906461396
 20
-255.4409274185955
 30
0.0
 10
1570.737289756873
 20
-252.4419551914973
 30
0.0
 10
1572.289302579999
 20
-246.4485941327137
 30
0.0
 10
1572.956911841441
 20
-243.4543820769895
 30
0.0
 10
1574.067553841104
 20
-237.5387768818471
 30
0.0
 10
1574.510606706709
 20
-234.6175304718067
 30
0.0
 10
1575.174795087671
 20
-228.9087802586485
 30
0.0
 10
1575.395984070494
 20
-226.1213742820088
 30
0.0
 10
1575.628447638051
 20
-220.7301853471879
 30
0.0
 10
1575.639796584319
 20
-218.1264443911219
 30
0.0
 10
1575.471957597535
 20
-213.1393099007294
 30
0.0
 10
1575.292850960425
 20
-210.7559070567
 30
0.0
 10
1574.768464028075
 20
-206.232553745275
 30
0.0
 10
1574.42325993879
 20
-204.09255502318
 30
0.0
 10
1573.593620649231
 20
-200.0664122346591
 30
0.0
 10
1573.109248493154
 20
-198.18019649402
 30
0.0
 10
1571.488393950637
 20
-192.9016710794743
 30
0.0
 10
1570.185469173211
 20
-189.8922868834802
 30
0.0
 10
1567.335159181965
 20
-184.7971894081504
 30
0.0
 10
1565.788253873337
 20
-182.7093103023896
 30
0.0
 10
1562.60555827748
 20
-179.2938652736835
 30
0.0
 10
1560.969631927785
 20
-177.9649725392232
 30
0.0
 10
1557.713288936958
 20
-175.8949618550888
 30
0.0
 10
1556.092501291149
 20
-175.1532489181236
 30
0.0
 10
1554.510556451228
 20
-174.6286268625195
 30
0.0
  0
SPLINE
  5
206
330
1F
100
AcDbEntity
  8
0
  6
Continuous
 62
     7
370
    15
100
AcDbSpline
210
0.0
220
0.0
230
1.0
 70
     8
 71
     3
 72
    54
 73
    50
 74
     0
 42
0.000000001
 43
0.00000001
 40
0.0
 40
0.0
 40
0.0
 40
0.0
 40
0.0625000000000003
 40
0.0625000000000003
 40
0.1250000000000006
 40
0.1250000000000006
 40
0.1875000000000009
 40
0.1875000000000009
 40
0.2500000000000012
 40
0.2500000000000012
 40
0.2812500000000014
 40
0.2812500000000014
 40
0.3125000000000016
 40
0.3125000000000016
 40
0.3437500000000017
 40
0.3437500000000017
 40
0.3750000000000018
 40
0.3750000000000018
 40
0.406250000000002
 40
0.406250000000002
 40
0.4375000000000021
 40
0.4375000000000021
 40
0.4687500000000023
 40
0.4687500000000023
 40
0.5000000000000024
 40
0.5000000000000024
 40
0.5312500000000023
 40
0.5312500000000023
 40
0.5625000000000023
 40
0.5625000000000023
 40
0.5937500000000022
 40
0.5937500000000022
 40
0.6250000000000021
 40
0.6250000000000021
 40
0.6562500000000021
 40
0.6562500000000021
 40
0.687500000000002
 40
0.687500000000002
 40
0.718750000000002
 40
0.718750000000002
 40
0.7500000000000019
 40
0.7500000000000019
 40
0.8125000000000014
 40
0.8125000000000014
 40
0.8750000000000009
 40
0.8750000000000009
 40
0.9375000000000004
 40
0.9375000000000004
 40
1.0
 40
1.0
 40
1.0
 40
1.0
 10
1554.510556451229
 20
-174.6286268625196
 30
0.0
 10
1552.928611611308
 20
-174.1040048069154
 30
0.0
 10
1551.185799726705
 20
-173.7302436417855
 30
0.0
 10
1547.337824062944
 20
-173.4442415483675
 30
0.0
 10
1545.232007267534
 20
-173.5322560102165
 30
0.0
 10
1540.639127586213
 20
-174.369078711217
 30
0.0
 10
1538.15116277142
 20
-175.1188695317053
 30
0.0
 10
1532.821134340353
 20
-177.501112645522
 30
0.0
 10
1529.97816135112
 20
-179.1355883404216
 30
0.0
 10
1525.524347708342
 20
-182.3995650614473
 30
0.0
 10
1524.008862695114
 20
-183.6225660346687
 30
0.0
 10
1520.937828191588
 20
-186.3551242101689
 30
0.0
 10
1519.382286423828
 20
-187.8647765551083
 30
0.0
 10
1516.258908636167
 20
-191.1784177593342
 30
0.0
 10
1514.691104886577
 20
-192.9824908474208
 30
0.0
 10
1511.57648997115
 20
-196.8810616470018
 30
0.0
 10
1510.029738428332
 20
-198.9756154013056
 30
0.0
 10
1506.994659781055
 20
-203.4373701061287
 30
0.0
 10
1505.50641740046
 20
-205.8045818121941
 30
0.0
 10
1502.627754038458
 20
-210.7789433239765
 30
0.0
 10
1501.237434384858
 20
-213.3860466381375
 30
0.0
 10
1498.593148346304
 20
-218.7930478238707
 30
0.0
 10
1497.339285777561
 20
-221.5928400696118
 30
0.0
 10
1495.002443986328
 20
-227.3259274600879
 30
0.0
 10
1493.919554145206
 20
-230.2590687495967
 30
0.0
 10
1491.95222143669
 20
-236.191361899299
 30
0.0
 10
1491.067838141212
 20
-239.1903341263973
 30
0.0
 10
1489.515825318086
 20
-245.1836951851807
 30
0.0
 10
1488.848216056644
 20
-248.1779072409049
 30
0.0
 10
1487.737574056981
 20
-254.0935124360475
 30
0.0
 10
1487.294521191375
 20
-257.0147588460877
 30
0.0
 10
1486.630332810413
 20
-262.7235090592461
 30
0.0
 10
1486.409143827591
 20
-265.5109150358858
 30
0.0
 10
1486.176680260034
 20
-270.9021039707066
 30
0.0
 10
1486.165331313765
 20
-273.5058449267726
 30
0.0
 10
1486.333170300549
 20
-278.4929794171651
 30
0.0
 10
1486.512276937659
 20
-280.8763822611945
 30
0.0
 10
1487.03666387001
 20
-285.3997355726196
 30
0.0
 10
1487.381867959294
 20
-287.5397342947144
 30
0.0
 10
1488.211507248853
 20
-291.5658770832352
 30
0.0
 10
1488.695879404931
 20
-293.4520928238746
 30
0.0
 10
1490.316733947447
 20
-298.73061823842
 30
0.0
 10
1491.619658724873
 20
-301.7400024344143
 30
0.0
 10
1494.46996871612
 20
-306.835099909744
 30
0.0
 10
1496.016874024748
 20
-308.9229790155051
 30
0.0
 10
1499.199569620605
 20
-312.338424044211
 30
0.0
 10
1500.835495970299
 20
-313.6673167786712
 30
0.0
 10
1504.091838961125
 20
-315.7373274628055
 30
0.0
 10
1505.712626606935
 20
-316.4790403997708
 30
0.0
 10
1507.294571446856
 20
-317.0036624553749
 30
0.0
  0
SPLINE
  5
207
330
1F
100
AcDbEntity
  8
0
  6
Continuous
 62
     7
370
    15
100
AcDbSpline
210
0.0
220
0.0
230
1.0
 70
     8
 71
     3
 72
    25
 73
    21
 74
     0
 42
0.000000001
 43
0.00000001
 40
0.0
 40
0.0
 40
0.0
 40
0.0
 40
0.0981747704246811
 40
0.1963495408493623
 40
0.294524311274043
 40
0.3926990816987241
 40
0.589048622548086
 40
0.7853981633974483
 40
0.9817477042468106
 40
1.178097245096172
 40
1.570796326794897
 40
1.963495408493621
 40
2.159844949342983
 40
2.356194490192345
 40
2.552544031041707
 40
2.748893571891069
 40
2.84706834231575
 40
2.945243112740431
 40
3.043417883165112
 40
3.141592653589793
 40
3.141592653589793
 40
3.141592653589793
 40
3.141592653589793
 10
1497.851374445981
 20
-345.478669573946
 30
0.0
 10
1494.862082670128
 20
-344.487327551978
 30
0.0
 10
1489.068114109152
 20
-341.9479556432494
 30
0.0
 10
1481.346103467186
 20
-336.7315120559805
 30
0.0
 10
1474.80473130789
 20
-330.4822000066105
 30
0.0
 10
1467.673871122998
 20
-321.2214790070656
 30
0.0
 10
1461.483926886553
 20
-308.5446520492666
 30
0.0
 10
1457.357804601512
 20
-292.4313427496025
 30
0.0
 10
1455.847861688045
 20
-275.6377394534805
 30
0.0
 10
1456.858617560238
 20
-252.6258331501275
 30
0.0
 10
1463.281734225392
 20
-223.390976728908
 30
0.0
 10
1475.600583125467
 20
-196.1113282810151
 30
0.0
 10
1488.540765035441
 20
-177.0555902663314
 30
0.0
 10
1499.786419204039
 20
-164.4921392440317
 30
0.0
 10
1512.723313137127
 20
-154.0374562234041
 30
0.0
 10
1525.261601321232
 20
-147.5714929710647
 30
0.0
 10
1536.513073521206
 20
-144.4069244789804
 30
0.0
 10
1545.492421853336
 20
-143.3047655307753
 30
0.0
 10
1554.801263133813
 20
-143.7362815428374
 30
0.0
 10
1560.96446167625
 20
-145.1622777219805
 30
0.0
 10
1563.953753452103
 20
-146.1536197439484
 30
0.0
  0
CIRCLE
  5
20E
330
1F
100
AcDbEntity
  8
0
  6
Continuous
 62
     7
370
    15
100
AcDbCircle
 10
1020.7552759273
 20
-50.0
 30
0.0
 40
4.999999999999929
  0
CIRCLE
  5
20F
330
1F
100
AcDbEntity
  8
0
  6
Continuous
 62
     7
370
    15
100
AcDbCircle
 10
705.5138980622
 20
502.0140831103
 30
0.0
 40
5.000000000000073
  0
CIRCLE
  5
214
330
1F
100
AcDbEntity
  8
0
  6
Continuous
 62
     7
370
    15
100
AcDbCircle
 10
705.5138980622
 20
-502.0140831103
 30
0.0
 40
5.000000000000187
  0
CIRCLE
  5
215
330
1F
100
AcDbEntity
  8
0
  6
Continuous
 62
     7
370
    15
100
AcDbCircle
 10
1020.7552759273
 20
50.0
 30
0.0
 40
5.000000000000007
  0
SPLINE
  5
216
330
1F
100
AcDbEntity
  8
0
  6
Continuous
 62
     7
370
    15
100
AcDbSpline
210
0.0
220
0.0
230
1.0
 70
     8
 71
     3
 72
    22
 73
    18
 74
     0
 42
0.000000001
 43
0.00000001
 40
0.0
 40
0.0
 40
0.0
 40
0.0
 40
0.1249999999999998
 40
0.1249999999999998
 40
0.2499999999999997
 40
0.2499999999999997
 40
0.3749999999999995
 40
0.3749999999999995
 40
0.4999999999999996
 40
0.4999999999999996
 40
0.6249999999999996
 40
0.6249999999999996
 40
0.7499999999999997
 40
0.7499999999999997
 40
0.8749999999999998
 40
0.8749999999999998
 40
1.0
 40
1.0
 40
1.0
 40
1.0
 10
789.7903875492345
 20
-50.55707856478782
 30
0.0
 10
796.3543827428891
 20
-61.9262517408354
 30
0.0
 10
805.1788291941562
 20
-71.9886044078077
 30
0.0
 10
826.009099244322
 20
-87.97223278418969
 30
0.0
 10
838.0125203626545
 20
-93.89166500542294
 30
0.0
 10
863.3738502874073
 20
-100.6872128777398
 30
0.0
 10
876.7288340188226
 20
-101.562544757338
 30
0.0
 10
902.7601912381473
 20
-98.13545156382419
 30
0.0
 10
915.4335623727662
 20
-93.83342175802166
 30
0.0
 10
938.1719087248614
 20
-80.70543137071265
 30
0.0
 10
948.2342613918337
 20
-71.88098491944552
 30
0.0
 10
964.2178897682156
 20
-51.05071486927977
 30
0.0
 10
970.1373219894489
 20
-39.0472937509473
 30
0.0
 10
976.9328698617659
 20
-13.68596382619432
 30
0.0
 10
977.808201741364
 20
-0.3309800947791707
 30
0.0
 10
974.3811085478502
 20
25.70037712454554
 30
0.0
 10
970.0790787420476
 20
38.3737482591645
 30
0.0
 10
963.5150835483931
 20
49.74292143521203
 30
0.0
  0
SPLINE
  5
217
330
1F
100
AcDbEntity
  8
0
  6
Continuous
 62
     7
370
    15
100
AcDbSpline
210
0.0
220
0.0
230
1.0
 70
     8
 71
     3
 72
    22
 73
    18
 74
     0
 42
0.000000001
 43
0.00000001
 40
0.0
 40
0.0
 40
0.0
 40
0.0
 40
0.1249999999999999
 40
0.1249999999999999
 40
0.2499999999999998
 40
0.2499999999999998
 40
0.3749999999999998
 40
0.3749999999999998
 40
0.4999999999999997
 40
0.4999999999999997
 40
0.6249999999999996
 40
0.6249999999999996
 40
0.7499999999999997
 40
0.7499999999999997
 40
0.8749999999999999
 40
0.8749999999999999
 40
1.0
 40
1.0
 40
1.0
 40
1.0
 10
963.5150835483931
 20
49.74292143521203
 30
0.0
 10
956.9510883547385
 20
61.11209461125962
 30
0.0
 10
948.1266419034715
 20
71.17444727823192
 30
0.0
 10
927.2963718533058
 20
87.15807565461401
 30
0.0
 10
915.2929507349731
 20
93.0775078758473
 30
0.0
 10
889.9316208102204
 20
99.87305574816412
 30
0.0
 10
876.5766370788052
 20
100.7483876277622
 30
0.0
 10
850.5452798594805
 20
97.32129443424846
 30
0.0
 10
837.8719087248616
 20
93.019264628446
 30
0.0
 10
815.1335623727663
 20
79.89127424113694
 30
0.0
 10
805.071209705794
 20
71.06682778986978
 30
0.0
 10
789.087581329412
 20
50.23655773970402
 30
0.0
 10
783.1681491081788
 20
38.23313662137152
 30
0.0
 10
776.3726012358618
 20
12.87180669661871
 30
0.0
 10
775.4972693562638
 20
-0.4831770347965127
 30
0.0
 10
778.9243625497775
 20
-26.5145342541213
 30
0.0
 10
783.2263923555802
 20
-39.18790538874023
 30
0.0
 10
789.7903875492344
 20
-50.55707856478777
 30
0.0
  0
SPLINE
  5
219
330
1F
100
AcDbEntity
  8
0
  6
Continuous
 62
     7
370
    15
100
AcDbSpline
210
0.0
220
0.0
230
1.0
 70
     8
 71
     3
 72
    38
 73
    34
 74
     0
 42
0.000000001
 43
0.00000001
 40
0.0
 40
0.0
 40
0.0
 40
0.0
 40
0.0624999999999999
 40
0.0624999999999999
 40
0.1249999999999998
 40
0.1249999999999998
 40
0.1874999999999998
 40
0.1874999999999998
 40
0.2499999999999997
 40
0.2499999999999997
 40
0.3124999999999996
 40
0.3124999999999996
 40
0.3749999999999995
 40
0.3749999999999995
 40
0.4374999999999994
 40
0.4374999999999994
 40
0.4999999999999993
 40
0.4999999999999993
 40
0.5624999999999992
 40
0.5624999999999992
 40
0.6249999999999991
 40
0.6249999999999991
 40
0.6874999999999991
 40
0.6874999999999991
 40
0.749999999999999
 40
0.749999999999999
 40
0.8124999999999992
 40
0.8124999999999992
 40
0.8749999999999994
 40
0.8749999999999994
 40
0.9374999999999998
 40
0.9374999999999998
 40
1.0
 40
1.0
 40
1.0
 40
1.0
 10
841.802735548814
 20
59.9548920789876
 30
0.0
 10
837.8520538085913
 20
57.67396491278748
 30
0.0
 10
834.1261159193581
 20
55.00399557966107
 30
0.0
 10
827.2665485533205
 20
48.98831645333272
 30
0.0
 10
824.1330886928365
 20
45.6427554096518
 30
0.0
 10
818.5789267681931
 20
38.40443066458835
 30
0.0
 10
816.1583620416327
 20
34.51184594504915
 30
0.0
 10
812.1230488863383
 20
26.3290403419041
 30
0.0
 10
810.5084002386745
 20
22.03902179429187
 30
0.0
 10
808.1470106742573
 20
13.22619596342391
 30
0.0
 10
807.4003281475144
 20
8.703606594653401
 30
0.0
 10
806.8036090506522
 20
-0.4005675095469909
 30
0.0
 10
806.9535872355884
 20
-4.981927126331371
 30
0.0
 10
808.14447018653
 20
-14.02758119871933
 30
0.0
 10
809.1853455056074
 20
-18.49165198270064
 30
0.0
 10
812.1180655404027
 20
-27.13116661013565
 30
0.0
 10
814.0098377388384
 20
-31.30639682456515
 30
0.0
 10
818.5716920712387
 20
-39.20776030501039
 30
0.0
 10
821.2416614043649
 20
-42.93369819424372
 30
0.0
 10
827.2573405306933
 20
-49.79326556028155
 30
0.0
 10
830.6029015743744
 20
-52.92672542076537
 30
0.0
 10
837.8412263194377
 20
-58.48088734540855
 30
0.0
 10
841.733811038977
 20
-60.90145207196911
 30
0.0
 10
849.9166166421219
 20
-64.93676522726342
 30
0.0
 10
854.2066351897341
 20
-66.55141387492732
 30
0.0
 10
863.0194610206021
 20
-68.91280343934454
 30
0.0
 10
867.5420503893725
 20
-69.65948596608747
 30
0.0
 10
876.6462244935732
 20
-70.25620506294959
 30
0.0
 10
881.2275841103574
 20
-70.10622687801323
 30
0.0
 10
890.2732381827456
 20
-68.91534392707176
 30
0.0
 10
894.7373089667267
 20
-67.87446860799443
 30
0.0
 10
903.3768235941616
 20
-64.94174857319919
 30
0.0
 10
907.5520538085913
 20
-63.0499763747634
 30
0.0
 10
911.5027355488138
 20
-60.7690492085633
 30
0.0
  0
SPLINE
  5
21A
330
1F
100
AcDbEntity
  8
0
  6
Continuous
 62
     7
370
    15
100
AcDbSpline
210
0.0
220
0.0
230
1.0
 70
     8
 71
     3
 72
    38
 73
    34
 74
     0
 42
0.000000001
 43
0.00000001
 40
0.0
 40
0.0
 40
0.0
 40
0.0
 40
0.0624999999999999
 40
0.0624999999999999
 40
0.1249999999999999
 40
0.1249999999999999
 40
0.1874999999999998
 40
0.1874999999999998
 40
0.2499999999999997
 40
0.2499999999999997
 40
0.3124999999999997
 40
0.3124999999999997
 40
0.3749999999999997
 40
0.3749999999999997
 40
0.4374999999999997
 40
0.4374999999999997
 40
0.4999999999999997
 40
0.4999999999999997
 40
0.5624999999999997
 40
0.5624999999999997
 40
0.6249999999999998
 40
0.6249999999999998
 40
0.6874999999999998
 40
0.6874999999999998
 40
0.7499999999999998
 40
0.7499999999999998
 40
0.8124999999999999
 40
0.8124999999999999
 40
0.8749999999999999
 40
0.8749999999999999
 40
0.9375
 40
0.9375
 40
1.0
 40
1.0
 40
1.0
 40
1.0
 10
911.5027355488138
 20
-60.7690492085633
 30
0.0
 10
915.4534172890365
 20
-58.4881220423632
 30
0.0
 10
919.1793551782697
 20
-55.81815270923684
 30
0.0
 10
926.0389225443076
 20
-49.80247358290845
 30
0.0
 10
929.1723824047912
 20
-46.4569125392275
 30
0.0
 10
934.7265443294343
 20
-39.21858779416407
 30
0.0
 10
937.1471090559951
 20
-35.32600307462485
 30
0.0
 10
941.1824222112893
 20
-27.14319747147983
 30
0.0
 10
942.7970708589532
 20
-22.85317892386766
 30
0.0
 10
945.1584604233705
 20
-14.04035309299966
 30
0.0
 10
945.9051429501134
 20
-9.517763724229146
 30
0.0
 10
946.5018620469756
 20
-0.4135896200287549
 30
0.0
 10
946.3518838620391
 20
4.167769996755654
 30
0.0
 10
945.1610009110977
 20
13.21342406914365
 30
0.0
 10
944.1201255920204
 20
17.67749485312492
 30
0.0
 10
941.1874055572251
 20
26.31700948055993
 30
0.0
 10
939.2956333587892
 20
30.4922396949894
 30
0.0
 10
934.7337790263891
 20
38.39360317543471
 30
0.0
 10
932.0638096932628
 20
42.11954106466799
 30
0.0
 10
926.0481305669344
 20
48.97910843070573
 30
0.0
 10
922.7025695232535
 20
52.11256829118958
 30
0.0
 10
915.46424477819
 20
57.66673021583279
 30
0.0
 10
911.5716600586508
 20
60.0872949423933
 30
0.0
 10
903.3888544555058
 20
64.12260809768763
 30
0.0
 10
899.0988359078937
 20
65.73725674535159
 30
0.0
 10
890.2860100770256
 20
68.09864630976881
 30
0.0
 10
885.763420708255
 20
68.84532883651168
 30
0.0
 10
876.6592466040548
 20
69.44204793337383
 30
0.0
 10
872.0778869872703
 20
69.29206974843751
 30
0.0
 10
863.0322329148823
 20
68.10118679749607
 30
0.0
 10
858.5681621309011
 20
67.0603114784187
 30
0.0
 10
849.928647503466
 20
64.12759144362342
 30
0.0
 10
845.7534172890366
 20
62.2358192451877
 30
0.0
 10
841.802735548814
 20
59.95489207898762
 30
0.0
  0
LWPOLYLINE
  5
317
330
1F
100
AcDbEntity
  8
0
  6
PHANTOM
 62
     8
370
     0
100
AcDbPolyline
 90
       16
 70
   128
 43
0.0
 10
-5.5039277787
 20
-173.7314131156
 10
-5.5693405114
 20
-173.6261491958
 10
-5.5399000461
 20
-173.2961452391
 10
-5.1623672865
 20
-172.9782305673
 10
-4.4604640045
 20
-172.6923809285
 10
-3.4782933646
 20
-172.4565573068
 10
-2.2775687603
 20
-172.2855773676
 10
-0.9337361346
 20
-172.1901844092
 10
0.4687665666
 20
-172.1763723222
 10
1.8418149403
 20
-172.2450089708
 10
3.0991353077
 20
-172.3917816618
 10
4.1617256058
 20
-172.6074681273
 10
4.9628193784
 20
-172.8785159935
 10
5.4520809574
 20
-173.187894326
 10
5.5987682386
 20
-173.5161637465
 10
5.5057033283
 20
-173.7291776287
  0
LWPOLYLINE
  5
318
330
1F
100
AcDbEntity
  8
0
  6
PHANTOM
 62
     8
370
     0
100
AcDbPolyline
 90
       14
 70
   128
 43
0.0
 10
-6.7221038221
 20
-169.4882965815
 10
-6.1080272734
 20
-169.1356710609
 10
-5.1646653934
 20
-168.8258504449
 10
-3.9428750652
 20
-168.575537243
 10
-2.5085233216
 20
-168.3982259048
 10
-0.9389364365
 20
-168.3034753303
 10
0.681268755
 20
-168.2963935476
 10
2.2647465715
 20
-168.3773623375
 10
3.7261313142
 20
-168.5420166514
 10
4.9866393532
 20
-168.7814799327
 10
5.978316374
 20
-169.082842654
 10
6.6477008116
 20
-169.4298582728
 10
6.9587059777
 20
-169.8038190875
 10
6.9780260947
 20
-169.9605224626
  0
LWPOLYLINE
  5
319
330
1F
100
AcDbEntity
  8
0
  6
PHANTOM
 62
     8
370
     0
100
AcDbPolyline
 90
        3
 70
   128
 43
0.0
 10
-6.9779683928
 20
-169.9612358999
 10
-6.9737900139
 20
-169.8647168735
 10
-6.7221038221
 20
-169.4882965815
  0
SPLINE
  5
31B
330
1F
100
AcDbEntity
  8
0
  6
PHANTOM
 62
     8
370
     0
100
AcDbSpline
210
0.0
220
0.0
230
1.0
 70
     8
 71
     3
 72
     9
 73
     5
 74
     0
 42
0.000000001
 43
0.00000001
 40
0.0
 40
0.0
 40
0.0
 40
0.0
 40
0.5042478721590237
 40
1.0
 40
1.0
 40
1.0
 40
1.0
 10
3.03217687668701
 20
-173.3886983558398
 30
0.0
 10
3.022510130940839
 20
-173.3979178664938
 30
0.0
 10
3.003339508158077
 20
-173.4162015542654
 30
0.0
 10
2.999742812888125
 20
-173.4350127119435
 30
0.0
 10
2.99795974355485
 20
-173.4443383833897
 30
0.0
  0
SPLINE
  5
321
330
1F
100
AcDbEntity
  8
0
  6
PHANTOM
 62
     8
370
     0
100
AcDbSpline
210
0.0
220
0.0
230
1.0
 70
     8
 71
     3
 72
    11
 73
     7
 74
     0
 42
0.000000001
 43
0.00000001
 40
0.0
 40
0.0
 40
0.0
 40
0.0
 40
0.251868656809484
 40
0.4995735700706397
 40
0.7474945084923396
 40
1.0
 40
1.0
 40
1.0
 40
1.0
 10
-4.269817580496262
 20
-173.5260356474617
 30
0.0
 10
-4.287135279311574
 20
-173.5215711163193
 30
0.0
 10
-4.32148439099607
 20
-173.5127158590205
 30
0.0
 10
-4.36285712739367
 20
-173.4976029992727
 30
0.0
 10
-4.396416781674694
 20
-173.4814382924495
 30
0.0
 10
-4.41088618766485
 20
-173.4699246597343
 30
0.0
 10
-4.418187169892913
 20
-173.4641151034961
 30
0.0
  0
SPLINE
  5
324
330
1F
100
AcDbEntity
  8
0
  6
PHANTOM
 62
     8
370
     0
100
AcDbSpline
210
0.0
220
0.0
230
1.0
 70
     8
 71
     3
 72
    15
 73
    11
 74
     0
 42
0.000000001
 43
0.00000001
 40
0.0
 40
0.0
 40
0.0
 40
0.0
 40
0.1008669280672412
 40
0.2000663837844236
 40
0.299352352030312
 40
0.4004743160417099
 40
0.5999404124962011
 40
0.8000991938816565
 40
0.900843662336916
 40
1.0
 40
1.0
 40
1.0
 40
1.0
 10
-2.712781090253567
 20
-174.4739887901817
 30
0.0
 10
-2.737880431162051
 20
-174.4752809006229
 30
0.0
 10
-2.787664185531824
 20
-174.4778437611002
 30
0.0
 10
-2.86404510487564
 20
-174.4787445168149
 30
0.0
 10
-2.940229376435547
 20
-174.4773738825153
 30
0.0
 10
-3.03993043342384
 20
-174.4723838486318
 30
0.0
 10
-3.159016259119689
 20
-174.4607074699985
 30
0.0
 10
-3.259533351949731
 20
-174.4417925478038
 30
0.0
 10
-3.32689596077387
 20
-174.4237461533081
 30
0.0
 10
-3.35361654456907
 20
-174.4135503927202
 30
0.0
 10
-3.366870694368661
 20
-174.4084930130166
 30
0.0
  0
SPLINE
  5
326
330
1F
100
AcDbEntity
  8
0
  6
PHANTOM
 62
     8
370
     0
100
AcDbSpline
210
0.0
220
0.0
230
1.0
 70
     8
 71
     3
 72
    15
 73
    11
 74
     0
 42
0.000000001
 43
0.00000001
 40
0.0
 40
0.0
 40
0.0
 40
0.0
 40
0.1010712209657554
 40
0.2005080375239572
 40
0.2994234813881728
 40
0.3989480780983882
 40
0.5001919491903564
 40
0.6675459720670331
 40
0.8324050451739908
 40
1.0
 40
1.0
 40
1.0
 40
1.0
 10
-0.4324046447674483
 20
-174.447528616816
 30
0.0
 10
-0.4556763941167884
 20
-174.4422510255328
 30
0.0
 10
-0.5018435695718724
 20
-174.4317811859391
 30
0.0
 10
-0.5790489572494916
 20
-174.418380321366
 30
0.0
 10
-0.6610480171099756
 20
-174.4069386470036
 30
0.0
 10
-0.7484303037200241
 20
-174.3976065025851
 30
0.0
 10
-0.8601876804403917
 20
-174.3888123692031
 30
0.0
 10
-0.9968493276801419
 20
-174.3826971881807
 30
0.0
 10
-1.157825216443064
 20
-174.3819680446034
 30
0.0
 10
-1.262149393511931
 20
-174.3870380349758
 30
0.0
 10
-1.314740742312322
 20
-174.3895938915335
 30
0.0
  0
SPLINE
  5
328
330
1F
100
AcDbEntity
  8
0
  6
PHANTOM
 62
     8
370
     0
100
AcDbSpline
210
0.0
220
0.0
230
1.0
 70
     8
 71
     3
 72
    17
 73
    13
 74
     0
 42
0.000000001
 43
0.00000001
 40
0.0
 40
0.0
 40
0.0
 40
0.0
 40
0.0630669778110611
 40
0.1250913696752166
 40
0.1871698534388712
 40
0.2503962922995911
 40
0.3751123327323138
 40
0.500261473944401
 40
0.624977665719999
 40
0.7501269340840163
 40
0.8749563300889439
 40
1.0
 40
1.0
 40
1.0
 40
1.0
 10
1.557036490239049
 20
-174.6308919400577
 30
0.0
 10
1.549245617063299
 20
-174.6366491892736
 30
0.0
 10
1.533792664815607
 20
-174.6480685122692
 30
0.0
 10
1.498920102983034
 20
-174.6640732005247
 30
0.0
 10
1.455778313956194
 20
-174.6789013156773
 30
0.0
 10
1.38755775215389
 20
-174.6967126564287
 30
0.0
 10
1.284949075065189
 20
-174.7150998843774
 30
0.0
 10
1.141622624982931
 20
-174.7283881554139
 30
0.0
 10
0.9884343176557499
 20
-174.7330197144845
 30
0.0
 10
0.8363418155008726
 20
-174.7275824328737
 30
0.0
 10
0.6924179557496905
 20
-174.7139388319313
 30
0.0
 10
0.6157884657281731
 20
-174.6980020105142
 30
0.0
 10
0.5774408646348843
 20
-174.6900267666461
 30
0.0
  0
SPLINE
  5
32A
330
1F
100
AcDbEntity
  8
0
  6
PHANTOM
 62
     8
370
     0
100
AcDbSpline
210
0.0
220
0.0
230
1.0
 70
     8
 71
     3
 72
    15
 73
    11
 74
     0
 42
0.000000001
 43
0.00000001
 40
0.0
 40
0.0
 40
0.0
 40
0.0
 40
0.1010712209656695
 40
0.2005080375239582
 40
0.2994234813880084
 40
0.3989480780983939
 40
0.5001919491903293
 40
0.6675459720670056
 40
0.8324050451740935
 40
1.0
 40
1.0
 40
1.0
 40
1.0
 10
2.59977223192321
 20
-174.1532881753183
 30
0.0
 10
2.568699055857691
 20
-174.1553884164535
 30
0.0
 10
2.50705518242858
 20
-174.1595549361049
 30
0.0
 10
2.419097275268702
 20
-174.1685765351139
 30
0.0
 10
2.335958204577734
 20
-174.1795539080464
 30
0.0
 10
2.257896892392222
 20
-174.1926822810964
 30
0.0
 10
2.169629522937916
 20
-174.2110433796989
 30
0.0
 10
2.078776565599857
 20
-174.2358154363075
 30
0.0
 10
1.995603194721585
 20
-174.2682318405242
 30
0.0
 10
1.962113816071006
 20
-174.2920113113371
 30
0.0
 10
1.945231328777988
 20
-174.3039988915793
 30
0.0
  0
SPLINE
  5
32C
330
1F
100
AcDbEntity
  8
0
  6
PHANTOM
 62
     8
370
     0
100
AcDbSpline
210
0.0
220
0.0
230
1.0
 70
     8
 71
     3
 72
    14
 73
    10
 74
     0
 42
0.000000001
 43
0.00000001
 40
0.0
 40
0.0
 40
0.0
 40
0.0
 40
0.25
 40
0.25
 40
0.5
 40
0.5
 40
0.75
 40
0.75
 40
1.0
 40
1.0
 40
1.0
 40
1.0
 10
-5.008402583278284
 20
-173.3540840348795
 30
0.0
 10
-4.637498212792198
 20
-173.0417510300964
 30
0.0
 10
-3.754061079411977
 20
-172.776835648631
 30
0.0
 10
-1.351060887265533
 20
-172.4584710489163
 30
0.0
 10
0.0702628612808354
 20
-172.4180371932028
 30
0.0
 10
2.726809582427321
 20
-172.592467668073
 30
0.0
 10
3.853427770764341
 20
-172.8002009424093
 30
0.0
 10
5.207351980741028
 20
-173.3652474853766
 30
0.0
 10
5.37930695375708
 20
-173.6994605550127
 30
0.0
 10
5.008402583270994
 20
-174.0117935597957
 30
0.0
  0
SPLINE
  5
32D
330
1F
100
AcDbEntity
  8
0
  6
PHANTOM
 62
     8
370
     0
100
AcDbSpline
210
0.0
220
0.0
230
1.0
 70
     8
 71
     3
 72
    12
 73
     8
 74
     0
 42
0.000000001
 43
0.00000001
 40
0.0
 40
0.0
 40
0.0
 40
0.0
 40
0.1525200590157585
 40
0.3893683761083528
 40
0.6312429543101842
 40
0.8731175325120054
 40
0.9999999999999999
 40
0.9999999999999999
 40
0.9999999999999999
 40
0.9999999999999999
 10
-5.536441064265667
 20
-168.6622774044218
 30
0.0
 10
-5.42406554185487
 20
-168.6013204864382
 30
0.0
 10
-5.137182131516699
 20
-168.4457036035113
 30
0.0
 10
-4.278989351428331
 20
-168.2521636994277
 30
0.0
 10
-3.206355324859762
 20
-168.0705694727209
 30
0.0
 10
-2.170634711577533
 20
-167.9574824952665
 30
0.0
 10
-1.501451093427633
 20
-167.9295241054226
 30
0.0
 10
-1.27119740833649
 20
-167.9199041414602
 30
0.0
  0
LWPOLYLINE
  5
331
330
1F
100
AcDbEntity
  8
0
  6
PHANTOM
 62
     8
370
     0
100
AcDbPolyline
 90
        3
 70
   128
 43
0.0
 10
-3.9978125799
 20
-173.296984318
 10
-3.9934946396
 20
-173.2994626406
 10
-3.9917868922
 20
-173.2996065083
  0
LWPOLYLINE
  5
332
330
1F
100
AcDbEntity
  8
0
  6
PHANTOM
 62
     8
370
     0
100
AcDbPolyline
 90
        5
 70
   128
 43
0.0
 10
-4.1994536501
 20
-173.4295158907
 10
-4.2755372714
 20
-173.4056865129
 10
-4.3227996004
 20
-173.3780387088
 10
-4.3380197875
 20
-173.3484566305
 10
-4.3376046898
 20
-173.3447862318
  0
LWPOLYLINE
  5
350
330
1F
100
AcDbEntity
  8
0
  6
PHANTOM
 62
     8
370
     0
100
AcDbPolyline
 90
        3
 70
   128
 43
0.0
 10
-5.3936643205
 20
173.1343953146
 10
-5.5987682386
 20
173.460929448
 10
-5.5049639806
 20
173.730111098
  0
LWPOLYLINE
  5
351
330
1F
100
AcDbEntity
  8
0
  6
PHANTOM
 62
     8
370
     0
100
AcDbPolyline
 90
       14
 70
   128
 43
0.0
 10
5.5063990826
 20
173.7282957642
 10
5.5399000461
 20
173.6809479553
 10
5.5693405114
 20
173.3509439986
 10
5.2488388298
 20
173.0295861193
 10
4.5985333007
 20
172.7370664147
 10
3.659285012
 20
172.4917649737
 10
2.4901103882
 20
172.309094988
 10
1.1644729706
 20
172.2005342847
 10
-0.2343325663
 20
172.1729041319
 10
-1.6184141262
 20
172.2279406339
 10
-2.9008047745
 20
172.3621856446
 10
-4.0009271904
 20
172.5672040565
 10
-4.8496566366
 20
172.8301138087
 10
-5.3936643205
 20
173.1343953146
  0
LWPOLYLINE
  5
352
330
1F
100
AcDbEntity
  8
0
  6
PHANTOM
 62
     8
370
     0
100
AcDbPolyline
 90
       16
 70
   128
 43
0.0
 10
6.9721024595
 20
170.0039753708
 10
6.9737900138
 20
169.9946311475
 10
6.8495173808
 20
169.6147089995
 10
6.3559854929
 20
169.2517666967
 10
5.5198007818
 20
168.9253705526
 10
4.3860421819
 20
168.653116668
 10
3.0158309126
 20
168.4496823201
 10
1.4830354182
 20
168.3260347073
 10
-0.1297108994
 20
168.2888397044
 10
-1.7354644689
 20
168.3401025037
 10
-3.2476586997
 20
168.4770595144
 10
-4.5847708093
 20
168.6923273485
 10
-5.6747167379
 20
168.9743008615
 10
-6.4587372183
 20
169.3077787882
 10
-6.8945655035
 20
169.6747832473
 10
-6.9727182927
 20
170.0007082528
  0
SPLINE
  5
359
330
1F
100
AcDbEntity
  8
0
  6
PHANTOM
 62
     8
370
     0
100
AcDbSpline
210
0.0
220
0.0
230
1.0
 70
     8
 71
     3
 72
    13
 73
     9
 74
     0
 42
0.000000001
 43
0.00000001
 40
0.0
 40
0.0
 40
0.0
 40
0.0
 40
0.1680065911471837
 40
0.3332357967756041
 40
0.4986090999323582
 40
0.66704048561278
 40
0.8348426675786865
 40
1.0
 40
1.0
 40
1.0
 40
1.0
 10
3.997812579864451
 20
174.06889327667
 30
0.0
 10
4.022455537936798
 20
174.0671828080986
 30
0.0
 10
4.071334071285244
 20
174.0637901474099
 30
0.0
 10
4.140106632894899
 20
174.0559256515915
 30
0.0
 10
4.20409251381437
 20
174.0461042330587
 30
0.0
 10
4.262078490364276
 20
174.0342719462112
 30
0.0
 10
4.314060024422297
 20
174.0209486254979
 30
0.0
 10
4.341672911909712
 20
174.0108867661462
 30
0.0
 10
4.355369684762906
 20
174.0058957994434
 30
0.0
  0
SPLINE
  5
35B
330
1F
100
AcDbEntity
  8
0
  6
PHANTOM
 62
     8
370
     0
100
AcDbSpline
210
0.0
220
0.0
230
1.0
 70
     8
 71
     3
 72
    15
 73
    11
 74
     0
 42
0.000000001
 43
0.00000001
 40
0.0
 40
0.0
 40
0.0
 40
0.0
 40
0.1010712209655793
 40
0.2005080375237725
 40
0.2994234813879834
 40
0.3989480780983353
 40
0.5001919491903756
 40
0.6675459720669554
 40
0.8324050451738974
 40
0.9999999999999999
 40
0.9999999999999999
 40
0.9999999999999999
 40
0.9999999999999999
 10
1.945231328777994
 20
174.3039988915792
 30
0.0
 10
1.954813800848956
 20
174.2967380036829
 30
0.0
 10
1.973823788570675
 20
174.2823336423935
 30
0.0
 10
2.014029335916644
 20
174.2618450825503
 30
0.0
 10
2.062449248085167
 20
174.242530462359
 30
0.0
 10
2.119908151320446
 20
174.2244547523093
 30
0.0
 10
2.199829968812282
 20
174.2040896036899
 30
0.0
 10
2.307064263126055
 20
174.1832512615667
 30
0.0
 10
2.446639566266155
 20
174.1643788738286
 30
0.0
 10
2.548448735489745
 20
174.1570053013997
 30
0.0
 10
2.599772231923204
 20
174.1532881753182
 30
0.0
  0
SPLINE
  5
35D
330
1F
100
AcDbEntity
  8
0
  6
PHANTOM
 62
     8
370
     0
100
AcDbSpline
210
0.0
220
0.0
230
1.0
 70
     8
 71
     3
 72
    17
 73
    13
 74
     0
 42
0.000000001
 43
0.00000001
 40
0.0
 40
0.0
 40
0.0
 40
0.0
 40
0.063066977811009
 40
0.125091369675182
 40
0.1871698534387604
 40
0.2503962922995349
 40
0.3751123327321978
 40
0.5002614739442582
 40
0.6249776657199595
 40
0.7501269340839897
 40
0.874956330088958
 40
0.9999999999999999
 40
0.9999999999999999
 40
0.9999999999999999
 40
0.9999999999999999
 10
0.5774408646348971
 20
174.690026766646
 30
0.0
 10
0.5960622939979071
 20
174.6941895957873
 30
0.0
 10
0.632997314276015
 20
174.7024464366427
 30
0.0
 10
0.6963437845163046
 20
174.7125219789552
 30
0.0
 10
0.764526610066404
 20
174.7206298091188
 30
0.0
 10
0.8607981536323248
 20
174.7285113258981
 30
0.0
 10
0.9883849784679958
 20
174.7330024412755
 30
0.0
 10
1.14120879764131
 20
174.7284131367504
 30
0.0
 10
1.284941222361902
 20
174.7151206100644
 30
0.0
 10
1.407086842522846
 20
174.6931285140146
 30
0.0
 10
1.505262940995595
 20
174.6648701693223
 30
0.0
 10
1.539768777216217
 20
174.6422244896034
 30
0.0
 10
1.557036490239062
 20
174.6308919400576
 30
0.0
  0
SPLINE
  5
35F
330
1F
100
AcDbEntity
  8
0
  6
PHANTOM
 62
     8
370
     0
100
AcDbSpline
210
0.0
220
0.0
230
1.0
 70
     8
 71
     3
 72
    15
 73
    11
 74
     0
 42
0.000000001
 43
0.00000001
 40
0.0
 40
0.0
 40
0.0
 40
0.0
 40
0.1010712209657929
 40
0.2005080375240444
 40
0.2994234813882176
 40
0.3989480780984422
 40
0.5001919491903937
 40
0.6675459720671497
 40
0.8324050451741343
 40
1.0
 40
1.0
 40
1.0
 40
1.0
 10
-1.314740742312294
 20
174.3895938915335
 30
0.0
 10
-1.283207748753238
 20
174.3879148130317
 30
0.0
 10
-1.220651675962501
 20
174.3845838081025
 30
0.0
 10
-1.125089797677909
 20
174.3825269473837
 30
0.0
 10
-1.029744341748599
 20
174.3827298218858
 30
0.0
 10
-0.9344422805378743
 20
174.3853928429532
 30
0.0
 10
-0.8194767891441165
 20
174.3914854711081
 30
0.0
 10
-0.6891122936995807
 20
174.4029033891653
 30
0.0
 10
-0.5498178787698422
 20
174.4218901765163
 30
0.0
 10
-0.4717565209376987
 20
174.4389357121367
 30
0.0
 10
-0.4324046447674201
 20
174.447528616816
 30
0.0
  0
SPLINE
  5
362
330
1F
100
AcDbEntity
  8
0
  6
PHANTOM
 62
     8
370
     0
100
AcDbSpline
210
0.0
220
0.0
230
1.0
 70
     8
 71
     3
 72
    12
 73
     8
 74
     0
 42
0.000000001
 43
0.00000001
 40
0.0
 40
0.0
 40
0.0
 40
0.0
 40
0.2020648695547923
 40
0.4008621847038589
 40
0.5986171546195264
 40
0.7975899627013003
 40
1.0
 40
1.0
 40
1.0
 40
1.0
 10
-3.259972071093947
 20
173.7685337972917
 30
0.0
 10
-3.23802408597394
 20
173.774115760934
 30
0.0
 10
-3.194483032625882
 20
173.7851894232957
 30
0.0
 10
-3.139089496258653
 20
173.8036188597928
 30
0.0
 10
-3.092304426430879
 20
173.8231448973295
 30
0.0
 10
-3.053930669830041
 20
173.8438513603894
 30
0.0
 10
-3.036158702621395
 20
173.8583625448989
 30
0.0
 10
-3.027196624179394
 20
173.8656802701869
 30
0.0
  0
SPLINE
  5
364
330
1F
100
AcDbEntity
  8
0
  6
PHANTOM
 62
     8
370
     0
100
AcDbSpline
210
0.0
220
0.0
230
1.0
 70
     8
 71
     3
 72
    14
 73
    10
 74
     0
 42
0.000000001
 43
0.00000001
 40
0.0
 40
0.0
 40
0.0
 40
0.0
 40
0.25
 40
0.25
 40
0.5
 40
0.5
 40
0.75
 40
0.75
 40
1.0
 40
1.0
 40
1.0
 40
1.0
 10
5.008402583270978
 20
174.0117935597956
 30
0.0
 10
5.379306953757064
 20
173.6994605550126
 30
0.0
 10
5.207351980741015
 20
173.3652474853765
 30
0.0
 10
3.853427770764325
 20
172.8002009424092
 30
0.0
 10
2.726809582427305
 20
172.5924676680729
 30
0.0
 10
0.0702628612808222
 20
172.4180371932028
 30
0.0
 10
-1.351060887265546
 20
172.4584710489162
 30
0.0
 10
-3.75406107941199
 20
172.7768356486309
 30
0.0
 10
-4.637498212792208
 20
173.0417510300963
 30
0.0
 10
-5.008402583278296
 20
173.3540840348794
 30
0.0
  0
LWPOLYLINE
  5
36B
330
1F
100
AcDbEntity
  8
0
  6
PHANTOM
 62
     8
370
     0
100
AcDbPolyline
 90
        3
 70
   128
 43
0.0
 10
4.2698175805
 20
173.8398419472
 10
4.2574105211
 20
173.8412220962
 10
4.2464679738
 20
173.8398816218
  0
LWPOLYLINE
  5
36C
330
1F
100
AcDbEntity
  8
0
  6
PHANTOM
 62
     8
370
     0
100
AcDbPolyline
 90
        8
 70
   128
 43
0.0
 10
-2.9008656916
 20
173.8491031834
 10
-2.899998117
 20
173.84143187
 10
-2.9072866248
 20
173.8102727372
 10
-2.9318090546
 20
173.7796038755
 10
-2.973145821
 20
173.7499500376
 10
-3.0305896404
 20
173.7218186089
 10
-3.1031576331
 20
173.6956909259
 10
-3.1896081407
 20
173.6720140405
  0
LWPOLYLINE
  5
36E
330
1F
100
AcDbEntity
  8
0
  6
PHANTOM
 62
     8
370
     0
100
AcDbPolyline
 90
        7
 70
   128
 43
0.0
 10
3.9733243239
 20
173.9661454676
 10
4.0909034496
 20
173.9550321036
 10
4.192243773
 20
173.9371416402
 10
4.2704391184
 20
173.9136932827
 10
4.3201606022
 20
173.8862849979
 10
4.3380197875
 20
173.8567846152
 10
4.3376046898
 20
173.8507166356
  0
LWPOLYLINE
  5
386
330
1F
100
AcDbEntity
  8
0
  6
PHANTOM
 62
     8
370
     0
100
AcDbPolyline
 90
       16
 70
   128
 43
0.0
 10
1578.9375591777
 20
1112.2077810828
 10
1579.0468402259
 20
1112.1493262205
 10
1579.1863460133
 20
1111.848814178
 10
1579.0183503886
 20
1111.3847256162
 10
1578.5534091348
 20
1110.7862209264
 10
1577.8207362207
 20
1110.0909063592
 10
1576.8663681801
 20
1109.3424710861
 10
1575.7502714669
 20
1108.587942048
 10
1574.5425745423
 20
1107.8747290792
 10
1573.3191614458
 20
1107.2476459736
 10
1572.1569037215
 20
1106.7460946689
 10
1571.1288302967
 20
1106.4015894782
 10
1570.2995388058
 20
1106.2357769297
 10
1569.7211366829
 20
1106.2590756355
 10
1569.4299670608
 20
1106.4700216524
 10
1569.4040566962
 20
1106.7010295409
  0
LWPOLYLINE
  5
387
330
1F
100
AcDbEntity
  8
0
  6
PHANTOM
 62
     8
370
     0
100
AcDbPolyline
 90
       14
 70
   128
 43
0.0
 10
1582.1140888447
 20
1109.1422223948
 10
1581.7585957139
 20
1108.5298014616
 10
1581.0965306688
 20
1107.7898079975
 10
1580.1635858074
 20
1106.9621352417
 10
1579.0100564286
 20
1106.0914032466
 10
1577.6981295999
 20
1105.2245533995
 10
1576.2985316361
 20
1104.4083178001
 10
1574.8867152257
 20
1103.6866999207
 10
1573.5387917569
 20
1103.0986023681
 10
1572.3274281328
 20
1102.6757296335
 10
1571.3179292799
 20
1102.4408788954
 10
1570.5647175425
 20
1102.4067110181
 10
1570.1083987606
 20
1102.5750680005
 10
1570.013315361
 20
1102.7011170457
  0
LWPOLYLINE
  5
388
330
1F
100
AcDbEntity
  8
0
  6
PHANTOM
 62
     8
370
     0
100
AcDbPolyline
 90
        3
 70
   128
 43
0.0
 10
1582.0992044035
 20
1109.6797321443
 10
1582.1438453345
 20
1109.594055026
 10
1582.1140888447
 20
1109.1422223948
  0
SPLINE
  5
38A
330
1F
100
AcDbEntity
  8
0
  6
PHANTOM
 62
     8
370
     0
100
AcDbSpline
210
0.0
220
0.0
230
1.0
 70
     8
 71
     3
 72
     9
 73
     5
 74
     0
 42
0.000000001
 43
0.00000001
 40
0.0
 40
0.0
 40
0.0
 40
0.0
 40
0.5042478721598419
 40
0.9999999999999999
 40
0.9999999999999999
 40
0.9999999999999999
 40
0.9999999999999999
 10
1571.716433076648
 20
1107.642929066931
 30
0.0
 10
1571.720194968709
 20
1107.655746770241
 30
0.0
 10
1571.727655371159
 20
1107.681166219717
 30
0.0
 10
1571.721364621794
 20
1107.699255507776
 30
0.0
 10
1571.718245969411
 20
1107.708223310823
 30
0.0
  0
SPLINE
  5
390
330
1F
100
AcDbEntity
  8
0
  6
PHANTOM
 62
     8
370
     0
100
AcDbSpline
210
0.0
220
0.0
230
1.0
 70
     8
 71
     3
 72
    11
 73
     7
 74
     0
 42
0.000000001
 43
0.00000001
 40
0.0
 40
0.0
 40
0.0
 40
0.0
 40
0.2518686568093944
 40
0.4995735700707871
 40
0.7474945084921217
 40
1.0
 40
1.0
 40
1.0
 40
1.0
 10
1577.971477129051
 20
1111.412863878954
 30
0.0
 10
1577.988706961732
 20
1111.417656330976
 30
0.0
 10
1578.022881793697
 20
1111.427162009041
 30
0.0
 10
1578.066268064316
 20
1111.434760256775
 30
0.0
 10
1578.103413930877
 20
1111.437541037161
 30
0.0
 10
1578.1217016204
 20
1111.434804641735
 30
0.0
 10
1578.130929234601
 20
1111.433423909562
 30
0.0
  0
SPLINE
  5
393
330
1F
100
AcDbEntity
  8
0
  6
PHANTOM
 62
     8
370
     0
100
AcDbSpline
210
0.0
220
0.0
230
1.0
 70
     8
 71
     3
 72
    17
 73
    13
 74
     0
 42
0.000000001
 43
0.00000001
 40
0.0
 40
0.0
 40
0.0
 40
0.0
 40
0.0630669778108536
 40
0.1250913696751416
 40
0.1871698534388621
 40
0.2503962922996253
 40
0.3751123327322644
 40
0.5002614739444482
 40
0.6249776657199598
 40
0.7501269340839587
 40
0.8749563300888574
 40
1.0
 40
1.0
 40
1.0
 40
1.0
 10
1576.149067402522
 20
1111.455297137026
 30
0.0
 10
1576.170157995032
 20
1111.468965783292
 30
0.0
 10
1576.21199052286
 20
1111.496077113855
 30
0.0
 10
1576.277688242342
 20
1111.535048013077
 30
0.0
 10
1576.344350003154
 20
1111.571951763466
 30
0.0
 10
1576.433194071958
 20
1111.617487765825
 30
0.0
 10
1576.542122868196
 20
1111.666866085508
 30
0.0
 10
1576.657840149083
 20
1111.707645391302
 30
0.0
 10
1576.753384940303
 20
1111.729461211821
 30
0.0
 10
1576.818745693078
 20
1111.728294691685
 30
0.0
 10
1576.855614620371
 20
1111.707861279598
 30
0.0
 10
1576.849751289898
 20
1111.677256135826
 30
0.0
 10
1576.846817110668
 20
1111.66194044151
 30
0.0
  0
SPLINE
  5
395
330
1F
100
AcDbEntity
  8
0
  6
PHANTOM
 62
     8
370
     0
100
AcDbSpline
210
0.0
220
0.0
230
1.0
 70
     8
 71
     3
 72
    15
 73
    11
 74
     0
 42
0.000000001
 43
0.00000001
 40
0.0
 40
0.0
 40
0.0
 40
0.0
 40
0.1010712209656613
 40
0.200508037523758
 40
0.2994234813882189
 40
0.3989480780982075
 40
0.5001919491902194
 40
0.6675459720670269
 40
0.8324050451737904
 40
1.0
 40
1.0
 40
1.0
 40
1.0
 10
1574.187433557222
 20
1110.29219373196
 30
0.0
 10
1574.21022627899
 20
1110.299259078512
 30
0.0
 10
1574.255443145552
 20
1110.313275519178
 30
0.0
 10
1574.329005404877
 20
1110.340272723864
 30
0.0
 10
1574.405739510984
 20
1110.371363473134
 30
0.0
 10
1574.486080863238
 20
1110.406972742301
 30
0.0
 10
1574.587262657229
 20
1110.455235487748
 30
0.0
 10
1574.708672705974
 20
1110.518270409254
 30
0.0
 10
1574.848446486827
 20
1110.598126896774
 30
0.0
 10
1574.936258879211
 20
1110.654679725768
 30
0.0
 10
1574.980526395013
 20
1110.683188836876
 30
0.0
  0
SPLINE
  5
397
330
1F
100
AcDbEntity
  8
0
  6
PHANTOM
 62
     8
370
     0
100
AcDbSpline
210
0.0
220
0.0
230
1.0
 70
     8
 71
     3
 72
    17
 73
    13
 74
     0
 42
0.000000001
 43
0.00000001
 40
0.0
 40
0.0
 40
0.0
 40
0.0
 40
0.0630669778110547
 40
0.1250913696751986
 40
0.1871698534389397
 40
0.2503962922995451
 40
0.3751123327322911
 40
0.5002614739444068
 40
0.6249776657198458
 40
0.7501269340840555
 40
0.8749563300887865
 40
1.0
 40
1.0
 40
1.0
 40
1.0
 10
1572.372845333352
 20
1109.456270460506
 30
0.0
 10
1572.376713802832
 20
1109.465151821171
 30
0.0
 10
1572.384386790544
 20
1109.482767721103
 30
0.0
 10
1572.406584970858
 20
1109.514064468628
 30
0.0
 10
1572.436532798544
 20
1109.548476887554
 30
0.0
 10
1572.486707867749
 20
1109.598012242021
 30
0.0
 10
1572.566375974783
 20
1109.665240387074
 30
0.0
 10
1572.68385618607
 20
1109.748411592406
 30
0.0
 10
1572.814205372242
 20
1109.829016793883
 30
0.0
 10
1572.948639983639
 20
1109.900354220958
 30
0.0
 10
1573.080103502865
 20
1109.960500445818
 30
0.0
 10
1573.154434998612
 20
1109.985013498626
 30
0.0
 10
1573.191632617267
 20
1109.997280535382
 30
0.0
  0
SPLINE
  5
399
330
1F
100
AcDbEntity
  8
0
  6
PHANTOM
 62
     8
370
     0
100
AcDbSpline
210
0.0
220
0.0
230
1.0
 70
     8
 71
     3
 72
    15
 73
    11
 74
     0
 42
0.000000001
 43
0.00000001
 40
0.0
 40
0.0
 40
0.0
 40
0.0
 40
0.1010712209655234
 40
0.2005080375241094
 40
0.2994234813880157
 40
0.3989480780983938
 40
0.5001919491903327
 40
0.6675459720669926
 40
0.8324050451741553
 40
1.0
 40
1.0
 40
1.0
 40
1.0
 10
1571.708611573989
 20
1108.521285596456
 30
0.0
 10
1571.73447161327
 20
1108.538641046666
 30
0.0
 10
1571.785773513821
 20
1108.573071295244
 30
0.0
 10
1571.857436496382
 20
1108.624863182749
 30
0.0
 10
1571.923948357181
 20
1108.67593940192
 30
0.0
 10
1571.984987250061
 20
1108.726339562585
 30
0.0
 10
1572.052248485033
 20
1108.786374425144
 30
0.0
 10
1572.118543425792
 20
1108.853254134139
 30
0.0
 10
1572.174365475783
 20
1108.92291424913
 30
0.0
 10
1572.191478393045
 20
1108.960252564267
 30
0.0
 10
1572.200105265798
 20
1108.979075356933
 30
0.0
  0
SPLINE
  5
39B
330
1F
100
AcDbEntity
  8
0
  6
PHANTOM
 62
     8
370
     0
100
AcDbSpline
210
0.0
220
0.0
230
1.0
 70
     8
 71
     3
 72
    14
 73
    10
 74
     0
 42
0.000000001
 43
0.00000001
 40
0.0
 40
0.0
 40
0.0
 40
0.0
 40
0.25
 40
0.25
 40
0.5000000000000001
 40
0.5000000000000001
 40
0.7500000000000002
 40
0.7500000000000002
 40
1.0
 40
1.0
 40
1.0
 40
1.0
 10
1578.697086310606
 20
1111.633241915628
 30
0.0
 10
1578.532040205782
 20
1111.177301413802
 30
0.0
 10
1577.899418896361
 20
1110.50615939691
 30
0.0
 10
1575.97754198452
 20
1109.028947469818
 30
0.0
 10
1574.766856439134
 20
1108.283268849324
 30
0.0
 10
1572.379004254846
 20
1107.106056711182
 30
0.0
 10
1571.299457646212
 20
1106.7226499098
 30
0.0
 10
1569.84440161409
 20
1106.535032465342
 30
0.0
 10
1569.528377704333
 20
1106.738491987416
 30
0.0
 10
1569.693423809157
 20
1107.194432489241
 30
0.0
  0
LWPOLYLINE
  5
39F
330
1F
100
AcDbEntity
  8
0
  6
PHANTOM
 62
     8
370
     0
100
AcDbPolyline
 90
        3
 70
   128
 43
0.0
 10
1577.8504395533
 20
1111.0784971086
 10
1577.845460946
 20
1111.0784844288
 10
1577.8439100595
 20
1111.0777551481
  0
LWPOLYLINE
  5
3A0
330
1F
100
AcDbEntity
  8
0
  6
PHANTOM
 62
     8
370
     0
100
AcDbPolyline
 90
        5
 70
   128
 43
0.0
 10
1577.9588000562
 20
1111.2940933524
 10
1578.0366050939
 20
1111.3114983165
 10
1578.0913593735
 20
1111.3111857803
 10
1578.1193314814
 20
1111.2931770426
 10
1578.1208071956
 20
1111.2897908352
  0
LWPOLYLINE
  5
3BF
330
1F
100
AcDbEntity
  8
0
  6
PHANTOM
 62
     8
370
     0
100
AcDbPolyline
 90
        3
 70
   128
 43
0.0
 10
1752.2749724368
 20
811.7580475489
 10
1752.615864707
 20
811.5778126533
 10
1752.6692186616
 20
811.2977923772
  0
LWPOLYLINE
  5
3C0
330
1F
100
AcDbEntity
  8
0
  6
PHANTOM
 62
     8
370
     0
100
AcDbPolyline
 90
       14
 70
   128
 43
0.0
 10
1743.1321908518
 20
805.7936829708
 10
1743.0795042619
 20
805.8179368943
 10
1742.8890060927
 20
806.0890084715
 10
1743.0058897512
 20
806.5275633995
 10
1743.4228110074
 20
807.1060456594
 10
1744.1135731653
 20
807.7881070831
 10
1745.0347730982
 20
808.5308912432
 10
1746.1285284263
 20
809.2877262789
 10
1747.3261144798
 20
810.0110574615
 10
1748.5522825226
 20
810.6554352327
 10
1749.729987907
 20
811.1803709672
 10
1750.7852310724
 20
811.5528810222
 10
1751.6517072098
 20
811.749559221
 10
1752.2749724368
 20
811.7580475489
  0
LWPOLYLINE
  5
3C1
330
1F
100
AcDbEntity
  8
0
  6
PHANTOM
 62
     8
370
     0
100
AcDbPolyline
 90
       16
 70
   128
 43
0.0
 10
1740.0006942962
 20
808.2861873548
 10
1739.9945607196
 20
808.2934359124
 10
1739.9122229028
 20
808.6845944606
 10
1740.158162904
 20
809.2456776589
 10
1740.719122034
 20
809.9464373668
 10
1741.564858841
 20
810.7490954472
 10
1742.6497794348
 20
811.6103803951
 10
1743.9153954653
 20
812.4838601161
 10
1745.2934772448
 20
813.3224450923
 10
1746.7097320279
 20
814.0809269906
 10
1748.0878091525
 20
814.7184158555
 10
1749.3534161242
 20
815.2005444973
 10
1750.4383237436
 20
815.5013212362
 10
1751.28404436
 20
815.6045311203
 10
1751.8449849563
 20
815.5046100779
 10
1752.0756297598
 20
815.261427138
  0
SPLINE
  5
3C8
330
1F
100
AcDbEntity
  8
0
  6
PHANTOM
 62
     8
370
     0
100
AcDbSpline
210
0.0
220
0.0
230
1.0
 70
     8
 71
     3
 72
    13
 73
     9
 74
     0
 42
0.000000001
 43
0.00000001
 40
0.0
 40
0.0
 40
0.0
 40
0.0
 40
0.1680065911473355
 40
0.3332357967753896
 40
0.4986090999320646
 40
0.6670404856129534
 40
0.8348426675788053
 40
1.0
 40
1.0
 40
1.0
 40
1.0
 10
1744.608963843151
 20
806.2530101238294
 30
0.0
 10
1744.58676718115
 20
806.2421699540284
 30
0.0
 10
1744.542740799227
 20
806.2206688176975
 30
0.0
 10
1744.479249765879
 20
806.1930933900585
 30
0.0
 10
1744.418925658254
 20
806.1696060475498
 30
0.0
 10
1744.362792186074
 20
806.1508601202693
 30
0.0
 10
1744.311113196696
 20
806.1364076874413
 30
0.0
 10
1744.282168804984
 20
806.1313150695051
 30
0.0
 10
1744.267811568392
 20
806.1287889870329
 30
0.0
  0
SPLINE
  5
3CA
330
1F
100
AcDbEntity
  8
0
  6
PHANTOM
 62
     8
370
     0
100
AcDbSpline
210
0.0
220
0.0
230
1.0
 70
     8
 71
     3
 72
    15
 73
    11
 74
     0
 42
0.000000001
 43
0.00000001
 40
0.0
 40
0.0
 40
0.0
 40
0.0
 40
0.1010712209656093
 40
0.2005080375236986
 40
0.2994234813878928
 40
0.3989480780983553
 40
0.5001919491903107
 40
0.6675459720669775
 40
0.8324050451737904
 40
1.0
 40
1.0
 40
1.0
 40
1.0
 10
1746.504104157378
 20
807.0756933142889
 30
0.0
 10
1746.492175049185
 20
807.0771901916256
 30
0.0
 10
1746.468509736248
 20
807.0801597405667
 30
0.0
 10
1746.423446430952
 20
807.0778005802048
 30
0.0
 10
1746.371856246869
 20
807.0703175758708
 30
0.0
 10
1746.313057521969
 20
807.0572421483478
 30
0.0
 10
1746.233660623395
 20
807.0349179756583
 30
0.0
 10
1746.1303738293
 20
806.9993473621523
 30
0.0
 10
1746.000061877171
 20
806.9459036777938
 30
0.0
 10
1745.908205764071
 20
806.9013847942219
 30
0.0
 10
1745.861899749308
 20
806.8789421716208
 30
0.0
  0
SPLINE
  5
3CC
330
1F
100
AcDbEntity
  8
0
  6
PHANTOM
 62
     8
370
     0
100
AcDbSpline
210
0.0
220
0.0
230
1.0
 70
     8
 71
     3
 72
    17
 73
    13
 74
     0
 42
0.000000001
 43
0.00000001
 40
0.0
 40
0.0
 40
0.0
 40
0.0
 40
0.0630669778110051
 40
0.125091369675106
 40
0.187169853438584
 40
0.2503962922995048
 40
0.3751123327321358
 40
0.5002614739443353
 40
0.6249776657199005
 40
0.7501269340839989
 40
0.8749563300888968
 40
1.0
 40
1.0
 40
1.0
 40
1.0
 10
1747.881659383913
 20
807.4252785999837
 30
0.0
 10
1747.867614167601
 20
807.4123627695143
 30
0.0
 10
1747.839755922178
 20
807.3867446254394
 30
0.0
 10
1747.789934040867
 20
807.3463457147199
 30
0.0
 10
1747.734939896921
 20
807.3052327150536
 30
0.0
 10
1747.65550705292
 20
807.2502713495192
 30
0.0
 10
1747.547259179114
 20
807.1825885170932
 30
0.0
 10
1747.412615217143
 20
807.1101510618114
 30
0.0
 10
1747.281493022645
 20
807.0497965152414
 30
0.0
 10
1747.164715764599
 20
807.0077694190225
 30
0.0
 10
1747.065563596931
 20
806.9831538141584
 30
0.0
 10
1747.024357826326
 20
806.9855126299703
 30
0.0
 10
1747.00373727341
 20
806.9866930492556
 30
0.0
  0
SPLINE
  5
3CE
330
1F
100
AcDbEntity
  8
0
  6
PHANTOM
 62
     8
370
     0
100
AcDbSpline
210
0.0
220
0.0
230
1.0
 70
     8
 71
     3
 72
    15
 73
    11
 74
     0
 42
0.000000001
 43
0.00000001
 40
0.0
 40
0.0
 40
0.0
 40
0.0
 40
0.1010712209658294
 40
0.200508037523969
 40
0.2994234813882844
 40
0.3989480780985065
 40
0.5001919491904459
 40
0.6675459720671698
 40
0.8324050451742399
 40
1.0
 40
1.0
 40
1.0
 40
1.0
 10
1749.370120286547
 20
808.6315519054369
 30
0.0
 10
1749.341972373817
 20
808.6172395332949
 30
0.0
 10
1749.286131723155
 20
808.588846231788
 30
0.0
 10
1749.202344278567
 20
808.5428465862806
 30
0.0
 10
1749.119874128848
 20
808.4949981638432
 30
0.0
 10
1749.03867163334
 20
808.4450408893424
 30
0.0
 10
1748.942154911312
 20
808.382281772888
 30
0.0
 10
1748.834964905534
 20
808.3072113180697
 30
0.0
 10
1748.723825797275
 20
808.2211210704226
 30
0.0
 10
1748.664745446149
 20
808.1673285246382
 30
0.0
 10
1748.634962174038
 20
808.1402109128084
 30
0.0
  0
SPLINE
  5
3D1
330
1F
100
AcDbEntity
  8
0
  6
PHANTOM
 62
     8
370
     0
100
AcDbSpline
210
0.0
220
0.0
230
1.0
 70
     8
 71
     3
 72
    12
 73
     8
 74
     0
 42
0.000000001
 43
0.00000001
 40
0.0
 40
0.0
 40
0.0
 40
0.0
 40
0.2020648695546358
 40
0.4008621847037515
 40
0.598617154619538
 40
0.7975899627013483
 40
1.0
 40
1.0
 40
1.0
 40
1.0
 10
1750.744209986388
 20
810.1420213887177
 30
0.0
 10
1750.727993455534
 20
810.1262132738404
 30
0.0
 10
1750.695822628409
 20
810.0948526742485
 30
0.0
 10
1750.657065136956
 20
810.0511955458805
 30
0.0
 10
1750.626311096736
 20
810.010892966425
 30
0.0
 10
1750.603431680211
 20
809.9737737650921
 30
0.0
 10
1750.595296297388
 20
809.9523207270635
 30
0.0
 10
1750.591193772431
 20
809.9415023518451
 30
0.0
  0
SPLINE
  5
3D3
330
1F
100
AcDbEntity
  8
0
  6
PHANTOM
 62
     8
370
     0
100
AcDbSpline
210
0.0
220
0.0
230
1.0
 70
     8
 71
     3
 72
    14
 73
    10
 74
     0
 42
0.000000001
 43
0.00000001
 40
0.0
 40
0.0
 40
0.0
 40
0.0
 40
0.2499999999999999
 40
0.2499999999999999
 40
0.5
 40
0.5
 40
0.7500000000000001
 40
0.7500000000000001
 40
1.0
 40
1.0
 40
1.0
 40
1.0
 10
1743.705217368953
 20
805.7971649274884
 30
0.0
 10
1743.227838259346
 20
805.8822010588278
 30
0.0
 10
1743.209649099467
 20
806.2576155539175
 30
0.0
 10
1744.099658588621
 20
807.423922319436
 30
0.0
 10
1744.971471922919
 20
808.167133706391
 30
0.0
 10
1747.184893632337
 20
809.646468289396
 30
0.0
 10
1748.436013033437
 20
810.3221134174483
 30
0.0
 10
1750.676254544992
 20
811.247901682503
 30
0.0
 10
1751.573791235878
 20
811.4601967989909
 30
0.0
 10
1752.051170345486
 20
811.3751606676514
 30
0.0
  0
LWPOLYLINE
  5
3D9
330
1F
100
AcDbEntity
  8
0
  6
PHANTOM
 62
     8
370
     0
100
AcDbPolyline
 90
        3
 70
   128
 43
0.0
 10
1744.2588749379
 20
806.3153718936
 10
1744.270309841
 20
806.3203801793
 10
1744.2791161278
 20
806.3270123377
  0
LWPOLYLINE
  5
3DA
330
1F
100
AcDbEntity
  8
0
  6
PHANTOM
 62
     8
370
     0
100
AcDbPolyline
 90
        8
 70
   128
 43
0.0
 10
1750.4734994321
 20
809.8926930638
 10
1750.4689124338
 20
809.8989028288
 10
1750.4596449003
 20
809.9295316832
 10
1750.4655475167
 20
809.9683529115
 10
1750.4865192875
 20
810.0147022717
 10
1750.5222013801
 20
810.0677867133
 10
1750.5719832637
 20
810.1266979468
 10
1750.6350131568
 20
810.1904279848
  0
LWPOLYLINE
  5
3DC
330
1F
100
AcDbEntity
  8
0
  6
PHANTOM
 62
     8
370
     0
100
AcDbPolyline
 90
        7
 70
   128
 43
0.0
 10
1744.5787973904
 20
806.3542364647
 10
1744.4714141986
 20
806.3050713573
 10
1744.3747056724
 20
806.2698947915
 10
1744.2952623381
 20
806.2511039921
 10
1744.2384981276
 20
806.249979521
 10
1744.2082814281
 20
806.2665980092
 10
1744.2056069234
 20
806.2720605826
  0
LINE
  5
3FC
330
1F
100
AcDbEntity
  8
0
  6
Continuous
 62
     7
370
    15
100
AcDbLine
 10
-6.5
 20
168.4926670542
 30
0.0
 11
-6.5
 21
167.8511727939
 31
0.0
  0
LINE
  5
3FD
330
1F
100
AcDbEntity
  8
0
  6
Continuous
 62
     7
370
    15
100
AcDbLine
 10
-6.5
 20
169.3320216149
 30
0.0
 11
-6.5
 21
168.7675791401
 31
0.0
  0
LINE
  5
3FE
330
1F
100
AcDbEntity
  8
0
  6
Continuous
 62
     7
370
    15
100
AcDbLine
 10
6.5
 20
167.8511727939
 30
0.0
 11
6.5
 21
169.0637528939
 31
0.0
  0
LINE
  5
3FF
330
1F
100
AcDbEntity
  8
0
  6
Continuous
 62
     7
370
    15
100
AcDbLine
 10
-6.5
 20
-168.7648161344
 30
0.0
 11
-6.5
 21
-169.1856625449
 31
0.0
  0
LINE
  5
400
330
1F
100
AcDbEntity
  8
0
  6
Continuous
 62
     7
370
    15
100
AcDbLine
 10
-6.5
 20
-167.8511727939
 30
0.0
 11
-6.5
 21
-168.4899040486
 31
0.0
  0
LINE
  5
401
330
1F
100
AcDbEntity
  8
0
  6
Continuous
 62
     7
370
    15
100
AcDbLine
 10
6.5
 20
-169.1625755946
 30
0.0
 11
6.5
 21
-167.8511727939
 31
0.0
  0
LINE
  5
402
330
1F
100
AcDbEntity
  8
0
  6
Continuous
 62
     7
370
    15
100
AcDbLine
 10
1750.9122231103
 20
816.3310699796
 30
0.0
 11
1750.5914759801
 21
816.8866203055
 31
0.0
  0
LINE
  5
403
330
1F
100
AcDbEntity
  8
0
  6
Continuous
 62
     7
370
    15
100
AcDbLine
 10
1751.3074364963
 20
815.6465403152
 30
0.0
 11
1751.0496791532
 21
816.0929891295
 31
0.0
  0
LINE
  5
404
330
1F
100
AcDbEntity
  8
0
  6
Continuous
 62
     7
370
    15
100
AcDbLine
 10
1739.3331457309
 20
810.3866203055
 30
0.0
 11
1739.9394357809
 21
809.3364951348
 31
0.0
  0
LINE
  5
405
330
1F
100
AcDbEntity
  8
0
  6
Continuous
 62
     7
370
    15
100
AcDbLine
 10
1582.2834815159
 20
1108.4046180374
 30
0.0
 11
1582.0730583107
 21
1108.76908172
 31
0.0
  0
LINE
  5
406
330
1F
100
AcDbEntity
  8
0
  6
Continuous
 62
     7
370
    15
100
AcDbLine
 10
1582.7403031862
 20
1107.6133796945
 30
0.0
 11
1582.4209375589
 21
1108.1665371873
 31
0.0
  0
LINE
  5
407
330
1F
100
AcDbEntity
  8
0
  6
Continuous
 62
     7
370
    15
100
AcDbLine
 10
1570.8262715367
 20
1102.2490878345
 30
0.0
 11
1571.481972937
 21
1101.1133796945
 31
0.0
  0
LINE
  5
408
330
1F
100
AcDbEntity
  8
0
  6
Continuous
 62
     7
370
    15
100
AcDbLine
 10
174.4813724623
 20
-28.5
 30
0.0
 11
316.7897943563
 21
-28.5
 31
0.0
  0
LINE
  5
409
330
1F
100
AcDbEntity
  8
0
  6
Continuous
 62
     7
370
    15
100
AcDbLine
 10
316.7897943563
 20
28.5
 30
0.0
 11
174.4813724623
 21
28.5
 31
0.0
  0
LINE
  5
40A
330
1F
100
AcDbEntity
  8
0
  6
Continuous
 62
     7
370
    15
100
AcDbLine
 10
1495.681423419
 20
896.4410377767
 30
0.0
 11
1406.0316622065
 21
844.6817240079
 31
0.0
  0
LINE
  5
40B
330
1F
100
AcDbEntity
  8
0
  6
Continuous
 62
     7
370
    15
100
AcDbLine
 10
1434.5316622065
 20
795.3182759921
 30
0.0
 11
1524.181423419
 21
847.077589761
 31
0.0
  0
LINE
  5
40C
330
1F
100
AcDbEntity
  8
0
  6
Continuous
 62
     7
370
    15
100
AcDbLine
 10
1065.0398784339
 20
503.4739411159
 30
0.0
 11
743.0005921717
 21
394.4294634761
 31
0.0
  0
LINE
  5
40D
330
1F
100
AcDbEntity
  8
0
  6
Continuous
 62
     7
370
    15
100
AcDbLine
 10
761.2815781289
 20
340.4405243086
 30
0.0
 11
1083.3208643911
 21
449.4850019484
 31
0.0
  0
LINE
  5
40E
330
1F
100
AcDbEntity
  8
0
  6
Continuous
 62
     7
370
    15
100
AcDbLine
 10
1354.0046895645
 20
802.0173965088
 30
0.0
 11
1129.6327254647
 21
546.5624655993
 31
0.0
  0
LINE
  5
40F
330
1F
100
AcDbEntity
  8
0
  6
Continuous
 62
     7
370
    15
100
AcDbLine
 10
1172.4589932936
 20
508.9471657355
 30
0.0
 11
1396.8309573935
 21
764.402096645
 31
0.0
  0
LINE
  5
410
330
1F
100
AcDbEntity
  8
0
  6
Continuous
 62
     7
370
    15
100
AcDbLine
 10
653.8624632692
 20
334.967299689
 30
0.0
 11
521.8789549752
 21
184.6996932716
 31
0.0
  0
LINE
  5
411
330
1F
100
AcDbEntity
  8
0
  6
Continuous
 62
     7
370
    15
100
AcDbLine
 10
508.6806041458
 20
169.6729326299
 30
0.0
 11
429.4904991694
 21
79.5123687795
 31
0.0
  0
LINE
  5
412
330
1F
100
AcDbEntity
  8
0
  6
Continuous
 62
     7
370
    15
100
AcDbLine
 10
472.3167669983
 20
41.8970689157
 30
0.0
 11
551.5068719747
 21
132.0576327661
 31
0.0
  0
LINE
  5
413
330
1F
100
AcDbEntity
  8
0
  6
Continuous
 62
     7
370
    15
100
AcDbLine
 10
564.7052228041
 20
147.0843934079
 30
0.0
 11
696.6887310981
 21
297.3519998252
 31
0.0
  0
LINE
  5
414
330
1F
100
AcDbEntity
  8
0
  6
Continuous
 62
     7
370
    15
100
AcDbLine
 10
593.2061327555
 20
95.4322092145
 30
0.0
 11
606.4044835849
 21
110.4589698563
 31
0.0
  0
LINE
  5
415
330
1F
100
AcDbEntity
  8
0
  6
Continuous
 62
     7
370
    15
100
AcDbLine
 10
480.1796941944
 20
221.3251168232
 30
0.0
 11
466.981343365
 21
206.2983561815
 31
0.0
  0
LINE
  5
416
330
1F
100
AcDbEntity
  8
0
  6
Continuous
 62
     7
370
    15
100
AcDbLine
 10
-0.6007904713
 20
-172.6758905026
 30
0.0
 11
0.4090550381
 21
-172.9183886524
 31
0.0
  0
LINE
  5
417
330
1F
100
AcDbEntity
  8
0
  6
Continuous
 62
     7
370
    15
100
AcDbLine
 10
-1.8808186613
 20
-173.0411744867
 30
0.0
 11
-1.4926238228
 21
-172.7142814383
 31
0.0
  0
LINE
  5
418
330
1F
100
AcDbEntity
  8
0
  6
Continuous
 62
     7
370
    15
100
AcDbLine
 10
1.32076643
 20
-172.9789058934
 30
0.0
 11
2.7188067779
 21
-172.8945109948
 31
0.0
  0
LINE
  5
419
330
1F
100
AcDbEntity
  8
0
  6
Continuous
 62
     7
370
    15
100
AcDbLine
 10
-3.9917868922
 20
-173.2996065083
 30
0.0
 11
-2.5937465443
 21
-173.2152116096
 31
0.0
  0
LINE
  5
41A
330
1F
100
AcDbEntity
  8
0
  6
Continuous
 62
     7
370
    15
100
AcDbLine
 10
2.8123473542
 20
-172.8889993922
 30
0.0
 11
2.9008656915
 21
-173.376491751
 31
0.0
  0
LINE
  5
41B
330
1F
100
AcDbEntity
  8
0
  6
Continuous
 62
     7
370
    15
100
AcDbLine
 10
3.2366224644
 20
-173.597383472
 30
0.0
 11
4.2464679738
 21
-173.8398816218
 31
0.0
  0
LINE
  5
41C
330
1F
100
AcDbEntity
  8
0
  6
Continuous
 62
     7
370
    15
100
AcDbLine
 10
-2.9008656916
 20
-173.8491031834
 30
0.0
 11
-2.7878924331
 21
-173.2269315308
 31
0.0
  0
LINE
  5
41D
330
1F
100
AcDbEntity
  8
0
  6
Continuous
 62
     7
370
    15
100
AcDbLine
 10
-3.3559590478
 20
-174.2833680709
 30
0.0
 11
-2.9677642092
 21
-173.9564750225
 31
0.0
  0
LINE
  5
41E
330
1F
100
AcDbEntity
  8
0
  6
Continuous
 62
     7
370
    15
100
AcDbLine
 10
-3.3550759524
 20
-174.2932758797
 30
0.0
 11
-3.3570935575
 21
-174.2843072455
 31
0.0
  0
LINE
  5
41F
330
1F
100
AcDbEntity
  8
0
  6
Continuous
 62
     7
370
    15
100
AcDbLine
 10
0.4090550381
 20
172.9183886524
 30
0.0
 11
-0.6007904713
 21
172.6758905026
 31
0.0
  0
LINE
  5
420
330
1F
100
AcDbEntity
  8
0
  6
Continuous
 62
     7
370
    15
100
AcDbLine
 10
-1.4926238228
 20
172.7142814383
 30
0.0
 11
-1.8808186613
 21
173.0411744867
 31
0.0
  0
LINE
  5
421
330
1F
100
AcDbEntity
  8
0
  6
Continuous
 62
     7
370
    15
100
AcDbLine
 10
2.7188067779
 20
172.8945109948
 30
0.0
 11
1.32076643
 21
172.9789058934
 31
0.0
  0
LINE
  5
422
330
1F
100
AcDbEntity
  8
0
  6
Continuous
 62
     7
370
    15
100
AcDbLine
 10
-2.5937465443
 20
173.2152116096
 30
0.0
 11
-3.9917868922
 21
173.2996065083
 31
0.0
  0
LINE
  5
423
330
1F
100
AcDbEntity
  8
0
  6
Continuous
 62
     7
370
    15
100
AcDbLine
 10
2.9008656916
 20
173.376491751
 30
0.0
 11
2.8123473542
 21
172.8889993922
 31
0.0
  0
LINE
  5
424
330
1F
100
AcDbEntity
  8
0
  6
Continuous
 62
     7
370
    15
100
AcDbLine
 10
4.2464679738
 20
173.8398816218
 30
0.0
 11
3.2366224644
 21
173.597383472
 31
0.0
  0
LINE
  5
425
330
1F
100
AcDbEntity
  8
0
  6
Continuous
 62
     7
370
    15
100
AcDbLine
 10
-2.7878924331
 20
173.2269315308
 30
0.0
 11
-2.9008656916
 21
173.8491031834
 31
0.0
  0
LINE
  5
426
330
1F
100
AcDbEntity
  8
0
  6
Continuous
 62
     7
370
    15
100
AcDbLine
 10
-2.9677642092
 20
173.9564750225
 30
0.0
 11
-3.3559590478
 21
174.2833680709
 31
0.0
  0
LINE
  5
427
330
1F
100
AcDbEntity
  8
0
  6
Continuous
 62
     7
370
    15
100
AcDbLine
 10
-3.3570935575
 20
174.2843072455
 30
0.0
 11
-3.3550759524
 21
174.2932758797
 31
0.0
  0
LINE
  5
428
330
1F
100
AcDbEntity
  8
0
  6
Continuous
 62
     7
370
    15
100
AcDbLine
 10
1575.2190790178
 20
1108.842103032
 30
0.0
 11
1574.2232780778
 21
1108.5471898354
 31
0.0
  0
LINE
  5
429
330
1F
100
AcDbEntity
  8
0
  6
Continuous
 62
     7
370
    15
100
AcDbLine
 10
1576.1449739558
 20
1109.7984623369
 30
0.0
 11
1575.9722338882
 21
1109.3212672333
 31
0.0
  0
LINE
  5
42A
330
1F
100
AcDbEntity
  8
0
  6
Continuous
 62
     7
370
    15
100
AcDbLine
 10
1573.403454231
 20
1108.1437436076
 30
0.0
 11
1572.2349132235
 21
1107.3716353074
 31
0.0
  0
LINE
  5
42B
330
1F
100
AcDbEntity
  8
0
  6
Continuous
 62
     7
370
    15
100
AcDbLine
 10
1577.8439100595
 20
1111.0777551481
 30
0.0
 11
1576.675369052
 21
1110.305646848
 31
0.0
  0
LINE
  5
42C
330
1F
100
AcDbEntity
  8
0
  6
Continuous
 62
     7
370
    15
100
AcDbLine
 10
1572.1566605094
 20
1107.3200918314
 30
0.0
 11
1571.8362552012
 21
1107.6980134296
 31
0.0
  0
LINE
  5
42D
330
1F
100
AcDbEntity
  8
0
  6
Continuous
 62
     7
370
    15
100
AcDbLine
 10
1571.4350354459
 20
1107.721432885
 30
0.0
 11
1570.439234506
 21
1107.4265196884
 31
0.0
  0
LINE
  5
42E
330
1F
100
AcDbEntity
  8
0
  6
Continuous
 62
     7
370
    15
100
AcDbLine
 10
1576.6243962487
 20
1111.0081726278
 30
0.0
 11
1576.8376443632
 21
1110.4128695418
 31
0.0
  0
LINE
  5
42F
330
1F
100
AcDbEntity
  8
0
  6
Continuous
 62
     7
370
    15
100
AcDbLine
 10
1576.8013862125
 20
1111.6118037304
 30
0.0
 11
1576.628646145
 21
1111.1346086269
 31
0.0
  0
LINE
  5
430
330
1F
100
AcDbEntity
  8
0
  6
Continuous
 62
     7
370
    15
100
AcDbLine
 10
1747.1416667302
 20
809.0437551265
 30
0.0
 11
1747.8949695204
 21
809.7586874393
 31
0.0
  0
LINE
  5
431
330
1F
100
AcDbEntity
  8
0
  6
Continuous
 62
     7
370
    15
100
AcDbLine
 10
1748.6865153265
 20
810.1713565895
 30
0.0
 11
1749.1861484425
 21
810.0823563245
 31
0.0
  0
LINE
  5
432
330
1F
100
AcDbEntity
  8
0
  6
Continuous
 62
     7
370
    15
100
AcDbLine
 10
1745.1294242183
 20
807.9095579147
 30
0.0
 11
1746.3823601244
 21
808.5354899625
 31
0.0
  0
LINE
  5
433
330
1F
100
AcDbEntity
  8
0
  6
Continuous
 62
     7
370
    15
100
AcDbLine
 10
1749.8905806617
 20
810.2880996963
 30
0.0
 11
1751.1435165678
 21
810.9140317441
 31
0.0
  0
LINE
  5
434
330
1F
100
AcDbEntity
  8
0
  6
Continuous
 62
     7
370
    15
100
AcDbLine
 10
1745.2127469522
 20
807.4011208788
 30
0.0
 11
1745.0456617667
 21
807.867555608
 31
0.0
  0
LINE
  5
435
330
1F
100
AcDbEntity
  8
0
  6
Continuous
 62
     7
370
    15
100
AcDbLine
 10
1744.2791161278
 20
806.3270123377
 30
0.0
 11
1745.0324189179
 21
807.0419446506
 31
0.0
  0
LINE
  5
436
330
1F
100
AcDbEntity
  8
0
  6
Continuous
 62
     7
370
    15
100
AcDbLine
 10
1750.064575894
 20
810.3750228913
 30
0.0
 11
1750.4734994321
 21
809.8926930638
 31
0.0
  0
LINE
  5
437
330
1F
100
AcDbEntity
  8
0
  6
Continuous
 62
     7
370
    15
100
AcDbLine
 10
1750.5851211674
 20
809.8331555824
 30
0.0
 11
1751.0847542835
 21
809.7441553173
 31
0.0
  0
LINE
  5
438
330
1F
100
AcDbEntity
  8
0
  6
Continuous
 62
     7
370
    15
100
AcDbLine
 10
-181.0
 20
-2.5
 30
0.0
 11
177.8735505914
 21
-2.5
 31
0.0
  0
LINE
  5
439
330
1F
100
AcDbEntity
  8
0
  6
Continuous
 62
     7
370
    15
100
AcDbLine
 10
1816.5373225435
 20
1051.6650635095
 30
0.0
 11
1505.743710985
 21
872.2282882137
 31
0.0
  0
LINE
  5
43A
330
1F
100
AcDbEntity
  8
0
  6
Continuous
 62
     7
370
    15
100
AcDbLine
 10
1461.3065406509
 20
-1097.4082861542
 30
0.0
 11
219.7301838077
 21
-1814.2327299971
 31
0.0
  0
LINE
  5
43B
330
1F
100
AcDbEntity
  8
0
  6
Continuous
 62
     7
370
    15
100
AcDbLine
 10
82.7054260614
 20
-1870.25
 30
0.0
 11
90.4996546955
 21
-1865.75
 31
0.0
  0
LINE
  5
43C
330
1F
100
AcDbEntity
  8
0
  6
Continuous
 62
     7
370
    15
100
AcDbLine
 10
210.4441731196
 20
-1796.5
 30
0.0
 11
1450.5925513389
 21
-1080.5
 31
0.0
  0
LINE
  5
43D
330
1F
100
AcDbEntity
  8
0
  6
Continuous
 62
     7
370
    15
100
AcDbLine
 10
-1681.0367244585
 20
-716.8244438429
 30
0.0
 11
-1681.0367244586
 21
716.8244438429
 31
0.0
  0
LINE
  5
43E
330
1F
100
AcDbEntity
  8
0
  6
Continuous
 62
     7
370
    15
100
AcDbLine
 10
-1661.0367244586
 20
863.5
 30
0.0
 11
-1661.0367244586
 21
854.5
 31
0.0
  0
LINE
  5
43F
330
1F
100
AcDbEntity
  8
0
  6
Continuous
 62
     7
370
    15
100
AcDbLine
 10
-1661.0367244586
 20
716.0
 30
0.0
 11
-1661.0367244585
 21
-716.0
 31
0.0
  0
LINE
  5
440
330
1F
100
AcDbEntity
  8
0
  6
Continuous
 62
     7
370
    15
100
AcDbLine
 10
-1661.0367244585
 20
-854.5
 30
0.0
 11
-1661.0367244585
 21
-863.5
 31
0.0
  0
LINE
  5
441
330
1F
100
AcDbEntity
  8
0
  6
Continuous
 62
     7
370
    15
100
AcDbLine
 10
-219.7301838077
 20
-1814.2327299971
 30
0.0
 11
-1461.3065406509
 21
-1097.4082861542
 31
0.0
  0
LINE
  5
442
330
1F
100
AcDbEntity
  8
0
  6
Continuous
 62
     7
370
    15
100
AcDbLine
 10
-1578.3312983971
 20
-1006.75
 30
0.0
 11
-1570.5370697631
 21
-1011.25
 31
0.0
  0
LINE
  5
443
330
1F
100
AcDbEntity
  8
0
  6
Continuous
 62
     7
370
    15
100
AcDbLine
 10
-1450.5925513389
 20
-1080.5
 30
0.0
 11
-210.4441731196
 21
-1796.5
 31
0.0
  0
LINE
  5
444
330
1F
100
AcDbEntity
  8
0
  6
Continuous
 62
     7
370
    15
100
AcDbLine
 10
-90.4996546955
 20
-1865.75
 30
0.0
 11
-82.7054260614
 21
-1870.25
 31
0.0
  0
LINE
  5
445
330
1F
100
AcDbEntity
  8
0
  6
Continuous
 62
     7
370
    15
100
AcDbLine
 10
1450.5925513389
 20
1080.5
 30
0.0
 11
479.4020292299
 21
1641.2171093741
 31
0.0
  0
LINE
  5
446
330
1F
100
AcDbEntity
  8
0
  6
Continuous
 62
     7
370
    15
100
AcDbLine
 10
219.7301838077
 20
1814.2327299971
 30
0.0
 11
1461.3065406509
 21
1097.4082861542
 31
0.0
  0
LINE
  5
447
330
1F
100
AcDbEntity
  8
0
  6
Continuous
 62
     7
370
    15
100
AcDbLine
 10
-6.5
 20
167.8511727939
 30
0.0
 11
-6.466405493
 21
167.6959789992
 31
0.0
  0
LINE
  5
448
330
1F
100
AcDbEntity
  8
0
  6
Continuous
 62
     7
370
    15
100
AcDbLine
 10
-6.466405493
 20
167.6959789992
 30
0.0
 11
-6.4390921911
 21
167.6959789992
 31
0.0
  0
LINE
  5
449
330
1F
100
AcDbEntity
  8
0
  6
Continuous
 62
     7
370
    15
100
AcDbLine
 10
1750.5914759801
 20
816.8866203055
 30
0.0
 11
1750.4847853863
 21
817.0042248207
 31
0.0
  0
LINE
  5
44A
330
1F
100
AcDbEntity
  8
0
  6
Continuous
 62
     7
370
    15
100
AcDbLine
 10
1750.4847853863
 20
817.0042248207
 30
0.0
 11
1750.461131373
 21
816.9905681697
 31
0.0
  0
LINE
  5
44B
330
1F
100
AcDbEntity
  8
0
  6
Continuous
 62
     7
370
    15
100
AcDbLine
 10
238.8526329025
 20
1513.1923788647
 30
0.0
 11
-238.8526329025
 21
1513.1923788647
 31
0.0
  0
LINE
  5
44C
330
1F
100
AcDbEntity
  8
0
  6
Continuous
 62
     7
370
    15
100
AcDbLine
 10
-1461.3065406509
 20
1097.4082861542
 30
0.0
 11
-219.7301838077
 21
1814.2327299971
 31
0.0
  0
LINE
  5
44D
330
1F
100
AcDbEntity
  8
0
  6
Continuous
 62
     7
370
    15
100
AcDbLine
 10
-479.4020292299
 20
1641.2171093741
 30
0.0
 11
-1450.5925513389
 21
1080.5
 31
0.0
  0
LINE
  5
44E
330
1F
100
AcDbEntity
  8
0
  6
Continuous
 62
     7
370
    15
100
AcDbLine
 10
-1570.5370697631
 20
1011.25
 30
0.0
 11
-1578.3312983971
 21
1006.75
 31
0.0
  0
LINE
  5
44F
330
1F
100
AcDbEntity
  8
0
  6
Continuous
 62
     7
370
    15
100
AcDbLine
 10
1744.0367244586
 20
730.6143612221
 30
0.0
 11
1744.0367244586
 21
-730.6143612221
 31
0.0
  0
LINE
  5
450
330
1F
100
AcDbEntity
  8
0
  6
Continuous
 62
     7
370
    15
100
AcDbLine
 10
1744.0367244586
 20
0.0
 30
0.0
 11
1107.3578163057
 21
0.0
 31
0.0
  0
LINE
  5
451
330
1F
100
AcDbEntity
  8
0
  6
Continuous
 62
     7
370
    15
100
AcDbLine
 10
775.5183622293
 20
574.7627944163
 30
0.0
 11
857.2907752075
 21
433.1288204805
 31
0.0
  0
LINE
  5
452
330
1F
100
AcDbEntity
  8
0
  6
Continuous
 62
     7
370
    15
100
AcDbLine
 10
1107.3578163057
 20
0.0
 30
0.0
 11
886.35352913
 21
382.7906540788
 31
0.0
  0
LINE
  5
453
330
1F
100
AcDbEntity
  8
0
  6
Continuous
 62
     7
370
    15
100
AcDbLine
 10
1418.3887828232
 20
945.9242048002
 30
0.0
 11
132.6479416354
 21
203.6013840324
 31
0.0
  0
LINE
  5
454
330
1F
100
AcDbEntity
  8
0
  6
Continuous
 62
     7
370
    15
100
AcDbLine
 10
606.4044835849
 20
110.4589698563
 30
0.0
 11
480.1796941944
 21
221.3251168232
 31
0.0
  0
LINE
  5
455
330
1F
100
AcDbEntity
  8
0
  6
Continuous
 62
     7
370
    15
100
AcDbLine
 10
466.981343365
 20
206.2983561815
 30
0.0
 11
593.2061327555
 21
95.4322092145
 31
0.0
  0
LINE
  5
456
330
1F
100
AcDbEntity
  8
0
  6
Continuous
 62
     7
370
    15
100
AcDbLine
 10
5.5057033283
 20
-173.7291776287
 30
0.0
 11
5.3936643204
 21
-173.8426978799
 31
0.0
  0
LINE
  5
457
330
1F
100
AcDbEntity
  8
0
  6
Continuous
 62
     7
370
    15
100
AcDbLine
 10
3.3432794357
 20
-172.9471609805
 30
0.0
 11
3.3255195288
 21
-172.9752590807
 31
0.0
  0
LINE
  5
458
330
1F
100
AcDbEntity
  8
0
  6
Continuous
 62
     7
370
    15
100
AcDbLine
 10
3.3255195288
 20
172.9752590806
 30
0.0
 11
3.3432587322
 21
172.9473664427
 31
0.0
  0
LINE
  5
459
330
1F
100
AcDbEntity
  8
0
  6
Continuous
 62
     7
370
    15
100
AcDbLine
 10
5.5054695461
 20
173.7294731967
 30
0.0
 11
5.3936643204
 21
173.8426978799
 31
0.0
  0
LINE
  5
45A
330
1F
100
AcDbEntity
  8
0
  6
Continuous
 62
     7
370
    15
100
AcDbLine
 10
1569.4126241394
 20
1106.7475689988
 30
0.0
 11
1569.4039118807
 21
1106.7000341297
 31
0.0
  0
LINE
  5
45B
330
1F
100
AcDbEntity
  8
0
  6
Continuous
 62
     7
370
    15
100
AcDbLine
 10
1569.4040566962
 20
1106.7010295409
 30
0.0
 11
1569.4443251976
 21
1106.8553604662
 31
0.0
  0
LINE
  5
45C
330
1F
100
AcDbEntity
  8
0
  6
Continuous
 62
     7
370
    15
100
AcDbLine
 10
1571.6677867918
 20
1107.1049781917
 30
0.0
 11
1571.6691105255
 21
1107.1382088256
 31
0.0
  0
LINE
  5
45D
330
1F
100
AcDbEntity
  8
0
  6
Continuous
 62
     7
370
    15
100
AcDbLine
 10
1750.567170331
 20
815.7353438386
 30
0.0
 11
1750.9406447638
 21
815.7657493299
 31
0.0
  0
LINE
  5
45E
330
1F
100
AcDbEntity
  8
0
  6
Continuous
 62
     7
370
    15
100
AcDbLine
 10
1744.6443696061
 20
807.5362716456
 30
0.0
 11
1744.6150606864
 21
807.5515577769
 31
0.0
  0
LINE
  5
45F
330
1F
100
AcDbEntity
  8
0
  6
Continuous
 62
     7
370
    15
100
AcDbLine
 10
1743.1335845702
 20
805.7931280525
 30
0.0
 11
1743.2870230775
 21
805.7509752134
 31
0.0
  0
LINE
  5
460
330
1F
100
AcDbEntity
  8
0
  6
Continuous
 62
     7
370
    15
100
AcDbLine
 10
1744.0367244586
 20
-906.3033904951
 30
0.0
 11
1744.0367244586
 21
-911.6966095049
 31
0.0
  0
LINE
  5
461
330
1F
100
AcDbEntity
  8
0
  6
Continuous
 62
     7
370
    15
100
AcDbLine
 10
132.6479416354
 20
-203.6013840324
 30
0.0
 11
1418.3887828232
 21
-945.9242048002
 31
0.0
  0
LINE
  5
462
330
1F
100
AcDbEntity
  8
0
  6
Continuous
 62
     7
370
    15
100
AcDbLine
 10
775.5183622293
 20
-574.7627944163
 30
0.0
 11
1107.3578163057
 21
0.0
 31
0.0
  0
LINE
  5
463
330
1F
100
AcDbEntity
  8
0
  6
Continuous
 62
     7
370
    15
100
AcDbLine
 10
-82.1978028688
 20
-1867.0789747718
 30
0.0
 11
-88.0072778881
 21
-1863.7248728055
 31
0.0
  0
LINE
  5
464
330
1F
100
AcDbEntity
  8
0
  6
Continuous
 62
     7
370
    15
100
AcDbLine
 10
88.0072778881
 20
-1863.7248728055
 30
0.0
 11
82.1978028688
 21
-1867.0789747718
 31
0.0
  0
LINE
  5
465
330
1F
100
AcDbEntity
  8
0
  6
Continuous
 62
     7
370
    15
100
AcDbLine
 10
-1658.0367244586
 20
855.6458980337
 30
0.0
 11
-1658.0367244586
 21
862.3541019662
 31
0.0
  0
LINE
  5
466
330
1F
100
AcDbEntity
  8
0
  6
Continuous
 62
     7
370
    15
100
AcDbLine
 10
-1575.8389215898
 20
1004.7248728055
 30
0.0
 11
-1570.0294465705
 21
1008.0789747718
 31
0.0
  0
LINE
  5
467
330
1F
100
AcDbEntity
  8
0
  6
Continuous
 62
     7
370
    15
100
AcDbLine
 10
-1570.0294465705
 20
-1008.0789747718
 30
0.0
 11
-1575.8389215898
 21
-1004.7248728055
 31
0.0
  0
LINE
  5
468
330
1F
100
AcDbEntity
  8
0
  6
Continuous
 62
     7
370
    15
100
AcDbLine
 10
-1658.0367244586
 20
-862.3541019662
 30
0.0
 11
-1658.0367244586
 21
-855.6458980337
 31
0.0
  0
LINE
  5
469
330
1F
100
AcDbEntity
  8
0
  6
Continuous
 62
     7
370
    15
100
AcDbLine
 10
2.5
 20
1675.0128604226
 30
0.0
 11
2.5
 21
1568.1923788647
 31
0.0
  0
LINE
  5
46A
330
1F
100
AcDbEntity
  8
0
  6
Continuous
 62
     7
370
    15
100
AcDbLine
 10
-2.5
 20
1568.1923788647
 30
0.0
 11
-2.5
 21
1675.0128604226
 31
0.0
  0
LINE
  5
46B
330
1F
100
AcDbEntity
  8
0
  6
Continuous
 62
     7
370
    15
100
AcDbLine
 10
12.5
 20
1675.3217150217
 30
0.0
 11
12.5
 21
1570.6923788647
 31
0.0
  0
LINE
  5
46C
330
1F
100
AcDbEntity
  8
0
  6
Continuous
 62
     7
370
    15
100
AcDbLine
 10
17.5
 20
1573.1923788647
 30
0.0
 11
17.5
 21
1675.6309631987
 31
0.0
  0
LINE
  5
46D
330
1F
100
AcDbEntity
  8
0
  6
Continuous
 62
     7
370
    15
100
AcDbLine
 10
32.5
 20
1677.1831608878
 30
0.0
 11
32.5
 21
1576.6923788647
 31
0.0
  0
LINE
  5
46E
330
1F
100
AcDbEntity
  8
0
  6
Continuous
 62
     7
370
    15
100
AcDbLine
 10
27.5
 20
1576.6923788647
 30
0.0
 11
27.5
 21
1676.5610843298
 31
0.0
  0
LINE
  5
46F
330
1F
100
AcDbEntity
  8
0
  6
Continuous
 62
     7
370
    15
100
AcDbLine
 10
42.5
 20
1678.7454284658
 30
0.0
 11
42.5
 21
1580.1923788647
 31
0.0
  0
LINE
  5
470
330
1F
100
AcDbEntity
  8
0
  6
Continuous
 62
     7
370
    15
100
AcDbLine
 10
52.5
 20
1680.7390676913
 30
0.0
 11
52.5
 21
1585.6923788647
 31
0.0
  0
LINE
  5
471
330
1F
100
AcDbEntity
  8
0
  6
Continuous
 62
     7
370
    15
100
AcDbLine
 10
47.5
 20
1585.6923788647
 30
0.0
 11
47.5
 21
1679.6877048912
 31
0.0
  0
LINE
  5
472
330
1F
100
AcDbEntity
  8
0
  6
Continuous
 62
     7
370
    15
100
AcDbLine
 10
62.5
 20
1683.1750652081
 30
0.0
 11
62.5
 21
1593.1923788647
 31
0.0
  0
LINE
  5
473
330
1F
100
AcDbEntity
  8
0
  6
Continuous
 62
     7
370
    15
100
AcDbLine
 10
72.5
 20
1686.0673589164
 30
0.0
 11
72.5
 21
1603.1923788647
 31
0.0
  0
LINE
  5
474
330
1F
100
AcDbEntity
  8
0
  6
Continuous
 62
     7
370
    15
100
AcDbLine
 10
67.5
 20
1603.1923788647
 30
0.0
 11
67.5
 21
1684.5631777118
 31
0.0
  0
LINE
  5
475
330
1F
100
AcDbEntity
  8
0
  6
Continuous
 62
     7
370
    15
100
AcDbLine
 10
-7.5
 20
1675.1157683175
 30
0.0
 11
-7.5
 21
1570.6923788647
 31
0.0
  0
LINE
  5
476
330
1F
100
AcDbEntity
  8
0
  6
Continuous
 62
     7
370
    15
100
AcDbLine
 10
-12.5
 20
1570.6923788647
 30
0.0
 11
-12.5
 21
1675.3217150217
 31
0.0
  0
LINE
  5
477
330
1F
100
AcDbEntity
  8
0
  6
Continuous
 62
     7
370
    15
100
AcDbLine
 10
-17.5
 20
1675.6309631987
 30
0.0
 11
-17.5
 21
1573.1923788647
 31
0.0
  0
LINE
  5
478
330
1F
100
AcDbEntity
  8
0
  6
Continuous
 62
     7
370
    15
100
AcDbLine
 10
-22.5
 20
1573.1923788647
 30
0.0
 11
-22.5
 21
1676.0439089421
 31
0.0
  0
LINE
  5
479
330
1F
100
AcDbEntity
  8
0
  6
Continuous
 62
     7
370
    15
100
AcDbLine
 10
-42.5
 20
1580.1923788647
 30
0.0
 11
-42.5
 21
1678.7454284658
 31
0.0
  0
LINE
  5
47A
330
1F
100
AcDbEntity
  8
0
  6
Continuous
 62
     7
370
    15
100
AcDbLine
 10
-52.5
 20
1585.6923788647
 30
0.0
 11
-52.5
 21
1680.7390676913
 31
0.0
  0
LINE
  5
47B
330
1F
100
AcDbEntity
  8
0
  6
Continuous
 62
     7
370
    15
100
AcDbLine
 10
-62.5
 20
1593.1923788647
 30
0.0
 11
-62.5
 21
1683.1750652081
 31
0.0
  0
LINE
  5
47C
330
1F
100
AcDbEntity
  8
0
  6
Continuous
 62
     7
370
    15
100
AcDbLine
 10
-67.5
 20
1684.5631777118
 30
0.0
 11
-67.5
 21
1603.1923788647
 31
0.0
  0
LINE
  5
47D
330
1F
100
AcDbEntity
  8
0
  6
Continuous
 62
     7
370
    15
100
AcDbLine
 10
-72.5
 20
1603.1923788647
 30
0.0
 11
-72.5
 21
1686.0673589164
 31
0.0
  0
LINE
  5
47E
330
1F
100
AcDbEntity
  8
0
  6
Continuous
 62
     7
370
    15
100
AcDbLine
 10
87.5
 20
1635.6923788647
 30
0.0
 11
87.5
 21
1690.6923788647
 31
0.0
  0
LINE
  5
47F
330
1F
100
AcDbEntity
  8
0
  6
Continuous
 62
     7
370
    15
100
AcDbLine
 10
-77.5
 20
1687.6898829838
 30
0.0
 11
-77.5
 21
1615.6923788647
 31
0.0
  0
LINE
  5
480
330
1F
100
AcDbEntity
  8
0
  6
Continuous
 62
     7
370
    15
100
AcDbLine
 10
-92.5
 20
1635.6923788647
 30
0.0
 11
-92.5
 21
1690.6923788647
 31
0.0
  0
LINE
  5
481
330
1F
100
AcDbEntity
  8
0
  6
Continuous
 62
     7
370
    15
100
AcDbLine
 10
108.3844345579
 20
1632.7077213208
 30
0.0
 11
110.4572141799
 21
1632.0342343957
 31
0.0
  0
LINE
  5
482
330
1F
100
AcDbEntity
  8
0
  6
Continuous
 62
     7
370
    15
100
AcDbLine
 10
107.6760612306
 20
1623.474725749
 30
0.0
 11
105.6032816085
 21
1624.1482126742
 31
0.0
  0
LINE
  5
483
330
1F
100
AcDbEntity
  8
0
  6
Continuous
 62
     7
370
    15
100
AcDbLine
 10
4.5
 20
1550.6923788647
 30
0.0
 11
4.5
 21
1548.5129293929
 31
0.0
  0
LINE
  5
484
330
1F
100
AcDbEntity
  8
0
  6
Continuous
 62
     7
370
    15
100
AcDbLine
 10
-4.5
 20
1548.5129293929
 30
0.0
 11
-4.5
 21
1550.6923788647
 31
0.0
  0
LINE
  5
485
330
1F
100
AcDbEntity
  8
0
  6
Continuous
 62
     7
370
    15
100
AcDbLine
 10
-105.6032816085
 20
1624.1482126742
 30
0.0
 11
-107.6760612306
 21
1623.474725749
 31
0.0
  0
LINE
  5
486
330
1F
100
AcDbEntity
  8
0
  6
Continuous
 62
     7
370
    15
100
AcDbLine
 10
-110.45721418
 20
1632.0342343957
 30
0.0
 11
-108.3844345579
 21
1632.7077213208
 31
0.0
  0
LINE
  5
487
330
1F
100
AcDbEntity
  8
0
  6
Continuous
 62
     7
370
    15
100
AcDbLine
 10
77.5
 20
1615.6923788647
 30
0.0
 11
77.5
 21
1687.6898829838
 31
0.0
  0
LINE
  5
488
330
1F
100
AcDbEntity
  8
0
  6
Continuous
 62
     7
370
    15
100
AcDbLine
 10
82.5
 20
1689.4332701376
 30
0.0
 11
82.5
 21
1615.6923788647
 31
0.0
  0
LINE
  5
489
330
1F
100
AcDbEntity
  8
0
  6
Continuous
 62
     7
370
    15
100
AcDbLine
 10
92.5
 20
1690.6923788647
 30
0.0
 11
92.5
 21
1635.6923788647
 31
0.0
  0
LINE
  5
48A
330
1F
100
AcDbEntity
  8
0
  6
Continuous
 62
     7
370
    15
100
AcDbLine
 10
-37.5
 20
1677.9109540191
 30
0.0
 11
-37.5
 21
1580.1923788647
 31
0.0
  0
LINE
  5
48B
330
1F
100
AcDbEntity
  8
0
  6
Continuous
 62
     7
370
    15
100
AcDbLine
 10
-27.5
 20
1676.5610843298
 30
0.0
 11
-27.5
 21
1576.6923788647
 31
0.0
  0
LINE
  5
48C
330
1F
100
AcDbEntity
  8
0
  6
Continuous
 62
     7
370
    15
100
AcDbLine
 10
-32.5
 20
1576.6923788647
 30
0.0
 11
-32.5
 21
1677.1831608878
 31
0.0
  0
LINE
  5
48D
330
1F
100
AcDbEntity
  8
0
  6
Continuous
 62
     7
370
    15
100
AcDbLine
 10
37.5
 20
1580.1923788647
 30
0.0
 11
37.5
 21
1677.9109540191
 31
0.0
  0
LINE
  5
48E
330
1F
100
AcDbEntity
  8
0
  6
Continuous
 62
     7
370
    15
100
AcDbLine
 10
-57.5
 20
1681.9009741655
 30
0.0
 11
-57.5
 21
1593.1923788647
 31
0.0
  0
LINE
  5
48F
330
1F
100
AcDbEntity
  8
0
  6
Continuous
 62
     7
370
    15
100
AcDbLine
 10
-47.5
 20
1679.6877048913
 30
0.0
 11
-47.5
 21
1585.6923788647
 31
0.0
  0
LINE
  5
490
330
1F
100
AcDbEntity
  8
0
  6
Continuous
 62
     7
370
    15
100
AcDbLine
 10
57.5
 20
1593.1923788647
 30
0.0
 11
57.5
 21
1681.9009741655
 31
0.0
  0
LINE
  5
491
330
1F
100
AcDbEntity
  8
0
  6
Continuous
 62
     7
370
    15
100
AcDbLine
 10
22.5
 20
1676.0439089421
 30
0.0
 11
22.5
 21
1573.1923788647
 31
0.0
  0
LINE
  5
492
330
1F
100
AcDbEntity
  8
0
  6
Continuous
 62
     7
370
    15
100
AcDbLine
 10
7.5
 20
1570.6923788647
 30
0.0
 11
7.5
 21
1675.1157683175
 31
0.0
  0
LINE
  5
493
330
1F
100
AcDbEntity
  8
0
  6
Continuous
 62
     7
370
    15
100
AcDbLine
 10
-82.5
 20
1615.6923788647
 30
0.0
 11
-82.5
 21
1689.4332701376
 31
0.0
  0
LINE
  5
494
330
1F
100
AcDbEntity
  8
0
  6
Continuous
 62
     7
370
    15
100
AcDbLine
 10
-87.5833381922
 20
1691.3324926878
 30
0.0
 11
-87.5
 21
1690.6923788647
 31
0.0
  0
LINE
  5
495
330
1F
100
AcDbEntity
  8
0
  6
Continuous
 62
     7
370
    15
100
AcDbLine
 10
-87.5
 20
1690.6923788647
 30
0.0
 11
-87.5
 21
1635.6923788647
 31
0.0
  0
LINE
  5
496
330
1F
100
AcDbEntity
  8
0
  6
Continuous
 62
     7
370
    15
100
AcDbLine
 10
87.5
 20
1690.6923788647
 30
0.0
 11
87.5833381922
 21
1691.3324926878
 31
0.0
  0
LINE
  5
497
330
1F
100
AcDbEntity
  8
0
  6
Continuous
 62
     7
370
    15
100
AcDbLine
 10
282.5
 20
1576.6923788647
 30
0.0
 11
282.5
 21
1699.6923788647
 31
0.0
  0
LINE
  5
498
330
1F
100
AcDbEntity
  8
0
  6
Continuous
 62
     7
370
    15
100
AcDbLine
 10
232.5
 20
1573.1923788647
 30
0.0
 11
232.5
 21
1703.1923788647
 31
0.0
  0
LINE
  5
499
330
1F
100
AcDbEntity
  8
0
  6
Continuous
 62
     7
370
    15
100
AcDbLine
 10
227.5
 20
1699.6923788647
 30
0.0
 11
227.5
 21
1576.6923788647
 31
0.0
  0
LINE
  5
49A
330
1F
100
AcDbEntity
  8
0
  6
Continuous
 62
     7
370
    15
100
AcDbLine
 10
217.5
 20
1693.6923788647
 30
0.0
 11
217.5
 21
1582.6923788647
 31
0.0
  0
LINE
  5
49B
330
1F
100
AcDbEntity
  8
0
  6
Continuous
 62
     7
370
    15
100
AcDbLine
 10
212.5
 20
1582.6923788647
 30
0.0
 11
212.5
 21
1693.6923788647
 31
0.0
  0
LINE
  5
49C
330
1F
100
AcDbEntity
  8
0
  6
Continuous
 62
     7
370
    15
100
AcDbLine
 10
192.5
 20
1603.1923788647
 30
0.0
 11
192.5
 21
1673.1923788647
 31
0.0
  0
LINE
  5
49D
330
1F
100
AcDbEntity
  8
0
  6
Continuous
 62
     7
370
    15
100
AcDbLine
 10
182.5
 20
1628.1923788647
 30
0.0
 11
182.5
 21
1648.1923788647
 31
0.0
  0
LINE
  5
49E
330
1F
100
AcDbEntity
  8
0
  6
Continuous
 62
     7
370
    15
100
AcDbLine
 10
339.6080216505
 20
1615.4331461802
 30
0.0
 11
341.6808012726
 21
1614.759659255
 31
0.0
  0
LINE
  5
49F
330
1F
100
AcDbEntity
  8
0
  6
Continuous
 62
     7
370
    15
100
AcDbLine
 10
250.5
 20
1548.5129293929
 30
0.0
 11
250.5
 21
1550.6923788647
 31
0.0
  0
LINE
  5
4A0
330
1F
100
AcDbEntity
  8
0
  6
Continuous
 62
     7
370
    15
100
AcDbLine
 10
272.5
 20
1573.1923788647
 30
0.0
 11
272.5
 21
1703.1923788647
 31
0.0
  0
LINE
  5
4A1
330
1F
100
AcDbEntity
  8
0
  6
Continuous
 62
     7
370
    15
100
AcDbLine
 10
327.5
 20
1648.1923788647
 30
0.0
 11
327.5
 21
1628.1923788647
 31
0.0
  0
LINE
  5
4A2
330
1F
100
AcDbEntity
  8
0
  6
Continuous
 62
     7
370
    15
100
AcDbLine
 10
287.5
 20
1699.6923788647
 30
0.0
 11
287.5
 21
1576.6923788647
 31
0.0
  0
LINE
  5
4A3
330
1F
100
AcDbEntity
  8
0
  6
Continuous
 62
     7
370
    15
100
AcDbLine
 10
207.5
 20
1685.6923788647
 30
0.0
 11
207.5
 21
1590.6923788647
 31
0.0
  0
LINE
  5
4A4
330
1F
100
AcDbEntity
  8
0
  6
Continuous
 62
     7
370
    15
100
AcDbLine
 10
259.5
 20
1550.6923788647
 30
0.0
 11
259.5
 21
1548.5129293929
 31
0.0
  0
LINE
  5
4A5
330
1F
100
AcDbEntity
  8
0
  6
Continuous
 62
     7
370
    15
100
AcDbLine
 10
205.9283186415
 20
1713.3896111688
 30
0.0
 11
207.2093668991
 21
1711.6263995078
 31
0.0
  0
LINE
  5
4A6
330
1F
100
AcDbEntity
  8
0
  6
Continuous
 62
     7
370
    15
100
AcDbLine
 10
237.5
 20
1703.1923788647
 30
0.0
 11
237.5
 21
1573.1923788647
 31
0.0
  0
LINE
  5
4A7
330
1F
100
AcDbEntity
  8
0
  6
Continuous
 62
     7
370
    15
100
AcDbLine
 10
307.5
 20
1685.6923788647
 30
0.0
 11
307.5
 21
1590.6923788647
 31
0.0
  0
LINE
  5
4A8
330
1F
100
AcDbEntity
  8
0
  6
Continuous
 62
     7
370
    15
100
AcDbLine
 10
187.5
 20
1648.1923788647
 30
0.0
 11
187.5
 21
1628.1923788647
 31
0.0
  0
LINE
  5
4A9
330
1F
100
AcDbEntity
  8
0
  6
Continuous
 62
     7
370
    15
100
AcDbLine
 10
197.5
 20
1673.1923788647
 30
0.0
 11
197.5
 21
1603.1923788647
 31
0.0
  0
LINE
  5
4AA
330
1F
100
AcDbEntity
  8
0
  6
Continuous
 62
     7
370
    15
100
AcDbLine
 10
252.5
 20
1568.1923788647
 30
0.0
 11
252.5
 21
1708.1923788647
 31
0.0
  0
LINE
  5
4AB
330
1F
100
AcDbEntity
  8
0
  6
Continuous
 62
     7
370
    15
100
AcDbLine
 10
302.7906331009
 20
1711.6263995078
 30
0.0
 11
304.0716813585
 21
1713.3896111688
 31
0.0
  0
LINE
  5
4AC
330
1F
100
AcDbEntity
  8
0
  6
Continuous
 62
     7
370
    15
100
AcDbLine
 10
297.5
 20
1693.6923788647
 30
0.0
 11
297.5
 21
1582.6923788647
 31
0.0
  0
LINE
  5
4AD
330
1F
100
AcDbEntity
  8
0
  6
Continuous
 62
     7
370
    15
100
AcDbLine
 10
312.5
 20
1603.1923788647
 30
0.0
 11
312.5
 21
1673.1923788647
 31
0.0
  0
LINE
  5
4AE
330
1F
100
AcDbEntity
  8
0
  6
Continuous
 62
     7
370
    15
100
AcDbLine
 10
168.3191987274
 20
1614.759659255
 30
0.0
 11
170.3919783495
 21
1615.4331461802
 31
0.0
  0
LINE
  5
4AF
330
1F
100
AcDbEntity
  8
0
  6
Continuous
 62
     7
370
    15
100
AcDbLine
 10
338.8996483232
 20
1606.2001506084
 30
0.0
 11
336.8268687011
 21
1606.8736375335
 31
0.0
  0
LINE
  5
4B0
330
1F
100
AcDbEntity
  8
0
  6
Continuous
 62
     7
370
    15
100
AcDbLine
 10
262.5
 20
1570.6923788647
 30
0.0
 11
262.5
 21
1705.6923788647
 31
0.0
  0
LINE
  5
4B1
330
1F
100
AcDbEntity
  8
0
  6
Continuous
 62
     7
370
    15
100
AcDbLine
 10
242.5
 20
1570.6923788647
 30
0.0
 11
242.5
 21
1705.6923788647
 31
0.0
  0
LINE
  5
4B2
330
1F
100
AcDbEntity
  8
0
  6
Continuous
 62
     7
370
    15
100
AcDbLine
 10
292.5
 20
1582.6923788647
 30
0.0
 11
292.5
 21
1693.6923788647
 31
0.0
  0
LINE
  5
4B3
330
1F
100
AcDbEntity
  8
0
  6
Continuous
 62
     7
370
    15
100
AcDbLine
 10
173.1731312988
 20
1606.8736375335
 30
0.0
 11
171.1003516768
 21
1606.2001506084
 31
0.0
  0
LINE
  5
4B4
330
1F
100
AcDbEntity
  8
0
  6
Continuous
 62
     7
370
    15
100
AcDbLine
 10
202.5
 20
1590.6923788647
 30
0.0
 11
202.5
 21
1685.6923788647
 31
0.0
  0
LINE
  5
4B5
330
1F
100
AcDbEntity
  8
0
  6
Continuous
 62
     7
370
    15
100
AcDbLine
 10
222.5
 20
1576.6923788647
 30
0.0
 11
222.5
 21
1699.6923788647
 31
0.0
  0
LINE
  5
4B6
330
1F
100
AcDbEntity
  8
0
  6
Continuous
 62
     7
370
    15
100
AcDbLine
 10
257.5
 20
1708.1923788647
 30
0.0
 11
257.5
 21
1568.1923788647
 31
0.0
  0
LINE
  5
4B7
330
1F
100
AcDbEntity
  8
0
  6
Continuous
 62
     7
370
    15
100
AcDbLine
 10
302.5
 20
1590.6923788647
 30
0.0
 11
302.5
 21
1685.6923788647
 31
0.0
  0
LINE
  5
4B8
330
1F
100
AcDbEntity
  8
0
  6
Continuous
 62
     7
370
    15
100
AcDbLine
 10
317.5
 20
1673.1923788647
 30
0.0
 11
317.5
 21
1603.1923788647
 31
0.0
  0
LINE
  5
4B9
330
1F
100
AcDbEntity
  8
0
  6
Continuous
 62
     7
370
    15
100
AcDbLine
 10
277.5
 20
1703.1923788647
 30
0.0
 11
277.5
 21
1573.1923788647
 31
0.0
  0
LINE
  5
4BA
330
1F
100
AcDbEntity
  8
0
  6
Continuous
 62
     7
370
    15
100
AcDbLine
 10
247.5
 20
1705.6923788647
 30
0.0
 11
247.5
 21
1570.6923788647
 31
0.0
  0
LINE
  5
4BB
330
1F
100
AcDbEntity
  8
0
  6
Continuous
 62
     7
370
    15
100
AcDbLine
 10
311.3528343079
 20
1708.0995438982
 30
0.0
 11
310.0717860503
 21
1706.3363322372
 31
0.0
  0
LINE
  5
4BC
330
1F
100
AcDbEntity
  8
0
  6
Continuous
 62
     7
370
    15
100
AcDbLine
 10
322.5
 20
1628.1923788647
 30
0.0
 11
322.5
 21
1648.1923788647
 31
0.0
  0
LINE
  5
4BD
330
1F
100
AcDbEntity
  8
0
  6
Continuous
 62
     7
370
    15
100
AcDbLine
 10
199.9282139497
 20
1706.3363322372
 30
0.0
 11
198.6471656921
 21
1708.0995438982
 31
0.0
  0
LINE
  5
4BE
330
1F
100
AcDbEntity
  8
0
  6
Continuous
 62
     7
370
    15
100
AcDbLine
 10
267.5
 20
1705.6923788647
 30
0.0
 11
267.5
 21
1570.6923788647
 31
0.0
  0
LINE
  5
4BF
330
1F
100
AcDbEntity
  8
0
  6
Continuous
 62
     7
370
    15
100
AcDbLine
 10
-187.5
 20
1648.1923788647
 30
0.0
 11
-187.5
 21
1628.1923788647
 31
0.0
  0
LINE
  5
4C0
330
1F
100
AcDbEntity
  8
0
  6
Continuous
 62
     7
370
    15
100
AcDbLine
 10
-182.5
 20
1628.1923788647
 30
0.0
 11
-182.5
 21
1648.1923788647
 31
0.0
  0
LINE
  5
4C1
330
1F
100
AcDbEntity
  8
0
  6
Continuous
 62
     7
370
    15
100
AcDbLine
 10
-197.5
 20
1673.1923788647
 30
0.0
 11
-197.5
 21
1603.1923788647
 31
0.0
  0
LINE
  5
4C2
330
1F
100
AcDbEntity
  8
0
  6
Continuous
 62
     7
370
    15
100
AcDbLine
 10
-192.5
 20
1603.1923788647
 30
0.0
 11
-192.5
 21
1673.1923788647
 31
0.0
  0
LINE
  5
4C3
330
1F
100
AcDbEntity
  8
0
  6
Continuous
 62
     7
370
    15
100
AcDbLine
 10
-207.5
 20
1685.6923788647
 30
0.0
 11
-207.5
 21
1590.6923788647
 31
0.0
  0
LINE
  5
4C4
330
1F
100
AcDbEntity
  8
0
  6
Continuous
 62
     7
370
    15
100
AcDbLine
 10
-202.5
 20
1590.6923788647
 30
0.0
 11
-202.5
 21
1685.6923788647
 31
0.0
  0
LINE
  5
4C5
330
1F
100
AcDbEntity
  8
0
  6
Continuous
 62
     7
370
    15
100
AcDbLine
 10
-217.5
 20
1693.6923788647
 30
0.0
 11
-217.5
 21
1582.6923788647
 31
0.0
  0
LINE
  5
4C6
330
1F
100
AcDbEntity
  8
0
  6
Continuous
 62
     7
370
    15
100
AcDbLine
 10
-212.5
 20
1582.6923788647
 30
0.0
 11
-212.5
 21
1693.6923788647
 31
0.0
  0
LINE
  5
4C7
330
1F
100
AcDbEntity
  8
0
  6
Continuous
 62
     7
370
    15
100
AcDbLine
 10
-227.5
 20
1699.6923788647
 30
0.0
 11
-227.5
 21
1576.6923788647
 31
0.0
  0
LINE
  5
4C8
330
1F
100
AcDbEntity
  8
0
  6
Continuous
 62
     7
370
    15
100
AcDbLine
 10
-222.5
 20
1576.6923788647
 30
0.0
 11
-222.5
 21
1699.6923788647
 31
0.0
  0
LINE
  5
4C9
330
1F
100
AcDbEntity
  8
0
  6
Continuous
 62
     7
370
    15
100
AcDbLine
 10
-237.5
 20
1703.1923788647
 30
0.0
 11
-237.5
 21
1573.1923788647
 31
0.0
  0
LINE
  5
4CA
330
1F
100
AcDbEntity
  8
0
  6
Continuous
 62
     7
370
    15
100
AcDbLine
 10
-232.5
 20
1573.1923788647
 30
0.0
 11
-232.5
 21
1703.1923788647
 31
0.0
  0
LINE
  5
4CB
330
1F
100
AcDbEntity
  8
0
  6
Continuous
 62
     7
370
    15
100
AcDbLine
 10
-247.5
 20
1705.6923788647
 30
0.0
 11
-247.5
 21
1570.6923788647
 31
0.0
  0
LINE
  5
4CC
330
1F
100
AcDbEntity
  8
0
  6
Continuous
 62
     7
370
    15
100
AcDbLine
 10
-242.5
 20
1570.6923788647
 30
0.0
 11
-242.5
 21
1705.6923788647
 31
0.0
  0
LINE
  5
4CD
330
1F
100
AcDbEntity
  8
0
  6
Continuous
 62
     7
370
    15
100
AcDbLine
 10
-327.5
 20
1648.1923788647
 30
0.0
 11
-327.5
 21
1628.1923788647
 31
0.0
  0
LINE
  5
4CE
330
1F
100
AcDbEntity
  8
0
  6
Continuous
 62
     7
370
    15
100
AcDbLine
 10
-322.5
 20
1628.1923788647
 30
0.0
 11
-322.5
 21
1648.1923788647
 31
0.0
  0
LINE
  5
4CF
330
1F
100
AcDbEntity
  8
0
  6
Continuous
 62
     7
370
    15
100
AcDbLine
 10
-317.5
 20
1673.1923788647
 30
0.0
 11
-317.5
 21
1603.1923788647
 31
0.0
  0
LINE
  5
4D0
330
1F
100
AcDbEntity
  8
0
  6
Continuous
 62
     7
370
    15
100
AcDbLine
 10
-312.5
 20
1603.1923788647
 30
0.0
 11
-312.5
 21
1673.1923788647
 31
0.0
  0
LINE
  5
4D1
330
1F
100
AcDbEntity
  8
0
  6
Continuous
 62
     7
370
    15
100
AcDbLine
 10
-307.5
 20
1685.6923788647
 30
0.0
 11
-307.5
 21
1590.6923788647
 31
0.0
  0
LINE
  5
4D2
330
1F
100
AcDbEntity
  8
0
  6
Continuous
 62
     7
370
    15
100
AcDbLine
 10
-302.5
 20
1590.6923788647
 30
0.0
 11
-302.5
 21
1685.6923788647
 31
0.0
  0
LINE
  5
4D3
330
1F
100
AcDbEntity
  8
0
  6
Continuous
 62
     7
370
    15
100
AcDbLine
 10
-297.5
 20
1693.6923788647
 30
0.0
 11
-297.5
 21
1582.6923788647
 31
0.0
  0
LINE
  5
4D4
330
1F
100
AcDbEntity
  8
0
  6
Continuous
 62
     7
370
    15
100
AcDbLine
 10
-292.5
 20
1582.6923788647
 30
0.0
 11
-292.5
 21
1693.6923788647
 31
0.0
  0
LINE
  5
4D5
330
1F
100
AcDbEntity
  8
0
  6
Continuous
 62
     7
370
    15
100
AcDbLine
 10
-287.5
 20
1699.6923788647
 30
0.0
 11
-287.5
 21
1576.6923788647
 31
0.0
  0
LINE
  5
4D6
330
1F
100
AcDbEntity
  8
0
  6
Continuous
 62
     7
370
    15
100
AcDbLine
 10
-282.5
 20
1576.6923788647
 30
0.0
 11
-282.5
 21
1699.6923788647
 31
0.0
  0
LINE
  5
4D7
330
1F
100
AcDbEntity
  8
0
  6
Continuous
 62
     7
370
    15
100
AcDbLine
 10
-277.5
 20
1703.1923788647
 30
0.0
 11
-277.5
 21
1573.1923788647
 31
0.0
  0
LINE
  5
4D8
330
1F
100
AcDbEntity
  8
0
  6
Continuous
 62
     7
370
    15
100
AcDbLine
 10
-272.5
 20
1573.1923788647
 30
0.0
 11
-272.5
 21
1703.1923788647
 31
0.0
  0
LINE
  5
4D9
330
1F
100
AcDbEntity
  8
0
  6
Continuous
 62
     7
370
    15
100
AcDbLine
 10
-267.5
 20
1705.6923788647
 30
0.0
 11
-267.5
 21
1570.6923788647
 31
0.0
  0
LINE
  5
4DA
330
1F
100
AcDbEntity
  8
0
  6
Continuous
 62
     7
370
    15
100
AcDbLine
 10
-262.5
 20
1570.6923788647
 30
0.0
 11
-262.5
 21
1705.6923788647
 31
0.0
  0
LINE
  5
4DB
330
1F
100
AcDbEntity
  8
0
  6
Continuous
 62
     7
370
    15
100
AcDbLine
 10
-257.5
 20
1708.1923788647
 30
0.0
 11
-257.5
 21
1568.1923788647
 31
0.0
  0
LINE
  5
4DC
330
1F
100
AcDbEntity
  8
0
  6
Continuous
 62
     7
370
    15
100
AcDbLine
 10
-252.5
 20
1568.1923788647
 30
0.0
 11
-252.5
 21
1708.1923788647
 31
0.0
  0
LINE
  5
4DD
330
1F
100
AcDbEntity
  8
0
  6
Continuous
 62
     7
370
    15
100
AcDbLine
 10
-173.1731312989
 20
1606.8736375335
 30
0.0
 11
-171.1003516768
 21
1606.2001506084
 31
0.0
  0
LINE
  5
4DE
330
1F
100
AcDbEntity
  8
0
  6
Continuous
 62
     7
370
    15
100
AcDbLine
 10
-250.5
 20
1548.5129293929
 30
0.0
 11
-250.5
 21
1550.6923788647
 31
0.0
  0
LINE
  5
4DF
330
1F
100
AcDbEntity
  8
0
  6
Continuous
 62
     7
370
    15
100
AcDbLine
 10
-259.5
 20
1550.6923788647
 30
0.0
 11
-259.5
 21
1548.5129293929
 31
0.0
  0
LINE
  5
4E0
330
1F
100
AcDbEntity
  8
0
  6
Continuous
 62
     7
370
    15
100
AcDbLine
 10
-338.8996483232
 20
1606.2001506084
 30
0.0
 11
-336.8268687012
 21
1606.8736375335
 31
0.0
  0
LINE
  5
4E1
330
1F
100
AcDbEntity
  8
0
  6
Continuous
 62
     7
370
    15
100
AcDbLine
 10
-339.6080216505
 20
1615.4331461802
 30
0.0
 11
-341.6808012726
 21
1614.759659255
 31
0.0
  0
LINE
  5
4E2
330
1F
100
AcDbEntity
  8
0
  6
Continuous
 62
     7
370
    15
100
AcDbLine
 10
-311.3528343079
 20
1708.0995438982
 30
0.0
 11
-310.0717860503
 21
1706.3363322372
 31
0.0
  0
LINE
  5
4E3
330
1F
100
AcDbEntity
  8
0
  6
Continuous
 62
     7
370
    15
100
AcDbLine
 10
-302.7906331009
 20
1711.6263995078
 30
0.0
 11
-304.0716813585
 21
1713.3896111688
 31
0.0
  0
LINE
  5
4E4
330
1F
100
AcDbEntity
  8
0
  6
Continuous
 62
     7
370
    15
100
AcDbLine
 10
-205.9283186415
 20
1713.3896111688
 30
0.0
 11
-207.2093668991
 21
1711.6263995078
 31
0.0
  0
LINE
  5
4E5
330
1F
100
AcDbEntity
  8
0
  6
Continuous
 62
     7
370
    15
100
AcDbLine
 10
-199.9282139497
 20
1706.3363322372
 30
0.0
 11
-198.6471656921
 21
1708.0995438982
 31
0.0
  0
LINE
  5
4E6
330
1F
100
AcDbEntity
  8
0
  6
Continuous
 62
     7
370
    15
100
AcDbLine
 10
-168.3191987274
 20
1614.759659255
 30
0.0
 11
-170.3919783495
 21
1615.4331461802
 31
0.0
  0
LINE
  5
4E7
330
1F
100
AcDbEntity
  8
0
  6
Continuous
 62
     7
370
    15
100
AcDbLine
 10
750.0
 20
-3492.9691285972
 30
0.0
 11
2650.0
 21
-2396.003617137
 31
0.0
  0
LINE
  5
4E8
330
1F
100
AcDbEntity
  8
0
  6
Continuous
 62
     7
370
    15
100
AcDbLine
 10
-3400.0
 20
1096.9655114603
 30
0.0
 11
-3400.0
 21
-1096.9655114603
 31
0.0
  0
LINE
  5
4E9
330
1F
100
AcDbEntity
  8
0
  6
Continuous
 62
     7
370
    15
100
AcDbLine
 10
-750.0
 20
3492.9691285972
 30
0.0
 11
-2650.0
 21
2396.003617137
 31
0.0
  0
LINE
  5
4EA
330
1F
100
AcDbEntity
  8
0
  6
Continuous
 62
     7
370
    15
100
AcDbLine
 10
2650.0
 20
2396.0036171369
 30
0.0
 11
750.0
 21
3492.9691285972
 31
0.0
  0
LINE
  5
4EB
330
1F
100
AcDbEntity
  8
0
  6
Continuous
 62
     7
370
    15
100
AcDbLine
 10
-2650.0
 20
-2396.0036171369
 30
0.0
 11
-750.0
 21
-3492.9691285972
 31
0.0
  0
LINE
  5
4EC
330
1F
100
AcDbEntity
  8
0
  6
Continuous
 62
     7
370
    15
100
AcDbLine
 10
3400.0
 20
-1096.9655114603
 30
0.0
 11
3400.0
 21
1096.9655114603
 31
0.0
  0
LINE
  5
4ED
330
1F
100
AcDbEntity
  8
0
  6
PHANTOM
 62
     8
370
     0
100
AcDbLine
 10
175.2170630722
 20
16.4842877321
 30
0.0
 11
-177.0862429711
 21
16.4842877321
 31
0.0
  0
LINE
  5
4EE
330
1F
100
AcDbEntity
  8
0
  6
PHANTOM
 62
     8
370
     0
100
AcDbLine
 10
-176.3628515551
 20
19.086190885
 30
0.0
 11
174.7509315888
 21
19.086190885
 31
0.0
  0
LINE
  5
4EF
330
1F
100
AcDbEntity
  8
0
  6
PHANTOM
 62
     8
370
     0
100
AcDbLine
 10
1823.3145296316
 20
1030.6522996097
 30
0.0
 11
1519.2410738102
 21
855.0954080377
 31
0.0
  0
LINE
  5
4F0
330
1F
100
AcDbEntity
  8
0
  6
PHANTOM
 62
     8
370
     0
100
AcDbLine
 10
1517.5364405276
 20
857.1156565246
 30
0.0
 11
1822.6400533983
 21
1033.2673095462
 31
0.0
  0
LINE
  5
4F1
330
1F
100
AcDbEntity
  8
0
  6
PHANTOM
 62
     8
370
     0
100
AcDbLine
 10
429.4904991694
 20
79.5123687795
 30
0.0
 11
472.3167669983
 21
41.8970689157
 31
0.0
  0
LINE
  5
4F2
330
1F
100
AcDbEntity
  8
0
  6
PHANTOM
 62
     8
370
     0
100
AcDbLine
 10
316.7897943563
 20
28.5
 30
0.0
 11
316.7897943563
 21
-28.5
 31
0.0
  0
LINE
  5
4F3
330
1F
100
AcDbEntity
  8
0
  6
PHANTOM
 62
     8
370
     0
100
AcDbLine
 10
1083.3208643911
 20
449.4850019484
 30
0.0
 11
1065.0398784339
 21
503.4739411159
 31
0.0
  0
LINE
  5
4F4
330
1F
100
AcDbEntity
  8
0
  6
PHANTOM
 62
     8
370
     0
100
AcDbLine
 10
1172.4589932936
 20
508.9471657355
 30
0.0
 11
1129.6327254647
 21
546.5624655993
 31
0.0
  0
LINE
  5
4F5
330
1F
100
AcDbEntity
  8
0
  6
PHANTOM
 62
     8
370
     0
100
AcDbLine
 10
1434.5316622065
 20
795.3182759921
 30
0.0
 11
1406.0316622065
 21
844.6817240079
 31
0.0
  0
LINE
  5
4F6
330
1F
100
AcDbEntity
  8
0
  6
PHANTOM
 62
     8
370
     0
100
AcDbLine
 10
743.0005921717
 20
394.4294634761
 30
0.0
 11
761.2815781289
 21
340.4405243086
 31
0.0
  0
LINE
  5
4F7
330
1F
100
AcDbEntity
  8
0
  6
PHANTOM
 62
     8
370
     0
100
AcDbLine
 10
653.8624632692
 20
334.967299689
 30
0.0
 11
696.6887310981
 21
297.3519998252
 31
0.0
  0
LINE
  5
4F8
330
1F
100
AcDbEntity
  8
0
  6
PHANTOM
 62
     8
370
     0
100
AcDbLine
 10
1396.8309573935
 20
764.402096645
 30
0.0
 11
1354.0046895645
 21
802.0173965088
 31
0.0
  0
LINE
  5
4F9
330
1F
100
AcDbEntity
  8
0
  6
PHANTOM
 62
     8
370
     0
100
AcDbLine
 10
3.2599720711
 20
-173.5973437974
 30
0.0
 11
4.2698175805
 21
-173.8398419472
 31
0.0
  0
LINE
  5
4FA
330
1F
100
AcDbEntity
  8
0
  6
PHANTOM
 62
     8
370
     0
100
AcDbLine
 10
3.4203717152
 20
-173.0618053074
 30
0.0
 11
3.0321768767
 21
-173.3886983558
 31
0.0
  0
LINE
  5
4FB
330
1F
100
AcDbEntity
  8
0
  6
PHANTOM
 62
     8
370
     0
100
AcDbLine
 10
1.3147407423
 20
-172.9762837031
 30
0.0
 11
2.7127810902
 21
-172.8918888045
 31
0.0
  0
LINE
  5
4FC
330
1F
100
AcDbEntity
  8
0
  6
PHANTOM
 62
     8
370
     0
100
AcDbLine
 10
-0.5774408646
 20
-172.675850828
 30
0.0
 11
0.4324046448
 21
-172.9183489779
 31
0.0
  0
LINE
  5
4FD
330
1F
100
AcDbEntity
  8
0
  6
PHANTOM
 62
     8
370
     0
100
AcDbLine
 10
-1.9452313288
 20
-173.0618787031
 30
0.0
 11
-1.5570364902
 21
-172.7349856546
 31
0.0
  0
LINE
  5
4FE
330
1F
100
AcDbEntity
  8
0
  6
PHANTOM
 62
     8
370
     0
100
AcDbLine
 10
-3.9978125799
 20
-173.296984318
 30
0.0
 11
-2.5997722319
 21
-173.2125894194
 31
0.0
  0
LINE
  5
4FF
330
1F
100
AcDbEntity
  8
0
  6
PHANTOM
 62
     8
370
     0
100
AcDbLine
 10
-3.2599720711
 20
-173.7685337973
 30
0.0
 11
-4.2698175805
 21
-173.5260356475
 31
0.0
  0
LINE
  5
500
330
1F
100
AcDbEntity
  8
0
  6
PHANTOM
 62
     8
370
     0
100
AcDbLine
 10
-3.4203717152
 20
-174.3040722873
 30
0.0
 11
-3.0321768767
 21
-173.9771792388
 31
0.0
  0
LINE
  5
501
330
1F
100
AcDbEntity
  8
0
  6
PHANTOM
 62
     8
370
     0
100
AcDbLine
 10
-1.3147407423
 20
-174.3895938915
 30
0.0
 11
-2.7127810903
 21
-174.4739887902
 31
0.0
  0
LINE
  5
502
330
1F
100
AcDbEntity
  8
0
  6
PHANTOM
 62
     8
370
     0
100
AcDbLine
 10
0.5774408646
 20
-174.6900267666
 30
0.0
 11
-0.4324046448
 21
-174.4475286168
 31
0.0
  0
LINE
  5
503
330
1F
100
AcDbEntity
  8
0
  6
PHANTOM
 62
     8
370
     0
100
AcDbLine
 10
1.9452313288
 20
-174.3039988916
 30
0.0
 11
1.5570364902
 21
-174.6308919401
 31
0.0
  0
LINE
  5
504
330
1F
100
AcDbEntity
  8
0
  6
PHANTOM
 62
     8
370
     0
100
AcDbLine
 10
3.9978125799
 20
-174.0688932767
 30
0.0
 11
2.5997722319
 21
-174.1532881753
 31
0.0
  0
LINE
  5
505
330
1F
100
AcDbEntity
  8
0
  6
PHANTOM
 62
     8
370
     0
100
AcDbLine
 10
3.3255195288
 20
-172.9752590807
 30
0.0
 11
2.9373246903
 21
-173.3021521291
 31
0.0
  0
LINE
  5
506
330
1F
100
AcDbEntity
  8
0
  6
PHANTOM
 62
     8
370
     0
100
AcDbLine
 10
2.9373246903
 20
-173.3021521293
 30
0.0
 11
2.8653905666
 21
-172.8857400087
 31
0.0
  0
LINE
  5
507
330
1F
100
AcDbEntity
  8
0
  6
PHANTOM
 62
     8
370
     0
100
AcDbLine
 10
-4.1994536501
 20
-173.4295158907
 30
0.0
 11
-4.1787613006
 21
-173.2651115681
 31
0.0
  0
LINE
  5
508
330
1F
100
AcDbEntity
  8
0
  6
PHANTOM
 62
     8
370
     0
100
AcDbLine
 10
-3.1896081407
 20
-173.6720140405
 30
0.0
 11
-4.1994536501
 21
-173.4295158907
 31
0.0
  0
LINE
  5
509
330
1F
100
AcDbEntity
  8
0
  6
PHANTOM
 62
     8
370
     0
100
AcDbLine
 10
-3.1362355884
 20
-173.2479598118
 30
0.0
 11
-3.1896081407
 21
-173.6720140406
 31
0.0
  0
LINE
  5
50A
330
1F
100
AcDbEntity
  8
0
  6
PHANTOM
 62
     8
370
     0
100
AcDbLine
 10
3.9649257162
 20
-173.7722737789
 30
0.0
 11
3.9733243239
 21
-173.9661454676
 31
0.0
  0
LINE
  5
50B
330
1F
100
AcDbEntity
  8
0
  6
PHANTOM
 62
     8
370
     0
100
AcDbLine
 10
3.9733243239
 20
-173.9661454676
 30
0.0
 11
2.5752839759
 21
-174.0505403662
 31
0.0
  0
LINE
  5
50C
330
1F
100
AcDbEntity
  8
0
  6
PHANTOM
 62
     8
370
     0
100
AcDbLine
 10
2.5752839759
 20
-174.0505403662
 30
0.0
 11
2.5257092409
 21
-172.9061676305
 31
0.0
  0
LINE
  5
50D
330
1F
100
AcDbEntity
  8
0
  6
PHANTOM
 62
     8
370
     0
100
AcDbLine
 10
1.6331656186
 20
-172.9600474264
 30
0.0
 11
1.8503791424
 21
-174.2174526651
 31
0.0
  0
LINE
  5
50E
330
1F
100
AcDbEntity
  8
0
  6
PHANTOM
 62
     8
370
     0
100
AcDbLine
 10
1.8503791424
 20
-174.2174526649
 30
0.0
 11
1.4621843038
 21
-174.5443457133
 31
0.0
  0
LINE
  5
50F
330
1F
100
AcDbEntity
  8
0
  6
PHANTOM
 62
     8
370
     0
100
AcDbLine
 10
1.4621843038
 20
-174.5443457133
 30
0.0
 11
1.1919211212
 21
-172.9798467091
 31
0.0
  0
LINE
  5
510
330
1F
100
AcDbEntity
  8
0
  6
PHANTOM
 62
     8
370
     0
100
AcDbLine
 10
-2.7372693463
 20
-174.3712409811
 30
0.0
 11
-2.7868440813
 21
-173.2268682454
 31
0.0
  0
LINE
  5
511
330
1F
100
AcDbEntity
  8
0
  6
PHANTOM
 62
     8
370
     0
100
AcDbLine
 10
-1.4071532247
 20
-172.718897556
 30
0.0
 11
-1.3392289983
 21
-174.2868460826
 31
0.0
  0
LINE
  5
512
330
1F
100
AcDbEntity
  8
0
  6
PHANTOM
 62
     8
370
     0
100
AcDbLine
 10
-0.3620407144
 20
-174.3510088601
 30
0.0
 11
-0.1643955663
 21
-172.7806837171
 31
0.0
  0
LINE
  5
513
330
1F
100
AcDbEntity
  8
0
  6
PHANTOM
 62
     8
370
     0
100
AcDbLine
 10
-1.3392289983
 20
-174.2868460825
 30
0.0
 11
-2.7372693463
 21
-174.3712409811
 31
0.0
  0
LINE
  5
514
330
1F
100
AcDbEntity
  8
0
  6
PHANTOM
 62
     8
370
     0
100
AcDbLine
 10
0.647804795
 20
-174.5935070099
 30
0.0
 11
-0.3620407144
 21
-174.35100886
 31
0.0
  0
LINE
  5
515
330
1F
100
AcDbEntity
  8
0
  6
PHANTOM
 62
     8
370
     0
100
AcDbLine
 10
0.6478047951
 20
-174.5935070097
 30
0.0
 11
0.8514533591
 21
-172.9754836805
 31
0.0
  0
LINE
  5
516
330
1F
100
AcDbEntity
  8
0
  6
PHANTOM
 62
     8
370
     0
100
AcDbLine
 10
-2.5997722319
 20
173.2125894194
 30
0.0
 11
-3.9978125799
 21
173.296984318
 31
0.0
  0
LINE
  5
517
330
1F
100
AcDbEntity
  8
0
  6
PHANTOM
 62
     8
370
     0
100
AcDbLine
 10
-1.5570364902
 20
172.7349856546
 30
0.0
 11
-1.9452313288
 21
173.0618787031
 31
0.0
  0
LINE
  5
518
330
1F
100
AcDbEntity
  8
0
  6
PHANTOM
 62
     8
370
     0
100
AcDbLine
 10
0.4324046448
 20
172.9183489779
 30
0.0
 11
-0.5774408646
 21
172.675850828
 31
0.0
  0
LINE
  5
519
330
1F
100
AcDbEntity
  8
0
  6
PHANTOM
 62
     8
370
     0
100
AcDbLine
 10
2.7127810902
 20
172.8918888045
 30
0.0
 11
1.3147407423
 21
172.9762837031
 31
0.0
  0
LINE
  5
51A
330
1F
100
AcDbEntity
  8
0
  6
PHANTOM
 62
     8
370
     0
100
AcDbLine
 10
3.0321768767
 20
173.3886983558
 30
0.0
 11
3.4203717152
 21
173.0618053074
 31
0.0
  0
LINE
  5
51B
330
1F
100
AcDbEntity
  8
0
  6
PHANTOM
 62
     8
370
     0
100
AcDbLine
 10
4.2698175805
 20
173.8398419472
 30
0.0
 11
3.2599720711
 21
173.5973437974
 31
0.0
  0
LINE
  5
51C
330
1F
100
AcDbEntity
  8
0
  6
PHANTOM
 62
     8
370
     0
100
AcDbLine
 10
2.5997722319
 20
174.1532881753
 30
0.0
 11
3.9978125799
 21
174.0688932767
 31
0.0
  0
LINE
  5
51D
330
1F
100
AcDbEntity
  8
0
  6
PHANTOM
 62
     8
370
     0
100
AcDbLine
 10
1.5570364902
 20
174.6308919401
 30
0.0
 11
1.9452313288
 21
174.3039988916
 31
0.0
  0
LINE
  5
51E
330
1F
100
AcDbEntity
  8
0
  6
PHANTOM
 62
     8
370
     0
100
AcDbLine
 10
-0.4324046448
 20
174.4475286168
 30
0.0
 11
0.5774408646
 21
174.6900267666
 31
0.0
  0
LINE
  5
51F
330
1F
100
AcDbEntity
  8
0
  6
PHANTOM
 62
     8
370
     0
100
AcDbLine
 10
-2.7127810903
 20
174.4739887902
 30
0.0
 11
-1.3147407423
 21
174.3895938915
 31
0.0
  0
LINE
  5
520
330
1F
100
AcDbEntity
  8
0
  6
PHANTOM
 62
     8
370
     0
100
AcDbLine
 10
-3.0321768767
 20
173.9771792388
 30
0.0
 11
-3.4203717152
 21
174.3040722873
 31
0.0
  0
LINE
  5
521
330
1F
100
AcDbEntity
  8
0
  6
PHANTOM
 62
     8
370
     0
100
AcDbLine
 10
-4.2698175805
 20
173.5260356475
 30
0.0
 11
-3.2599720711
 21
173.7685337973
 31
0.0
  0
LINE
  5
522
330
1F
100
AcDbEntity
  8
0
  6
PHANTOM
 62
     8
370
     0
100
AcDbLine
 10
1.4300536964
 20
167.9323817187
 30
0.0
 11
-0.0175131445
 21
167.9037828985
 31
0.0
  0
LINE
  5
523
330
1F
100
AcDbEntity
  8
0
  6
PHANTOM
 62
     8
370
     0
100
AcDbLine
 10
2.9373246903
 20
173.3021521291
 30
0.0
 11
3.3255195288
 21
172.9752590807
 31
0.0
  0
LINE
  5
524
330
1F
100
AcDbEntity
  8
0
  6
PHANTOM
 62
     8
370
     0
100
AcDbLine
 10
2.8654119271
 20
172.8858636607
 30
0.0
 11
2.9373246903
 21
173.3021521291
 31
0.0
  0
LINE
  5
525
330
1F
100
AcDbEntity
  8
0
  6
PHANTOM
 62
     8
370
     0
100
AcDbLine
 10
-4.1994536501
 20
173.4295158907
 30
0.0
 11
-3.1896081407
 21
173.6720140405
 31
0.0
  0
LINE
  5
526
330
1F
100
AcDbEntity
  8
0
  6
PHANTOM
 62
     8
370
     0
100
AcDbLine
 10
-3.1896081407
 20
173.6720140405
 30
0.0
 11
-3.1362355884
 21
173.2479598118
 31
0.0
  0
LINE
  5
527
330
1F
100
AcDbEntity
  8
0
  6
PHANTOM
 62
     8
370
     0
100
AcDbLine
 10
3.9733243239
 20
173.9661454676
 30
0.0
 11
3.9649257162
 21
173.7722737789
 31
0.0
  0
LINE
  5
528
330
1F
100
AcDbEntity
  8
0
  6
PHANTOM
 62
     8
370
     0
100
AcDbLine
 10
2.5752839759
 20
174.0505403662
 30
0.0
 11
3.9733243239
 21
173.9661454676
 31
0.0
  0
LINE
  5
529
330
1F
100
AcDbEntity
  8
0
  6
PHANTOM
 62
     8
370
     0
100
AcDbLine
 10
2.5257092409
 20
172.9061676305
 30
0.0
 11
2.5752839759
 21
174.0505403664
 31
0.0
  0
LINE
  5
52A
330
1F
100
AcDbEntity
  8
0
  6
PHANTOM
 62
     8
370
     0
100
AcDbLine
 10
1.8503791424
 20
174.2174526649
 30
0.0
 11
1.6331656186
 21
172.9600474264
 31
0.0
  0
LINE
  5
52B
330
1F
100
AcDbEntity
  8
0
  6
PHANTOM
 62
     8
370
     0
100
AcDbLine
 10
1.4621843038
 20
174.5443457133
 30
0.0
 11
1.8503791424
 21
174.2174526649
 31
0.0
  0
LINE
  5
52C
330
1F
100
AcDbEntity
  8
0
  6
PHANTOM
 62
     8
370
     0
100
AcDbLine
 10
1.4621843038
 20
174.5443457131
 30
0.0
 11
1.1919203819
 21
172.9798424296
 31
0.0
  0
LINE
  5
52D
330
1F
100
AcDbEntity
  8
0
  6
PHANTOM
 62
     8
370
     0
100
AcDbLine
 10
-2.7372693463
 20
174.3712409809
 30
0.0
 11
-2.7868440813
 21
173.2268682454
 31
0.0
  0
LINE
  5
52E
330
1F
100
AcDbEntity
  8
0
  6
PHANTOM
 62
     8
370
     0
100
AcDbLine
 10
-0.1643955663
 20
172.7806837171
 30
0.0
 11
-0.3620407144
 21
174.3510088602
 31
0.0
  0
LINE
  5
52F
330
1F
100
AcDbEntity
  8
0
  6
PHANTOM
 62
     8
370
     0
100
AcDbLine
 10
-1.3392289983
 20
174.2868460825
 30
0.0
 11
-1.4073792824
 21
172.7136792873
 31
0.0
  0
LINE
  5
530
330
1F
100
AcDbEntity
  8
0
  6
PHANTOM
 62
     8
370
     0
100
AcDbLine
 10
-2.7372693463
 20
174.3712409811
 30
0.0
 11
-1.3392289983
 21
174.2868460825
 31
0.0
  0
LINE
  5
531
330
1F
100
AcDbEntity
  8
0
  6
PHANTOM
 62
     8
370
     0
100
AcDbLine
 10
-0.3620407144
 20
174.35100886
 30
0.0
 11
0.647804795
 21
174.5935070099
 31
0.0
  0
LINE
  5
532
330
1F
100
AcDbEntity
  8
0
  6
PHANTOM
 62
     8
370
     0
100
AcDbLine
 10
0.6478047951
 20
174.5935070099
 30
0.0
 11
0.8514535033
 21
172.9754825352
 31
0.0
  0
LINE
  5
533
330
1F
100
AcDbEntity
  8
0
  6
PHANTOM
 62
     8
370
     0
100
AcDbLine
 10
1569.5396815096
 20
1107.059736264
 30
0.0
 11
1569.4126241394
 21
1106.7475689988
 31
0.0
  0
LINE
  5
534
330
1F
100
AcDbEntity
  8
0
  6
PHANTOM
 62
     8
370
     0
100
AcDbLine
 10
1571.4148339307
 20
1107.7097237225
 30
0.0
 11
1570.4190329907
 21
1107.4148105259
 31
0.0
  0
LINE
  5
535
330
1F
100
AcDbEntity
  8
0
  6
PHANTOM
 62
     8
370
     0
100
AcDbLine
 10
1571.5436930091
 20
1107.1657339634
 30
0.0
 11
1571.7164330766
 21
1107.6429290669
 31
0.0
  0
LINE
  5
536
330
1F
100
AcDbEntity
  8
0
  6
PHANTOM
 62
     8
370
     0
100
AcDbLine
 10
1573.4099837247
 20
1108.144485568
 30
0.0
 11
1572.2414427172
 21
1107.3723772678
 31
0.0
  0
LINE
  5
537
330
1F
100
AcDbEntity
  8
0
  6
PHANTOM
 62
     8
370
     0
100
AcDbLine
 10
1575.1988775025
 20
1108.8303938695
 30
0.0
 11
1574.2030765625
 21
1108.5354806729
 31
0.0
  0
LINE
  5
538
330
1F
100
AcDbEntity
  8
0
  6
PHANTOM
 62
     8
370
     0
100
AcDbLine
 10
1576.190404854
 20
1109.8485990479
 30
0.0
 11
1576.0176647864
 21
1109.3714039444
 31
0.0
  0
LINE
  5
539
330
1F
100
AcDbEntity
  8
0
  6
PHANTOM
 62
     8
370
     0
100
AcDbLine
 10
1577.8504395533
 20
1111.0784971086
 30
0.0
 11
1576.6818985458
 21
1110.3063888084
 31
0.0
  0
LINE
  5
53A
330
1F
100
AcDbEntity
  8
0
  6
PHANTOM
 62
     8
370
     0
100
AcDbLine
 10
1576.9756761891
 20
1111.1179506824
 30
0.0
 11
1577.9714771291
 21
1111.412863879
 31
0.0
  0
LINE
  5
53B
330
1F
100
AcDbEntity
  8
0
  6
PHANTOM
 62
     8
370
     0
100
AcDbLine
 10
1576.8468171107
 20
1111.6619404415
 30
0.0
 11
1576.6740770431
 21
1111.1847453379
 31
0.0
  0
LINE
  5
53C
330
1F
100
AcDbEntity
  8
0
  6
PHANTOM
 62
     8
370
     0
100
AcDbLine
 10
1574.980526395
 20
1110.6831888369
 30
0.0
 11
1576.1490674025
 21
1111.455297137
 31
0.0
  0
LINE
  5
53D
330
1F
100
AcDbEntity
  8
0
  6
PHANTOM
 62
     8
370
     0
100
AcDbLine
 10
1573.1916326173
 20
1109.9972805354
 30
0.0
 11
1574.1874335572
 21
1110.292193732
 31
0.0
  0
LINE
  5
53E
330
1F
100
AcDbEntity
  8
0
  6
PHANTOM
 62
     8
370
     0
100
AcDbLine
 10
1572.2001052658
 20
1108.9790753569
 30
0.0
 11
1572.3728453334
 21
1109.4562704605
 31
0.0
  0
LINE
  5
53F
330
1F
100
AcDbEntity
  8
0
  6
PHANTOM
 62
     8
370
     0
100
AcDbLine
 10
1570.5400705665
 20
1107.7491772963
 30
0.0
 11
1571.708611574
 21
1108.5212855965
 31
0.0
  0
LINE
  5
540
330
1F
100
AcDbEntity
  8
0
  6
PHANTOM
 62
     8
370
     0
100
AcDbLine
 10
1571.6691105255
 20
1107.1382088256
 30
0.0
 11
1571.8418505931
 21
1107.6154039292
 31
0.0
  0
LINE
  5
541
330
1F
100
AcDbEntity
  8
0
  6
PHANTOM
 62
     8
370
     0
100
AcDbLine
 10
1571.8418505929
 20
1107.6154039294
 30
0.0
 11
1572.1123534318
 21
1107.2907475164
 31
0.0
  0
LINE
  5
542
330
1F
100
AcDbEntity
  8
0
  6
PHANTOM
 62
     8
370
     0
100
AcDbLine
 10
1577.9588000562
 20
1111.2940933524
 30
0.0
 11
1578.0230821172
 21
1111.1413688578
 31
0.0
  0
LINE
  5
543
330
1F
100
AcDbEntity
  8
0
  6
PHANTOM
 62
     8
370
     0
100
AcDbLine
 10
1576.9629991162
 20
1110.9991801558
 30
0.0
 11
1577.9588000562
 21
1111.2940933524
 31
0.0
  0
LINE
  5
544
330
1F
100
AcDbEntity
  8
0
  6
PHANTOM
 62
     8
370
     0
100
AcDbLine
 10
1577.1288042445
 20
1110.605252145
 30
0.0
 11
1576.9629991162
 21
1110.999180156
 31
0.0
  0
LINE
  5
545
330
1F
100
AcDbEntity
  8
0
  6
PHANTOM
 62
     8
370
     0
100
AcDbLine
 10
1570.7168611747
 20
1107.5087407078
 30
0.0
 11
1570.6126519228
 21
1107.6724392115
 31
0.0
  0
LINE
  5
546
330
1F
100
AcDbEntity
  8
0
  6
PHANTOM
 62
     8
370
     0
100
AcDbLine
 10
1570.6126519228
 20
1107.6724392115
 30
0.0
 11
1571.7811929303
 21
1108.4445475116
 31
0.0
  0
LINE
  5
547
330
1F
100
AcDbEntity
  8
0
  6
PHANTOM
 62
     8
370
     0
100
AcDbLine
 10
1571.7811929303
 20
1108.4445475116
 30
0.0
 11
1572.3963122781
 21
1107.4782790186
 31
0.0
  0
LINE
  5
548
330
1F
100
AcDbEntity
  8
0
  6
PHANTOM
 62
     8
370
     0
100
AcDbLine
 10
1573.1423378311
 20
1107.9712121017
 30
0.0
 11
1572.3255227821
 21
1108.9515502194
 31
0.0
  0
LINE
  5
549
330
1F
100
AcDbEntity
  8
0
  6
PHANTOM
 62
     8
370
     0
100
AcDbLine
 10
1572.3255227822
 20
1108.9515502192
 30
0.0
 11
1572.4982628498
 21
1109.4287453228
 31
0.0
  0
LINE
  5
54A
330
1F
100
AcDbEntity
  8
0
  6
PHANTOM
 62
     8
370
     0
100
AcDbLine
 10
1572.4982628498
 20
1109.4287453228
 30
0.0
 11
1573.5145671337
 21
1108.2089810322
 31
0.0
  0
LINE
  5
54B
330
1F
100
AcDbEntity
  8
0
  6
PHANTOM
 62
     8
370
     0
100
AcDbLine
 10
1576.2216487589
 20
1111.3785590522
 30
0.0
 11
1576.8367681066
 21
1110.4122905592
 31
0.0
  0
LINE
  5
54C
330
1F
100
AcDbEntity
  8
0
  6
PHANTOM
 62
     8
370
     0
100
AcDbLine
 10
1575.8959061202
 20
1109.2825296095
 30
0.0
 11
1575.0531077512
 21
1110.6064507522
 31
0.0
  0
LINE
  5
54D
330
1F
100
AcDbEntity
  8
0
  6
PHANTOM
 62
     8
370
     0
100
AcDbLine
 10
1574.1747564844
 20
1110.1734232054
 30
0.0
 11
1574.7887533367
 21
1108.7146591654
 31
0.0
  0
LINE
  5
54E
330
1F
100
AcDbEntity
  8
0
  6
PHANTOM
 62
     8
370
     0
100
AcDbLine
 10
1575.0531077514
 20
1110.606450752
 30
0.0
 11
1576.2216487589
 21
1111.3785590522
 31
0.0
  0
LINE
  5
54F
330
1F
100
AcDbEntity
  8
0
  6
PHANTOM
 62
     8
370
     0
100
AcDbLine
 10
1573.1789555444
 20
1109.8785100088
 30
0.0
 11
1574.1747564844
 21
1110.1734232054
 31
0.0
  0
LINE
  5
550
330
1F
100
AcDbEntity
  8
0
  6
PHANTOM
 62
     8
370
     0
100
AcDbLine
 10
1573.1789555445
 20
1109.8785100087
 30
0.0
 11
1573.8116023792
 21
1108.3754364196
 31
0.0
  0
LINE
  5
551
330
1F
100
AcDbEntity
  8
0
  6
PHANTOM
 62
     8
370
     0
100
AcDbLine
 10
1749.8944879651
 20
810.2933834235
 30
0.0
 11
1751.1474238713
 21
810.9193154713
 31
0.0
  0
LINE
  5
552
330
1F
100
AcDbEntity
  8
0
  6
PHANTOM
 62
     8
370
     0
100
AcDbLine
 10
1748.752650441
 20
810.1856325459
 30
0.0
 11
1749.2522835571
 21
810.0966322809
 31
0.0
  0
LINE
  5
553
330
1F
100
AcDbEntity
  8
0
  6
PHANTOM
 62
     8
370
     0
100
AcDbLine
 10
1747.1214255404
 20
809.0321146823
 30
0.0
 11
1747.8747283305
 21
809.7470469952
 31
0.0
  0
LINE
  5
554
330
1F
100
AcDbEntity
  8
0
  6
PHANTOM
 62
     8
370
     0
100
AcDbLine
 10
1745.1333315217
 20
807.9148416419
 30
0.0
 11
1746.3862674279
 21
808.5407736897
 31
0.0
  0
LINE
  5
555
330
1F
100
AcDbEntity
  8
0
  6
PHANTOM
 62
     8
370
     0
100
AcDbLine
 10
1745.1051314325
 20
807.3248940564
 30
0.0
 11
1744.6054983165
 21
807.4138943214
 31
0.0
  0
LINE
  5
556
330
1F
100
AcDbEntity
  8
0
  6
PHANTOM
 62
     8
370
     0
100
AcDbLine
 10
1744.2588749379
 20
806.3153718936
 30
0.0
 11
1745.0121777281
 21
807.0303042064
 31
0.0
  0
LINE
  5
557
330
1F
100
AcDbEntity
  8
0
  6
PHANTOM
 62
     8
370
     0
100
AcDbLine
 10
1745.8618997493
 20
806.8789421716
 30
0.0
 11
1744.6089638432
 21
806.2530101238
 31
0.0
  0
LINE
  5
558
330
1F
100
AcDbEntity
  8
0
  6
PHANTOM
 62
     8
370
     0
100
AcDbLine
 10
1747.0037372734
 20
806.9866930493
 30
0.0
 11
1746.5041041574
 21
807.0756933143
 31
0.0
  0
LINE
  5
559
330
1F
100
AcDbEntity
  8
0
  6
PHANTOM
 62
     8
370
     0
100
AcDbLine
 10
1748.634962174
 20
808.1402109128
 30
0.0
 11
1747.8816593839
 21
807.4252786
 31
0.0
  0
LINE
  5
55A
330
1F
100
AcDbEntity
  8
0
  6
PHANTOM
 62
     8
370
     0
100
AcDbLine
 10
1750.6230561927
 20
809.2574839532
 30
0.0
 11
1749.3701202865
 21
808.6315519054
 31
0.0
  0
LINE
  5
55B
330
1F
100
AcDbEntity
  8
0
  6
PHANTOM
 62
     8
370
     0
100
AcDbLine
 10
1750.651256282
 20
809.8474315388
 30
0.0
 11
1751.150889398
 21
809.7584312737
 31
0.0
  0
LINE
  5
55C
330
1F
100
AcDbEntity
  8
0
  6
PHANTOM
 62
     8
370
     0
100
AcDbLine
 10
1751.4975127765
 20
810.8569537015
 30
0.0
 11
1750.7442099864
 21
810.1420213887
 31
0.0
  0
LINE
  5
55D
330
1F
100
AcDbEntity
  8
0
  6
PHANTOM
 62
     8
370
     0
100
AcDbLine
 10
1745.1440027222
 20
807.4472713805
 30
0.0
 11
1744.6443696062
 21
807.5362716456
 31
0.0
  0
LINE
  5
55E
330
1F
100
AcDbEntity
  8
0
  6
PHANTOM
 62
     8
370
     0
100
AcDbLine
 10
1744.9981367677
 20
807.8437441511
 30
0.0
 11
1745.1440027222
 21
807.4472713805
 31
0.0
  0
LINE
  5
55F
330
1F
100
AcDbEntity
  8
0
  6
PHANTOM
 62
     8
370
     0
100
AcDbLine
 10
1751.3883159469
 20
810.9053602977
 30
0.0
 11
1750.6350131568
 21
810.1904279848
 31
0.0
  0
LINE
  5
560
330
1F
100
AcDbEntity
  8
0
  6
PHANTOM
 62
     8
370
     0
100
AcDbLine
 10
1750.6350131568
 20
810.1904279848
 30
0.0
 11
1750.3767640562
 21
810.5309834434
 31
0.0
  0
LINE
  5
561
330
1F
100
AcDbEntity
  8
0
  6
PHANTOM
 62
     8
370
     0
100
AcDbLine
 10
1744.5787973904
 20
806.3542364647
 30
0.0
 11
1744.4891349536
 21
806.526333576
 31
0.0
  0
LINE
  5
562
330
1F
100
AcDbEntity
  8
0
  6
PHANTOM
 62
     8
370
     0
100
AcDbLine
 10
1745.8317332966
 20
806.9801685125
 30
0.0
 11
1744.5787973904
 21
806.3542364647
 31
0.0
  0
LINE
  5
563
330
1F
100
AcDbEntity
  8
0
  6
PHANTOM
 62
     8
370
     0
100
AcDbLine
 10
1745.3024799086
 20
807.9960117405
 30
0.0
 11
1745.8317332966
 21
806.9801685124
 31
0.0
  0
LINE
  5
564
330
1F
100
AcDbEntity
  8
0
  6
PHANTOM
 62
     8
370
     0
100
AcDbLine
 10
1746.5429754471
 20
807.1980706384
 30
0.0
 11
1746.1023852574
 21
808.3956222797
 31
0.0
  0
LINE
  5
565
330
1F
100
AcDbEntity
  8
0
  6
PHANTOM
 62
     8
370
     0
100
AcDbLine
 10
1747.0426085631
 20
807.1090703734
 30
0.0
 11
1746.5429754471
 21
807.1980706384
 31
0.0
  0
LINE
  5
566
330
1F
100
AcDbEntity
  8
0
  6
PHANTOM
 62
     8
370
     0
100
AcDbLine
 10
1747.042608563
 20
807.1090703736
 30
0.0
 11
1746.4944123433
 21
808.5991019224
 31
0.0
  0
LINE
  5
567
330
1F
100
AcDbEntity
  8
0
  6
PHANTOM
 62
     8
370
     0
100
AcDbLine
 10
1750.5928897399
 20
809.3587102943
 30
0.0
 11
1750.063636352
 21
810.3745535221
 31
0.0
  0
LINE
  5
568
330
1F
100
AcDbEntity
  8
0
  6
PHANTOM
 62
     8
370
     0
100
AcDbLine
 10
1747.5694370538
 20
809.4497364009
 30
0.0
 11
1748.5257653445
 21
808.1886175088
 31
0.0
  0
LINE
  5
569
330
1F
100
AcDbEntity
  8
0
  6
PHANTOM
 62
     8
370
     0
100
AcDbLine
 10
1749.3399538338
 20
808.7327782463
 30
0.0
 11
1748.6123903135
 21
810.1292557973
 31
0.0
  0
LINE
  5
56A
330
1F
100
AcDbEntity
  8
0
  6
PHANTOM
 62
     8
370
     0
100
AcDbLine
 10
1750.59288974
 20
809.3587102941
 30
0.0
 11
1749.3399538338
 21
808.7327782463
 31
0.0
  0
LINE
  5
56B
330
1F
100
AcDbEntity
  8
0
  6
PHANTOM
 62
     8
370
     0
100
AcDbLine
 10
1748.5257653444
 20
808.1886175089
 30
0.0
 11
1747.7724625543
 21
807.4736851961
 31
0.0
  0
LINE
  5
56C
330
1F
100
AcDbEntity
  8
0
  6
PHANTOM
 62
     8
370
     0
100
AcDbLine
 10
1747.7724625543
 20
807.4736851961
 30
0.0
 11
1746.7870853622
 21
808.773111141
 31
0.0
  0
LINE
  5
56D
330
1F
100
AcDbEntity
  8
0
  6
PHANTOM
 62
     8
370
     0
100
AcDbLine
 10
-82.1233177556
 20
-1868.4319313545
 30
0.0
 11
-83.0560916485
 21
-1870.0475431289
 31
0.0
  0
LINE
  5
56E
330
1F
100
AcDbEntity
  8
0
  6
PHANTOM
 62
     8
370
     0
100
AcDbLine
 10
83.0560916484
 20
-1870.0475431289
 30
0.0
 11
82.1233177556
 21
-1868.4319313545
 31
0.0
  0
LINE
  5
56F
330
1F
100
AcDbEntity
  8
0
  6
PHANTOM
 62
     8
370
     0
100
AcDbLine
 10
-1661.0367244586
 20
863.0950862579
 30
0.0
 11
-1659.1711766729
 21
863.0950862579
 31
0.0
  0
LINE
  5
570
330
1F
100
AcDbEntity
  8
0
  6
PHANTOM
 62
     8
370
     0
100
AcDbLine
 10
-1577.0478589173
 20
1005.3368450967
 30
0.0
 11
-1577.9806328101
 21
1006.9524568711
 31
0.0
  0
LINE
  5
571
330
1F
100
AcDbEntity
  8
0
  6
PHANTOM
 62
     8
370
     0
100
AcDbLine
 10
-1577.9806328101
 20
-1006.9524568711
 30
0.0
 11
-1577.0478589173
 21
-1005.3368450967
 31
0.0
  0
LINE
  5
572
330
1F
100
AcDbEntity
  8
0
  6
PHANTOM
 62
     8
370
     0
100
AcDbLine
 10
-1659.1711766729
 20
-863.0950862579
 30
0.0
 11
-1661.0367244586
 21
-863.0950862579
 31
0.0
  0
ARC
  5
573
330
1F
100
AcDbEntity
  8
0
  6
Continuous
 62
     7
370
    15
100
AcDbCircle
 10
-133.0
 20
-2.5
 30
0.0
 40
48.00000000000006
100
AcDbArc
 50
156.7024646283
 51
180.0
  0
ARC
  5
574
330
1F
100
AcDbEntity
  8
0
  6
Continuous
 62
     7
370
    15
100
AcDbCircle
 10
-186.2708769234
 20
20.4393476763
 30
0.0
 40
10.00000000000199
100
AcDbArc
 50
336.7024646283
 51
352.2231255269
  0
ARC
  5
575
330
1F
100
AcDbEntity
  8
0
  6
Continuous
 62
     7
370
    15
100
AcDbCircle
 10
0.0
 20
-5.0
 30
0.0
 40
178.0000000000004
100
AcDbArc
 50
11.5037585086
 51
88.0260323278
  0
ARC
  5
576
330
1F
100
AcDbEntity
  8
0
  6
Continuous
 62
     7
370
    15
100
AcDbCircle
 10
0.0
 20
-5.0
 30
0.0
 40
178.0000000000007
100
AcDbArc
 50
91.9578850778
 51
172.2231255269
  0
ARC
  5
577
330
1F
100
AcDbEntity
  8
0
  6
Continuous
 62
     7
370
    15
100
AcDbCircle
 10
0.0
 20
5.0
 30
0.0
 40
178.0000000000004
100
AcDbArc
 50
182.4148629083
 51
268.0231118489
  0
ARC
  5
578
330
1F
100
AcDbEntity
  8
0
  6
Continuous
 62
     7
370
    15
100
AcDbCircle
 10
0.0
 20
5.0
 30
0.0
 40
178.0000000000019
100
AcDbArc
 50
271.9526602351
 51
348.4956113011
  0
ARC
  5
579
330
1F
100
AcDbEntity
  8
0
  6
Continuous
 62
     7
370
    15
100
AcDbCircle
 10
1658.5367244585
 20
963.3301270189
 30
0.0
 40
178.0000000000005
100
AcDbArc
 50
221.5037585086
 51
298.0260323278
  0
ARC
  5
57A
330
1F
100
AcDbEntity
  8
0
  6
Continuous
 62
     7
370
    15
100
AcDbCircle
 10
1658.5367244585
 20
963.3301270189
 30
0.0
 40
178.0000000000013
100
AcDbArc
 50
301.9578850778
 51
22.2231255269
  0
ARC
  5
57B
330
1F
100
AcDbEntity
  8
0
  6
Continuous
 62
     7
370
    15
100
AcDbCircle
 10
1774.9681031619
 20
1027.6650635095
 30
0.0
 40
47.99999999999373
100
AcDbArc
 50
6.7024646283
 51
30.0
  0
ARC
  5
57C
330
1F
100
AcDbEntity
  8
0
  6
Continuous
 62
     7
370
    15
100
AcDbCircle
 10
1832.5717096976
 20
1034.4344441372
 30
0.0
 40
10.00000000000312
100
AcDbArc
 50
186.7024646283
 51
202.2231255269
  0
ARC
  5
57D
330
1F
100
AcDbEntity
  8
0
  6
Continuous
 62
     7
370
    15
100
AcDbCircle
 10
1663.5367244585
 20
954.6698729811
 30
0.0
 40
178.0
100
AcDbArc
 50
32.4148629083
 51
118.0231118489
  0
ARC
  5
57E
330
1F
100
AcDbEntity
  8
0
  6
Continuous
 62
     7
370
    15
100
AcDbCircle
 10
1663.5367244585
 20
954.6698729811
 30
0.0
 40
178.0000000000022
100
AcDbArc
 50
121.9526602351
 51
198.4956113011
  0
ARC
  5
57F
330
1F
100
AcDbEntity
  8
0
  6
Continuous
 62
     7
370
    15
100
AcDbCircle
 10
316.7897943563
 20
178.5
 30
0.0
 40
206.9999999999997
100
AcDbArc
 50
270.0
 51
318.7064156608
  0
ARC
  5
580
330
1F
100
AcDbEntity
  8
0
  6
Continuous
 62
     7
370
    15
100
AcDbCircle
 10
316.7897943563
 20
178.5
 30
0.0
 40
150.0000000000009
100
AcDbArc
 50
270.0
 51
318.7064156608
  0
ARC
  5
581
330
1F
100
AcDbEntity
  8
0
  6
Continuous
 62
     7
370
    15
100
AcDbCircle
 10
1016.9320206517
 20
645.5500968198
 30
0.0
 40
206.9999999999984
100
AcDbArc
 50
288.7064156608
 51
318.7064156608
  0
ARC
  5
582
330
1F
100
AcDbEntity
  8
0
  6
Continuous
 62
     7
370
    15
100
AcDbCircle
 10
1016.9320206517
 20
645.5500968198
 30
0.0
 40
150.0000000000036
100
AcDbArc
 50
288.7064156608
 51
318.7064156607
  0
ARC
  5
583
330
1F
100
AcDbEntity
  8
0
  6
Continuous
 62
     7
370
    15
100
AcDbCircle
 10
809.3894359112
 20
198.3643686047
 30
0.0
 40
206.9999999999964
100
AcDbArc
 50
108.7064156607
 51
138.7064156607
  0
ARC
  5
584
330
1F
100
AcDbEntity
  8
0
  6
Continuous
 62
     7
370
    15
100
AcDbCircle
 10
809.3894359112
 20
198.3643686047
 30
0.0
 40
150.0000000000012
100
AcDbArc
 50
108.7064156607
 51
138.7064156607
  0
ARC
  5
585
330
1F
100
AcDbEntity
  8
0
  6
Continuous
 62
     7
370
    15
100
AcDbCircle
 10
1509.5316622065
 20
665.4144654245
 30
0.0
 40
207.0000000000001
100
AcDbArc
 50
120.0
 51
138.7064156607
  0
ARC
  5
586
330
1F
100
AcDbEntity
  8
0
  6
Continuous
 62
     7
370
    15
100
AcDbCircle
 10
1509.5316622065
 20
665.4144654245
 30
0.0
 40
149.9999999999837
100
AcDbArc
 50
120.0
 51
138.7064156607
  0
ARC
  5
587
330
1F
100
AcDbEntity
  8
0
  6
Continuous
 62
     7
370
    15
100
AcDbCircle
 10
1661.0367244585
 20
959.0
 30
0.0
 40
243.0000000000004
100
AcDbArc
 50
216.7353774279
 51
203.2646225721
  0
ARC
  5
588
330
1F
100
AcDbEntity
  8
0
  6
Continuous
 62
     7
370
    15
100
AcDbCircle
 10
0.0
 20
0.0
 30
0.0
 40
243.0000000000004
100
AcDbArc
 50
6.7353774279
 51
353.2646225721
  0
ARC
  5
589
330
1F
100
AcDbEntity
  8
0
  6
Continuous
 62
     7
370
    15
100
AcDbCircle
 10
-5.5927946983
 20
169.7059088613
 30
0.0
 40
0.9751266156651703
100
AcDbArc
 50
202.8817959662
 51
244.3912753908
  0
ARC
  5
58A
330
1F
100
AcDbEntity
  8
0
  6
Continuous
 62
     7
370
    15
100
AcDbCircle
 10
1750.7331792646
 20
814.8267431288
 30
0.0
 40
0.9751523671530716
100
AcDbArc
 50
52.8838736608
 51
94.3910465624
  0
ARC
  5
58B
330
1F
100
AcDbEntity
  8
0
  6
Continuous
 62
     7
370
    15
100
AcDbCircle
 10
476.1850492236
 20
1654.6214390305
 30
0.0
 40
9.999999999999467
100
AcDbArc
 50
327.9532869023
 51
60.0
  0
ARC
  5
58C
330
1F
100
AcDbEntity
  8
0
  6
Continuous
 62
     7
370
    15
100
AcDbCircle
 10
238.8526329025
 20
1803.1923788647
 30
0.0
 40
289.9999999999994
100
AcDbArc
 50
270.0
 51
327.9532869023
  0
ARC
  5
58D
330
1F
100
AcDbEntity
  8
0
  6
Continuous
 62
     7
370
    15
100
AcDbCircle
 10
-238.8526329025
 20
1803.1923788647
 30
0.0
 40
290.0000000000002
100
AcDbArc
 50
212.0467130977
 51
270.0
  0
ARC
  5
58E
330
1F
100
AcDbEntity
  8
0
  6
Continuous
 62
     7
370
    15
100
AcDbCircle
 10
-476.1850492236
 20
1654.6214390305
 30
0.0
 40
10.00000000000015
100
AcDbArc
 50
120.0
 51
212.0467130977
  0
ARC
  5
58F
330
1F
100
AcDbEntity
  8
0
  6
Continuous
 62
     7
370
    15
100
AcDbCircle
 10
0.0
 20
1663.1923788647
 30
0.0
 40
100.0000000000008
100
AcDbArc
 50
161.8463158392
 51
18.1536841608
  0
ARC
  5
590
330
1F
100
AcDbEntity
  8
0
  6
Continuous
 62
     7
370
    15
100
AcDbCircle
 10
-1.5503739125
 20
-172.6451646389
 30
0.0
 40
0.0900677789958539
100
AcDbArc
 50
265.7577882227
 51
309.8802228963
  0
ARC
  5
591
330
1F
100
AcDbEntity
  8
0
  6
Continuous
 62
     7
370
    15
100
AcDbCircle
 10
-1.938568751
 20
-172.9720576873
 30
0.0
 40
0.0900677789979552
100
AcDbArc
 50
265.7577882232
 51
309.8802228957
  0
ARC
  5
592
330
1F
100
AcDbEntity
  8
0
  6
Continuous
 62
     7
370
    15
100
AcDbCircle
 10
3.4287288131
 20
-172.9573954138
 30
0.0
 40
0.1047438158908543
100
AcDbArc
 50
189.8195817402
 51
265.4237305944
  0
ARC
  5
593
330
1F
100
AcDbEntity
  8
0
  6
Continuous
 62
     7
370
    15
100
AcDbCircle
 10
3.0526414312
 20
-173.3142314827
 30
0.0
 40
0.1640494320443236
100
AcDbArc
 50
202.304039552
 51
251.2422116353
  0
ARC
  5
594
330
1F
100
AcDbEntity
  8
0
  6
Continuous
 62
     7
370
    15
100
AcDbCircle
 10
-3.0255142989
 20
-173.8873582231
 30
0.0
 40
0.0900677789964583
100
AcDbArc
 50
265.7577882228
 51
309.8802228962
  0
ARC
  5
595
330
1F
100
AcDbEntity
  8
0
  6
Continuous
 62
     7
370
    15
100
AcDbCircle
 10
4.1659222404
 20
-173.9745350031
 30
0.0
 40
0.1927805534065962
100
AcDbArc
 50
177.5057814696
 51
209.3050623831
  0
ARC
  5
596
330
1F
100
AcDbEntity
  8
0
  6
Continuous
 62
     7
370
    15
100
AcDbCircle
 10
4.0255885432
 20
-173.465333189
 30
0.0
 40
0.5035320118778102
100
AcDbArc
 50
264.0422411388
 51
308.2882257868
  0
ARC
  5
597
330
1F
100
AcDbEntity
  8
0
  6
Continuous
 62
     7
370
    15
100
AcDbCircle
 10
-3.4137091374
 20
-174.2142512716
 30
0.0
 40
0.0900677789978406
100
AcDbArc
 50
265.7577882232
 51
309.8802228958
  0
ARC
  5
598
330
1F
100
AcDbEntity
  8
0
  6
Continuous
 62
     7
370
    15
100
AcDbCircle
 10
-4.2404553145
 20
172.4928320273
 30
0.0
 40
1.769135852676276
100
AcDbArc
 50
106.3033985034
 51
135.6235857927
  0
ARC
  5
599
330
1F
100
AcDbEntity
  8
0
  6
Continuous
 62
     7
370
    15
100
AcDbCircle
 10
-1.5503739125
 20
172.6451646389
 30
0.0
 40
0.0900677789959904
100
AcDbArc
 50
50.1197771037
 51
94.2422117773
  0
ARC
  5
59A
330
1F
100
AcDbEntity
  8
0
  6
Continuous
 62
     7
370
    15
100
AcDbCircle
 10
-1.938568751
 20
172.9720576873
 30
0.0
 40
0.0900677789979017
100
AcDbArc
 50
50.1197771042
 51
94.2422117768
  0
ARC
  5
59B
330
1F
100
AcDbEntity
  8
0
  6
Continuous
 62
     7
370
    15
100
AcDbCircle
 10
3.4287288131
 20
172.9573954138
 30
0.0
 40
0.1047438158908536
100
AcDbArc
 50
94.5762694056
 51
170.1804182598
  0
ARC
  5
59C
330
1F
100
AcDbEntity
  8
0
  6
Continuous
 62
     7
370
    15
100
AcDbCircle
 10
3.0405339746
 20
173.2842884622
 30
0.0
 40
0.1047438158908381
100
AcDbArc
 50
94.5762694056
 51
170.1804182598
  0
ARC
  5
59D
330
1F
100
AcDbEntity
  8
0
  6
Continuous
 62
     7
370
    15
100
AcDbCircle
 10
-4.3086873202
 20
173.4237912877
 30
0.0
 40
0.1093835717406419
100
AcDbArc
 50
2.9999523543
 51
69.1849423073
  0
ARC
  5
59E
330
1F
100
AcDbEntity
  8
0
  6
Continuous
 62
     7
370
    15
100
AcDbCircle
 10
-4.1978482274
 20
173.2638473574
 30
0.0
 40
0.1656763117913174
100
AcDbArc
 50
90.55521146
 51
147.7157692411
  0
ARC
  5
59F
330
1F
100
AcDbEntity
  8
0
  6
Continuous
 62
     7
370
    15
100
AcDbCircle
 10
2.9778794228
 20
173.3681519796
 30
0.0
 40
0.0774639696471135
100
AcDbArc
 50
173.8195573601
 51
238.4306459744
  0
ARC
  5
5A0
330
1F
100
AcDbEntity
  8
0
  6
Continuous
 62
     7
370
    15
100
AcDbCircle
 10
-3.4137091374
 20
174.2142512716
 30
0.0
 40
0.0900677789959587
100
AcDbArc
 50
50.1197771037
 51
94.2422117773
  0
ARC
  5
5A1
330
1F
100
AcDbEntity
  8
0
  6
Continuous
 62
     7
370
    15
100
AcDbCircle
 10
-2.5446714297
 20
174.3796305166
 30
0.0
 40
0.192780553406642
100
AcDbArc
 50
150.6949376169
 51
182.4942185304
  0
ARC
  5
5A2
330
1F
100
AcDbEntity
  8
0
  6
Continuous
 62
     7
370
    15
100
AcDbCircle
 10
-2.8942883275
 20
173.4462740897
 30
0.0
 40
0.9381997178961268
100
AcDbArc
 50
80.3655245638
 51
118.4599368298
  0
ARC
  5
5A3
330
1F
100
AcDbEntity
  8
0
  6
Continuous
 62
     7
370
    15
100
AcDbCircle
 10
1576.0568053327
 20
1109.290285374
 30
0.0
 40
0.0900677790075492
100
AcDbArc
 50
115.7577882257
 51
159.8802228933
  0
ARC
  5
5A4
330
1F
100
AcDbEntity
  8
0
  6
Continuous
 62
     7
370
    15
100
AcDbCircle
 10
1576.2295454002
 20
1109.7674804776
 30
0.0
 40
0.0900677790026683
100
AcDbArc
 50
115.7577882245
 51
159.8802228946
  0
ARC
  5
5A5
330
1F
100
AcDbEntity
  8
0
  6
Continuous
 62
     7
370
    15
100
AcDbCircle
 10
1571.5886604968
 20
1107.0711337941
 30
0.0
 40
0.1047438158918192
100
AcDbArc
 50
39.8195817406
 51
115.4237305942
  0
ARC
  5
5A6
330
1F
100
AcDbEntity
  8
0
  6
Continuous
 62
     7
370
    15
100
AcDbCircle
 10
1571.7359436892
 20
1107.5682065858
 30
0.0
 40
0.1640494320445874
100
AcDbArc
 50
52.3040395521
 51
101.2422116354
  0
ARC
  5
5A7
330
1F
100
AcDbEntity
  8
0
  6
Continuous
 62
     7
370
    15
100
AcDbCircle
 10
1577.060460551
 20
1111.0488393393
 30
0.0
 40
0.1093835717396672
100
AcDbArc
 50
140.8150576924
 51
207.0000476459
  0
ARC
  5
5A8
330
1F
100
AcDbEntity
  8
0
  6
Continuous
 62
     7
370
    15
100
AcDbCircle
 10
1576.7132175894
 20
1111.1036267676
 30
0.0
 40
0.0900677790007045
100
AcDbArc
 50
115.757788224
 51
159.8802228951
  0
ARC
  5
5A9
330
1F
100
AcDbEntity
  8
0
  6
Continuous
 62
     7
370
    15
100
AcDbCircle
 10
1570.4416624666
 20
1107.583405804
 30
0.0
 40
0.1927805534062401
100
AcDbArc
 50
27.5057814695
 51
59.3050623831
  0
ARC
  5
5AA
330
1F
100
AcDbEntity
  8
0
  6
Continuous
 62
     7
370
    15
100
AcDbCircle
 10
1570.8177959205
 20
1107.212590946
 30
0.0
 40
0.5035320118768817
100
AcDbArc
 50
114.0422411388
 51
158.2882257868
  0
ARC
  5
5AB
330
1F
100
AcDbEntity
  8
0
  6
Continuous
 62
     7
370
    15
100
AcDbCircle
 10
1750.9554824982
 20
811.7370531509
 30
0.0
 40
1.769135852684159
100
AcDbArc
 50
316.3033985034
 51
345.6235857927
  0
ARC
  5
5AC
330
1F
100
AcDbEntity
  8
0
  6
Continuous
 62
     7
370
    15
100
AcDbCircle
 10
1748.7019699715
 20
810.2600885384
 30
0.0
 40
0.0900677789917451
100
AcDbArc
 50
260.1197771023
 51
304.2422117781
  0
ARC
  5
5AD
330
1F
100
AcDbEntity
  8
0
  6
Continuous
 62
     7
370
    15
100
AcDbCircle
 10
1749.2016030876
 20
810.1710882734
 30
0.0
 40
0.0900677789952851
100
AcDbArc
 50
260.1197771033
 51
304.2422117772
  0
ARC
  5
5AE
330
1F
100
AcDbEntity
  8
0
  6
Continuous
 62
     7
370
    15
100
AcDbCircle
 10
1744.5460559106
 20
807.5001373927
 30
0.0
 40
0.1047438158905693
100
AcDbArc
 50
304.5762694056
 51
20.18041826
  0
ARC
  5
5AF
330
1F
100
AcDbEntity
  8
0
  6
Continuous
 62
     7
370
    15
100
AcDbCircle
 10
1745.0456890266
 20
807.4111371277
 30
0.0
 40
0.1047438158908555
100
AcDbArc
 50
304.5762694056
 51
20.1804182599
  0
ARC
  5
5B0
330
1F
100
AcDbEntity
  8
0
  6
Continuous
 62
     7
370
    15
100
AcDbCircle
 10
1751.4800527787
 20
810.9649347843
 30
0.0
 40
0.1093835717413865
100
AcDbArc
 50
212.9999523545
 51
279.1849423072
  0
ARC
  5
5B1
330
1F
100
AcDbEntity
  8
0
  6
Continuous
 62
     7
370
    15
100
AcDbCircle
 10
1751.3040913434
 20
811.0480307447
 30
0.0
 40
0.1656763117923719
100
AcDbArc
 50
300.5552114603
 51
357.715769241
  0
ARC
  5
5B2
330
1F
100
AcDbEntity
  8
0
  6
Continuous
 62
     7
370
    15
100
AcDbCircle
 10
1745.1418812188
 20
807.3698364671
 30
0.0
 40
0.0774639696474802
100
AcDbArc
 50
23.8195573601
 51
88.4306459743
  0
ARC
  5
5B3
330
1F
100
AcDbEntity
  8
0
  6
Continuous
 62
     7
370
    15
100
AcDbCircle
 10
0.0
 20
1568.1923788647
 30
0.0
 40
2.49999999999995
100
AcDbArc
 50
180.0
 51
0.0
  0
ARC
  5
5B4
330
1F
100
AcDbEntity
  8
0
  6
Continuous
 62
     7
370
    15
100
AcDbCircle
 10
20.0
 20
1573.1923788647
 30
0.0
 40
2.500000000000053
100
AcDbArc
 50
180.0
 51
360.0
  0
ARC
  5
5B5
330
1F
100
AcDbEntity
  8
0
  6
Continuous
 62
     7
370
    15
100
AcDbCircle
 10
30.0
 20
1576.6923788647
 30
0.0
 40
2.50000000000005
100
AcDbArc
 50
180.0
 51
0.0
  0
ARC
  5
5B6
330
1F
100
AcDbEntity
  8
0
  6
Continuous
 62
     7
370
    15
100
AcDbCircle
 10
40.0
 20
1580.1923788647
 30
0.0
 40
2.50000000000005
100
AcDbArc
 50
180.0
 51
0.0
  0
ARC
  5
5B7
330
1F
100
AcDbEntity
  8
0
  6
Continuous
 62
     7
370
    15
100
AcDbCircle
 10
50.0
 20
1585.6923788647
 30
0.0
 40
2.500000000000064
100
AcDbArc
 50
180.0
 51
360.0
  0
ARC
  5
5B8
330
1F
100
AcDbEntity
  8
0
  6
Continuous
 62
     7
370
    15
100
AcDbCircle
 10
60.0
 20
1593.1923788647
 30
0.0
 40
2.50000000000005
100
AcDbArc
 50
180.0
 51
360.0
  0
ARC
  5
5B9
330
1F
100
AcDbEntity
  8
0
  6
Continuous
 62
     7
370
    15
100
AcDbCircle
 10
70.0
 20
1603.1923788647
 30
0.0
 40
2.500000000000057
100
AcDbArc
 50
180.0
 51
360.0
  0
ARC
  5
5BA
330
1F
100
AcDbEntity
  8
0
  6
Continuous
 62
     7
370
    15
100
AcDbCircle
 10
-20.0
 20
1573.1923788647
 30
0.0
 40
2.500000000000064
100
AcDbArc
 50
180.0
 51
360.0
  0
ARC
  5
5BB
330
1F
100
AcDbEntity
  8
0
  6
Continuous
 62
     7
370
    15
100
AcDbCircle
 10
-60.0
 20
1593.1923788647
 30
0.0
 40
2.50000000000005
100
AcDbArc
 50
180.0
 51
360.0
  0
ARC
  5
5BC
330
1F
100
AcDbEntity
  8
0
  6
Continuous
 62
     7
370
    15
100
AcDbCircle
 10
-70.0
 20
1603.1923788647
 30
0.0
 40
2.500000000000085
100
AcDbArc
 50
180.0
 51
360.0
  0
ARC
  5
5BD
330
1F
100
AcDbEntity
  8
0
  6
Continuous
 62
     7
370
    15
100
AcDbCircle
 10
80.0
 20
1615.6923788647
 30
0.0
 40
2.5
100
AcDbArc
 50
180.0
 51
360.0
  0
ARC
  5
5BE
330
1F
100
AcDbEntity
  8
0
  6
Continuous
 62
     7
370
    15
100
AcDbCircle
 10
106.9938580832
 20
1628.4279669975
 30
0.0
 40
4.500000000000081
100
AcDbArc
 50
72.0
 51
252.0
  0
ARC
  5
5BF
330
1F
100
AcDbEntity
  8
0
  6
Continuous
 62
     7
370
    15
100
AcDbCircle
 10
0.0
 20
1550.6923788647
 30
0.0
 40
4.500000000000002
100
AcDbArc
 50
360.0
 51
180.0
  0
ARC
  5
5C0
330
1F
100
AcDbEntity
  8
0
  6
Continuous
 62
     7
370
    15
100
AcDbCircle
 10
-40.0
 20
1580.1923788647
 30
0.0
 40
2.500000000000057
100
AcDbArc
 50
180.0
 51
0.0
  0
ARC
  5
5C1
330
1F
100
AcDbEntity
  8
0
  6
Continuous
 62
     7
370
    15
100
AcDbCircle
 10
90.0
 20
1635.6923788647
 30
0.0
 40
2.5
100
AcDbArc
 50
180.0
 51
360.0
  0
ARC
  5
5C2
330
1F
100
AcDbEntity
  8
0
  6
Continuous
 62
     7
370
    15
100
AcDbCircle
 10
-106.9938580832
 20
1628.4279669975
 30
0.0
 40
4.500000000000235
100
AcDbArc
 50
288.0
 51
108.0
  0
ARC
  5
5C3
330
1F
100
AcDbEntity
  8
0
  6
Continuous
 62
     7
370
    15
100
AcDbCircle
 10
-50.0
 20
1585.6923788647
 30
0.0
 40
2.500000000000092
100
AcDbArc
 50
180.0
 51
0.0
  0
ARC
  5
5C4
330
1F
100
AcDbEntity
  8
0
  6
Continuous
 62
     7
370
    15
100
AcDbCircle
 10
-10.0
 20
1570.6923788647
 30
0.0
 40
2.500000000000059
100
AcDbArc
 50
180.0
 51
0.0
  0
ARC
  5
5C5
330
1F
100
AcDbEntity
  8
0
  6
Continuous
 62
     7
370
    15
100
AcDbCircle
 10
10.0
 20
1570.6923788647
 30
0.0
 40
2.500000000000053
100
AcDbArc
 50
180.0
 51
0.0
  0
ARC
  5
5C6
330
1F
100
AcDbEntity
  8
0
  6
Continuous
 62
     7
370
    15
100
AcDbCircle
 10
-90.0
 20
1635.6923788647
 30
0.0
 40
2.500000000000014
100
AcDbArc
 50
180.0
 51
360.0
  0
ARC
  5
5C7
330
1F
100
AcDbEntity
  8
0
  6
Continuous
 62
     7
370
    15
100
AcDbCircle
 10
-30.0
 20
1576.6923788647
 30
0.0
 40
2.500000000000068
100
AcDbArc
 50
180.0
 51
0.0
  0
ARC
  5
5C8
330
1F
100
AcDbEntity
  8
0
  6
Continuous
 62
     7
370
    15
100
AcDbCircle
 10
-90.0
 20
1690.6923788647
 30
0.0
 40
2.500000000000654
100
AcDbArc
 50
121.9633438605
 51
180.0
  0
ARC
  5
5C9
330
1F
100
AcDbEntity
  8
0
  6
Continuous
 62
     7
370
    15
100
AcDbCircle
 10
-80.0
 20
1615.6923788647
 30
0.0
 40
2.5
100
AcDbArc
 50
180.0
 51
360.0
  0
ARC
  5
5CA
330
1F
100
AcDbEntity
  8
0
  6
Continuous
 62
     7
370
    15
100
AcDbCircle
 10
90.0
 20
1690.6923788647
 30
0.0
 40
2.500000000001023
100
AcDbArc
 50
0.0
 51
58.0366561392
  0
ARC
  5
5CB
330
1F
100
AcDbEntity
  8
0
  6
Continuous
 62
     7
370
    15
100
AcDbCircle
 10
265.0
 20
1705.6923788647
 30
0.0
 40
2.5
100
AcDbArc
 50
0.0
 51
180.0
  0
ARC
  5
5CC
330
1F
100
AcDbEntity
  8
0
  6
Continuous
 62
     7
370
    15
100
AcDbCircle
 10
275.0
 20
1703.1923788647
 30
0.0
 40
2.500000000000057
100
AcDbArc
 50
0.0
 51
180.0
  0
ARC
  5
5CD
330
1F
100
AcDbEntity
  8
0
  6
Continuous
 62
     7
370
    15
100
AcDbCircle
 10
275.0
 20
1573.1923788647
 30
0.0
 40
2.5
100
AcDbArc
 50
180.0
 51
0.0
  0
ARC
  5
5CE
330
1F
100
AcDbEntity
  8
0
  6
Continuous
 62
     7
370
    15
100
AcDbCircle
 10
285.0
 20
1576.6923788647
 30
0.0
 40
2.500000000000057
100
AcDbArc
 50
180.0
 51
360.0
  0
ARC
  5
5CF
330
1F
100
AcDbEntity
  8
0
  6
Continuous
 62
     7
370
    15
100
AcDbCircle
 10
235.0
 20
1573.1923788647
 30
0.0
 40
2.500000000000028
100
AcDbArc
 50
180.0
 51
0.0
  0
ARC
  5
5D0
330
1F
100
AcDbEntity
  8
0
  6
Continuous
 62
     7
370
    15
100
AcDbCircle
 10
225.0
 20
1699.6923788647
 30
0.0
 40
2.500000000000028
100
AcDbArc
 50
0.0
 51
180.0
  0
ARC
  5
5D1
330
1F
100
AcDbEntity
  8
0
  6
Continuous
 62
     7
370
    15
100
AcDbCircle
 10
225.0
 20
1576.6923788647
 30
0.0
 40
2.500000000000028
100
AcDbArc
 50
180.0
 51
360.0
  0
ARC
  5
5D2
330
1F
100
AcDbEntity
  8
0
  6
Continuous
 62
     7
370
    15
100
AcDbCircle
 10
215.0
 20
1693.6923788647
 30
0.0
 40
2.5
100
AcDbArc
 50
0.0
 51
180.0
  0
ARC
  5
5D3
330
1F
100
AcDbEntity
  8
0
  6
Continuous
 62
     7
370
    15
100
AcDbCircle
 10
195.0
 20
1673.1923788647
 30
0.0
 40
2.500000000000028
100
AcDbArc
 50
0.0
 51
180.0
  0
ARC
  5
5D4
330
1F
100
AcDbEntity
  8
0
  6
Continuous
 62
     7
370
    15
100
AcDbCircle
 10
195.0
 20
1603.1923788647
 30
0.0
 40
2.500000000000028
100
AcDbArc
 50
180.0
 51
360.0
  0
ARC
  5
5D5
330
1F
100
AcDbEntity
  8
0
  6
Continuous
 62
     7
370
    15
100
AcDbCircle
 10
203.5687904244
 20
1708.9813658725
 30
0.0
 40
4.499999999999978
100
AcDbArc
 50
216.0
 51
36.0
  0
ARC
  5
5D6
330
1F
100
AcDbEntity
  8
0
  6
Continuous
 62
     7
370
    15
100
AcDbCircle
 10
295.0
 20
1582.6923788647
 30
0.0
 40
2.500000000000057
100
AcDbArc
 50
180.0
 51
360.0
  0
ARC
  5
5D7
330
1F
100
AcDbEntity
  8
0
  6
Continuous
 62
     7
370
    15
100
AcDbCircle
 10
215.0
 20
1582.6923788647
 30
0.0
 40
2.5
100
AcDbArc
 50
180.0
 51
360.0
  0
ARC
  5
5D8
330
1F
100
AcDbEntity
  8
0
  6
Continuous
 62
     7
370
    15
100
AcDbCircle
 10
205.0
 20
1685.6923788647
 30
0.0
 40
2.500000000000028
100
AcDbArc
 50
0.0
 51
180.0
  0
ARC
  5
5D9
330
1F
100
AcDbEntity
  8
0
  6
Continuous
 62
     7
370
    15
100
AcDbCircle
 10
205.0
 20
1590.6923788647
 30
0.0
 40
2.500000000000028
100
AcDbArc
 50
180.0
 51
360.0
  0
ARC
  5
5DA
330
1F
100
AcDbEntity
  8
0
  6
Continuous
 62
     7
370
    15
100
AcDbCircle
 10
338.2174451758
 20
1611.1533918569
 30
0.0
 40
4.500000000000085
100
AcDbArc
 50
72.0
 51
252.0
  0
ARC
  5
5DB
330
1F
100
AcDbEntity
  8
0
  6
Continuous
 62
     7
370
    15
100
AcDbCircle
 10
255.0
 20
1550.6923788647
 30
0.0
 40
4.500000000000085
100
AcDbArc
 50
0.0
 51
180.0
  0
ARC
  5
5DC
330
1F
100
AcDbEntity
  8
0
  6
Continuous
 62
     7
370
    15
100
AcDbCircle
 10
306.4312095756
 20
1708.9813658725
 30
0.0
 40
4.500000000000226
100
AcDbArc
 50
144.0
 51
324.0
  0
ARC
  5
5DD
330
1F
100
AcDbEntity
  8
0
  6
Continuous
 62
     7
370
    15
100
AcDbCircle
 10
315.0
 20
1603.1923788647
 30
0.0
 40
2.5
100
AcDbArc
 50
180.0
 51
0.0
  0
ARC
  5
5DE
330
1F
100
AcDbEntity
  8
0
  6
Continuous
 62
     7
370
    15
100
AcDbCircle
 10
235.0
 20
1703.1923788647
 30
0.0
 40
2.500000000000028
100
AcDbArc
 50
0.0
 51
180.0
  0
ARC
  5
5DF
330
1F
100
AcDbEntity
  8
0
  6
Continuous
 62
     7
370
    15
100
AcDbCircle
 10
295.0
 20
1693.6923788647
 30
0.0
 40
2.500000000000057
100
AcDbArc
 50
0.0
 51
180.0
  0
ARC
  5
5E0
330
1F
100
AcDbEntity
  8
0
  6
Continuous
 62
     7
370
    15
100
AcDbCircle
 10
245.0
 20
1570.6923788647
 30
0.0
 40
2.500000000000057
100
AcDbArc
 50
180.0
 51
360.0
  0
ARC
  5
5E1
330
1F
100
AcDbEntity
  8
0
  6
Continuous
 62
     7
370
    15
100
AcDbCircle
 10
285.0
 20
1699.6923788647
 30
0.0
 40
2.500000000000057
100
AcDbArc
 50
0.0
 51
180.0
  0
ARC
  5
5E2
330
1F
100
AcDbEntity
  8
0
  6
Continuous
 62
     7
370
    15
100
AcDbCircle
 10
185.0
 20
1628.1923788647
 30
0.0
 40
2.5
100
AcDbArc
 50
180.0
 51
0.0
  0
ARC
  5
5E3
330
1F
100
AcDbEntity
  8
0
  6
Continuous
 62
     7
370
    15
100
AcDbCircle
 10
255.0
 20
1568.1923788647
 30
0.0
 40
2.500000000000028
100
AcDbArc
 50
180.0
 51
0.0
  0
ARC
  5
5E4
330
1F
100
AcDbEntity
  8
0
  6
Continuous
 62
     7
370
    15
100
AcDbCircle
 10
305.0
 20
1685.6923788647
 30
0.0
 40
2.500000000000057
100
AcDbArc
 50
0.0
 51
180.0
  0
ARC
  5
5E5
330
1F
100
AcDbEntity
  8
0
  6
Continuous
 62
     7
370
    15
100
AcDbCircle
 10
185.0
 20
1648.1923788647
 30
0.0
 40
2.5
100
AcDbArc
 50
0.0
 51
180.0
  0
ARC
  5
5E6
330
1F
100
AcDbEntity
  8
0
  6
Continuous
 62
     7
370
    15
100
AcDbCircle
 10
171.7825548242
 20
1611.1533918569
 30
0.0
 40
4.500000000000042
100
AcDbArc
 50
288.0
 51
108.0
  0
ARC
  5
5E7
330
1F
100
AcDbEntity
  8
0
  6
Continuous
 62
     7
370
    15
100
AcDbCircle
 10
245.0
 20
1705.6923788647
 30
0.0
 40
2.500000000000057
100
AcDbArc
 50
0.0
 51
180.0
  0
ARC
  5
5E8
330
1F
100
AcDbEntity
  8
0
  6
Continuous
 62
     7
370
    15
100
AcDbCircle
 10
255.0
 20
1708.1923788647
 30
0.0
 40
2.500000000000028
100
AcDbArc
 50
0.0
 51
180.0
  0
ARC
  5
5E9
330
1F
100
AcDbEntity
  8
0
  6
Continuous
 62
     7
370
    15
100
AcDbCircle
 10
325.0
 20
1648.1923788647
 30
0.0
 40
2.5
100
AcDbArc
 50
0.0
 51
180.0
  0
ARC
  5
5EA
330
1F
100
AcDbEntity
  8
0
  6
Continuous
 62
     7
370
    15
100
AcDbCircle
 10
325.0
 20
1628.1923788647
 30
0.0
 40
2.5
100
AcDbArc
 50
180.0
 51
0.0
  0
ARC
  5
5EB
330
1F
100
AcDbEntity
  8
0
  6
Continuous
 62
     7
370
    15
100
AcDbCircle
 10
265.0
 20
1570.6923788647
 30
0.0
 40
2.5
100
AcDbArc
 50
180.0
 51
0.0
  0
ARC
  5
5EC
330
1F
100
AcDbEntity
  8
0
  6
Continuous
 62
     7
370
    15
100
AcDbCircle
 10
305.0
 20
1590.6923788647
 30
0.0
 40
2.500000000000057
100
AcDbArc
 50
180.0
 51
360.0
  0
ARC
  5
5ED
330
1F
100
AcDbEntity
  8
0
  6
Continuous
 62
     7
370
    15
100
AcDbCircle
 10
315.0
 20
1673.1923788647
 30
0.0
 40
2.5
100
AcDbArc
 50
0.0
 51
180.0
  0
ARC
  5
5EE
330
1F
100
AcDbEntity
  8
0
  6
Continuous
 62
     7
370
    15
100
AcDbCircle
 10
-185.0
 20
1628.1923788647
 30
0.0
 40
2.5
100
AcDbArc
 50
180.0
 51
360.0
  0
ARC
  5
5EF
330
1F
100
AcDbEntity
  8
0
  6
Continuous
 62
     7
370
    15
100
AcDbCircle
 10
-185.0
 20
1648.1923788647
 30
0.0
 40
2.5
100
AcDbArc
 50
0.0
 51
180.0
  0
ARC
  5
5F0
330
1F
100
AcDbEntity
  8
0
  6
Continuous
 62
     7
370
    15
100
AcDbCircle
 10
-195.0
 20
1603.1923788647
 30
0.0
 40
2.500000000000028
100
AcDbArc
 50
180.0
 51
360.0
  0
ARC
  5
5F1
330
1F
100
AcDbEntity
  8
0
  6
Continuous
 62
     7
370
    15
100
AcDbCircle
 10
-195.0
 20
1673.1923788647
 30
0.0
 40
2.500000000000028
100
AcDbArc
 50
0.0
 51
180.0
  0
ARC
  5
5F2
330
1F
100
AcDbEntity
  8
0
  6
Continuous
 62
     7
370
    15
100
AcDbCircle
 10
-205.0
 20
1590.6923788647
 30
0.0
 40
2.500000000000028
100
AcDbArc
 50
180.0
 51
0.0
  0
ARC
  5
5F3
330
1F
100
AcDbEntity
  8
0
  6
Continuous
 62
     7
370
    15
100
AcDbCircle
 10
-205.0
 20
1685.6923788647
 30
0.0
 40
2.500000000000028
100
AcDbArc
 50
0.0
 51
180.0
  0
ARC
  5
5F4
330
1F
100
AcDbEntity
  8
0
  6
Continuous
 62
     7
370
    15
100
AcDbCircle
 10
-215.0
 20
1582.6923788647
 30
0.0
 40
2.500000000000028
100
AcDbArc
 50
180.0
 51
0.0
  0
ARC
  5
5F5
330
1F
100
AcDbEntity
  8
0
  6
Continuous
 62
     7
370
    15
100
AcDbCircle
 10
-215.0
 20
1693.6923788647
 30
0.0
 40
2.5
100
AcDbArc
 50
0.0
 51
180.0
  0
ARC
  5
5F6
330
1F
100
AcDbEntity
  8
0
  6
Continuous
 62
     7
370
    15
100
AcDbCircle
 10
-225.0
 20
1576.6923788647
 30
0.0
 40
2.500000000000057
100
AcDbArc
 50
180.0
 51
0.0
  0
ARC
  5
5F7
330
1F
100
AcDbEntity
  8
0
  6
Continuous
 62
     7
370
    15
100
AcDbCircle
 10
-225.0
 20
1699.6923788647
 30
0.0
 40
2.500000000000028
100
AcDbArc
 50
0.0
 51
180.0
  0
ARC
  5
5F8
330
1F
100
AcDbEntity
  8
0
  6
Continuous
 62
     7
370
    15
100
AcDbCircle
 10
-235.0
 20
1573.1923788647
 30
0.0
 40
2.500000000000028
100
AcDbArc
 50
180.0
 51
360.0
  0
ARC
  5
5F9
330
1F
100
AcDbEntity
  8
0
  6
Continuous
 62
     7
370
    15
100
AcDbCircle
 10
-235.0
 20
1703.1923788647
 30
0.0
 40
2.500000000000057
100
AcDbArc
 50
0.0
 51
180.0
  0
ARC
  5
5FA
330
1F
100
AcDbEntity
  8
0
  6
Continuous
 62
     7
370
    15
100
AcDbCircle
 10
-245.0
 20
1570.6923788647
 30
0.0
 40
2.500000000000028
100
AcDbArc
 50
180.0
 51
0.0
  0
ARC
  5
5FB
330
1F
100
AcDbEntity
  8
0
  6
Continuous
 62
     7
370
    15
100
AcDbCircle
 10
-245.0
 20
1705.6923788647
 30
0.0
 40
2.500000000000028
100
AcDbArc
 50
0.0
 51
180.0
  0
ARC
  5
5FC
330
1F
100
AcDbEntity
  8
0
  6
Continuous
 62
     7
370
    15
100
AcDbCircle
 10
-325.0
 20
1628.1923788647
 30
0.0
 40
2.5
100
AcDbArc
 50
180.0
 51
0.0
  0
ARC
  5
5FD
330
1F
100
AcDbEntity
  8
0
  6
Continuous
 62
     7
370
    15
100
AcDbCircle
 10
-325.0
 20
1648.1923788647
 30
0.0
 40
2.5
100
AcDbArc
 50
0.0
 51
180.0
  0
ARC
  5
5FE
330
1F
100
AcDbEntity
  8
0
  6
Continuous
 62
     7
370
    15
100
AcDbCircle
 10
-315.0
 20
1603.1923788647
 30
0.0
 40
2.500000000000057
100
AcDbArc
 50
180.0
 51
0.0
  0
ARC
  5
5FF
330
1F
100
AcDbEntity
  8
0
  6
Continuous
 62
     7
370
    15
100
AcDbCircle
 10
-315.0
 20
1673.1923788647
 30
0.0
 40
2.500000000000057
100
AcDbArc
 50
0.0
 51
180.0
  0
ARC
  5
600
330
1F
100
AcDbEntity
  8
0
  6
Continuous
 62
     7
370
    15
100
AcDbCircle
 10
-305.0
 20
1590.6923788647
 30
0.0
 40
2.500000000000057
100
AcDbArc
 50
180.0
 51
0.0
  0
ARC
  5
601
330
1F
100
AcDbEntity
  8
0
  6
Continuous
 62
     7
370
    15
100
AcDbCircle
 10
-305.0
 20
1685.6923788647
 30
0.0
 40
2.5
100
AcDbArc
 50
0.0
 51
180.0
  0
ARC
  5
602
330
1F
100
AcDbEntity
  8
0
  6
Continuous
 62
     7
370
    15
100
AcDbCircle
 10
-295.0
 20
1582.6923788647
 30
0.0
 40
2.500000000000057
100
AcDbArc
 50
180.0
 51
0.0
  0
ARC
  5
603
330
1F
100
AcDbEntity
  8
0
  6
Continuous
 62
     7
370
    15
100
AcDbCircle
 10
-295.0
 20
1693.6923788647
 30
0.0
 40
2.5
100
AcDbArc
 50
0.0
 51
180.0
  0
ARC
  5
604
330
1F
100
AcDbEntity
  8
0
  6
Continuous
 62
     7
370
    15
100
AcDbCircle
 10
-285.0
 20
1576.6923788647
 30
0.0
 40
2.500000000000057
100
AcDbArc
 50
180.0
 51
0.0
  0
ARC
  5
605
330
1F
100
AcDbEntity
  8
0
  6
Continuous
 62
     7
370
    15
100
AcDbCircle
 10
-285.0
 20
1699.6923788647
 30
0.0
 40
2.500000000000057
100
AcDbArc
 50
0.0
 51
180.0
  0
ARC
  5
606
330
1F
100
AcDbEntity
  8
0
  6
Continuous
 62
     7
370
    15
100
AcDbCircle
 10
-275.0
 20
1573.1923788647
 30
0.0
 40
2.500000000000057
100
AcDbArc
 50
180.0
 51
0.0
  0
ARC
  5
607
330
1F
100
AcDbEntity
  8
0
  6
Continuous
 62
     7
370
    15
100
AcDbCircle
 10
-275.0
 20
1703.1923788647
 30
0.0
 40
2.5
100
AcDbArc
 50
0.0
 51
180.0
  0
ARC
  5
608
330
1F
100
AcDbEntity
  8
0
  6
Continuous
 62
     7
370
    15
100
AcDbCircle
 10
-265.0
 20
1570.6923788647
 30
0.0
 40
2.500000000000057
100
AcDbArc
 50
180.0
 51
0.0
  0
ARC
  5
609
330
1F
100
AcDbEntity
  8
0
  6
Continuous
 62
     7
370
    15
100
AcDbCircle
 10
-265.0
 20
1705.6923788647
 30
0.0
 40
2.500000000000057
100
AcDbArc
 50
0.0
 51
180.0
  0
ARC
  5
60A
330
1F
100
AcDbEntity
  8
0
  6
Continuous
 62
     7
370
    15
100
AcDbCircle
 10
-255.0
 20
1568.1923788647
 30
0.0
 40
2.5
100
AcDbArc
 50
180.0
 51
0.0
  0
ARC
  5
60B
330
1F
100
AcDbEntity
  8
0
  6
Continuous
 62
     7
370
    15
100
AcDbCircle
 10
-255.0
 20
1708.1923788647
 30
0.0
 40
2.500000000000085
100
AcDbArc
 50
0.0
 51
180.0
  0
ARC
  5
60C
330
1F
100
AcDbEntity
  8
0
  6
Continuous
 62
     7
370
    15
100
AcDbCircle
 10
-171.7825548242
 20
1611.1533918569
 30
0.0
 40
4.500000000000386
100
AcDbArc
 50
72.0
 51
252.0
  0
ARC
  5
60D
330
1F
100
AcDbEntity
  8
0
  6
Continuous
 62
     7
370
    15
100
AcDbCircle
 10
-255.0
 20
1550.6923788647
 30
0.0
 40
4.500000000000057
100
AcDbArc
 50
0.0
 51
180.0
  0
ARC
  5
60E
330
1F
100
AcDbEntity
  8
0
  6
Continuous
 62
     7
370
    15
100
AcDbCircle
 10
-338.2174451758
 20
1611.1533918569
 30
0.0
 40
4.500000000000103
100
AcDbArc
 50
288.0
 51
108.0
  0
ARC
  5
60F
330
1F
100
AcDbEntity
  8
0
  6
Continuous
 62
     7
370
    15
100
AcDbCircle
 10
-306.4312095756
 20
1708.9813658725
 30
0.0
 40
4.500000000000089
100
AcDbArc
 50
216.0
 51
36.0
  0
ARC
  5
610
330
1F
100
AcDbEntity
  8
0
  6
Continuous
 62
     7
370
    15
100
AcDbCircle
 10
-203.5687904244
 20
1708.9813658725
 30
0.0
 40
4.500000000000028
100
AcDbArc
 50
144.0
 51
324.0
  0
ARC
  5
611
330
1F
100
AcDbEntity
  8
0
  6
Continuous
 62
     7
370
    15
100
AcDbCircle
 10
533.3933257676
 20
154.6219728584
 30
0.0
 40
74.99999999999959
100
AcDbArc
 50
330.2433746936
 51
26.3727330029
  0
ARC
  5
612
330
1F
100
AcDbEntity
  8
0
  6
Continuous
 62
     7
370
    15
100
AcDbCircle
 10
533.3933257676
 20
154.6219728584
 30
0.0
 40
74.99999999999936
100
AcDbArc
 50
251.0400983186
 51
314.8838619315
  0
ARC
  5
613
330
1F
100
AcDbEntity
  8
0
  6
Continuous
 62
     7
370
    15
100
AcDbCircle
 10
533.3933257676
 20
154.6219728584
 30
0.0
 40
74.9999999999982
100
AcDbArc
 50
142.52896939
 51
206.3727330029
  0
ARC
  5
614
330
1F
100
AcDbEntity
  8
0
  6
Continuous
 62
     7
370
    15
100
AcDbCircle
 10
533.3933257676
 20
154.6219728585
 30
0.0
 40
74.99999999999658
100
AcDbArc
 50
71.0400983186
 51
127.1694566279
  0
ARC
  5
615
330
1F
100
AcDbEntity
  8
0
  6
Continuous
 62
     7
370
    15
100
AcDbCircle
 10
533.3933257676
 20
154.6219728584
 30
0.0
 40
73.99999999999912
100
AcDbArc
 50
71.3585455329
 51
127.0113652582
  0
ARC
  5
616
330
1F
100
AcDbEntity
  8
0
  6
Continuous
 62
     7
370
    15
100
AcDbCircle
 10
533.3933257676
 20
154.6219728584
 30
0.0
 40
73.99999999999878
100
AcDbArc
 50
142.580703867
 51
206.0542857886
  0
ARC
  5
617
330
1F
100
AcDbEntity
  8
0
  6
Continuous
 62
     7
370
    15
100
AcDbCircle
 10
533.3933257676
 20
154.6219728584
 30
0.0
 40
73.9999999999977
100
AcDbArc
 50
251.3585455329
 51
314.8321274545
  0
ARC
  5
618
330
1F
100
AcDbEntity
  8
0
  6
Continuous
 62
     7
370
    15
100
AcDbCircle
 10
533.3933257676
 20
154.6219728584
 30
0.0
 40
73.99999999999542
100
AcDbArc
 50
330.4014660633
 51
26.0542857886
  0
ARC
  5
619
330
1F
100
AcDbEntity
  8
0
  6
Continuous
 62
     7
370
    15
100
AcDbCircle
 10
1900.0
 20
1096.9655114603
 30
0.0
 40
1500.000000000005
100
AcDbArc
 50
0.0
 51
60.0
  0
ARC
  5
61A
330
1F
100
AcDbEntity
  8
0
  6
Continuous
 62
     7
370
    15
100
AcDbCircle
 10
1900.0
 20
-1096.9655114603
 30
0.0
 40
1500.000000000004
100
AcDbArc
 50
300.0
 51
0.0
  0
ARC
  5
61B
330
1F
100
AcDbEntity
  8
0
  6
Continuous
 62
     7
370
    15
100
AcDbCircle
 10
0.0
 20
2193.9310229206
 30
0.0
 40
1500.000000000007
100
AcDbArc
 50
60.0
 51
120.0
  0
ARC
  5
61C
330
1F
100
AcDbEntity
  8
0
  6
Continuous
 62
     7
370
    15
100
AcDbCircle
 10
-1900.0
 20
-1096.9655114603
 30
0.0
 40
1500.000000000004
100
AcDbArc
 50
180.0
 51
240.0
  0
ARC
  5
61D
330
1F
100
AcDbEntity
  8
0
  6
Continuous
 62
     7
370
    15
100
AcDbCircle
 10
-1900.0
 20
1096.9655114603
 30
0.0
 40
1500.000000000001
100
AcDbArc
 50
120.0
 51
180.0
  0
ARC
  5
61E
330
1F
100
AcDbEntity
  8
0
  6
Continuous
 62
     7
370
    15
100
AcDbCircle
 10
0.0
 20
-2193.9310229206
 30
0.0
 40
1500.000000000002
100
AcDbArc
 50
240.0
 51
300.0
  0
ARC
  5
61F
330
1F
100
AcDbEntity
  8
0
  6
PHANTOM
 62
     8
370
     0
100
AcDbCircle
 10
3.0405339746
 20
-173.2842884622
 30
0.0
 40
0.1047438158908517
100
AcDbArc
 50
189.8195817402
 51
265.4237305944
  0
ARC
  5
620
330
1F
100
AcDbEntity
  8
0
  6
PHANTOM
 62
     8
370
     0
100
AcDbCircle
 10
-4.3086873202
 20
-173.4237912877
 30
0.0
 40
0.109383571740665
100
AcDbArc
 50
290.8150576927
 51
357.0000476457
  0
ARC
  5
621
330
1F
100
AcDbEntity
  8
0
  6
PHANTOM
 62
     8
370
     0
100
AcDbCircle
 10
2.9778794228
 20
-173.3681519796
 30
0.0
 40
0.0774639696479493
100
AcDbArc
 50
121.5693540257
 51
186.1804426399
  0
ARC
  5
622
330
1F
100
AcDbEntity
  8
0
  6
PHANTOM
 62
     8
370
     0
100
AcDbCircle
 10
3.2484705327
 20
-173.54791048
 30
0.0
 40
0.050753701857939
100
AcDbArc
 50
225.0507077773
 51
283.09785051
  0
ARC
  5
623
330
1F
100
AcDbEntity
  8
0
  6
PHANTOM
 62
     8
370
     0
100
AcDbCircle
 10
2.7678818925
 20
-174.0589299017
 30
0.0
 40
0.1927805534068489
100
AcDbArc
 50
177.5057814696
 51
209.305062383
  0
ARC
  5
624
330
1F
100
AcDbEntity
  8
0
  6
PHANTOM
 62
     8
370
     0
100
AcDbCircle
 10
2.5440768145
 20
-175.5726040278
 30
0.0
 40
1.522383551091908
100
AcDbArc
 50
88.825418281
 51
117.1077622747
  0
ARC
  5
625
330
1F
100
AcDbEntity
  8
0
  6
PHANTOM
 62
     8
370
     0
100
AcDbCircle
 10
1.9535884267
 20
-174.199588998
 30
0.0
 40
0.1047438158909144
100
AcDbArc
 50
189.8195817402
 51
265.4237305943
  0
ARC
  5
626
330
1F
100
AcDbEntity
  8
0
  6
PHANTOM
 62
     8
370
     0
100
AcDbCircle
 10
1.5653935881
 20
-174.5264820465
 30
0.0
 40
0.1047438158908825
100
AcDbArc
 50
189.8195817402
 51
265.4237305944
  0
ARC
  5
627
330
1F
100
AcDbEntity
  8
0
  6
PHANTOM
 62
     8
370
     0
100
AcDbCircle
 10
-2.8875512067
 20
-173.2488079928
 30
0.0
 40
1.132448873298949
100
AcDbArc
 50
247.5059288148
 51
277.6259439
  0
ARC
  5
628
330
1F
100
AcDbEntity
  8
0
  6
PHANTOM
 62
     8
370
     0
100
AcDbCircle
 10
-2.5446714297
 20
-174.3796305166
 30
0.0
 40
0.1927805534065281
100
AcDbArc
 50
177.5057814695
 51
209.3050623831
  0
ARC
  5
629
330
1F
100
AcDbEntity
  8
0
  6
PHANTOM
 62
     8
370
     0
100
AcDbCircle
 10
-1.1466310818
 20
-174.2952356179
 30
0.0
 40
0.1927805534060993
100
AcDbArc
 50
177.5057814695
 51
209.3050623831
  0
ARC
  5
62A
330
1F
100
AcDbEntity
  8
0
  6
PHANTOM
 62
     8
370
     0
100
AcDbCircle
 10
-1.0830630274
 20
-177.8587693265
 30
0.0
 40
3.58109713155989
100
AcDbArc
 50
78.3846015998
 51
94.1020319894
  0
ARC
  5
62B
330
1F
100
AcDbEntity
  8
0
  6
PHANTOM
 62
     8
370
     0
100
AcDbCircle
 10
-0.4712743845
 20
-174.3452842571
 30
0.0
 40
0.1093835717406748
100
AcDbArc
 50
290.8150576927
 51
357.0000476457
  0
ARC
  5
62C
330
1F
100
AcDbEntity
  8
0
  6
PHANTOM
 62
     8
370
     0
100
AcDbCircle
 10
0.5385711249
 20
-174.5877824069
 30
0.0
 40
0.1093835717405676
100
AcDbArc
 50
290.8150576927
 51
357.0000476457
  0
ARC
  5
62D
330
1F
100
AcDbEntity
  8
0
  6
PHANTOM
 62
     8
370
     0
100
AcDbCircle
 10
0.9776464759
 20
-173.2876199151
 30
0.0
 40
1.34689889694421
100
AcDbArc
 50
255.8246839473
 51
291.0844308541
  0
ARC
  5
62E
330
1F
100
AcDbEntity
  8
0
  6
PHANTOM
 62
     8
370
     0
100
AcDbCircle
 10
-3.2988418108
 20
173.6662894375
 30
0.0
 40
0.1093835717403464
100
AcDbArc
 50
2.9999523542
 51
69.1849423074
  0
ARC
  5
62F
330
1F
100
AcDbEntity
  8
0
  6
PHANTOM
 62
     8
370
     0
100
AcDbCircle
 10
-3.025351768
 20
173.8881556947
 30
0.0
 40
0.0892847888091486
100
AcDbArc
 50
9.6283187392
 51
94.3840812459
  0
ARC
  5
630
330
1F
100
AcDbEntity
  8
0
  6
PHANTOM
 62
     8
370
     0
100
AcDbCircle
 10
4.1659222404
 20
173.9745350031
 30
0.0
 40
0.1927805534066795
100
AcDbArc
 50
150.6949376169
 51
182.4942185304
  0
ARC
  5
631
330
1F
100
AcDbEntity
  8
0
  6
PHANTOM
 62
     8
370
     0
100
AcDbCircle
 10
2.7678818925
 20
174.0589299017
 30
0.0
 40
0.1927805534065011
100
AcDbArc
 50
150.6949376169
 51
182.4942185305
  0
ARC
  5
632
330
1F
100
AcDbEntity
  8
0
  6
PHANTOM
 62
     8
370
     0
100
AcDbCircle
 10
2.5440768145
 20
175.5726040278
 30
0.0
 40
1.522383551111282
100
AcDbArc
 50
242.8922377255
 51
271.1745817193
  0
ARC
  5
633
330
1F
100
AcDbEntity
  8
0
  6
PHANTOM
 62
     8
370
     0
100
AcDbCircle
 10
1.9535884267
 20
174.199588998
 30
0.0
 40
0.1047438158908591
100
AcDbArc
 50
94.5762694056
 51
170.1804182598
  0
ARC
  5
634
330
1F
100
AcDbEntity
  8
0
  6
PHANTOM
 62
     8
370
     0
100
AcDbCircle
 10
1.5653935881
 20
174.5264820465
 30
0.0
 40
0.104743815890856
100
AcDbArc
 50
94.5762694056
 51
170.1804182598
  0
ARC
  5
635
330
1F
100
AcDbEntity
  8
0
  6
PHANTOM
 62
     8
370
     0
100
AcDbCircle
 10
-0.4712743845
 20
174.3452842571
 30
0.0
 40
0.1093835717406381
100
AcDbArc
 50
2.9999523543
 51
69.1849423073
  0
ARC
  5
636
330
1F
100
AcDbEntity
  8
0
  6
PHANTOM
 62
     8
370
     0
100
AcDbCircle
 10
-1.0830630274
 20
177.8587693265
 30
0.0
 40
3.581097131593139
100
AcDbArc
 50
265.8979680105
 51
281.6153984
  0
ARC
  5
637
330
1F
100
AcDbEntity
  8
0
  6
PHANTOM
 62
     8
370
     0
100
AcDbCircle
 10
-1.1466310818
 20
174.2952356179
 30
0.0
 40
0.1927805534060852
100
AcDbArc
 50
150.6949376169
 51
182.4942185305
  0
ARC
  5
638
330
1F
100
AcDbEntity
  8
0
  6
PHANTOM
 62
     8
370
     0
100
AcDbCircle
 10
0.5385711249
 20
174.5877824069
 30
0.0
 40
0.1093835717405936
100
AcDbArc
 50
2.9999523543
 51
69.1849423073
  0
ARC
  5
639
330
1F
100
AcDbEntity
  8
0
  6
PHANTOM
 62
     8
370
     0
100
AcDbCircle
 10
0.9776464759
 20
173.2876199151
 30
0.0
 40
1.346898896968196
100
AcDbArc
 50
68.9155691458
 51
104.1753160525
  0
ARC
  5
63A
330
1F
100
AcDbEntity
  8
0
  6
PHANTOM
 62
     8
370
     0
100
AcDbCircle
 10
1571.7614005644
 20
1107.5483288977
 30
0.0
 40
0.1047438158912077
100
AcDbArc
 50
39.8195817404
 51
115.4237305942
  0
ARC
  5
63B
330
1F
100
AcDbEntity
  8
0
  6
PHANTOM
 62
     8
370
     0
100
AcDbCircle
 10
1578.056261491
 20
1111.3437525359
 30
0.0
 40
0.109383571739491
100
AcDbArc
 50
140.8150576923
 51
207.000047646
  0
ARC
  5
63C
330
1F
100
AcDbEntity
  8
0
  6
PHANTOM
 62
     8
370
     0
100
AcDbCircle
 10
1571.7737292392
 20
1107.6522841101
 30
0.0
 40
0.0774639696486373
100
AcDbArc
 50
331.5693540255
 51
36.1804426395
  0
ARC
  5
63D
330
1F
100
AcDbEntity
  8
0
  6
PHANTOM
 62
     8
370
     0
100
AcDbCircle
 10
1571.4495112138
 20
1107.672663983
 30
0.0
 40
0.0507537018601587
100
AcDbArc
 50
75.050707778
 51
133.0978505087
  0
ARC
  5
63E
330
1F
100
AcDbEntity
  8
0
  6
PHANTOM
 62
     8
370
     0
100
AcDbCircle
 10
1576.8859576569
 20
1111.5808218712
 30
0.0
 40
0.0900677790010745
100
AcDbArc
 50
115.7577882238
 51
159.8802228949
  0
ARC
  5
63F
330
1F
100
AcDbEntity
  8
0
  6
PHANTOM
 62
     8
370
     0
100
AcDbCircle
 10
1571.6102034741
 20
1108.3555141042
 30
0.0
 40
0.1927805534116339
100
AcDbArc
 50
27.50578147
 51
59.3050623827
  0
ARC
  5
640
330
1F
100
AcDbEntity
  8
0
  6
PHANTOM
 62
     8
370
     0
100
AcDbCircle
 10
1571.0471872942
 20
1109.7782968894
 30
0.0
 40
1.522383551097142
100
AcDbArc
 50
298.8254182811
 51
327.1077622746
  0
ARC
  5
641
330
1F
100
AcDbEntity
  8
0
  6
PHANTOM
 62
     8
370
     0
100
AcDbCircle
 10
1572.2450727535
 20
1108.8844751877
 30
0.0
 40
0.1047438158908219
100
AcDbArc
 50
39.8195817402
 51
115.4237305944
  0
ARC
  5
642
330
1F
100
AcDbEntity
  8
0
  6
PHANTOM
 62
     8
370
     0
100
AcDbCircle
 10
1572.4178128211
 20
1109.3616702913
 30
0.0
 40
0.1047438158907419
100
AcDbArc
 50
39.8195817402
 51
115.4237305943
  0
ARC
  5
643
330
1F
100
AcDbEntity
  8
0
  6
PHANTOM
 62
     8
370
     0
100
AcDbCircle
 10
1576.7554342452
 20
1110.8282192576
 30
0.0
 40
0.7666817037292624
100
AcDbArc
 50
87.0493621222
 51
134.1251764849
  0
ARC
  5
644
330
1F
100
AcDbEntity
  8
0
  6
PHANTOM
 62
     8
370
     0
100
AcDbCircle
 10
1576.0506593027
 20
1111.2895256447
 30
0.0
 40
0.1927805534072718
100
AcDbArc
 50
27.5057814696
 51
59.305062383
  0
ARC
  5
645
330
1F
100
AcDbEntity
  8
0
  6
PHANTOM
 62
     8
370
     0
100
AcDbCircle
 10
1574.8821182952
 20
1110.5174173446
 30
0.0
 40
0.192780553410076
100
AcDbArc
 50
27.5057814699
 51
59.3050623828
  0
ARC
  5
646
330
1F
100
AcDbEntity
  8
0
  6
PHANTOM
 62
     8
370
     0
100
AcDbCircle
 10
1573.045299891
 20
1113.5717440363
 30
0.0
 40
3.581097131556497
100
AcDbArc
 50
288.3846015998
 51
304.1020319894
  0
ARC
  5
647
330
1F
100
AcDbEntity
  8
0
  6
PHANTOM
 62
     8
370
     0
100
AcDbCircle
 10
1574.2722179191
 20
1110.2230823889
 30
0.0
 40
0.1093835717403071
100
AcDbArc
 50
140.8150576924
 51
207.0000476458
  0
ARC
  5
648
330
1F
100
AcDbEntity
  8
0
  6
PHANTOM
 62
     8
370
     0
100
AcDbCircle
 10
1573.2764169792
 20
1109.9281691923
 30
0.0
 40
0.1093835717406921
100
AcDbArc
 50
140.8150576927
 51
207.0000476457
  0
ARC
  5
649
330
1F
100
AcDbEntity
  8
0
  6
PHANTOM
 62
     8
370
     0
100
AcDbCircle
 10
1573.546247817
 20
1108.5826577699
 30
0.0
 40
1.346898896945035
100
AcDbArc
 50
105.8246839473
 51
141.0844308541
  0
ARC
  5
64A
330
1F
100
AcDbEntity
  8
0
  6
PHANTOM
 62
     8
370
     0
100
AcDbCircle
 10
1750.7267499885
 20
810.2500024715
 30
0.0
 40
0.1093835717407672
100
AcDbArc
 50
212.9999523543
 51
279.1849423072
  0
ARC
  5
64B
330
1F
100
AcDbEntity
  8
0
  6
PHANTOM
 62
     8
370
     0
100
AcDbCircle
 10
1750.6008337924
 20
809.9211156352
 30
0.0
 40
0.0892847888090777
100
AcDbArc
 50
219.628318739
 51
304.3840812462
  0
ARC
  5
64C
330
1F
100
AcDbEntity
  8
0
  6
PHANTOM
 62
     8
370
     0
100
AcDbCircle
 10
1744.4161974697
 20
806.2506719556
 30
0.0
 40
0.1927805534065316
100
AcDbArc
 50
0.694937617
 51
32.4942185305
  0
ARC
  5
64D
330
1F
100
AcDbEntity
  8
0
  6
PHANTOM
 62
     8
370
     0
100
AcDbCircle
 10
1751.1002089285
 20
809.8328872663
 30
0.0
 40
0.090067778999122
100
AcDbArc
 50
260.1197771045
 51
304.2422117764
  0
ARC
  5
64E
330
1F
100
AcDbEntity
  8
0
  6
PHANTOM
 62
     8
370
     0
100
AcDbCircle
 10
1745.6691333758
 20
806.8766040034
 30
0.0
 40
0.1927805534019665
100
AcDbArc
 50
0.6949376165
 51
32.4942185308
  0
ARC
  5
64F
330
1F
100
AcDbEntity
  8
0
  6
PHANTOM
 62
     8
370
     0
100
AcDbCircle
 10
1746.6197913219
 20
805.6776262961
 30
0.0
 40
1.522383551108237
100
AcDbArc
 50
92.8922377255
 51
121.1745817193
  0
ARC
  5
650
330
1F
100
AcDbEntity
  8
0
  6
PHANTOM
 62
     8
370
     0
100
AcDbCircle
 10
1746.4446617515
 20
807.1619363856
 30
0.0
 40
0.1047438158909177
100
AcDbArc
 50
304.5762694056
 51
20.1804182598
  0
ARC
  5
651
330
1F
100
AcDbEntity
  8
0
  6
PHANTOM
 62
     8
370
     0
100
AcDbCircle
 10
1750.4302898192
 20
809.255145785
 30
0.0
 40
0.192780553402936
100
AcDbArc
 50
0.6949376167
 51
32.4942185308
  0
ARC
  5
652
330
1F
100
AcDbEntity
  8
0
  6
PHANTOM
 62
     8
370
     0
100
AcDbCircle
 10
1750.2663887209
 20
810.2382646103
 30
0.0
 40
0.9381997178995648
100
AcDbArc
 50
290.3655245638
 51
328.4599368297
  0
ARC
  5
653
330
1F
100
AcDbEntity
  8
0
  6
PHANTOM
 62
     8
370
     0
100
AcDbCircle
 10
1746.9442948675
 20
807.0729361206
 30
0.0
 40
0.1047438158903559
100
AcDbArc
 50
304.5762694055
 51
20.18041826
  0
ARC
  5
654
330
1F
100
AcDbEntity
  8
0
  6
PHANTOM
 62
     8
370
     0
100
AcDbCircle
 10
1748.6175021762
 20
808.2481919956
 30
0.0
 40
0.1093835717404479
100
AcDbArc
 50
212.9999523542
 51
279.1849423073
  0
ARC
  5
655
330
1F
100
AcDbEntity
  8
0
  6
PHANTOM
 62
     8
370
     0
100
AcDbCircle
 10
1750.9040692174
 20
805.5113189911
 30
0.0
 40
3.581097131582684
100
AcDbArc
 50
115.8979680105
 51
131.6153984
  0
ARC
  5
656
330
1F
100
AcDbEntity
  8
0
  6
PHANTOM
 62
     8
370
     0
100
AcDbCircle
 10
1749.1773539131
 20
808.6292137372
 30
0.0
 40
0.1927805534092667
100
AcDbArc
 50
0.6949376171
 51
32.4942185301
  0
ARC
  5
657
330
1F
100
AcDbEntity
  8
0
  6
PHANTOM
 62
     8
370
     0
100
AcDbCircle
 10
1747.8641993861
 20
807.5332596828
 30
0.0
 40
0.1093835717407005
100
AcDbArc
 50
212.9999523542
 51
279.1849423073
  0
ARC
  5
658
330
1F
100
AcDbEntity
  8
0
  6
PHANTOM
 62
     8
370
     0
100
AcDbCircle
 10
1746.8338677321
 20
808.4396957543
 30
0.0
 40
1.346898896967303
100
AcDbArc
 50
278.9155691458
 51
314.1753160525
  0
ENDSEC
  0
SECTION
  2
OBJECTS
  0
DICTIONARY
  5
C
330
0
100
AcDbDictionary
281
     1
  3
ACAD_GROUP
350
D
  3
ACAD_LAYOUT
350
1A
  3
ACAD_MLINESTYLE
350
17
  3
ACAD_PLOTSETTINGS
350
19
  3
ACAD_PLOTSTYLENAME
350
E
  3
ACAD_SCALELIST
350
47
  0
DICTIONARY
  5
D
102
{ACAD_REACTORS
330
C
102
}
330
C
100
AcDbDictionary
281
     1
  0
DICTIONARY
  5
1A
102
{ACAD_REACTORS
330
C
102
}
330
C
100
AcDbDictionary
281
     1
  3
Layout1
350
1E
  3
Layout2
350
26
  3
Model
350
22
  0
DICTIONARY
  5
17
102
{ACAD_REACTORS
330
C
102
}
330
C
100
AcDbDictionary
281
     1
  3
Standard
350
18
  0
DICTIONARY
  5
19
102
{ACAD_REACTORS
330
C
102
}
330
C
100
AcDbDictionary
281
     1
  0
ACDBDICTIONARYWDFLT
  5
E
102
{ACAD_REACTORS
330
C
102
}
330
C
100
AcDbDictionary
281
     1
  3
Normal
350
F
100
AcDbDictionaryWithDefault
340
F
  0
DICTIONARY
  5
47
102
{ACAD_REACTORS
330
C
102
}
330
C
100
AcDbDictionary
281
     1
  3
A0
350
48
  3
A1
350
49
  3
A2
350
4A
  3
A3
350
4B
  3
A4
350
4C
  3
A5
350
4D
  3
A6
350
4E
  3
A7
350
4F
  3
A8
350
50
  3
A9
350
51
  3
B0
350
52
  3
B1
350
53
  3
B2
350
54
  3
B3
350
55
  3
B4
350
56
  3
B5
350
57
  3
B6
350
58
  3
B7
350
59
  3
B8
350
5A
  3
B9
350
5B
  3
C0
350
5C
  3
C1
350
5D
  3
C2
350
5E
  3
C3
350
5F
  3
C4
350
60
  3
C5
350
61
  3
C6
350
62
  3
C7
350
63
  3
C8
350
64
  3
C9
350
65
  3
D0
350
66
  3
D1
350
67
  3
D2
350
68
  0
LAYOUT
  5
1E
102
{ACAD_REACTORS
330
1A
102
}
330
1A
100
AcDbPlotSettings
  1

  2
none_device
  4

  6

 40
0.0
 41
0.0
 42
0.0
 43
0.0
 44
0.0
 45
0.0
 46
0.0
 47
0.0
 48
0.0
 49
0.0
140
0.0
141
0.0
142
1.0
143
1.0
 70
   688
 72
     1
 73
     0
 74
     5
  7

 75
    16
147
1.0
148
0.0
149
0.0
100
AcDbLayout
  1
Layout1
 70
     1
 71
     1
 10
0.0
 20
0.0
 11
420.0
 21
297.0
 12
0.0
 22
0.0
 32
0.0
 14
1.0000000000E+20
 24
1.0000000000E+20
 34
1.0000000000E+20
 15
-1.0000000000E+20
 25
-1.0000000000E+20
 35
-1.0000000000E+20
146
0.0
 13
0.0
 23
0.0
 33
0.0
 16
1.0
 26
0.0
 36
0.0
 17
0.0
 27
1.0
 37
0.0
 76
     0
330
1B
  0
LAYOUT
  5
26
102
{ACAD_REACTORS
330
1A
102
}
330
1A
100
AcDbPlotSettings
  1

  2
none_device
  4

  6

 40
0.0
 41
0.0
 42
0.0
 43
0.0
 44
0.0
 45
0.0
 46
0.0
 47
0.0
 48
0.0
 49
0.0
140
0.0
141
0.0
142
1.0
143
1.0
 70
   688
 72
     1
 73
     0
 74
     5
  7

 75
    16
147
1.0
148
0.0
149
0.0
100
AcDbLayout
  1
Layout2
 70
     1
 71
     2
 10
0.0
 20
0.0
 11
0.0
 21
0.0
 12
0.0
 22
0.0
 32
0.0
 14
0.0
 24
0.0
 34
0.0
 15
0.0
 25
0.0
 35
0.0
146
0.0
 13
0.0
 23
0.0
 33
0.0
 16
1.0
 26
0.0
 36
0.0
 17
0.0
 27
1.0
 37
0.0
 76
     0
330
23
  0
LAYOUT
  5
22
102
{ACAD_REACTORS
330
1A
102
}
330
1A
100
AcDbPlotSettings
  1

  2
none_device
  4
ANSI_A_(11.00_x_8.50_Inches)
  6

 40
6.35
 41
19.05
 42
6.35000508
 43
19.05000254
 44
279.4
 45
215.9
 46
133.34999746
 47
88.89999873
 48
0.0
 49
0.0
140
0.0
141
0.0
142
0.0011390305
143
1.0
 70
  1696
 72
     0
 73
     0
 74
     0
  7

 75
     0
147
0.0179189148
148
-1300.4909072572
149
0.0
100
AcDbLayout
  1
Model
 70
     1
 71
     0
 10
0.0
 20
0.0
 11
420.0
 21
297.0
 12
0.0
 22
0.0
 32
0.0
 14
-3400.0
 24
-3693.9310229206
 34
0.0
 15
3400.0
 25
3693.9310229206
 35
0.0
146
0.0
 13
0.0
 23
0.0
 33
0.0
 16
1.0
 26
0.0
 36
0.0
 17
0.0
 27
1.0
 37
0.0
 76
     0
330
1F
331
29
  0
MLINESTYLE
  5
18
102
{ACAD_REACTORS
330
17
102
}
330
17
100
AcDbMlineStyle
  2
Standard
 70
     0
  3

 62
   256
 51
90.0
 52
90.0
 71
     2
 49
0.5
 62
   256
  6
BYLAYER
 49
-0.5
 62
   256
  6
BYLAYER
  0
ACDBPLACEHOLDER
  5
F
102
{ACAD_REACTORS
330
E
102
}
330
E
  0
SCALE
  5
48
102
{ACAD_REACTORS
330
47
102
}
330
47
100
AcDbScale
 70
     0
300
1:1
140
1.0
141
1.0
290
     1
  0
SCALE
  5
49
102
{ACAD_REACTORS
330
47
102
}
330
47
100
AcDbScale
 70
     0
300
1:2
140
1.0
141
2.0
290
     0
  0
SCALE
  5
4A
102
{ACAD_REACTORS
330
47
102
}
330
47
100
AcDbScale
 70
     0
300
1:4
140
1.0
141
4.0
290
     0
  0
SCALE
  5
4B
102
{ACAD_REACTORS
330
47
102
}
330
47
100
AcDbScale
 70
     0
300
1:5
140
1.0
141
5.0
290
     0
  0
SCALE
  5
4C
102
{ACAD_REACTORS
330
47
102
}
330
47
100
AcDbScale
 70
     0
300
1:8
140
1.0
141
8.0
290
     0
  0
SCALE
  5
4D
102
{ACAD_REACTORS
330
47
102
}
330
47
100
AcDbScale
 70
     0
300
1:10
140
1.0
141
10.0
290
     0
  0
SCALE
  5
4E
102
{ACAD_REACTORS
330
47
102
}
330
47
100
AcDbScale
 70
     0
300
1:16
140
1.0
141
16.0
290
     0
  0
SCALE
  5
4F
102
{ACAD_REACTORS
330
47
102
}
330
47
100
AcDbScale
 70
     0
300
1:20
140
1.0
141
20.0
290
     0
  0
SCALE
  5
50
102
{ACAD_REACTORS
330
47
102
}
330
47
100
AcDbScale
 70
     0
300
1:30
140
1.0
141
30.0
290
     0
  0
SCALE
  5
51
102
{ACAD_REACTORS
330
47
102
}
330
47
100
AcDbScale
 70
     0
300
1:40
140
1.0
141
40.0
290
     0
  0
SCALE
  5
52
102
{ACAD_REACTORS
330
47
102
}
330
47
100
AcDbScale
 70
     0
300
1:50
140
1.0
141
50.0
290
     0
  0
SCALE
  5
53
102
{ACAD_REACTORS
330
47
102
}
330
47
100
AcDbScale
 70
     0
300
1:100
140
1.0
141
100.0
290
     0
  0
SCALE
  5
54
102
{ACAD_REACTORS
330
47
102
}
330
47
100
AcDbScale
 70
     0
300
2:1
140
2.0
141
1.0
290
     0
  0
SCALE
  5
55
102
{ACAD_REACTORS
330
47
102
}
330
47
100
AcDbScale
 70
     0
300
4:1
140
4.0
141
1.0
290
     0
  0
SCALE
  5
56
102
{ACAD_REACTORS
330
47
102
}
330
47
100
AcDbScale
 70
     0
300
8:1
140
8.0
141
1.0
290
     0
  0
SCALE
  5
57
102
{ACAD_REACTORS
330
47
102
}
330
47
100
AcDbScale
 70
     0
300
10:1
140
10.0
141
1.0
290
     0
  0
SCALE
  5
58
102
{ACAD_REACTORS
330
47
102
}
330
47
100
AcDbScale
 70
     0
300
100:1
140
100.0
141
1.0
290
     0
  0
SCALE
  5
59
102
{ACAD_REACTORS
330
47
102
}
330
47
100
AcDbScale
 70
     0
300
1/128" = 1'-0"
140
0.0078125
141
12.0
290
     0
  0
SCALE
  5
5A
102
{ACAD_REACTORS
330
47
102
}
330
47
100
AcDbScale
 70
     0
300
1/64" = 1'-0"
140
0.015625
141
12.0
290
     0
  0
SCALE
  5
5B
102
{ACAD_REACTORS
330
47
102
}
330
47
100
AcDbScale
 70
     0
300
1/32" = 1'-0"
140
0.03125
141
12.0
290
     0
  0
SCALE
  5
5C
102
{ACAD_REACTORS
330
47
102
}
330
47
100
AcDbScale
 70
     0
300
1/16" = 1'-0"
140
0.0625
141
12.0
290
     0
  0
SCALE
  5
5D
102
{ACAD_REACTORS
330
47
102
}
330
47
100
AcDbScale
 70
     0
300
3/32" = 1'-0"
140
0.09375
141
12.0
290
     0
  0
SCALE
  5
5E
102
{ACAD_REACTORS
330
47
102
}
330
47
100
AcDbScale
 70
     0
300
1/8" = 1'-0"
140
0.125
141
12.0
290
     0
  0
SCALE
  5
5F
102
{ACAD_REACTORS
330
47
102
}
330
47
100
AcDbScale
 70
     0
300
3/16" = 1'-0"
140
0.1875
141
12.0
290
     0
  0
SCALE
  5
60
102
{ACAD_REACTORS
330
47
102
}
330
47
100
AcDbScale
 70
     0
300
1/4" = 1'-0"
140
0.25
141
12.0
290
     0
  0
SCALE
  5
61
102
{ACAD_REACTORS
330
47
102
}
330
47
100
AcDbScale
 70
     0
300
3/8" = 1'-0"
140
0.375
141
12.0
290
     0
  0
SCALE
  5
62
102
{ACAD_REACTORS
330
47
102
}
330
47
100
AcDbScale
 70
     0
300
1/2" = 1'-0"
140
0.5
141
12.0
290
     0
  0
SCALE
  5
63
102
{ACAD_REACTORS
330
47
102
}
330
47
100
AcDbScale
 70
     0
300
3/4" = 1'-0"
140
0.75
141
12.0
290
     0
  0
SCALE
  5
64
102
{ACAD_REACTORS
330
47
102
}
330
47
100
AcDbScale
 70
     0
300
1" = 1'-0"
140
1.0
141
12.0
290
     0
  0
SCALE
  5
65
102
{ACAD_REACTORS
330
47
102
}
330
47
100
AcDbScale
 70
     0
300
1-1/2" = 1'-0"
140
1.5
141
12.0
290
     0
  0
SCALE
  5
66
102
{ACAD_REACTORS
330
47
102
}
330
47
100
AcDbScale
 70
     0
300
3" = 1'-0"
140
3.0
141
12.0
290
     0
  0
SCALE
  5
67
102
{ACAD_REACTORS
330
47
102
}
330
47
100
AcDbScale
 70
     0
300
6" = 1'-0"
140
6.0
141
12.0
290
     0
  0
SCALE
  5
68
102
{ACAD_REACTORS
330
47
102
}
330
47
100
AcDbScale
 70
     0
300
1'-0" = 1'-0"
140
12.0
141
12.0
290
     0
  0
ENDSEC
  0
EOF
