  0
SECTION
  2
HEADER
  9
$ACADVER
  1
AC1015
  9
$ACADMAINTVER
 70
     6
  9
$DWGCODEPAGE
  3
ANSI_1251
  9
$INSBASE
 10
0.0
 20
0.0
 30
0.0
  9
$EXTMIN
 10
-3727.1521465963
 20
-249.9930691619
 30
0.0
  9
$EXTMAX
 10
539.5157607542
 20
762.4243042152
 30
0.0
  9
$LIMMIN
 10
0.0
 20
0.0
  9
$LIMMAX
 10
420.0
 20
297.0
  9
$ORTHOMODE
 70
     0
  9
$REGENMODE
 70
     1
  9
$FILLMODE
 70
     1
  9
$QTEXTMODE
 70
     0
  9
$MIRRTEXT
 70
     1
  9
$LTSCALE
 40
1.0
  9
$ATTMODE
 70
     1
  9
$TEXTSIZE
 40
3.0
  9
$TRACEWID
 40
1.0
  9
$TEXTSTYLE
  7
Standard
  9
$CLAYER
  8
0
  9
$CELTYPE
  6
ByLayer
  9
$CECOLOR
 62
   256
  9
$CELTSCALE
 40
1.0
  9
$DISPSILH
 70
     0
  9
$DIMSCALE
 40
1.0
  9
$DIMASZ
 40
3.0
  9
$DIMEXO
 40
0.0
  9
$DIMDLI
 40
3.75
  9
$DIMRND
 40
0.0
  9
$DIMDLE
 40
0.0
  9
$DIMEXE
 40
2.0
  9
$DIMTP
 40
0.0
  9
$DIMTM
 40
0.0
  9
$DIMTXT
 40
3.0
  9
$DIMCEN
 40
2.5
  9
$DIMTSZ
 40
0.0
  9
$DIMTOL
 70
     0
  9
$DIMLIM
 70
     0
  9
$DIMTIH
 70
     1
  9
$DIMTOH
 70
     1
  9
$DIMSE1
 70
     0
  9
$DIMSE2
 70
     0
  9
$DIMTAD
 70
     1
  9
$DIMZIN
 70
     0
  9
$DIMBLK
  1

  9
$DIMASO
 70
     1
  9
$DIMSHO
 70
     1
  9
$DIMPOST
  1

  9
$DIMAPOST
  1

  9
$DIMALT
 70
     0
  9
$DIMALTD
 70
     3
  9
$DIMALTF
 40
0.0393700787
  9
$DIMLFAC
 40
1.0
  9
$DIMTOFL
 70
     1
  9
$DIMTVP
 40
0.0
  9
$DIMTIX
 70
     0
  9
$DIMSOXD
 70
     0
  9
$DIMSAH
 70
     0
  9
$DIMBLK1
  1

  9
$DIMBLK2
  1

  9
$DIMSTYLE
  2
ISO-25
  9
$DIMCLRD
 70
     0
  9
$DIMCLRE
 70
     0
  9
$DIMCLRT
 70
     0
  9
$DIMTFAC
 40
1.0
  9
$DIMGAP
 40
2.0
  9
$DIMJUST
 70
     0
  9
$DIMSD1
 70
     0
  9
$DIMSD2
 70
     0
  9
$DIMTOLJ
 70
     0
  9
$DIMTZIN
 70
     0
  9
$DIMALTZ
 70
     0
  9
$DIMALTTZ
 70
     0
  9
$DIMUPT
 70
     0
  9
$DIMDEC
 70
     2
  9
$DIMTDEC
 70
     2
  9
$DIMALTU
 70
     2
  9
$DIMALTTD
 70
     3
  9
$DIMTXSTY
  7
Standard
  9
$DIMAUNIT
 70
     0
  9
$DIMADEC
 70
     2
  9
$DIMALTRND
 40
0.0
  9
$DIMAZIN
 70
     0
  9
$DIMDSEP
 70
    44
  9
$DIMATFIT
 70
     3
  9
$DIMFRAC
 70
     0
  9
$DIMLDRBLK
  1

  9
$DIMLUNIT
 70
     2
  9
$DIMLWD
 70
    -2
  9
$DIMLWE
 70
    -2
  9
$DIMTMOVE
 70
     0
  9
$LUNITS
 70
     2
  9
$LUPREC
 70
     2
  9
$SKETCHINC
 40
1.0
  9
$FILLETRAD
 40
10.0
  9
$AUNITS
 70
     1
  9
$AUPREC
 70
     2
  9
$MENU
  1
.
  9
$ELEVATION
 40
0.0
  9
$PELEVATION
 40
0.0
  9
$THICKNESS
 40
0.0
  9
$LIMCHECK
 70
     0
  9
$CHAMFERA
 40
0.0
  9
$CHAMFERB
 40
0.0
  9
$CHAMFERC
 40
0.0
  9
$CHAMFERD
 40
0.0
  9
$SKPOLY
 70
     0
  9
$TDCREATE
 40
2459306.444321065
  9
$TDUCREATE
 40
2459306.319321065
  9
$TDUPDATE
 40
2459306.444354398
  9
$TDUUPDATE
 40
2459306.319354398
  9
$TDINDWG
 40
0.0000000116
  9
$TDUSRTIMER
 40
0.0000000116
  9
$USRTIMER
 70
     1
  9
$ANGBASE
 50
0.0
  9
$ANGDIR
 70
     0
  9
$PDMODE
 70
     0
  9
$PDSIZE
 40
-1.0
  9
$PLINEWID
 40
0.0
  9
$SPLFRAME
 70
     0
  9
$SPLINETYPE
 70
     6
  9
$SPLINESEGS
 70
     8
  9
$HANDSEED
  5
84B
  9
$SURFTAB1
 70
     6
  9
$SURFTAB2
 70
     6
  9
$SURFTYPE
 70
     6
  9
$SURFU
 70
     6
  9
$SURFV
 70
     6
  9
$UCSBASE
  2

  9
$UCSNAME
  2

  9
$UCSORG
 10
0.0
 20
0.0
 30
0.0
  9
$UCSXDIR
 10
1.0
 20
0.0
 30
0.0
  9
$UCSYDIR
 10
0.0
 20
1.0
 30
0.0
  9
$UCSORTHOREF
  2

  9
$UCSORTHOVIEW
 70
     0
  9
$UCSORGTOP
 10
0.0
 20
0.0
 30
0.0
  9
$UCSORGBOTTOM
 10
0.0
 20
0.0
 30
0.0
  9
$UCSORGLEFT
 10
0.0
 20
0.0
 30
0.0
  9
$UCSORGRIGHT
 10
0.0
 20
0.0
 30
0.0
  9
$UCSORGFRONT
 10
0.0
 20
0.0
 30
0.0
  9
$UCSORGBACK
 10
0.0
 20
0.0
 30
0.0
  9
$PUCSBASE
  2

  9
$PUCSNAME
  2

  9
$PUCSORG
 10
0.0
 20
0.0
 30
0.0
  9
$PUCSXDIR
 10
1.0
 20
0.0
 30
0.0
  9
$PUCSYDIR
 10
0.0
 20
1.0
 30
0.0
  9
$PUCSORTHOREF
  2

  9
$PUCSORTHOVIEW
 70
     0
  9
$PUCSORGTOP
 10
0.0
 20
0.0
 30
0.0
  9
$PUCSORGBOTTOM
 10
0.0
 20
0.0
 30
0.0
  9
$PUCSORGLEFT
 10
0.0
 20
0.0
 30
0.0
  9
$PUCSORGRIGHT
 10
0.0
 20
0.0
 30
0.0
  9
$PUCSORGFRONT
 10
0.0
 20
0.0
 30
0.0
  9
$PUCSORGBACK
 10
0.0
 20
0.0
 30
0.0
  9
$USERI1
 70
     0
  9
$USERI2
 70
     0
  9
$USERI3
 70
     0
  9
$USERI4
 70
     0
  9
$USERI5
 70
     0
  9
$USERR1
 40
0.0
  9
$USERR2
 40
0.0
  9
$USERR3
 40
0.0
  9
$USERR4
 40
0.0
  9
$USERR5
 40
0.0
  9
$WORLDVIEW
 70
     1
  9
$SHADEDGE
 70
     3
  9
$SHADEDIF
 70
    70
  9
$TILEMODE
 70
     1
  9
$MAXACTVP
 70
    64
  9
$PINSBASE
 10
0.0
 20
0.0
 30
0.0
  9
$PLIMCHECK
 70
     0
  9
$PEXTMIN
 10
1.0000000000E+20
 20
1.0000000000E+20
 30
1.0000000000E+20
  9
$PEXTMAX
 10
-1.0000000000E+20
 20
-1.0000000000E+20
 30
-1.0000000000E+20
  9
$PLIMMIN
 10
0.0
 20
0.0
  9
$PLIMMAX
 10
420.0
 20
297.0
  9
$UNITMODE
 70
     0
  9
$VISRETAIN
 70
     1
  9
$PLINEGEN
 70
     0
  9
$PSLTSCALE
 70
     1
  9
$TREEDEPTH
 70
  3020
  9
$CMLSTYLE
  2
Standard
  9
$CMLJUST
 70
     0
  9
$CMLSCALE
 40
20.0
  9
$PROXYGRAPHICS
 70
     1
  9
$MEASUREMENT
 70
     1
  9
$CELWEIGHT
370
    -1
  9
$ENDCAPS
280
     0
  9
$JOINSTYLE
280
     0
  9
$LWDISPLAY
290
     1
  9
$INSUNITS
 70
     4
  9
$HYPERLINKBASE
  1

  9
$STYLESHEET
  1

  9
$XEDIT
290
     1
  9
$CEPSNTYPE
380
     0
  9
$PSTYLEMODE
290
     1
  9
$FINGERPRINTGUID
  2
{7EA72212-4CEB-4B12-B05A-88394730B9BD}
  9
$VERSIONGUID
  2
{FAEB1C32-E019-11D5-929B-00C0DF256EC4}
  9
$EXTNAMES
290
     1
  9
$PSVPSCALE
 40
0.0
  9
$OLESTARTUP
290
     0
  0
ENDSEC
  0
SECTION
  2
CLASSES
  0
CLASS
  1
ACDBDICTIONARYWDFLT
  2
AcDbDictionaryWithDefault
  3
ObjectDBX Classes
 90
        0
280
     0
281
     0
  0
CLASS
  1
VISUALSTYLE
  2
AcDbVisualStyle
  3
ObjectDBX Classes
 90
     4095
280
     0
281
     0
  0
CLASS
  1
MATERIAL
  2
AcDbMaterial
  3
ObjectDBX Classes
 90
     1153
280
     0
281
     0
  0
CLASS
  1
SCALE
  2
AcDbScale
  3
ObjectDBX Classes
 90
     1153
280
     0
281
     0
  0
CLASS
  1
SUN
  2
AcDbSun
  3
SCENEOE
 90
     1153
280
     0
281
     0
  0
CLASS
  1
ACDBPLACEHOLDER
  2
AcDbPlaceHolder
  3
ObjectDBX Classes
 90
        0
280
     0
281
     0
  0
CLASS
  1
LAYOUT
  2
AcDbLayout
  3
ObjectDBX Classes
 90
        0
280
     0
281
     0
  0
ENDSEC
  0
SECTION
  2
TABLES
  0
TABLE
  2
VPORT
  5
8
330
0
100
AcDbSymbolTable
 70
     1
  0
VPORT
  5
29
330
8
100
AcDbSymbolTableRecord
100
AcDbViewportTableRecord
  2
*Active
 70
     0
 10
0.0
 20
0.0
 11
1.0
 21
1.0
 12
-1593.818192921
 22
256.2156175267
 13
0.0
 23
0.0
 14
10.0
 24
10.0
 15
10.0
 25
10.0
 16
0.0
 26
0.0
 36
1.0
 17
0.0
 27
0.0
 37
0.0
 40
1032.6657208446
 41
4.2143369124
 42
50.0
 43
0.0
 44
0.0
 50
0.0
 51
0.0
 71
     0
 72
   100
 73
     1
 74
     3
 75
     0
 76
     0
 77
     0
 78
     0
281
     0
 65
     1
110
0.0
120
0.0
130
0.0
111
1.0
121
0.0
131
0.0
112
0.0
122
1.0
132
0.0
 79
     0
146
0.0
  0
ENDTAB
  0
TABLE
  2
LTYPE
  5
5
330
0
100
AcDbSymbolTable
 70
     6
  0
LTYPE
  5
14
330
5
100
AcDbSymbolTableRecord
100
AcDbLinetypeTableRecord
  2
ByBlock
 70
     0
  3

 72
    65
 73
     0
 40
0.0
  0
LTYPE
  5
15
330
5
100
AcDbSymbolTableRecord
100
AcDbLinetypeTableRecord
  2
ByLayer
 70
     0
  3

 72
    65
 73
     0
 40
0.0
  0
LTYPE
  5
16
330
5
100
AcDbSymbolTableRecord
100
AcDbLinetypeTableRecord
  2
Continuous
 70
     0
  3
Solid line
 72
    65
 73
     0
 40
0.0
  0
LTYPE
  5
6A
330
5
100
AcDbSymbolTableRecord
100
AcDbLinetypeTableRecord
  2
HIDDEN
 70
     0
  3
Hidden __ __ __ __ __ __ __ __ __ __ __ __ __ __
 72
    65
 73
     2
 40
1.905
 49
1.27
 74
     0
 49
-0.635
 74
     0
  0
LTYPE
  5
6B
330
5
100
AcDbSymbolTableRecord
100
AcDbLinetypeTableRecord
  2
PHANTOM
 70
     0
  3
Phantom ______  __  __  ______  __  __  ______
 72
    65
 73
     6
 40
12.7
 49
6.35
 74
     0
 49
-1.27
 74
     0
 49
1.27
 74
     0
 49
-1.27
 74
     0
 49
1.27
 74
     0
 49
-1.27
 74
     0
  0
LTYPE
  5
6C
330
5
100
AcDbSymbolTableRecord
100
AcDbLinetypeTableRecord
  2
CENTER
 70
     0
  3
Center ____ _ ____ _ ____ _ ____ _ ____ _ ____
 72
    65
 73
     4
 40
10.16
 49
6.35
 74
     0
 49
-1.27
 74
     0
 49
1.27
 74
     0
 49
-1.27
 74
     0
  0
LTYPE
  5
6D
330
5
100
AcDbSymbolTableRecord
100
AcDbLinetypeTableRecord
  2
CENTERX2
 70
     0
  3
Center (2x) ________  __  ________  __  _____
 72
    65
 73
     4
 40
20.32
 49
12.7
 74
     0
 49
-2.54
 74
     0
 49
2.54
 74
     0
 49
-2.54
 74
     0
  0
LTYPE
  5
6E
330
5
100
AcDbSymbolTableRecord
100
AcDbLinetypeTableRecord
  2
DOT2
 70
     0
  3
Dot (.5x) ........................................
 72
    65
 73
     2
 40
0.635
 49
0.0
 74
     0
 49
-0.635
 74
     0
  0
ENDTAB
  0
TABLE
  2
LAYER
  5
2
330
0
100
AcDbSymbolTable
 70
     1
  0
LAYER
  5
10
330
2
100
AcDbSymbolTableRecord
100
AcDbLayerTableRecord
  2
0
 70
     0
 62
     7
  6
Continuous
370
    -3
390
F
  0
ENDTAB
  0
TABLE
  2
STYLE
  5
3
330
0
100
AcDbSymbolTable
 70
     1
  0
STYLE
  5
11
330
3
100
AcDbSymbolTableRecord
100
AcDbTextStyleTableRecord
  2
Standard
 70
     0
 40
0.0
 41
1.0
 50
0.0
 71
     0
 42
3.0
  3
txt
  4

  0
ENDTAB
  0
TABLE
  2
VIEW
  5
6
330
0
100
AcDbSymbolTable
 70
     0
  0
ENDTAB
  0
TABLE
  2
UCS
  5
7
330
0
100
AcDbSymbolTable
 70
     0
  0
ENDTAB
  0
TABLE
  2
APPID
  5
9
330
0
100
AcDbSymbolTable
 70
     1
  0
APPID
  5
12
330
9
100
AcDbSymbolTableRecord
100
AcDbRegAppTableRecord
  2
ACAD
 70
     0
  0
ENDTAB
  0
TABLE
  2
DIMSTYLE
  5
A
330
0
100
AcDbSymbolTable
 70
     1
100
AcDbDimStyleTable
  0
DIMSTYLE
105
27
330
A
100
AcDbSymbolTableRecord
100
AcDbDimStyleTableRecord
  2
ISO-25
 70
     0
 41
2.5
 42
0.625
 43
3.75
 44
1.25
 73
     0
 74
     0
 77
     1
 78
     8
140
2.5
141
2.5
143
0.0393700787
147
0.625
171
     3
172
     1
178
     0
271
     2
272
     2
274
     3
278
    44
283
     0
284
     8
340
11
  0
ENDTAB
  0
TABLE
  2
BLOCK_RECORD
  5
1
330
0
100
AcDbSymbolTable
 70
     1
  0
BLOCK_RECORD
  5
1F
330
1
100
AcDbSymbolTableRecord
100
AcDbBlockTableRecord
  2
*Model_Space
340
22
  0
BLOCK_RECORD
  5
1B
330
1
100
AcDbSymbolTableRecord
100
AcDbBlockTableRecord
  2
*Paper_Space
340
1E
  0
BLOCK_RECORD
  5
23
330
1
100
AcDbSymbolTableRecord
100
AcDbBlockTableRecord
  2
*Paper_Space0
340
26
  0
ENDTAB
  0
ENDSEC
  0
SECTION
  2
BLOCKS
  0
BLOCK
  5
20
330
1F
100
AcDbEntity
  8
0
100
AcDbBlockBegin
  2
*Model_Space
 70
     0
 10
0.0
 20
0.0
 30
0.0
  3
*Model_Space
  1
*Model_Space
  0
ENDBLK
  5
21
330
1F
100
AcDbEntity
  8
0
100
AcDbBlockEnd
  0
BLOCK
  5
1C
330
1B
100
AcDbEntity
 67
     1
  8
0
100
AcDbBlockBegin
  2
*Paper_Space
 70
     0
 10
0.0
 20
0.0
 30
0.0
  3
*Paper_Space
  1
*Paper_Space
  0
ENDBLK
  5
1D
330
1B
100
AcDbEntity
 67
     1
  8
0
100
AcDbBlockEnd
  0
BLOCK
  5
24
330
23
100
AcDbEntity
  8
0
100
AcDbBlockBegin
  2
*Paper_Space0
 70
     0
 10
0.0
 20
0.0
 30
0.0
  3
*Paper_Space0
  1
*Paper_Space0
  0
ENDBLK
  5
25
330
23
100
AcDbEntity
  8
0
100
AcDbBlockEnd
  0
ENDSEC
  0
SECTION
  2
ENTITIES
  0
LWPOLYLINE
  5
D5
330
1F
100
AcDbEntity
  8
0
  6
Continuous
 62
     7
370
    15
100
AcDbPolyline
 90
        9
 70
   128
 43
0.0
 10
-1909.3787175588
 20
-87.1542197715
 10
-1909.9972117688
 20
-87.0642751137
 10
-1910.6157017419
 20
-86.9743013255
 10
-1911.2341874766
 20
-86.884298407
 10
-1911.8526689715
 20
-86.7942663585
 10
-1912.4711462253
 20
-86.7042051802
 10
-1913.0896192367
 20
-86.6141148721
 10
-1913.7080880041
 20
-86.5239954347
 10
-1914.3265525264
 20
-86.433846868
  0
LWPOLYLINE
  5
DC
330
1F
100
AcDbEntity
  8
0
  6
Continuous
 62
     7
370
    15
100
AcDbPolyline
 90
        9
 70
   128
 43
0.0
 10
-2376.9957211261
 20
-10.613283515
 10
-2377.6106098054
 20
-10.5013145841
 10
-2378.2254932103
 20
-10.3893166927
 10
-2378.8403713395
 20
-10.2772898409
 10
-2379.4552441917
 20
-10.165234029
 10
-2380.0701117655
 20
-10.0531492572
 10
-2380.6849740595
 20
-9.9410355258
 10
-2381.2998310723
 20
-9.8288928351
 10
-2381.9146828027
 20
-9.7167211852
  0
LWPOLYLINE
  5
F8
330
1F
100
AcDbEntity
  8
0
  6
Continuous
 62
     7
370
    15
100
AcDbPolyline
 90
        3
 70
   128
 43
0.0
 10
-2151.509972941
 20
415.635790667
 10
-2142.2534088504
 20
414.0632038758
 10
-2140.8273926093
 20
413.8215502715
  0
LWPOLYLINE
  5
F9
330
1F
100
AcDbEntity
  8
0
  6
Continuous
 62
     7
370
    15
100
AcDbPolyline
 90
        3
 70
   128
 43
0.0
 10
-2002.6702401578
 20
391.1808518174
 10
-2001.2416822206
 20
390.9547080473
 10
-1991.9673543393
 20
389.4905187485
  0
LWPOLYLINE
  5
FE
330
1F
100
AcDbEntity
  8
0
  6
Continuous
 62
     7
370
    15
100
AcDbPolyline
 90
        3
 70
   128
 43
0.0
 10
-1992.4107890809
 20
386.5695134136
 10
-2001.7029619168
 20
388.0365141903
 10
-2003.1480347159
 20
388.2652732303
  0
LWPOLYLINE
  5
FF
330
1F
100
AcDbEntity
  8
0
  6
Continuous
 62
     7
370
    15
100
AcDbPolyline
 90
        3
 70
   128
 43
0.0
 10
-2141.3051871674
 20
410.9059716843
 10
-2142.7476891847
 20
411.150418045
 10
-2152.0220621977
 20
412.7260361878
  0
LWPOLYLINE
  5
104
330
1F
100
AcDbEntity
  8
0
  6
Continuous
 62
     7
370
    15
100
AcDbPolyline
 90
        3
 70
   128
 43
0.0
 10
-2153.5269253209
 20
404.1752178366
 10
-2144.1517784545
 20
402.5824414126
 10
-2142.7092764372
 20
402.3379950519
  0
LWPOLYLINE
  5
105
330
1F
100
AcDbEntity
  8
0
  6
Continuous
 62
     7
370
    15
100
AcDbPolyline
 90
        3
 70
   128
 43
0.0
 10
-2004.5521239857
 20
379.6972965978
 10
-2003.1070511865
 20
379.4685375579
 10
-1993.7138990009
 20
377.9856324714
  0
LWPOLYLINE
  5
10A
330
1F
100
AcDbEntity
  8
0
  6
Continuous
 62
     7
370
    15
100
AcDbPolyline
 90
        3
 70
   128
 43
0.0
 10
-2142.5409857122
 20
466.5986851697
 10
-2133.8850368027
 20
465.128344605
 10
-2132.4590205616
 20
464.8866910007
  0
LWPOLYLINE
  5
10B
330
1F
100
AcDbEntity
  8
0
  6
Continuous
 62
     7
370
    15
100
AcDbPolyline
 90
        3
 70
   128
 43
0.0
 10
-1994.30186811
 20
442.2459925466
 10
-1992.8733101729
 20
442.0198487765
 10
-1984.2008166059
 20
440.6504663603
  0
LWPOLYLINE
  5
110
330
1F
100
AcDbEntity
  8
0
  6
Continuous
 62
     7
370
    15
100
AcDbPolyline
 90
        3
 70
   128
 43
0.0
 10
-1984.6442514595
 20
437.729460288
 10
-1993.3345898691
 20
439.1016549195
 10
-1994.7796626682
 20
439.3304139595
  0
LWPOLYLINE
  5
111
330
1F
100
AcDbEntity
  8
0
  6
Continuous
 62
     7
370
    15
100
AcDbPolyline
 90
        3
 70
   128
 43
0.0
 10
-2132.9368151197
 20
461.9711124135
 10
-2134.379317137
 20
462.2155587742
 10
-2143.0530750981
 20
463.6889299559
  0
LWPOLYLINE
  5
116
330
1F
100
AcDbEntity
  8
0
  6
Continuous
 62
     7
370
    15
100
AcDbPolyline
 90
        3
 70
   128
 43
0.0
 10
-2144.5579390505
 20
455.1381068935
 10
-2135.7834064067
 20
453.6475821418
 10
-2134.3409043895
 20
453.4031357811
  0
LWPOLYLINE
  5
117
330
1F
100
AcDbEntity
  8
0
  6
Continuous
 62
     7
370
    15
100
AcDbPolyline
 90
        3
 70
   128
 43
0.0
 10
-1996.1837519379
 20
430.762437327
 10
-1994.7386791388
 20
430.5336782871
 10
-1985.9473620974
 20
429.1455746163
  0
LWPOLYLINE
  5
193
330
1F
100
AcDbEntity
  8
0
  6
Continuous
 62
     7
370
    15
100
AcDbPolyline
 90
        9
 70
   128
 43
0.0
 10
-230.2927942392
 20
226.8190085479
 10
-229.6678947052
 20
226.8077964615
 10
-229.0429946252
 20
226.7966148406
 10
-228.4180940009
 20
226.785463685
 10
-227.7931928336
 20
226.7743429948
 10
-227.168291125
 20
226.76325277
 10
-226.5433888764
 20
226.7521930107
 10
-225.9184860894
 20
226.7411637169
 10
-225.2935827654
 20
226.7301648886
  0
LWPOLYLINE
  5
19A
330
1F
100
AcDbEntity
  8
0
  6
Continuous
 62
     7
370
    15
100
AcDbPolyline
 90
        9
 70
   128
 43
0.0
 10
225.2935827722
 20
226.7301648885
 10
225.9184860962
 20
226.7411637169
 10
226.5433888832
 20
226.7521930107
 10
227.1682911318
 20
226.76325277
 10
227.7931928404
 20
226.7743429948
 10
228.4180940077
 20
226.785463685
 10
229.042994632
 20
226.7966148406
 10
229.6678947119
 20
226.8077964615
 10
230.292794246
 20
226.8190085478
  0
LWPOLYLINE
  5
1BF
330
1F
100
AcDbEntity
  8
0
  6
Continuous
 62
     7
370
    15
100
AcDbPolyline
 90
        9
 70
   128
 43
0.0
 10
-1269.4059436453
 20
287.7525019263
 10
-1268.7840135284
 20
287.6906305413
 10
-1268.1620803959
 20
287.628789477
 10
-1267.5401442492
 20
287.5669787334
 10
-1266.9182050898
 20
287.5051983108
 10
-1266.2962629193
 20
287.4434482093
 10
-1265.674317739
 20
287.381728429
 10
-1265.0523695505
 20
287.32003897
 10
-1264.4304183552
 20
287.2583798326
  0
LWPOLYLINE
  5
1C6
330
1F
100
AcDbEntity
  8
0
  6
Continuous
 62
     7
370
    15
100
AcDbPolyline
 90
        9
 70
   128
 43
0.0
 10
-815.3284925459
 20
250.7035719199
 10
-814.7047567456
 20
250.6638379298
 10
-814.0810190089
 20
250.6241343483
 10
-813.4572793373
 20
250.5844611756
 10
-812.8335377322
 20
250.5448184117
 10
-812.2097941953
 20
250.5052060567
 10
-811.5860487279
 20
250.4656241107
 10
-810.9623013315
 20
250.4260725739
 10
-810.3385520076
 20
250.3865514462
  0
LWPOLYLINE
  5
1EB
330
1F
100
AcDbEntity
  8
0
  6
Continuous
 62
     7
370
    15
100
AcDbPolyline
 90
        9
 70
   128
 43
0.0
 10
-3315.7315588581
 20
660.9613683883
 10
-3315.1278211252
 20
660.7997333411
 10
-3314.524075513
 20
660.6381277278
 10
-3313.9203220228
 20
660.4765515487
 10
-3313.3165606561
 20
660.3150048042
 10
-3312.7127914143
 20
660.1534874947
 10
-3312.109014299
 20
659.9919996206
 10
-3311.5052293114
 20
659.8305411822
 10
-3310.901436453
 20
659.6691121799
  0
LWPOLYLINE
  5
1F2
330
1F
100
AcDbEntity
  8
0
  6
Continuous
 62
     7
370
    15
100
AcDbPolyline
 90
        9
 70
   128
 43
0.0
 10
-2873.6227446866
 20
550.9670447012
 10
-2873.0136449954
 20
550.8269636361
 10
-2872.4045384756
 20
550.6869122664
 10
-2871.7954251288
 20
550.5468905921
 10
-2871.1863049563
 20
550.4068986138
 10
-2870.5771779596
 20
550.2669363316
 10
-2869.9680441401
 20
550.127003746
 10
-2869.3589034992
 20
549.9871008573
 10
-2868.7497560386
 20
549.8472276658
  0
LWPOLYLINE
  5
20E
330
1F
100
AcDbEntity
  8
0
  6
Continuous
 62
     7
370
    15
100
AcDbPolyline
 90
        9
 70
   128
 43
0.0
 10
239.4195087572
 20
-223.0811321082
 10
238.7946101233
 20
-223.0923938447
 10
238.1697109597
 20
-223.103626149
 10
237.5448112677
 20
-223.1148290211
 10
236.9199110488
 20
-223.1260024609
 10
236.2950103044
 20
-223.1371464684
 10
235.6701090357
 20
-223.1482610437
 10
235.0452072443
 20
-223.1593461866
 10
234.4203049314
 20
-223.1704018972
  0
LWPOLYLINE
  5
215
330
1F
100
AcDbEntity
  8
0
  6
Continuous
 62
     7
370
    15
100
AcDbPolyline
 90
        9
 70
   128
 43
0.0
 10
-234.4203048711
 20
-223.1704018982
 10
-235.0452071839
 20
-223.1593461877
 10
-235.6701089753
 20
-223.1482610447
 10
-236.295010244
 20
-223.1371464695
 10
-236.9199109885
 20
-223.126002462
 10
-237.5448112074
 20
-223.1148290222
 10
-238.1697108993
 20
-223.1036261501
 10
-238.7946100629
 20
-223.0923938458
 10
-239.4195086968
 20
-223.0811321093
  0
LWPOLYLINE
  5
228
330
1F
100
AcDbEntity
  8
0
  6
Continuous
 62
     7
370
    15
100
AcDbPolyline
 90
        9
 70
   128
 43
0.0
 10
-837.7409928729
 20
-198.7710375075
 10
-838.3647453275
 20
-198.7315659394
 10
-838.9884959224
 20
-198.6920649932
 10
-839.6122446561
 20
-198.6525346689
 10
-840.2359915273
 20
-198.6129749666
 10
-840.8597365345
 20
-198.5733858864
 10
-841.4834796765
 20
-198.5337674284
 10
-842.1072209517
 20
-198.4941195927
 10
-842.7309603589
 20
-198.4544423793
  0
LWPOLYLINE
  5
22F
330
1F
100
AcDbEntity
  8
0
  6
Continuous
 62
     7
370
    15
100
AcDbPolyline
 90
        9
 70
   128
 43
0.0
 10
-1310.0261628504
 20
-160.4187863658
 10
-1310.6481084232
 20
-160.3570706156
 10
-1311.2700510886
 20
-160.2953255725
 10
-1311.8919908451
 20
-160.2335512364
 10
-1312.5139276914
 20
-160.1717476076
 10
-1313.1358616261
 20
-160.1099146862
 10
-1313.7577926479
 20
-160.0480524723
 10
-1314.3797207553
 20
-159.986160966
 10
-1315.001645947
 20
-159.9242401675
  0
LWPOLYLINE
  5
252
330
1F
100
AcDbEntity
  8
0
  6
Continuous
 62
     7
370
    15
100
AcDbPolyline
 90
        9
 70
   128
 43
0.0
 10
-2968.4289326817
 20
111.0334912994
 10
-2969.0380912466
 20
111.17331609
 10
-2969.6472432253
 20
111.3131695713
 10
-2970.2563886163
 20
111.453051743
 10
-2970.8655274183
 20
111.5929626047
 10
-2971.47465963
 20
111.7329021562
 10
-2972.0837852499
 20
111.8728703971
 10
-2972.6929042768
 20
112.0128673272
 10
-2973.3020167093
 20
112.1528929461
  0
LWPOLYLINE
  5
259
330
1F
100
AcDbEntity
  8
0
  6
Continuous
 62
     7
370
    15
100
AcDbPolyline
 90
        9
 70
   128
 43
0.0
 10
-3428.2950217962
 20
225.2585193398
 10
-3428.8987999507
 20
225.4200033003
 10
-3429.5025704988
 20
225.581515698
 10
-3430.1063334391
 20
225.7430565326
 10
-3430.7100887703
 20
225.9046258038
 10
-3431.3138364911
 20
226.0662235111
 10
-3431.9175766
 20
226.2278496543
 10
-3432.5213090959
 20
226.3895042329
 10
-3433.1250339773
 20
226.5511872466
  0
LWPOLYLINE
  5
2B7
330
1F
100
AcDbEntity
  8
0
  6
Continuous
 62
     7
370
    15
100
AcDbPolyline
 90
        5
 70
   128
 43
0.0
 10
226.2418763726
 20
229.7473350084
 10
224.742108481
 20
229.7209449921
 10
223.2423375111
 20
229.6947304984
 10
221.7425634835
 20
229.6686915277
 10
220.6027835023
 20
229.649020166
  0
LWPOLYLINE
  5
2B8
330
1F
100
AcDbEntity
  8
0
  6
Continuous
 62
     7
370
    15
100
AcDbPolyline
 90
        5
 70
   128
 43
0.0
 10
-220.6027835029
 20
229.6490201671
 10
-221.7425634767
 20
229.6686915286
 10
-223.2423375043
 20
229.6947304994
 10
-224.7421084742
 20
229.7209449931
 10
-226.2418763658
 20
229.7473350094
  0
LWPOLYLINE
  5
2C7
330
1F
100
AcDbEntity
  8
0
  6
Continuous
 62
     7
370
    15
100
AcDbPolyline
 90
        5
 70
   128
 43
0.0
 10
-814.138550627
 20
253.6338644846
 10
-815.6355158803
 20
253.729233202
 10
-817.132469962
 20
253.8247771132
 10
-818.6294128517
 20
253.9204962168
 10
-819.7670317335
 20
253.993356685
  0
LWPOLYLINE
  5
2C8
330
1F
100
AcDbEntity
  8
0
  6
Continuous
 62
     7
370
    15
100
AcDbPolyline
 90
        5
 70
   128
 43
0.0
 10
-1259.5182829335
 20
289.7870631771
 10
-1260.6527100488
 20
289.8991366853
 10
-1262.1454280087
 20
290.0467620694
 10
-1263.6381286813
 20
290.1945621499
 10
-1265.1308120461
 20
290.3425369247
  0
LWPOLYLINE
  5
2D7
330
1F
100
AcDbEntity
  8
0
  6
Continuous
 62
     7
370
    15
100
AcDbPolyline
 90
        5
 70
   128
 43
0.0
 10
-2871.9745814192
 20
553.6663287042
 10
-2873.4364188645
 20
554.0025301994
 10
-2874.8982169531
 20
554.3389027755
 10
-2876.3599756649
 20
554.6754464281
 10
-2877.4708369034
 20
554.93132272
  0
LWPOLYLINE
  5
2D8
330
1F
100
AcDbEntity
  8
0
  6
Continuous
 62
     7
370
    15
100
AcDbPolyline
 90
        5
 70
   128
 43
0.0
 10
-3305.6450236002
 20
661.3701229905
 10
-3306.7463935816
 20
661.6641799833
 10
-3308.1955887312
 20
662.0512634112
 10
-3309.6447385693
 20
662.4385164402
 10
-3311.0938430761
 20
662.825939065
  0
LWPOLYLINE
  5
42B
330
1F
100
AcDbEntity
  8
0
  6
PHANTOM
 62
     8
370
     0
100
AcDbPolyline
 90
        9
 70
   128
 43
0.0
 10
-2581.2724004886
 20
519.9836742396
 10
-2581.1449174329
 20
520.1308802809
 10
-2580.8339319817
 20
520.234674534
 10
-2580.3513951317
 20
520.2910682441
 10
-2579.7158505033
 20
520.2978942324
 10
-2578.9517217202
 20
520.2548901802
 10
-2578.0883738231
 20
520.1637087089
 10
-2577.1589847874
 20
520.0278538715
 10
-2576.1992705126
 20
519.852546493
  0
LWPOLYLINE
  5
42D
330
1F
100
AcDbEntity
  8
0
  6
PHANTOM
 62
     8
370
     0
100
AcDbPolyline
 90
        9
 70
   128
 43
0.0
 10
-2448.7334775414
 20
494.3090224168
 10
-2447.7803193088
 20
494.1009994616
 10
-2446.8703464547
 20
493.8682551352
 10
-2446.0385287258
 20
493.6197336715
 10
-2445.3168324106
 20
493.3649856109
 10
-2444.7329918941
 20
493.1138007786
 10
-2444.3094438397
 20
492.8758320669
 10
-2444.0624649616
 20
492.6602244798
 10
-2444.0015465197
 20
492.475263696
  0
LWPOLYLINE
  5
431
330
1F
100
AcDbEntity
  8
0
  6
PHANTOM
 62
     8
370
     0
100
AcDbPolyline
 90
        9
 70
   128
 43
0.0
 10
-2440.9933358339
 20
532.9334227743
 10
-2440.0401776013
 20
532.7253998191
 10
-2439.1302047472
 20
532.4926554927
 10
-2438.2983870182
 20
532.244134029
 10
-2437.5766907031
 20
531.9893859684
 10
-2436.9928501865
 20
531.7382011361
 10
-2436.5693021321
 20
531.5002324244
 10
-2436.3223232541
 20
531.2846248373
 10
-2436.2614048122
 20
531.0996640535
  0
LWPOLYLINE
  5
432
330
1F
100
AcDbEntity
  8
0
  6
PHANTOM
 62
     8
370
     0
100
AcDbPolyline
 90
        9
 70
   128
 43
0.0
 10
-2573.5322587811
 20
558.6080745971
 10
-2573.4047757253
 20
558.7552806385
 10
-2573.0937902741
 20
558.8590748917
 10
-2572.6112534241
 20
558.9154686019
 10
-2571.9757087957
 20
558.9222945903
 10
-2571.2115800126
 20
558.8792905381
 10
-2570.3482321155
 20
558.7881090669
 10
-2569.4188430798
 20
558.6522542294
 10
-2568.459128805
 20
558.4769468508
  0
LWPOLYLINE
  5
441
330
1F
100
AcDbEntity
  8
0
  6
PHANTOM
 62
     8
370
     0
100
AcDbPolyline
 90
        9
 70
   128
 43
0.0
 10
-2433.5006513178
 20
490.43521853
 10
-2433.3749118125
 20
490.58391663
 10
-2433.0651710823
 20
490.6913683766
 10
-2432.5833322897
 20
490.7534444597
 10
-2431.9479122292
 20
490.7677593301
 10
-2431.1833297375
 20
490.7337628754
 10
-2430.3189672909
 20
490.6527615602
 10
-2429.3880418534
 20
490.5278682198
 10
-2428.4263283677
 20
490.363882435
  0
LWPOLYLINE
  5
443
330
1F
100
AcDbEntity
  8
0
  6
PHANTOM
 62
     8
370
     0
100
AcDbPolyline
 90
        9
 70
   128
 43
0.0
 10
-2300.6683772244
 20
466.3242085669
 10
-2299.7128338003
 20
466.1274322196
 10
-2298.8001814357
 20
465.9054273145
 10
-2297.9654928491
 20
465.6667253755
 10
-2297.2408446549
 20
465.4204995843
 10
-2296.6540846768
 20
465.17621226
 10
-2296.2277617717
 20
464.9432512274
 10
-2295.9782592896
 20
464.7305690483
 10
-2295.9151654712
 20
464.5463389797
  0
LWPOLYLINE
  5
445
330
1F
100
AcDbEntity
  8
0
  6
PHANTOM
 62
     8
370
     0
100
AcDbPolyline
 90
        9
 70
   128
 43
0.0
 10
-2293.3839288536
 20
505.0371380422
 10
-2292.4283854295
 20
504.840361695
 10
-2291.5157330649
 20
504.6183567898
 10
-2290.6810444783
 20
504.3796548508
 10
-2289.9563962841
 20
504.1334290596
 10
-2289.369636306
 20
503.8891417353
 10
-2288.9433134008
 20
503.6561807027
 10
-2288.6938109188
 20
503.4434985237
 10
-2288.6307171004
 20
503.2592684551
  0
LWPOLYLINE
  5
448
330
1F
100
AcDbEntity
  8
0
  6
PHANTOM
 62
     8
370
     0
100
AcDbPolyline
 90
        9
 70
   128
 43
0.0
 10
-2426.2162029469
 20
529.1481480053
 10
-2426.0904634417
 20
529.2968461054
 10
-2425.7807227115
 20
529.4042978521
 10
-2425.2988839188
 20
529.4663739353
 10
-2424.6634638583
 20
529.4806888058
 10
-2423.8988813666
 20
529.4466923511
 10
-2423.0345189199
 20
529.365691036
 10
-2422.1035934825
 20
529.2407976956
 10
-2421.1418799968
 20
529.0768119106
  0
LWPOLYLINE
  5
487
330
1F
100
AcDbEntity
  8
0
  6
PHANTOM
 62
     8
370
     0
100
AcDbPolyline
 90
        9
 70
   128
 43
0.0
 10
-2285.3909591996
 20
462.6301796361
 10
-2285.2669807066
 20
462.7803491448
 10
-2284.9585277113
 20
462.8914434631
 10
-2284.4774538896
 20
462.9591932986
 10
-2283.8422466385
 20
462.9809950631
 10
-2283.0773166165
 20
462.956010927
 10
-2282.2120596554
 20
462.8852010167
 10
-2281.2797270949
 20
462.7712865174
 10
-2280.3161479524
 20
462.6186450993
  0
LWPOLYLINE
  5
489
330
1F
100
AcDbEntity
  8
0
  6
PHANTOM
 62
     8
370
     0
100
AcDbPolyline
 90
        9
 70
   128
 43
0.0
 10
-2152.2837805262
 20
440.0861598562
 10
-2151.3259846079
 20
439.9006574434
 10
-2150.4107794737
 20
439.6894227896
 10
-2149.5733359437
 20
439.4605735242
 10
-2148.8458365032
 20
439.222904196
 10
-2148.2562385475
 20
438.985548304
 10
-2147.8271999956
 20
438.7576273021
 10
-2147.5752085582
 20
438.5479000665
 10
-2147.5099481252
 20
438.3644262973
  0
LWPOLYLINE
  5
48B
330
1F
100
AcDbEntity
  8
0
  6
PHANTOM
 62
     8
370
     0
100
AcDbPolyline
 90
        9
 70
   128
 43
0.0
 10
-2145.4560370917
 20
478.8822423417
 10
-2144.4982411734
 20
478.6967399289
 10
-2143.5830360392
 20
478.4855052751
 10
-2142.7455925093
 20
478.2566560097
 10
-2142.0180930687
 20
478.0189866815
 10
-2141.428495113
 20
477.7816307895
 10
-2140.9994565611
 20
477.5537097876
 10
-2140.7474651238
 20
477.343982552
 10
-2140.6822046907
 20
477.1605087829
  0
LWPOLYLINE
  5
48E
330
1F
100
AcDbEntity
  8
0
  6
PHANTOM
 62
     8
370
     0
100
AcDbPolyline
 90
        9
 70
   128
 43
0.0
 10
-2278.5632157652
 20
501.4262621216
 10
-2278.4392372721
 20
501.5764316304
 10
-2278.1307842768
 20
501.6875259488
 10
-2277.6497104551
 20
501.7552757844
 10
-2277.014503204
 20
501.7770775489
 10
-2276.249573182
 20
501.7520934129
 10
-2275.3843162208
 20
501.6812835027
 10
-2274.4519836603
 20
501.5673690034
 10
-2273.4884045179
 20
501.414727585
  0
LWPOLYLINE
  5
49D
330
1F
100
AcDbEntity
  8
0
  6
PHANTOM
 62
     8
370
     0
100
AcDbPolyline
 90
        9
 70
   128
 43
0.0
 10
-2137.0954088108
 20
436.5947105446
 10
-2136.9732069654
 20
436.7463293333
 10
-2136.6660833437
 20
436.8610475917
 10
-2136.1858405343
 20
436.9344567617
 10
-2135.5509339991
 20
436.9637357698
 10
-2134.7857628402
 20
436.9477594404
 10
-2133.919732156
 20
436.8871417347
 10
-2132.9861230201
 20
436.7842121573
 10
-2132.020813508
 20
436.6429262339
  0
LWPOLYLINE
  5
49F
330
1F
100
AcDbEntity
  8
0
  6
PHANTOM
 62
     8
370
     0
100
AcDbPolyline
 90
        9
 70
   128
 43
0.0
 10
-2003.7320290887
 20
415.6194205265
 10
-2002.7721155036
 20
415.4452077962
 10
-2001.8544867863
 20
415.2447631562
 10
-2001.0144068937
 20
415.0257895819
 10
-2000.284159625
 20
414.7967021047
 10
-1999.6918079732
 20
414.5663044281
 10
-1999.2601156801
 20
414.3434506055
 10
-1999.0056724385
 20
414.1367047843
 10
-1998.9382563593
 20
413.9540120905
  0
LWPOLYLINE
  5
4A1
330
1F
100
AcDbEntity
  8
0
  6
PHANTOM
 62
     8
370
     0
100
AcDbPolyline
 90
        9
 70
   128
 43
0.0
 10
-1997.3615332684
 20
454.4932019175
 10
-1996.4016196833
 20
454.3189891871
 10
-1995.4839909659
 20
454.1185445472
 10
-1994.6439110734
 20
453.8995709728
 10
-1993.9136638047
 20
453.6704834957
 10
-1993.3213121529
 20
453.4400858191
 10
-1992.8896198598
 20
453.2172319965
 10
-1992.6351766181
 20
453.0104861753
 10
-1992.567760539
 20
452.8277934815
  0
LWPOLYLINE
  5
4A4
330
1F
100
AcDbEntity
  8
0
  6
PHANTOM
 62
     8
370
     0
100
AcDbPolyline
 90
        9
 70
   128
 43
0.0
 10
-2130.7249129905
 20
475.4684919356
 10
-2130.602711145
 20
475.6201107243
 10
-2130.2955875233
 20
475.7348289829
 10
-2129.8153447139
 20
475.8082381529
 10
-2129.1804381787
 20
475.8375171612
 10
-2128.4152670197
 20
475.8215408318
 10
-2127.5492363355
 20
475.7609231262
 10
-2126.6156271996
 20
475.6579935487
 10
-2125.6503176876
 20
475.5167076252
  0
LWPOLYLINE
  5
4B3
330
1F
100
AcDbEntity
  8
0
  6
PHANTOM
 62
     8
370
     0
100
AcDbPolyline
 90
        9
 70
   128
 43
0.0
 10
-1988.5036027613
 20
412.3070369127
 10
-1988.3831945038
 20
412.4600839631
 10
-1988.0774428308
 20
412.5784102588
 10
-1987.5980976077
 20
412.6574685868
 10
-1986.9635798025
 20
412.6942207799
 10
-1986.1982735787
 20
412.6872544718
 10
-1985.3315892253
 20
412.6368373739
 10
-1984.3968329359
 20
412.544906987
 10
-1983.4299268706
 20
412.4149961443
  0
LWPOLYLINE
  5
4B5
330
1F
100
AcDbEntity
  8
0
  6
PHANTOM
 62
     8
370
     0
100
AcDbPolyline
 90
        9
 70
   128
 43
0.0
 10
-1854.9025095397
 20
392.9033843644
 10
-1853.9406113562
 20
392.7404854667
 10
-1853.0206862623
 20
392.5508586273
 10
-1852.1780864635
 20
392.3417910994
 10
-1851.4451925975
 20
392.1213172307
 10
-1850.8501693646
 20
391.8979097083
 10
-1850.4158831738
 20
391.6801539582
 10
-1850.1590234001
 20
391.4764182116
 10
-1850.0894610204
 20
391.294531919
  0
LWPOLYLINE
  5
4B9
330
1F
100
AcDbEntity
  8
0
  6
PHANTOM
 62
     8
370
     0
100
AcDbPolyline
 90
        9
 70
   128
 43
0.0
 10
-1848.990144446
 20
431.8494757681
 10
-1848.0282462625
 20
431.6865768704
 10
-1847.1083211686
 20
431.4969500311
 10
-1846.2657213698
 20
431.2878825031
 10
-1845.5328275038
 20
431.0674086344
 10
-1844.9378042709
 20
430.8440011121
 10
-1844.5035180801
 20
430.6262453619
 10
-1844.2466583064
 20
430.4225096153
 10
-1844.1770959267
 20
430.2406233228
  0
LWPOLYLINE
  5
4BA
330
1F
100
AcDbEntity
  8
0
  6
PHANTOM
 62
     8
370
     0
100
AcDbPolyline
 90
        9
 70
   128
 43
0.0
 10
-1982.5912376676
 20
451.2531283165
 10
-1982.4708294101
 20
451.4061753669
 10
-1982.165077737
 20
451.5245016627
 10
-1981.6857325139
 20
451.6035599908
 10
-1981.0512147087
 20
451.640312184
 10
-1980.2859084849
 20
451.6333458759
 10
-1979.4192241315
 20
451.5829287781
 10
-1978.4844678421
 20
451.4909983912
 10
-1977.5175617768
 20
451.3610875483
  0
LWPOLYLINE
  5
4C9
330
1F
100
AcDbEntity
  8
0
  6
PHANTOM
 62
     8
370
     0
100
AcDbPolyline
 90
        9
 70
   128
 43
0.0
 10
-1839.5041347096
 20
389.751336801
 10
-1839.3855383427
 20
389.9057921339
 10
-1839.0812022751
 20
390.0277132385
 10
-1838.6028219711
 20
390.1124147551
 10
-1837.9687813176
 20
390.156641652
 10
-1837.2034461412
 20
390.1586943143
 10
-1836.3362278436
 20
390.1184938594
 10
-1835.4004531377
 20
390.0375851681
 10
-1834.4320833206
 20
389.9190775162
  0
LWPOLYLINE
  5
4CB
330
1F
100
AcDbEntity
  8
0
  6
PHANTOM
 62
     8
370
     0
100
AcDbPolyline
 90
        9
 70
   128
 43
0.0
 10
-1705.6836625176
 20
371.9234074611
 10
-1704.7199114983
 20
371.7718550311
 10
-1703.797815688
 20
371.5930818978
 10
-1702.9528107115
 20
371.3939582127
 10
-1702.2173696363
 20
371.1821361871
 10
-1701.6197550504
 20
370.9657560229
 10
-1701.1829329472
 20
370.7531330882
 10
-1700.9236901552
 20
370.5524383634
 10
-1700.8519892294
 20
370.371384434
  0
LWPOLYLINE
  5
4CD
330
1F
100
AcDbEntity
  8
0
  6
PHANTOM
 62
     8
370
     0
100
AcDbPolyline
 90
        9
 70
   128
 43
0.0
 10
-1700.230654705
 20
410.9364668441
 10
-1699.2669036857
 20
410.7849144141
 10
-1698.3448078754
 20
410.6061412809
 10
-1697.499802899
 20
410.4070175957
 10
-1696.7643618238
 20
410.1951955702
 10
-1696.1667472379
 20
409.9788154059
 10
-1695.7299251347
 20
409.7661924713
 10
-1695.4706823426
 20
409.5654977464
 10
-1695.3989814169
 20
409.384443817
  0
LWPOLYLINE
  5
4D0
330
1F
100
AcDbEntity
  8
0
  6
PHANTOM
 62
     8
370
     0
100
AcDbPolyline
 90
        9
 70
   128
 43
0.0
 10
-1834.051126897
 20
428.764396184
 10
-1833.9325305302
 20
428.918851517
 10
-1833.6281944625
 20
429.0407726217
 10
-1833.1498141585
 20
429.1254741385
 10
-1832.5157735049
 20
429.1697010354
 10
-1831.7504383286
 20
429.1717536978
 10
-1830.883220031
 20
429.1315532429
 10
-1829.9474453251
 20
429.0506445516
 10
-1828.979075508
 20
428.9321368995
  0
LWPOLYLINE
  5
4DC
330
1F
100
AcDbEntity
  8
0
  6
PHANTOM
 62
     8
370
     0
100
AcDbPolyline
 90
        9
 70
   128
 43
0.0
 10
-1690.2396704741
 20
369.0309750838
 10
-1690.1229024675
 20
369.1868172499
 10
-1689.8200242688
 20
369.3123162321
 10
-1689.3426753171
 20
369.4026491748
 10
-1688.7091998651
 20
369.4543446337
 10
-1687.9439420191
 20
369.4654159813
 10
-1687.076310209
 20
369.435437752
 10
-1686.1396470386
 20
369.3655619922
 10
-1685.1699479483
 20
369.2584739883
  0
LWPOLYLINE
  5
4E1
330
1F
100
AcDbEntity
  8
0
  6
PHANTOM
 62
     8
370
     0
100
AcDbPolyline
 90
        9
 70
   128
 43
0.0
 10
-1556.2184031101
 20
352.7812447361
 10
-1555.2529330921
 20
352.6410598199
 10
-1554.3287946178
 20
352.4731652193
 10
-1553.4815018106
 20
352.2840130295
 10
-1552.7436156577
 20
352.0808722631
 10
-1552.1434927102
 20
351.8715495058
 10
-1551.7041953565
 20
351.6640889138
 10
-1551.4426055476
 20
351.4664630814
 10
-1551.3687760329
 20
351.2862666584
  0
LWPOLYLINE
  5
4E3
330
1F
100
AcDbEntity
  8
0
  6
PHANTOM
 62
     8
370
     0
100
AcDbPolyline
 90
        9
 70
   128
 43
0.0
 10
-1551.2255098437
 20
391.8558543114
 10
-1550.2600398257
 20
391.7156693952
 10
-1549.3359013515
 20
391.5477747946
 10
-1548.4886085442
 20
391.3586226047
 10
-1547.7507223913
 20
391.1554818383
 10
-1547.1505994439
 20
390.9461590811
 10
-1546.7113020902
 20
390.7386984891
 10
-1546.4497122812
 20
390.5410726567
 10
-1546.3758827666
 20
390.3608762336
  0
LWPOLYLINE
  5
4E6
330
1F
100
AcDbEntity
  8
0
  6
PHANTOM
 62
     8
370
     0
100
AcDbPolyline
 90
        9
 70
   128
 43
0.0
 10
-1685.2467772078
 20
408.1055846591
 10
-1685.1300092012
 20
408.2614268253
 10
-1684.8271310024
 20
408.3869258075
 10
-1684.3497820507
 20
408.4772587503
 10
-1683.7163065987
 20
408.5289542093
 10
-1682.9510487527
 20
408.540025557
 10
-1682.0834169425
 20
408.5100473277
 10
-1681.1467537722
 20
408.440171568
 10
-1680.1770546819
 20
408.3330835638
  0
LINE
  5
518
330
1F
100
AcDbEntity
  8
0
  6
Continuous
 62
     7
370
    15
100
AcDbLine
 10
-2440.1814920774
 20
536.9846377861
 30
0.0
 11
-2567.6472850485
 21
562.5281618623
 31
0.0
  0
LINE
  5
519
330
1F
100
AcDbEntity
  8
0
  6
Continuous
 62
     7
370
    15
100
AcDbLine
 10
-2594.0708255089
 20
430.6709628382
 30
0.0
 11
-2466.6050325377
 21
405.1274387621
 31
0.0
  0
LINE
  5
51A
330
1F
100
AcDbEntity
  8
0
  6
Continuous
 62
     7
370
    15
100
AcDbLine
 10
-2292.619881611
 20
509.0976386478
 30
0.0
 11
-2420.3778327542
 21
533.1373125159
 31
0.0
  0
LINE
  5
51B
330
1F
100
AcDbEntity
  8
0
  6
Continuous
 62
     7
370
    15
100
AcDbLine
 10
-2445.2457128953
 20
400.9778899906
 30
0.0
 11
-2317.4877617521
 21
376.9382161226
 31
0.0
  0
LINE
  5
51C
330
1F
100
AcDbEntity
  8
0
  6
Continuous
 62
     7
370
    15
100
AcDbLine
 10
-2144.739892467
 20
482.9514646547
 30
0.0
 11
-2272.7722598933
 21
505.4839498978
 31
0.0
  0
LINE
  5
51D
330
1F
100
AcDbEntity
  8
0
  6
Continuous
 62
     7
370
    15
100
AcDbLine
 10
-2296.0810262842
 20
373.0406569976
 30
0.0
 11
-2168.048658858
 21
350.5081717546
 31
0.0
  0
LINE
  5
51E
330
1F
100
AcDbEntity
  8
0
  6
Continuous
 62
     7
370
    15
100
AcDbLine
 10
-1996.6933481817
 20
458.570573871
 30
0.0
 11
-2124.982132601
 21
479.5940795784
 31
0.0
  0
LINE
  5
51F
330
1F
100
AcDbEntity
  8
0
  6
Continuous
 62
     7
370
    15
100
AcDbLine
 10
-2146.7299326313
 20
346.8855356983
 30
0.0
 11
-2018.441148212
 21
325.8620299909
 31
0.0
  0
LINE
  5
520
330
1F
100
AcDbEntity
  8
0
  6
Continuous
 62
     7
370
    15
100
AcDbLine
 10
-1848.3700115248
 20
435.9344321347
 30
0.0
 11
-1976.8974288557
 21
455.4460439146
 31
0.0
  0
LINE
  5
521
330
1F
100
AcDbEntity
  8
0
  6
Continuous
 62
     7
370
    15
100
AcDbLine
 10
-1997.0812477279
 20
322.4906458269
 30
0.0
 11
-1868.553830397
 21
302.9790340471
 31
0.0
  0
LINE
  5
522
330
1F
100
AcDbEntity
  8
0
  6
Continuous
 62
     7
370
    15
100
AcDbLine
 10
-1699.6587025995
 20
415.0284473116
 30
0.0
 11
-1828.4071234025
 21
433.0241173666
 31
0.0
  0
LINE
  5
523
330
1F
100
AcDbEntity
  8
0
  6
Continuous
 62
     7
370
    15
100
AcDbLine
 10
-1847.0227738661
 20
299.840101874
 30
0.0
 11
-1718.2743530631
 21
281.844431819
 31
0.0
  0
LINE
  5
524
330
1F
100
AcDbEntity
  8
0
  6
Continuous
 62
     7
370
    15
100
AcDbLine
 10
-1550.7018179814
 20
395.9542906217
 30
0.0
 11
-1679.6533628197
 21
412.4315198739
 31
0.0
  0
LINE
  5
525
330
1F
100
AcDbEntity
  8
0
  6
Continuous
 62
     7
370
    15
100
AcDbLine
 10
-1696.6982596992
 20
279.0373823892
 30
0.0
 11
-1567.746714861
 21
262.5601531371
 31
0.0
  0
LINE
  5
526
330
1F
100
AcDbEntity
  8
0
  6
Continuous
 62
     7
370
    15
100
AcDbLine
 10
-1683.8531144124
 20
442.0219752994
 30
0.0
 11
-1687.8177980916
 21
442.552336803
 31
0.0
  0
LINE
  5
527
330
1F
100
AcDbEntity
  8
0
  6
Continuous
 62
     7
370
    15
100
AcDbLine
 10
-1980.3217844595
 20
485.1946195671
 30
0.0
 11
-1984.2728714136
 21
485.8182475657
 31
0.0
  0
LINE
  5
528
330
1F
100
AcDbEntity
  8
0
  6
Continuous
 62
     7
370
    15
100
AcDbLine
 10
-2422.8142796355
 20
563.0009231278
 30
0.0
 11
-2426.7408669375
 21
563.7637547998
 31
0.0
  0
LINE
  5
529
330
1F
100
AcDbEntity
  8
0
  6
Continuous
 62
     7
370
    15
100
AcDbLine
 10
-2128.0559993458
 20
509.3809106963
 30
0.0
 11
-2131.9994700156
 21
510.0510144765
 31
0.0
  0
LINE
  5
52A
330
1F
100
AcDbEntity
  8
0
  6
Continuous
 62
     7
370
    15
100
AcDbLine
 10
242.3959968279
 20
-242.9917786352
 30
0.0
 11
230.7100611347
 21
246.861920681
 31
0.0
  0
LINE
  5
52B
330
1F
100
AcDbEntity
  8
0
  6
Continuous
 62
     7
370
    15
100
AcDbLine
 10
377.4768443986
 20
-244.7707164054
 30
0.0
 11
247.513820595
 21
-247.8711105454
 31
0.0
  0
LINE
  5
52C
330
1F
100
AcDbEntity
  8
0
  6
Continuous
 62
     7
370
    15
100
AcDbLine
 10
235.5893930449
 20
251.979744448
 30
0.0
 11
365.5524168485
 21
255.0801385875
 31
0.0
  0
LINE
  5
52D
330
1F
100
AcDbEntity
  8
0
  6
Continuous
 62
     7
370
    15
100
AcDbLine
 10
370.6702406155
 20
250.2008066774
 30
0.0
 11
382.3561763087
 21
-239.6528926384
 31
0.0
  0
LINE
  5
52E
330
1F
100
AcDbEntity
  8
0
  6
Continuous
 62
     7
370
    15
100
AcDbLine
 10
-836.3896080309
 20
-218.8575276282
 30
0.0
 11
-808.2966381745
 21
270.3295458636
 31
0.0
  0
LINE
  5
52F
330
1F
100
AcDbEntity
  8
0
  6
Continuous
 62
     7
370
    15
100
AcDbLine
 10
-701.8983382159
 20
-231.5893124035
 30
0.0
 11
-831.6844996053
 21
-224.1359700787
 31
0.0
  0
LINE
  5
530
330
1F
100
AcDbEntity
  8
0
  6
Continuous
 62
     7
370
    15
100
AcDbLine
 10
-803.018195724
 20
275.0346542892
 30
0.0
 11
-673.2320343346
 21
267.581311964
 31
0.0
  0
LINE
  5
531
330
1F
100
AcDbEntity
  8
0
  6
Continuous
 62
     7
370
    15
100
AcDbLine
 10
-668.5269259091
 20
262.3028695135
 30
0.0
 11
-696.6198957654
 21
-226.8842039779
 31
0.0
  0
LINE
  5
532
330
1F
100
AcDbEntity
  8
0
  6
Continuous
 62
     7
370
    15
100
AcDbLine
 10
-2970.3437089973
 20
90.9928586243
 30
0.0
 11
-2863.5095537271
 21
569.1974916994
 31
0.0
  0
LINE
  5
533
330
1F
100
AcDbEntity
  8
0
  6
Continuous
 62
     7
370
    15
100
AcDbLine
 10
-2839.6817492305
 20
56.6788342331
 30
0.0
 11
-2966.5541607243
 21
85.0229906285
 31
0.0
  0
LINE
  5
534
330
1F
100
AcDbEntity
  8
0
  6
Continuous
 62
     7
370
    15
100
AcDbLine
 10
-2857.5396857313
 20
572.9870399724
 30
0.0
 11
-2730.6672742377
 21
544.6428835765
 31
0.0
  0
LINE
  5
535
330
1F
100
AcDbEntity
  8
0
  6
Continuous
 62
     7
370
    15
100
AcDbLine
 10
-2726.8777259647
 20
538.6730155808
 30
0.0
 11
-2833.7118812348
 21
60.4683825061
 31
0.0
  0
LINE
  5
536
330
1F
100
AcDbEntity
  8
0
  6
Continuous
 62
     7
370
    15
100
AcDbLine
 10
399.6270544514
 20
-239.5330391232
 30
0.0
 11
379.7348089963
 21
250.0560808514
 31
0.0
  0
LINE
  5
537
330
1F
100
AcDbEntity
  8
0
  6
Continuous
 62
     7
370
    15
100
AcDbLine
 10
534.7187457218
 20
-239.0483230086
 30
0.0
 11
404.8259174303
 21
-244.3259321668
 31
0.0
  0
LINE
  5
538
330
1F
100
AcDbEntity
  8
0
  6
Continuous
 62
     7
370
    15
100
AcDbLine
 10
384.5277020399
 20
255.2549438302
 30
0.0
 11
514.4205303314
 21
260.5325529881
 31
0.0
  0
LINE
  5
539
330
1F
100
AcDbEntity
  8
0
  6
Continuous
 62
     7
370
    15
100
AcDbLine
 10
519.6193933102
 20
255.7396599445
 30
0.0
 11
539.5116387654
 21
-233.8494600298
 31
0.0
  0
LINE
  5
53A
330
1F
100
AcDbEntity
  8
0
  6
Continuous
 62
     7
370
    15
100
AcDbLine
 10
-679.3962230776
 20
-228.1658809378
 30
0.0
 11
-659.503977626
 21
261.4232390369
 31
0.0
  0
LINE
  5
53B
330
1F
100
AcDbEntity
  8
0
  6
Continuous
 62
     7
370
    15
100
AcDbLine
 10
-544.7105017424
 20
-238.6423530735
 30
0.0
 11
-674.603330034
 21
-233.3647439166
 31
0.0
  0
LINE
  5
53C
330
1F
100
AcDbEntity
  8
0
  6
Continuous
 62
     7
370
    15
100
AcDbLine
 10
-654.3051146472
 20
266.2161320806
 30
0.0
 11
-524.4122863556
 21
260.9385229233
 31
0.0
  0
LINE
  5
53D
330
1F
100
AcDbEntity
  8
0
  6
Continuous
 62
     7
370
    15
100
AcDbLine
 10
-539.5116387647
 20
-233.8494600302
 30
0.0
 11
-519.6193933109
 21
255.7396599445
 31
0.0
  0
LINE
  5
53E
330
1F
100
AcDbEntity
  8
0
  6
Continuous
 62
     7
370
    15
100
AcDbLine
 10
-2527.5105107734
 20
75.7537370549
 30
0.0
 11
-2512.0931062874
 21
72.7585446559
 31
0.0
  0
LINE
  5
53F
330
1F
100
AcDbEntity
  8
0
  6
Continuous
 62
     7
370
    15
100
AcDbLine
 10
-2374.5076204402
 20
46.8696651092
 30
0.0
 11
-2359.0559906607
 21
44.0563617573
 31
0.0
  0
LINE
  5
540
330
1F
100
AcDbEntity
  8
0
  6
Continuous
 62
     7
370
    15
100
AcDbLine
 10
-2221.1749725179
 20
19.7906485816
 30
0.0
 11
-2205.8271551782
 21
17.1826336427
 31
0.0
  0
LINE
  5
541
330
1F
100
AcDbEntity
  8
0
  6
Continuous
 62
     7
370
    15
100
AcDbLine
 10
-2067.6700027268
 20
-5.4580648117
 30
0.0
 11
-2052.2925431379
 21
-7.8851980177
 31
0.0
  0
LINE
  5
542
330
1F
100
AcDbEntity
  8
0
  6
Continuous
 62
     7
370
    15
100
AcDbLine
 10
-1913.8784075177
 20
-28.8977433308
 30
0.0
 11
-1898.3370413538
 21
-31.1634609552
 31
0.0
  0
LINE
  5
543
330
1F
100
AcDbEntity
  8
0
  6
Continuous
 62
     7
370
    15
100
AcDbLine
 10
-1759.6848958743
 20
-50.5434133269
 30
0.0
 11
-1744.1183190607
 21
-52.6257769536
 31
0.0
  0
LINE
  5
544
330
1F
100
AcDbEntity
  8
0
  6
Continuous
 62
     7
370
    15
100
AcDbLine
 10
-1750.5714454326
 20
-103.1282371638
 30
0.0
 11
-1766.7345230402
 21
-100.9793438638
 31
0.0
  0
LINE
  5
545
330
1F
100
AcDbEntity
  8
0
  6
Continuous
 62
     7
370
    15
100
AcDbLine
 10
-1909.3787175588
 20
-87.1542197715
 30
0.0
 11
-1909.2309646207
 21
-86.1433957131
 31
0.0
  0
LINE
  5
546
330
1F
100
AcDbEntity
  8
0
  6
Continuous
 62
     7
370
    15
100
AcDbLine
 10
-1914.3265525264
 20
-86.433846868
 30
0.0
 11
-1915.0498579068
 21
-91.3822051868
 31
0.0
  0
LINE
  5
547
330
1F
100
AcDbEntity
  8
0
  6
Continuous
 62
     7
370
    15
100
AcDbLine
 10
-1915.0498579068
 20
-91.3822051868
 30
0.0
 11
-1923.1836193998
 21
-90.1932869493
 31
0.0
  0
LINE
  5
548
330
1F
100
AcDbEntity
  8
0
  6
Continuous
 62
     7
370
    15
100
AcDbLine
 10
-2059.9387263316
 20
-58.2523429478
 30
0.0
 11
-2075.904574013
 21
-55.7067319577
 31
0.0
  0
LINE
  5
549
330
1F
100
AcDbEntity
  8
0
  6
Continuous
 62
     7
370
    15
100
AcDbLine
 10
-2214.0617264645
 20
-33.0660335033
 30
0.0
 11
-2230.0049713886
 21
-30.3824968829
 31
0.0
  0
LINE
  5
54A
330
1F
100
AcDbEntity
  8
0
  6
Continuous
 62
     7
370
    15
100
AcDbLine
 10
-2369.8018763303
 20
-17.0030894099
 30
0.0
 11
-2377.8896714094
 21
-15.5336771582
 31
0.0
  0
LINE
  5
54B
330
1F
100
AcDbEntity
  8
0
  6
Continuous
 62
     7
370
    15
100
AcDbLine
 10
-2377.8896714094
 20
-15.5336771582
 30
0.0
 11
-2376.9957211261
 21
-10.613283515
 31
0.0
  0
LINE
  5
54C
330
1F
100
AcDbEntity
  8
0
  6
Continuous
 62
     7
370
    15
100
AcDbLine
 10
-2381.7320714402
 20
-8.7116095992
 30
0.0
 11
-2381.9146828027
 21
-9.7167211852
 31
0.0
  0
LINE
  5
54D
330
1F
100
AcDbEntity
  8
0
  6
Continuous
 62
     7
370
    15
100
AcDbLine
 10
-2521.5104126418
 20
22.7106208895
 30
0.0
 11
-2537.5143521501
 21
25.8331556179
 31
0.0
  0
LINE
  5
54E
330
1F
100
AcDbEntity
  8
0
  6
Continuous
 62
     7
370
    15
100
AcDbLine
 10
-2816.9221990081
 20
56.4181766579
 30
0.0
 11
-2718.115801728
 21
536.3457792016
 31
0.0
  0
LINE
  5
54F
330
1F
100
AcDbEntity
  8
0
  6
Continuous
 62
     7
370
    15
100
AcDbLine
 10
-2685.7036198005
 20
24.2983312235
 30
0.0
 11
-2813.0331521088
 21
50.5126441489
 31
0.0
  0
LINE
  5
550
330
1F
100
AcDbEntity
  8
0
  6
Continuous
 62
     7
370
    15
100
AcDbLine
 10
-2712.210269219
 20
540.2348261009
 30
0.0
 11
-2584.8807369108
 21
514.0205131751
 31
0.0
  0
LINE
  5
551
330
1F
100
AcDbEntity
  8
0
  6
Continuous
 62
     7
370
    15
100
AcDbLine
 10
-404.8259174295
 20
-244.3259321665
 30
0.0
 11
-534.7187457211
 21
-239.048323009
 31
0.0
  0
LINE
  5
552
330
1F
100
AcDbEntity
  8
0
  6
Continuous
 62
     7
370
    15
100
AcDbLine
 10
-514.4205303321
 20
260.5325529881
 30
0.0
 11
-384.5277020405
 21
255.2549438302
 31
0.0
  0
LINE
  5
553
330
1F
100
AcDbEntity
  8
0
  6
Continuous
 62
     7
370
    15
100
AcDbLine
 10
-379.7348089969
 20
250.0560808514
 30
0.0
 11
-399.6270544507
 21
-239.5330391228
 31
0.0
  0
LINE
  5
554
330
1F
100
AcDbEntity
  8
0
  6
Continuous
 62
     7
370
    15
100
AcDbLine
 10
-1481.5863647966
 20
-167.6800782997
 30
0.0
 11
-1610.6228793547
 21
-151.8820432731
 31
0.0
  0
LINE
  5
555
330
1F
100
AcDbEntity
  8
0
  6
Continuous
 62
     7
370
    15
100
AcDbLine
 10
-1549.8620484332
 20
344.405364018
 30
0.0
 11
-1420.8255338751
 21
328.607328991
 31
0.0
  0
LINE
  5
556
330
1F
100
AcDbEntity
  8
0
  6
Continuous
 62
     7
370
    15
100
AcDbLine
 10
-1416.4702077393
 20
323.0367693916
 30
0.0
 11
-1476.0158051972
 21
-163.3247521639
 31
0.0
  0
LINE
  5
557
330
1F
100
AcDbEntity
  8
0
  6
Continuous
 62
     7
370
    15
100
AcDbLine
 10
-2448.5530615912
 20
469.7625606219
 30
0.0
 11
-2437.783256732
 21
467.6754716099
 31
0.0
  0
LINE
  5
558
330
1F
100
AcDbEntity
  8
0
  6
Continuous
 62
     7
370
    15
100
AcDbLine
 10
-2300.18813478
 20
441.8378027833
 30
0.0
 11
-2289.3955000724
 21
439.8758832119
 31
0.0
  0
LINE
  5
559
330
1F
100
AcDbEntity
  8
0
  6
Continuous
 62
     7
370
    15
100
AcDbLine
 10
-1853.5571231989
 20
368.4522537407
 30
0.0
 11
-1842.7028031381
 21
366.8667480311
 31
0.0
  0
LINE
  5
55A
330
1F
100
AcDbEntity
  8
0
  6
Continuous
 62
     7
370
    15
100
AcDbLine
 10
-1704.0578710743
 20
347.4351879185
 30
0.0
 11
-1693.1856447935
 21
345.9756461976
 31
0.0
  0
LINE
  5
55B
330
1F
100
AcDbEntity
  8
0
  6
Continuous
 62
     7
370
    15
100
AcDbLine
 10
-1693.5601236131
 20
343.04495794
 30
0.0
 11
-1704.466857182
 21
344.5091331881
 31
0.0
  0
LINE
  5
55C
330
1F
100
AcDbEntity
  8
0
  6
Continuous
 62
     7
370
    15
100
AcDbLine
 10
-1843.1117877136
 20
363.9407042624
 30
0.0
 11
-1854.0005587709
 21
365.5312429365
 31
0.0
  0
LINE
  5
55D
330
1F
100
AcDbEntity
  8
0
  6
Continuous
 62
     7
370
    15
100
AcDbLine
 10
-2289.9075902879
 20
436.9661232844
 30
0.0
 11
-2300.7344804165
 21
438.9342692525
 31
0.0
  0
LINE
  5
55E
330
1F
100
AcDbEntity
  8
0
  6
Continuous
 62
     7
370
    15
100
AcDbLine
 10
-2438.3296044153
 20
464.7719272017
 30
0.0
 11
-2449.1335905499
 21
466.8656391224
 31
0.0
  0
LINE
  5
55F
330
1F
100
AcDbEntity
  8
0
  6
Continuous
 62
     7
370
    15
100
AcDbLine
 10
-2450.8388483381
 20
458.3561619046
 30
0.0
 11
-2439.9344983403
 21
456.2427782296
 31
0.0
  0
LINE
  5
560
330
1F
100
AcDbEntity
  8
0
  6
Continuous
 62
     7
370
    15
100
AcDbLine
 10
-2302.3397810335
 20
430.4029589311
 30
0.0
 11
-2291.4122628888
 21
428.4163875042
 31
0.0
  0
LINE
  5
561
330
1F
100
AcDbEntity
  8
0
  6
Continuous
 62
     7
370
    15
100
AcDbLine
 10
-1855.3035037114
 20
356.9484487511
 30
0.0
 11
-1844.3134870545
 21
355.3432532119
 31
0.0
  0
LINE
  5
562
330
1F
100
AcDbEntity
  8
0
  6
Continuous
 62
     7
370
    15
100
AcDbLine
 10
-1705.6682520805
 20
335.9138602433
 30
0.0
 11
-1694.6601254553
 21
334.4362935396
 31
0.0
  0
LINE
  5
563
330
1F
100
AcDbEntity
  8
0
  6
Continuous
 62
     7
370
    15
100
AcDbLine
 10
-2438.3896952947
 20
520.4791939407
 30
0.0
 11
-2428.218076915
 21
518.5092633847
 31
0.0
  0
LINE
  5
564
330
1F
100
AcDbEntity
  8
0
  6
Continuous
 62
     7
370
    15
100
AcDbLine
 10
-2290.6205305116
 20
492.6844792142
 30
0.0
 11
-2280.4276486218
 21
490.8323240818
 31
0.0
  0
LINE
  5
565
330
1F
100
AcDbEntity
  8
0
  6
Continuous
 62
     7
370
    15
100
AcDbLine
 10
-1845.7915689729
 20
419.605722766
 30
0.0
 11
-1835.540665641
 21
418.1076237259
 31
0.0
  0
LINE
  5
566
330
1F
100
AcDbEntity
  8
0
  6
Continuous
 62
     7
370
    15
100
AcDbLine
 10
-1696.897548478
 20
398.6630790663
 30
0.0
 11
-1686.6296145398
 21
397.2834368632
 31
0.0
  0
LINE
  5
567
330
1F
100
AcDbEntity
  8
0
  6
Continuous
 62
     7
370
    15
100
AcDbLine
 10
-1687.0040936273
 20
394.3527465087
 30
0.0
 11
-1697.3065343619
 21
395.7370259372
 31
0.0
  0
LINE
  5
568
330
1F
100
AcDbEntity
  8
0
  6
Continuous
 62
     7
370
    15
100
AcDbLine
 10
-1835.9496504173
 20
415.1815785204
 30
0.0
 11
-1846.2350044267
 21
416.6847127403
 31
0.0
  0
LINE
  5
569
330
1F
100
AcDbEntity
  8
0
  6
Continuous
 62
     7
370
    15
100
AcDbLine
 10
-2280.9397387009
 20
487.9225649298
 30
0.0
 11
-2291.1668764165
 21
489.7809442576
 31
0.0
  0
LINE
  5
56A
330
1F
100
AcDbEntity
  8
0
  6
Continuous
 62
     7
370
    15
100
AcDbLine
 10
-2428.7644242993
 20
515.6057205654
 30
0.0
 11
-2438.9702246688
 21
517.5822703683
 31
0.0
  0
LINE
  5
56B
330
1F
100
AcDbEntity
  8
0
  6
Continuous
 62
     7
370
    15
100
AcDbLine
 10
-2440.6754909236
 20
509.0727509011
 30
0.0
 11
-2430.3693217654
 21
507.0765527744
 31
0.0
  0
LINE
  5
56C
330
1F
100
AcDbEntity
  8
0
  6
Continuous
 62
     7
370
    15
100
AcDbLine
 10
-2292.7721805745
 20
481.2496151174
 30
0.0
 11
-2282.4444121309
 21
479.3728244383
 31
0.0
  0
LINE
  5
56D
330
1F
100
AcDbEntity
  8
0
  6
Continuous
 62
     7
370
    15
100
AcDbLine
 10
-1847.5379500852
 20
408.1019138254
 30
0.0
 11
-1837.151352409
 21
406.5841085052
 31
0.0
  0
LINE
  5
56E
330
1F
100
AcDbEntity
  8
0
  6
Continuous
 62
     7
370
    15
100
AcDbLine
 10
-1698.5079319112
 20
387.1417340275
 30
0.0
 11
-1688.1041009311
 21
385.7440393663
 31
0.0
  0
LINE
  5
56F
330
1F
100
AcDbEntity
  8
0
  6
Continuous
 62
     7
370
    15
100
AcDbLine
 10
-3726.9514979332
 20
288.4967479761
 30
0.0
 11
-3589.5356783973
 21
758.8265262892
 31
0.0
  0
LINE
  5
570
330
1F
100
AcDbEntity
  8
0
  6
Continuous
 62
     7
370
    15
100
AcDbLine
 10
-3598.7712339102
 20
245.8374006417
 30
0.0
 11
-3723.5543686702
 21
282.2951745652
 31
0.0
  0
LINE
  5
571
330
1F
100
AcDbEntity
  8
0
  6
Continuous
 62
     7
370
    15
100
AcDbLine
 10
-3583.3341049864
 20
762.2236555521
 30
0.0
 11
-3458.5509702264
 21
725.7658816283
 31
0.0
  0
LINE
  5
572
330
1F
100
AcDbEntity
  8
0
  6
Continuous
 62
     7
370
    15
100
AcDbLine
 10
-3455.1538409635
 20
719.5643082174
 30
0.0
 11
-3592.5696604993
 21
249.2345299047
 31
0.0
  0
LINE
  5
573
330
1F
100
AcDbEntity
  8
0
  6
Continuous
 62
     7
370
    15
100
AcDbLine
 10
-382.3561763088
 20
-239.6528926388
 30
0.0
 11
-370.6702406169
 21
250.2008066774
 31
0.0
  0
LINE
  5
574
330
1F
100
AcDbEntity
  8
0
  6
Continuous
 62
     7
370
    15
100
AcDbLine
 10
-247.513820595
 20
-247.871110545
 30
0.0
 11
-377.4768443986
 21
-244.7707164059
 31
0.0
  0
LINE
  5
575
330
1F
100
AcDbEntity
  8
0
  6
Continuous
 62
     7
370
    15
100
AcDbLine
 10
-365.5524168499
 20
255.0801385876
 30
0.0
 11
-235.5893930463
 21
251.9797444481
 31
0.0
  0
LINE
  5
576
330
1F
100
AcDbEntity
  8
0
  6
Continuous
 62
     7
370
    15
100
AcDbLine
 10
-230.7100611361
 20
246.861920681
 30
0.0
 11
-242.3959968279
 21
-242.9917786348
 31
0.0
  0
LINE
  5
577
330
1F
100
AcDbEntity
  8
0
  6
Continuous
 62
     7
370
    15
100
AcDbLine
 10
-1458.8115792346
 20
-164.845346025
 30
0.0
 11
-1407.4237770981
 21
322.4456364674
 31
0.0
  0
LINE
  5
578
330
1F
100
AcDbEntity
  8
0
  6
Continuous
 62
     7
370
    15
100
AcDbLine
 10
-1325.0804149595
 20
-183.9758374354
 30
0.0
 11
-1454.3635246825
 21
-170.342146067
 31
0.0
  0
LINE
  5
579
330
1F
100
AcDbEntity
  8
0
  6
Continuous
 62
     7
370
    15
100
AcDbLine
 10
-1401.9269770561
 20
326.8936910195
 30
0.0
 11
-1272.6438673331
 21
313.2599996506
 31
0.0
  0
LINE
  5
57A
330
1F
100
AcDbEntity
  8
0
  6
Continuous
 62
     7
370
    15
100
AcDbLine
 10
-1268.195812781
 20
307.7631996086
 30
0.0
 11
-1319.5836149175
 21
-179.5277828833
 31
0.0
  0
LINE
  5
57B
330
1F
100
AcDbEntity
  8
0
  6
Continuous
 62
     7
370
    15
100
AcDbLine
 10
-3575.8378064847
 20
244.9516969758
 30
0.0
 11
-3446.3220878566
 21
717.5179742905
 31
0.0
  0
LINE
  5
57C
330
1F
100
AcDbEntity
  8
0
  6
Continuous
 62
     7
370
    15
100
AcDbLine
 10
-3446.9607410349
 20
204.4461171006
 30
0.0
 11
-3572.3372410658
 21
238.8079162385
 31
0.0
  0
LINE
  5
57D
330
1F
100
AcDbEntity
  8
0
  6
Continuous
 62
     7
370
    15
100
AcDbLine
 10
-3440.1783071194
 20
721.0185397094
 30
0.0
 11
-3314.8018070886
 21
686.6567405711
 31
0.0
  0
LINE
  5
57E
330
1F
100
AcDbEntity
  8
0
  6
Continuous
 62
     7
370
    15
100
AcDbLine
 10
-3311.3012416696
 20
680.5129598338
 30
0.0
 11
-3440.8169602976
 21
207.9466825195
 31
0.0
  0
LINE
  5
57F
330
1F
100
AcDbEntity
  8
0
  6
Continuous
 62
     7
370
    15
100
AcDbLine
 10
-226.1601849468
 20
-243.252936565
 30
0.0
 11
-220.4023314674
 21
246.7063014846
 31
0.0
  0
LINE
  5
580
330
1F
100
AcDbEntity
  8
0
  6
Continuous
 62
     7
370
    15
100
AcDbLine
 10
-91.2282603333
 20
-249.8389611701
 30
0.0
 11
-221.2192846051
 21
-248.3113457826
 31
0.0
  0
LINE
  5
581
330
1F
100
AcDbEntity
  8
0
  6
Continuous
 62
     7
370
    15
100
AcDbLine
 10
-215.3439222498
 20
251.6472018263
 30
0.0
 11
-85.352897978
 21
250.1195864384
 31
0.0
  0
LINE
  5
582
330
1F
100
AcDbEntity
  8
0
  6
Continuous
 62
     7
370
    15
100
AcDbLine
 10
-80.4119976363
 20
245.0611772208
 30
0.0
 11
-86.1698511156
 21
-244.8980608284
 31
0.0
  0
LINE
  5
583
330
1F
100
AcDbEntity
  8
0
  6
Continuous
 62
     7
370
    15
100
AcDbLine
 10
-1303.4225070079
 20
-181.1052435133
 30
0.0
 11
-1257.9346847048
 21
306.7718576596
 31
0.0
  0
LINE
  5
584
330
1F
100
AcDbEntity
  8
0
  6
Continuous
 62
     7
370
    15
100
AcDbLine
 10
-1169.4696540438
 20
-198.6161881708
 30
0.0
 11
-1298.9082668409
 21
-186.5478197153
 31
0.0
  0
LINE
  5
585
330
1F
100
AcDbEntity
  8
0
  6
Continuous
 62
     7
370
    15
100
AcDbLine
 10
-1252.4921085027
 20
311.2860978266
 30
0.0
 11
-1123.0534957057
 21
299.2177293707
 31
0.0
  0
LINE
  5
586
330
1F
100
AcDbEntity
  8
0
  6
Continuous
 62
     7
370
    15
100
AcDbLine
 10
-1118.5392555388
 20
293.7751531687
 30
0.0
 11
-1164.0270778418
 21
-194.1019480039
 31
0.0
  0
LINE
  5
587
330
1F
100
AcDbEntity
  8
0
  6
Continuous
 62
     7
370
    15
100
AcDbLine
 10
-1775.9541744299
 20
-130.8207198804
 30
0.0
 11
-1904.702595233
 21
-112.8250498256
 31
0.0
  0
LINE
  5
588
330
1F
100
AcDbEntity
  8
0
  6
Continuous
 62
     7
370
    15
100
AcDbLine
 10
-1931.0925565795
 20
-108.977756099
 30
0.0
 11
-2059.6199739104
 21
-89.4661443194
 31
0.0
  0
LINE
  5
589
330
1F
100
AcDbEntity
  8
0
  6
Continuous
 62
     7
370
    15
100
AcDbLine
 10
-2085.8258051878
 20
-85.3298926246
 30
0.0
 11
-2214.1145896071
 21
-64.3063869174
 31
0.0
  0
LINE
  5
58A
330
1F
100
AcDbEntity
  8
0
  6
Continuous
 62
     7
370
    15
100
AcDbLine
 10
-2240.2699054022
 20
-59.8618816943
 30
0.0
 11
-2368.3022728285
 21
-37.3293964514
 31
0.0
  0
LINE
  5
58B
330
1F
100
AcDbEntity
  8
0
  6
Continuous
 62
     7
370
    15
100
AcDbLine
 10
-2394.5398576279
 20
-32.5522767355
 30
0.0
 11
-2522.2978087712
 21
-8.5126028676
 31
0.0
  0
LINE
  5
58C
330
1F
100
AcDbEntity
  8
0
  6
Continuous
 62
     7
370
    15
100
AcDbLine
 10
-2548.4772774326
 20
-3.4266271041
 30
0.0
 11
-2675.9430704038
 21
22.1168969718
 31
0.0
  0
LINE
  5
58D
330
1F
100
AcDbEntity
  8
0
  6
Continuous
 62
     7
370
    15
100
AcDbLine
 10
-1749.5111661918
 20
-134.2788235935
 30
0.0
 11
-1620.5596213536
 21
-150.7560528459
 31
0.0
  0
LINE
  5
58E
330
1F
100
AcDbEntity
  8
0
  6
Continuous
 62
     7
370
    15
100
AcDbLine
 10
-2436.2614048122
 20
531.0996640535
 30
0.0
 11
-2542.5923037
 21
0.4934601611
 31
0.0
  0
LINE
  5
58F
330
1F
100
AcDbEntity
  8
0
  6
Continuous
 62
     7
370
    15
100
AcDbLine
 10
-2597.9909127741
 20
436.5559365708
 30
0.0
 11
-2573.5322587811
 21
558.6080745971
 31
0.0
  0
LINE
  5
590
330
1F
100
AcDbEntity
  8
0
  6
Continuous
 62
     7
370
    15
100
AcDbLine
 10
-2288.6307171004
 20
503.2592684551
 30
0.0
 11
-2388.7014874352
 21
-28.5631122249
 31
0.0
  0
LINE
  5
591
330
1F
100
AcDbEntity
  8
0
  6
Continuous
 62
     7
370
    15
100
AcDbLine
 10
-2526.2869732818
 20
-2.6742326749
 30
0.0
 11
-2426.2162029469
 21
529.1481480053
 31
0.0
  0
LINE
  5
592
330
1F
100
AcDbEntity
  8
0
  6
Continuous
 62
     7
370
    15
100
AcDbLine
 10
-3425.1236900204
 20
203.7764236652
 30
0.0
 11
-3301.3355019423
 21
677.8752449242
 31
0.0
  0
LINE
  5
593
330
1F
100
AcDbEntity
  8
0
  6
Continuous
 62
     7
370
    15
100
AcDbLine
 10
-3295.7659420874
 20
164.8332207963
 30
0.0
 11
-3421.5490411608
 21
197.6754495192
 31
0.0
  0
LINE
  5
594
330
1F
100
AcDbEntity
  8
0
  6
Continuous
 62
     7
370
    15
100
AcDbLine
 10
-3295.2345277963
 20
681.4498937838
 30
0.0
 11
-3169.451428723
 21
648.6076650605
 31
0.0
  0
LINE
  5
595
330
1F
100
AcDbEntity
  8
0
  6
Continuous
 62
     7
370
    15
100
AcDbLine
 10
-3165.8767798634
 20
642.5066909145
 30
0.0
 11
-3289.6649679413
 21
168.4078696559
 31
0.0
  0
LINE
  5
596
330
1F
100
AcDbEntity
  8
0
  6
Continuous
 62
     7
370
    15
100
AcDbLine
 10
381.6465271386
 20
191.4148374625
 30
0.0
 11
380.9398140298
 21
215.4044301348
 31
0.0
  0
LINE
  5
597
330
1F
100
AcDbEntity
  8
0
  6
Continuous
 62
     7
370
    15
100
AcDbLine
 10
380.9398140298
 20
215.4044301348
 30
0.0
 11
374.9424158618
 21
215.2277518576
 31
0.0
  0
LINE
  5
598
330
1F
100
AcDbEntity
  8
0
  6
Continuous
 62
     7
370
    15
100
AcDbLine
 10
374.9424158618
 20
215.2277518576
 30
0.0
 11
375.6491289705
 21
191.2381591853
 31
0.0
  0
LINE
  5
599
330
1F
100
AcDbEntity
  8
0
  6
Continuous
 62
     7
370
    15
100
AcDbLine
 10
375.6491289705
 20
191.2381591853
 30
0.0
 11
381.6465271386
 21
191.4148374625
 31
0.0
  0
LINE
  5
59A
330
1F
100
AcDbEntity
  8
0
  6
Continuous
 62
     7
370
    15
100
AcDbLine
 10
-381.6465271318
 20
191.4148374625
 30
0.0
 11
-375.6491289637
 21
191.2381591853
 31
0.0
  0
LINE
  5
59B
330
1F
100
AcDbEntity
  8
0
  6
Continuous
 62
     7
370
    15
100
AcDbLine
 10
-375.6491289637
 20
191.2381591853
 30
0.0
 11
-374.942415855
 21
215.2277518576
 31
0.0
  0
LINE
  5
59C
330
1F
100
AcDbEntity
  8
0
  6
Continuous
 62
     7
370
    15
100
AcDbLine
 10
-374.942415855
 20
215.2277518576
 30
0.0
 11
-380.9398140231
 21
215.4044301348
 31
0.0
  0
LINE
  5
59D
330
1F
100
AcDbEntity
  8
0
  6
Continuous
 62
     7
370
    15
100
AcDbLine
 10
-380.9398140231
 20
215.4044301348
 30
0.0
 11
-381.6465271318
 21
191.4148374625
 31
0.0
  0
LINE
  5
59E
330
1F
100
AcDbEntity
  8
0
  6
Continuous
 62
     7
370
    15
100
AcDbLine
 10
-78.6997847935
 20
185.9908694216
 30
0.0
 11
-72.6998887634
 21
185.9555476377
 31
0.0
  0
LINE
  5
59F
330
1F
100
AcDbEntity
  8
0
  6
Continuous
 62
     7
370
    15
100
AcDbLine
 10
-72.6998887634
 20
185.9555476377
 30
0.0
 11
-72.5586016279
 21
209.955131758
 31
0.0
  0
LINE
  5
5A0
330
1F
100
AcDbEntity
  8
0
  6
Continuous
 62
     7
370
    15
100
AcDbLine
 10
-72.5586016279
 20
209.955131758
 30
0.0
 11
-78.558497658
 21
209.9904535419
 31
0.0
  0
LINE
  5
5A1
330
1F
100
AcDbEntity
  8
0
  6
Continuous
 62
     7
370
    15
100
AcDbLine
 10
-78.558497658
 20
209.9904535419
 30
0.0
 11
-78.6997847935
 21
185.9908694216
 31
0.0
  0
LINE
  5
5A2
330
1F
100
AcDbEntity
  8
0
  6
Continuous
 62
     7
370
    15
100
AcDbLine
 10
78.6997848003
 20
185.9908694216
 30
0.0
 11
78.5584976648
 21
209.9904535419
 31
0.0
  0
LINE
  5
5A3
330
1F
100
AcDbEntity
  8
0
  6
Continuous
 62
     7
370
    15
100
AcDbLine
 10
78.5584976648
 20
209.9904535419
 30
0.0
 11
72.5586016347
 21
209.955131758
 31
0.0
  0
LINE
  5
5A4
330
1F
100
AcDbEntity
  8
0
  6
Continuous
 62
     7
370
    15
100
AcDbLine
 10
72.5586016347
 20
209.955131758
 30
0.0
 11
72.6998887702
 21
185.9555476377
 31
0.0
  0
LINE
  5
5A5
330
1F
100
AcDbEntity
  8
0
  6
Continuous
 62
     7
370
    15
100
AcDbLine
 10
72.6998887702
 20
185.9555476377
 30
0.0
 11
78.6997848003
 21
185.9908694216
 31
0.0
  0
LINE
  5
5A6
330
1F
100
AcDbEntity
  8
0
  6
Continuous
 62
     7
370
    15
100
AcDbLine
 10
232.5472241112
 20
169.8513069321
 30
0.0
 11
221.3078597023
 21
169.6512104691
 31
0.0
  0
LINE
  5
5A7
330
1F
100
AcDbEntity
  8
0
  6
Continuous
 62
     7
370
    15
100
AcDbLine
 10
81.3175143415
 20
168.0070673032
 30
0.0
 11
70.0
 21
167.9405695881
 31
0.0
  0
LINE
  5
5A8
330
1F
100
AcDbEntity
  8
0
  6
Continuous
 62
     7
370
    15
100
AcDbLine
 10
-70.0
 20
167.9405695881
 30
0.0
 11
-81.3175143415
 21
168.0070673032
 31
0.0
  0
LINE
  5
5A9
330
1F
100
AcDbEntity
  8
0
  6
Continuous
 62
     7
370
    15
100
AcDbLine
 10
-221.3078597022
 20
169.6512104691
 30
0.0
 11
-232.5472241112
 21
169.8513069321
 31
0.0
  0
LINE
  5
5AA
330
1F
100
AcDbEntity
  8
0
  6
Continuous
 62
     7
370
    15
100
AcDbLine
 10
-372.5089659251
 20
173.124702693
 30
0.0
 11
-382.8470260176
 21
173.4580117212
 31
0.0
  0
LINE
  5
5AB
330
1F
100
AcDbEntity
  8
0
  6
Continuous
 62
     7
370
    15
100
AcDbLine
 10
-380.7738870896
 20
224.4822294656
 30
0.0
 11
-371.2905878431
 21
224.1969511358
 31
0.0
  0
LINE
  5
5AC
330
1F
100
AcDbEntity
  8
0
  6
Continuous
 62
     7
370
    15
100
AcDbLine
 10
-230.2927942392
 20
226.8190085479
 30
0.0
 11
-230.3096080967
 21
225.8406810059
 31
0.0
  0
LINE
  5
5AD
330
1F
100
AcDbEntity
  8
0
  6
Continuous
 62
     7
370
    15
100
AcDbLine
 10
-225.2935827654
 20
226.7301648886
 30
0.0
 11
-225.2420481509
 21
229.7287470287
 31
0.0
  0
LINE
  5
5AE
330
1F
100
AcDbEntity
  8
0
  6
Continuous
 62
     7
370
    15
100
AcDbLine
 10
-225.2420481509
 20
229.7287470287
 30
0.0
 11
-220.6027835624
 21
229.6490151085
 31
0.0
  0
LINE
  5
5AF
330
1F
100
AcDbEntity
  8
0
  6
Continuous
 62
     7
370
    15
100
AcDbLine
 10
-80.717577944
 20
219.0581024174
 30
0.0
 11
-70.0
 21
219.0120577163
 31
0.0
  0
LINE
  5
5B0
330
1F
100
AcDbEntity
  8
0
  6
Continuous
 62
     7
370
    15
100
AcDbLine
 10
70.0
 20
219.0120577162
 30
0.0
 11
80.7175779434
 21
219.0581024174
 31
0.0
  0
LINE
  5
5B1
330
1F
100
AcDbEntity
  8
0
  6
Continuous
 62
     7
370
    15
100
AcDbLine
 10
220.6027835618
 20
229.6490151083
 30
0.0
 11
225.2420481577
 21
229.7287470287
 31
0.0
  0
LINE
  5
5B2
330
1F
100
AcDbEntity
  8
0
  6
Continuous
 62
     7
370
    15
100
AcDbLine
 10
225.2420481577
 20
229.7287470287
 30
0.0
 11
225.2935827722
 21
226.7301648885
 31
0.0
  0
LINE
  5
5B3
330
1F
100
AcDbEntity
  8
0
  6
Continuous
 62
     7
370
    15
100
AcDbLine
 10
230.3096081035
 20
225.8406810059
 30
0.0
 11
230.292794246
 21
226.8190085478
 31
0.0
  0
LINE
  5
5B4
330
1F
100
AcDbEntity
  8
0
  6
Continuous
 62
     7
370
    15
100
AcDbLine
 10
371.2905878418
 20
224.1969511355
 30
0.0
 11
380.773887089
 21
224.4822294654
 31
0.0
  0
LINE
  5
5B5
330
1F
100
AcDbEntity
  8
0
  6
Continuous
 62
     7
370
    15
100
AcDbLine
 10
382.8470260176
 20
173.4580117212
 30
0.0
 11
372.5089659251
 21
173.124702693
 31
0.0
  0
LINE
  5
5B6
330
1F
100
AcDbEntity
  8
0
  6
Continuous
 62
     7
370
    15
100
AcDbLine
 10
-70.0
 20
-244.9930691619
 30
0.0
 11
-70.0
 21
245.0000000001
 31
0.0
  0
LINE
  5
5B7
330
1F
100
AcDbEntity
  8
0
  6
Continuous
 62
     7
370
    15
100
AcDbLine
 10
65.0
 20
-249.9930691617
 30
0.0
 11
-65.0
 21
-249.9930691619
 31
0.0
  0
LINE
  5
5B8
330
1F
100
AcDbEntity
  8
0
  6
Continuous
 62
     7
370
    15
100
AcDbLine
 10
-65.0
 20
250.0000000001
 30
0.0
 11
65.0
 21
249.9999999999
 31
0.0
  0
LINE
  5
5B9
330
1F
100
AcDbEntity
  8
0
  6
Continuous
 62
     7
370
    15
100
AcDbLine
 10
70.0
 20
244.9999999999
 30
0.0
 11
70.0
 21
-244.9930691617
 31
0.0
  0
LINE
  5
5BA
330
1F
100
AcDbEntity
  8
0
  6
Continuous
 62
     7
370
    15
100
AcDbLine
 10
-662.3559520869
 20
202.8201987222
 30
0.0
 11
-661.1141307997
 21
226.7880496875
 31
0.0
  0
LINE
  5
5BB
330
1F
100
AcDbEntity
  8
0
  6
Continuous
 62
     7
370
    15
100
AcDbLine
 10
-661.1141307997
 20
226.7880496875
 30
0.0
 11
-667.106093541
 21
227.0985050093
 31
0.0
  0
LINE
  5
5BC
330
1F
100
AcDbEntity
  8
0
  6
Continuous
 62
     7
370
    15
100
AcDbLine
 10
-667.106093541
 20
227.0985050093
 30
0.0
 11
-668.3479148282
 21
203.130654044
 31
0.0
  0
LINE
  5
5BD
330
1F
100
AcDbEntity
  8
0
  6
Continuous
 62
     7
370
    15
100
AcDbLine
 10
-668.3479148282
 20
203.130654044
 30
0.0
 11
-662.3559520869
 21
202.8201987222
 31
0.0
  0
LINE
  5
5BE
330
1F
100
AcDbEntity
  8
0
  6
Continuous
 62
     7
370
    15
100
AcDbLine
 10
-1423.1330155453
 20
264.7439131863
 30
0.0
 11
-1417.1697195792
 21
264.0812660553
 31
0.0
  0
LINE
  5
5BF
330
1F
100
AcDbEntity
  8
0
  6
Continuous
 62
     7
370
    15
100
AcDbLine
 10
-1417.1697195792
 20
264.0812660553
 30
0.0
 11
-1414.5191310549
 21
287.9344499198
 31
0.0
  0
LINE
  5
5C0
330
1F
100
AcDbEntity
  8
0
  6
Continuous
 62
     7
370
    15
100
AcDbLine
 10
-1414.5191310549
 20
287.9344499198
 30
0.0
 11
-1420.482427021
 21
288.5970970509
 31
0.0
  0
LINE
  5
5C1
330
1F
100
AcDbEntity
  8
0
  6
Continuous
 62
     7
370
    15
100
AcDbLine
 10
-1420.482427021
 20
288.5970970509
 30
0.0
 11
-1423.1330155453
 21
264.7439131863
 31
0.0
  0
LINE
  5
5C2
330
1F
100
AcDbEntity
  8
0
  6
Continuous
 62
     7
370
    15
100
AcDbLine
 10
-1121.6248864137
 20
234.760648016
 30
0.0
 11
-1115.6476329837
 21
234.2386887904
 31
0.0
  0
LINE
  5
5C3
330
1F
100
AcDbEntity
  8
0
  6
Continuous
 62
     7
370
    15
100
AcDbLine
 10
-1115.6476329837
 20
234.2386887904
 30
0.0
 11
-1113.5597960809
 21
258.1477025104
 31
0.0
  0
LINE
  5
5C4
330
1F
100
AcDbEntity
  8
0
  6
Continuous
 62
     7
370
    15
100
AcDbLine
 10
-1113.5597960809
 20
258.1477025104
 30
0.0
 11
-1119.5370495109
 21
258.6696617361
 31
0.0
  0
LINE
  5
5C5
330
1F
100
AcDbEntity
  8
0
  6
Continuous
 62
     7
370
    15
100
AcDbLine
 10
-1119.5370495109
 20
258.6696617361
 30
0.0
 11
-1121.6248864137
 21
234.760648016
 31
0.0
  0
LINE
  5
5C6
330
1F
100
AcDbEntity
  8
0
  6
Continuous
 62
     7
370
    15
100
AcDbLine
 10
-964.7441422811
 20
221.9912851223
 30
0.0
 11
-962.937948219
 21
245.9232232596
 31
0.0
  0
LINE
  5
5C7
330
1F
100
AcDbEntity
  8
0
  6
Continuous
 62
     7
370
    15
100
AcDbLine
 10
-962.937948219
 20
245.9232232596
 30
0.0
 11
-968.9209327534
 21
246.3747717751
 31
0.0
  0
LINE
  5
5C8
330
1F
100
AcDbEntity
  8
0
  6
Continuous
 62
     7
370
    15
100
AcDbLine
 10
-968.9209327534
 20
246.3747717751
 30
0.0
 11
-970.7271268155
 21
222.4428336378
 31
0.0
  0
LINE
  5
5C9
330
1F
100
AcDbEntity
  8
0
  6
Continuous
 62
     7
370
    15
100
AcDbLine
 10
-970.7271268155
 20
222.4428336378
 30
0.0
 11
-964.7441422811
 21
221.9912851223
 31
0.0
  0
LINE
  5
5CA
330
1F
100
AcDbEntity
  8
0
  6
Continuous
 62
     7
370
    15
100
AcDbLine
 10
-812.7131748943
 20
193.4237333317
 30
0.0
 11
-823.9317249892
 21
194.1361129215
 31
0.0
  0
LINE
  5
5CB
330
1F
100
AcDbEntity
  8
0
  6
Continuous
 62
     7
370
    15
100
AcDbLine
 10
-963.594014213
 20
203.854393106
 30
0.0
 11
-974.8796181677
 21
204.7062711448
 31
0.0
  0
LINE
  5
5CC
330
1F
100
AcDbEntity
  8
0
  6
Continuous
 62
     7
370
    15
100
AcDbLine
 10
-1114.4181457205
 20
216.0640582705
 30
0.0
 11
-1125.6929601483
 21
217.0484933558
 31
0.0
  0
LINE
  5
5CD
330
1F
100
AcDbEntity
  8
0
  6
Continuous
 62
     7
370
    15
100
AcDbLine
 10
-1265.0884803994
 20
230.044220918
 30
0.0
 11
-1276.2745640224
 21
231.1554743052
 31
0.0
  0
LINE
  5
5CE
330
1F
100
AcDbEntity
  8
0
  6
Continuous
 62
     7
370
    15
100
AcDbLine
 10
-1415.5093985525
 20
245.7727635469
 30
0.0
 11
-1425.7863416244
 21
246.9436702387
 31
0.0
  0
LINE
  5
5CF
330
1F
100
AcDbEntity
  8
0
  6
Continuous
 62
     7
370
    15
100
AcDbLine
 10
-1419.5805919328
 20
297.6315126884
 30
0.0
 11
-1410.1516956281
 21
296.5778226014
 31
0.0
  0
LINE
  5
5D0
330
1F
100
AcDbEntity
  8
0
  6
Continuous
 62
     7
370
    15
100
AcDbLine
 10
-1269.4059436453
 20
287.7525019263
 30
0.0
 11
-1269.5020709087
 21
286.7787632373
 31
0.0
  0
LINE
  5
5D1
330
1F
100
AcDbEntity
  8
0
  6
Continuous
 62
     7
370
    15
100
AcDbLine
 10
-1264.4304183552
 20
287.2583798326
 30
0.0
 11
-1264.1357874848
 21
290.2428970997
 31
0.0
  0
LINE
  5
5D2
330
1F
100
AcDbEntity
  8
0
  6
Continuous
 62
     7
370
    15
100
AcDbLine
 10
-1264.1357874848
 20
290.2428970997
 30
0.0
 11
-1259.5182834032
 21
289.78705814
 31
0.0
  0
LINE
  5
5D3
330
1F
100
AcDbEntity
  8
0
  6
Continuous
 62
     7
370
    15
100
AcDbLine
 10
-1120.953381356
 20
267.8825813557
 30
0.0
 11
-1110.2748665037
 21
266.9672029372
 31
0.0
  0
LINE
  5
5D4
330
1F
100
AcDbEntity
  8
0
  6
Continuous
 62
     7
370
    15
100
AcDbLine
 10
-970.7363389509
 20
255.6094158114
 30
0.0
 11
-960.0503531576
 21
254.7858232472
 31
0.0
  0
LINE
  5
5D5
330
1F
100
AcDbEntity
  8
0
  6
Continuous
 62
     7
370
    15
100
AcDbLine
 10
-819.7670320846
 20
253.9933516392
 30
0.0
 11
-815.1365911644
 21
253.6964508896
 31
0.0
  0
LINE
  5
5D6
330
1F
100
AcDbEntity
  8
0
  6
Continuous
 62
     7
370
    15
100
AcDbLine
 10
-815.1365911644
 20
253.6964508896
 30
0.0
 11
-815.3284925459
 21
250.7035719199
 31
0.0
  0
LINE
  5
5D7
330
1F
100
AcDbEntity
  8
0
  6
Continuous
 62
     7
370
    15
100
AcDbLine
 10
-810.4011624008
 20
249.4100846399
 30
0.0
 11
-810.3385520076
 21
250.3865514462
 31
0.0
  0
LINE
  5
5D8
330
1F
100
AcDbEntity
  8
0
  6
Continuous
 62
     7
370
    15
100
AcDbLine
 10
-670.0182396031
 20
236.3344017653
 30
0.0
 11
-660.5430557186
 21
235.8493876509
 31
0.0
  0
LINE
  5
5D9
330
1F
100
AcDbEntity
  8
0
  6
Continuous
 62
     7
370
    15
100
AcDbLine
 10
-662.6161946463
 20
184.8251699067
 30
0.0
 11
-672.9472184752
 21
185.3316558696
 31
0.0
  0
LINE
  5
5DA
330
1F
100
AcDbEntity
  8
0
  6
Continuous
 62
     7
370
    15
100
AcDbLine
 10
-1147.9182340483
 20
-195.5084555025
 30
0.0
 11
-1108.1665413873
 21
292.86948294
 31
0.0
  0
LINE
  5
5DB
330
1F
100
AcDbEntity
  8
0
  6
Continuous
 62
     7
370
    15
100
AcDbLine
 10
-1013.7688605911
 20
-211.4441262145
 30
0.0
 11
-1143.3403504616
 21
-200.8976095982
 31
0.0
  0
LINE
  5
5DC
330
1F
100
AcDbEntity
  8
0
  6
Continuous
 62
     7
370
    15
100
AcDbLine
 10
-1102.7773872916
 20
297.4473665267
 30
0.0
 11
-973.2058974212
 21
286.9008499099
 31
0.0
  0
LINE
  5
5DD
330
1F
100
AcDbEntity
  8
0
  6
Continuous
 62
     7
370
    15
100
AcDbLine
 10
-968.6280138345
 20
281.5116958143
 30
0.0
 11
-1008.3797064955
 21
-206.8662426278
 31
0.0
  0
LINE
  5
5DE
330
1F
100
AcDbEntity
  8
0
  6
Continuous
 62
     7
370
    15
100
AcDbLine
 10
-2730.4074762612
 20
478.9753614794
 30
0.0
 11
-2725.3059378384
 21
502.4268924682
 31
0.0
  0
LINE
  5
5DF
330
1F
100
AcDbEntity
  8
0
  6
Continuous
 62
     7
370
    15
100
AcDbLine
 10
-2725.3059378384
 20
502.4268924682
 30
0.0
 11
-2731.1688205856
 21
503.7022770739
 31
0.0
  0
LINE
  5
5E0
330
1F
100
AcDbEntity
  8
0
  6
Continuous
 62
     7
370
    15
100
AcDbLine
 10
-2731.1688205856
 20
503.7022770739
 30
0.0
 11
-2736.2703590084
 21
480.2507460851
 31
0.0
  0
LINE
  5
5E1
330
1F
100
AcDbEntity
  8
0
  6
Continuous
 62
     7
370
    15
100
AcDbLine
 10
-2736.2703590084
 20
480.2507460851
 30
0.0
 11
-2730.4074762612
 21
478.9753614794
 31
0.0
  0
LINE
  5
5E2
330
1F
100
AcDbEntity
  8
0
  6
Continuous
 62
     7
370
    15
100
AcDbLine
 10
-3471.1560233433
 20
663.1162767946
 30
0.0
 11
-3465.3783862288
 21
661.4979723198
 31
0.0
  0
LINE
  5
5E3
330
1F
100
AcDbEntity
  8
0
  6
Continuous
 62
     7
370
    15
100
AcDbLine
 10
-3465.3783862288
 20
661.4979723198
 30
0.0
 11
-3458.9051683296
 21
684.6085207778
 31
0.0
  0
LINE
  5
5E4
330
1F
100
AcDbEntity
  8
0
  6
Continuous
 62
     7
370
    15
100
AcDbLine
 10
-3458.9051683296
 20
684.6085207778
 30
0.0
 11
-3464.6828054441
 21
686.2268252526
 31
0.0
  0
LINE
  5
5E5
330
1F
100
AcDbEntity
  8
0
  6
Continuous
 62
     7
370
    15
100
AcDbLine
 10
-3464.6828054441
 20
686.2268252526
 30
0.0
 11
-3471.1560233433
 21
663.1162767946
 31
0.0
  0
LINE
  5
5E6
330
1F
100
AcDbEntity
  8
0
  6
Continuous
 62
     7
370
    15
100
AcDbLine
 10
-3178.4655769403
 20
584.7680112928
 30
0.0
 11
-3172.6514141408
 21
583.2862856298
 31
0.0
  0
LINE
  5
5E7
330
1F
100
AcDbEntity
  8
0
  6
Continuous
 62
     7
370
    15
100
AcDbLine
 10
-3172.6514141408
 20
583.2862856298
 30
0.0
 11
-3166.724511489
 21
606.5429368281
 31
0.0
  0
LINE
  5
5E8
330
1F
100
AcDbEntity
  8
0
  6
Continuous
 62
     7
370
    15
100
AcDbLine
 10
-3166.724511489
 20
606.5429368281
 30
0.0
 11
-3172.5386742886
 21
608.024662491
 31
0.0
  0
LINE
  5
5E9
330
1F
100
AcDbEntity
  8
0
  6
Continuous
 62
     7
370
    15
100
AcDbLine
 10
-3172.5386742886
 20
608.024662491
 30
0.0
 11
-3178.4655769403
 21
584.7680112928
 31
0.0
  0
LINE
  5
5EA
330
1F
100
AcDbEntity
  8
0
  6
Continuous
 62
     7
370
    15
100
AcDbLine
 10
-3025.7149370182
 20
546.7960938843
 30
0.0
 11
-3020.0622625669
 21
570.1209148171
 31
0.0
  0
LINE
  5
5EB
330
1F
100
AcDbEntity
  8
0
  6
Continuous
 62
     7
370
    15
100
AcDbLine
 10
-3020.0622625669
 20
570.1209148171
 30
0.0
 11
-3025.8934678001
 21
571.5340834299
 31
0.0
  0
LINE
  5
5EC
330
1F
100
AcDbEntity
  8
0
  6
Continuous
 62
     7
370
    15
100
AcDbLine
 10
-3025.8934678001
 20
571.5340834299
 30
0.0
 11
-3031.5461422514
 21
548.2092624971
 31
0.0
  0
LINE
  5
5ED
330
1F
100
AcDbEntity
  8
0
  6
Continuous
 62
     7
370
    15
100
AcDbLine
 10
-3031.5461422514
 20
548.2092624971
 30
0.0
 11
-3025.7149370182
 21
546.7960938843
 31
0.0
  0
LINE
  5
5EE
330
1F
100
AcDbEntity
  8
0
  6
Continuous
 62
     7
370
    15
100
AcDbLine
 10
-2880.3051069257
 20
494.0182446259
 30
0.0
 11
-2891.2607795276
 21
496.5355028072
 31
0.0
  0
LINE
  5
5EF
330
1F
100
AcDbEntity
  8
0
  6
Continuous
 62
     7
370
    15
100
AcDbLine
 10
-3027.5130333338
 20
528.7119434695
 30
0.0
 11
-3038.5123175644
 21
531.3777077559
 31
0.0
  0
LINE
  5
5F0
330
1F
100
AcDbEntity
  8
0
  6
Continuous
 62
     7
370
    15
100
AcDbLine
 10
-3174.3772989255
 20
565.1520595594
 30
0.0
 11
-3185.3444986244
 21
567.9468911433
 31
0.0
  0
LINE
  5
5F1
330
1F
100
AcDbEntity
  8
0
  6
Continuous
 62
     7
370
    15
100
AcDbLine
 10
-3320.8034685777
 20
603.3144958139
 30
0.0
 11
-3331.6625964891
 21
606.220126884
 31
0.0
  0
LINE
  5
5F2
330
1F
100
AcDbEntity
  8
0
  6
Continuous
 62
     7
370
    15
100
AcDbLine
 10
-3466.7007580805
 20
643.1619623205
 30
0.0
 11
-3476.6530655476
 21
645.9794359164
 31
0.0
  0
LINE
  5
5F3
330
1F
100
AcDbEntity
  8
0
  6
Continuous
 62
     7
370
    15
100
AcDbLine
 10
-3462.3318022447
 20
694.996474983
 30
0.0
 11
-3453.197422354
 21
692.4318205546
 31
0.0
  0
LINE
  5
5F4
330
1F
100
AcDbEntity
  8
0
  6
Continuous
 62
     7
370
    15
100
AcDbLine
 10
-3315.7315588581
 20
660.9613683883
 30
0.0
 11
-3315.9838930939
 21
660.0159928446
 31
0.0
  0
LINE
  5
5F5
330
1F
100
AcDbEntity
  8
0
  6
Continuous
 62
     7
370
    15
100
AcDbLine
 10
-3310.901436453
 20
659.6691121799
 30
0.0
 11
-3310.1280298991
 21
662.5666961684
 31
0.0
  0
LINE
  5
5F6
330
1F
100
AcDbEntity
  8
0
  6
Continuous
 62
     7
370
    15
100
AcDbLine
 10
-3310.1280298991
 20
662.5666961684
 30
0.0
 11
-3305.6450248782
 21
661.3701180957
 31
0.0
  0
LINE
  5
5F7
330
1F
100
AcDbEntity
  8
0
  6
Continuous
 62
     7
370
    15
100
AcDbLine
 10
-3172.4464560005
 20
617.3453587955
 30
0.0
 11
-3162.0565388743
 21
614.7151080067
 31
0.0
  0
LINE
  5
5F8
330
1F
100
AcDbEntity
  8
0
  6
Continuous
 62
     7
370
    15
100
AcDbLine
 10
-3026.1915575132
 20
580.9407562031
 30
0.0
 11
-3015.7794242457
 21
578.3998748783
 31
0.0
  0
LINE
  5
5F9
330
1F
100
AcDbEntity
  8
0
  6
Continuous
 62
     7
370
    15
100
AcDbLine
 10
-2877.4708380659
 20
554.9313177974
 30
0.0
 11
-2872.9493631246
 21
553.8894936639
 31
0.0
  0
LINE
  5
5FA
330
1F
100
AcDbEntity
  8
0
  6
Continuous
 62
     7
370
    15
100
AcDbLine
 10
-2872.9493631246
 20
553.8894936639
 30
0.0
 11
-2873.6227446866
 21
550.9670447012
 31
0.0
  0
LINE
  5
5FB
330
1F
100
AcDbEntity
  8
0
  6
Continuous
 62
     7
370
    15
100
AcDbLine
 10
-2868.9694557825
 20
548.8937395916
 30
0.0
 11
-2868.7497560386
 21
549.8472276658
 31
0.0
  0
LINE
  5
5FC
330
1F
100
AcDbEntity
  8
0
  6
Continuous
 62
     7
370
    15
100
AcDbLine
 10
-2732.5490109718
 20
513.2875500524
 30
0.0
 11
-2723.2769869279
 21
511.2766004091
 31
0.0
  0
LINE
  5
5FD
330
1F
100
AcDbEntity
  8
0
  6
Continuous
 62
     7
370
    15
100
AcDbLine
 10
-2733.5744362043
 20
461.259291007
 30
0.0
 11
-2743.6875621911
 21
463.4298356757
 31
0.0
  0
LINE
  5
5FE
330
1F
100
AcDbEntity
  8
0
  6
Continuous
 62
     7
370
    15
100
AcDbLine
 10
-3273.995627401
 20
164.4147657582
 30
0.0
 11
-3155.7870681219
 21
639.9354743923
 31
0.0
  0
LINE
  5
5FF
330
1F
100
AcDbEntity
  8
0
  6
Continuous
 62
     7
370
    15
100
AcDbLine
 10
-3144.1891936528
 20
126.9943200423
 30
0.0
 11
-3270.3495334882
 21
158.3562181451
 31
0.0
  0
LINE
  5
600
330
1F
100
AcDbEntity
  8
0
  6
Continuous
 62
     7
370
    15
100
AcDbLine
 10
-3149.7285205088
 20
643.5815683051
 30
0.0
 11
-3023.5681806735
 21
612.2196702018
 31
0.0
  0
LINE
  5
601
330
1F
100
AcDbEntity
  8
0
  6
Continuous
 62
     7
370
    15
100
AcDbLine
 10
-3019.9220867608
 20
606.1611225888
 30
0.0
 11
-3138.1306460398
 21
130.640413955
 31
0.0
  0
LINE
  5
602
330
1F
100
AcDbEntity
  8
0
  6
Continuous
 62
     7
370
    15
100
AcDbLine
 10
-396.4887995346
 20
-162.2941237763
 30
0.0
 11
-381.0746851941
 21
-162.7482105469
 31
0.0
  0
LINE
  5
603
330
1F
100
AcDbEntity
  8
0
  6
Continuous
 62
     7
370
    15
100
AcDbLine
 10
-381.0746851941
 20
-162.7482105469
 30
0.0
 11
-380.9862747162
 21
-159.7470898307
 31
0.0
  0
LINE
  5
604
330
1F
100
AcDbEntity
  8
0
  6
Continuous
 62
     7
370
    15
100
AcDbLine
 10
-380.9862747162
 20
-159.7470898307
 30
0.0
 11
-380.4503144371
 21
-159.7625430068
 31
0.0
  0
LINE
  5
605
330
1F
100
AcDbEntity
  8
0
  6
Continuous
 62
     7
370
    15
100
AcDbLine
 10
-240.560574147
 20
-166.0541149518
 30
0.0
 11
-225.4107034345
 21
-166.3217835886
 31
0.0
  0
LINE
  5
606
330
1F
100
AcDbEntity
  8
0
  6
Continuous
 62
     7
370
    15
100
AcDbLine
 10
-225.4107034345
 20
-166.3217835886
 30
0.0
 11
-225.3576647698
 21
-163.319829668
 31
0.0
  0
LINE
  5
607
330
1F
100
AcDbEntity
  8
0
  6
Continuous
 62
     7
370
    15
100
AcDbLine
 10
-85.2658067787
 20
-167.9692407239
 30
0.0
 11
-70.0
 21
-168.0591115359
 31
0.0
  0
LINE
  5
608
330
1F
100
AcDbEntity
  8
0
  6
Continuous
 62
     7
370
    15
100
AcDbLine
 10
70.0
 20
-168.0591115362
 30
0.0
 11
85.2658067791
 21
-167.9692407243
 31
0.0
  0
LINE
  5
609
330
1F
100
AcDbEntity
  8
0
  6
Continuous
 62
     7
370
    15
100
AcDbLine
 10
225.3576648301
 20
-163.3198296669
 30
0.0
 11
225.4107034949
 21
-166.3217835886
 31
0.0
  0
LINE
  5
60A
330
1F
100
AcDbEntity
  8
0
  6
Continuous
 62
     7
370
    15
100
AcDbLine
 10
225.4107034949
 20
-166.3217835886
 30
0.0
 11
240.5605741468
 21
-166.0541149529
 31
0.0
  0
LINE
  5
60B
330
1F
100
AcDbEntity
  8
0
  6
Continuous
 62
     7
370
    15
100
AcDbLine
 10
380.4503144369
 20
-159.7625430069
 30
0.0
 11
380.9862747766
 21
-159.7470898289
 31
0.0
  0
LINE
  5
60C
330
1F
100
AcDbEntity
  8
0
  6
Continuous
 62
     7
370
    15
100
AcDbLine
 10
380.9862747766
 20
-159.7470898289
 30
0.0
 11
381.0746852544
 21
-162.7482105469
 31
0.0
  0
LINE
  5
60D
330
1F
100
AcDbEntity
  8
0
  6
Continuous
 62
     7
370
    15
100
AcDbLine
 10
381.0746852544
 20
-162.7482105469
 30
0.0
 11
396.4887995351
 21
-162.294123778
 31
0.0
  0
LINE
  5
60E
330
1F
100
AcDbEntity
  8
0
  6
Continuous
 62
     7
370
    15
100
AcDbLine
 10
398.5558155066
 20
-213.1676429463
 30
0.0
 11
381.7364890235
 21
-213.6767006536
 31
0.0
  0
LINE
  5
60F
330
1F
100
AcDbEntity
  8
0
  6
Continuous
 62
     7
370
    15
100
AcDbLine
 10
239.4195087572
 20
-223.0811321082
 30
0.0
 11
239.4018470607
 21
-222.0597192278
 31
0.0
  0
LINE
  5
610
330
1F
100
AcDbEntity
  8
0
  6
Continuous
 62
     7
370
    15
100
AcDbLine
 10
234.4203049314
 20
-223.1704018972
 30
0.0
 11
234.5067654802
 21
-228.1705964232
 31
0.0
  0
LINE
  5
611
330
1F
100
AcDbEntity
  8
0
  6
Continuous
 62
     7
370
    15
100
AcDbLine
 10
234.5067654802
 20
-228.1705964232
 30
0.0
 11
225.9846735473
 21
-228.3179556392
 31
0.0
  0
LINE
  5
612
330
1F
100
AcDbEntity
  8
0
  6
Continuous
 62
     7
370
    15
100
AcDbLine
 10
85.8644409158
 20
-218.9094611459
 30
0.0
 11
70.0
 21
-218.9780344845
 31
0.0
  0
LINE
  5
613
330
1F
100
AcDbEntity
  8
0
  6
Continuous
 62
     7
370
    15
100
AcDbLine
 10
-70.0
 20
-218.9780344842
 30
0.0
 11
-85.8644409152
 21
-218.9094611456
 31
0.0
  0
LINE
  5
614
330
1F
100
AcDbEntity
  8
0
  6
Continuous
 62
     7
370
    15
100
AcDbLine
 10
-225.9846735466
 20
-228.3179556381
 30
0.0
 11
-234.5067654198
 21
-228.1705964232
 31
0.0
  0
LINE
  5
615
330
1F
100
AcDbEntity
  8
0
  6
Continuous
 62
     7
370
    15
100
AcDbLine
 10
-234.5067654198
 20
-228.1705964232
 30
0.0
 11
-234.4203048711
 21
-223.1704018982
 31
0.0
  0
LINE
  5
616
330
1F
100
AcDbEntity
  8
0
  6
Continuous
 62
     7
370
    15
100
AcDbLine
 10
-239.4018470003
 20
-222.0597192278
 30
0.0
 11
-239.4195086968
 21
-223.0811321093
 31
0.0
  0
LINE
  5
617
330
1F
100
AcDbEntity
  8
0
  6
Continuous
 62
     7
370
    15
100
AcDbLine
 10
-381.7364890236
 20
-213.6767006518
 30
0.0
 11
-398.5558155059
 21
-213.1676429445
 31
0.0
  0
LINE
  5
618
330
1F
100
AcDbEntity
  8
0
  6
Continuous
 62
     7
370
    15
100
AcDbLine
 10
-1466.6217292799
 20
-86.5950315499
 30
0.0
 11
-1451.2952621533
 21
-88.298123184
 31
0.0
  0
LINE
  5
619
330
1F
100
AcDbEntity
  8
0
  6
Continuous
 62
     7
370
    15
100
AcDbLine
 10
-1451.2952621533
 20
-88.298123184
 30
0.0
 11
-1450.9636710238
 21
-85.3140673385
 31
0.0
  0
LINE
  5
61A
330
1F
100
AcDbEntity
  8
0
  6
Continuous
 62
     7
370
    15
100
AcDbLine
 10
-1450.9636710238
 20
-85.3140673385
 30
0.0
 11
-1450.4307310646
 21
-85.3729504543
 31
0.0
  0
LINE
  5
61B
330
1F
100
AcDbEntity
  8
0
  6
Continuous
 62
     7
370
    15
100
AcDbLine
 10
-1311.5125164575
 20
-102.9926260006
 30
0.0
 11
-1296.4342983972
 21
-104.488476672
 31
0.0
  0
LINE
  5
61C
330
1F
100
AcDbEntity
  8
0
  6
Continuous
 62
     7
370
    15
100
AcDbLine
 10
-1296.4342983972
 20
-104.488476672
 30
0.0
 11
-1296.1378948917
 21
-101.5007207577
 31
0.0
  0
LINE
  5
61D
330
1F
100
AcDbEntity
  8
0
  6
Continuous
 62
     7
370
    15
100
AcDbLine
 10
-1156.8850051404
 20
-117.5000455709
 30
0.0
 11
-1141.6768089523
 21
-118.8280900314
 31
0.0
  0
LINE
  5
61E
330
1F
100
AcDbEntity
  8
0
  6
Continuous
 62
     7
370
    15
100
AcDbLine
 10
-1002.1382813995
 20
-130.1858771575
 30
0.0
 11
-986.9155033043
 21
-131.3347724641
 31
0.0
  0
LINE
  5
61F
330
1F
100
AcDbEntity
  8
0
  6
Continuous
 62
     7
370
    15
100
AcDbLine
 10
-846.9082274784
 20
-138.0659262417
 30
0.0
 11
-847.09890331
 21
-141.062287898
 31
0.0
  0
LINE
  5
620
330
1F
100
AcDbEntity
  8
0
  6
Continuous
 62
     7
370
    15
100
AcDbLine
 10
-847.09890331
 20
-141.062287898
 30
0.0
 11
-831.9772549759
 21
-142.0245658875
 31
0.0
  0
LINE
  5
621
330
1F
100
AcDbEntity
  8
0
  6
Continuous
 62
     7
370
    15
100
AcDbLine
 10
-692.0382070139
 20
-147.1025745015
 30
0.0
 11
-691.502759653
 21
-147.1306531426
 31
0.0
  0
LINE
  5
622
330
1F
100
AcDbEntity
  8
0
  6
Continuous
 62
     7
370
    15
100
AcDbLine
 10
-691.502759653
 20
-147.1306531426
 30
0.0
 11
-691.6581126698
 21
-150.1290539524
 31
0.0
  0
LINE
  5
623
330
1F
100
AcDbEntity
  8
0
  6
Continuous
 62
     7
370
    15
100
AcDbLine
 10
-691.6581126698
 20
-150.1290539524
 30
0.0
 11
-676.2579681619
 21
-150.9269655926
 31
0.0
  0
LINE
  5
624
330
1F
100
AcDbEntity
  8
0
  6
Continuous
 62
     7
370
    15
100
AcDbLine
 10
-678.324984133
 20
-201.8004847609
 30
0.0
 11
-695.1301685684
 21
-200.9433621403
 31
0.0
  0
LINE
  5
625
330
1F
100
AcDbEntity
  8
0
  6
Continuous
 62
     7
370
    15
100
AcDbLine
 10
-837.7409928729
 20
-198.7710375075
 30
0.0
 11
-837.6757321376
 21
-197.7515585994
 31
0.0
  0
LINE
  5
626
330
1F
100
AcDbEntity
  8
0
  6
Continuous
 62
     7
370
    15
100
AcDbLine
 10
-842.7309603589
 20
-198.4544423793
 30
0.0
 11
-843.05043584
 21
-203.4451693946
 31
0.0
  0
LINE
  5
627
330
1F
100
AcDbEntity
  8
0
  6
Continuous
 62
     7
370
    15
100
AcDbLine
 10
-843.05043584
 20
-203.4451693946
 30
0.0
 11
-851.5563918014
 21
-202.9006706945
 31
0.0
  0
LINE
  5
628
330
1F
100
AcDbEntity
  8
0
  6
Continuous
 62
     7
370
    15
100
AcDbLine
 10
-990.4514722594
 20
-182.1556475351
 30
0.0
 11
-1006.2691834532
 21
-180.9369595345
 31
0.0
  0
LINE
  5
629
330
1F
100
AcDbEntity
  8
0
  6
Continuous
 62
     7
370
    15
100
AcDbLine
 10
-1145.8077110059
 20
-169.5791724084
 30
0.0
 11
-1161.6142958949
 21
-168.2237897978
 31
0.0
  0
LINE
  5
62A
330
1F
100
AcDbEntity
  8
0
  6
Continuous
 62
     7
370
    15
100
AcDbLine
 10
-1302.0359431761
 20
-166.2337304673
 30
0.0
 11
-1310.5179894409
 21
-165.3954848013
 31
0.0
  0
LINE
  5
62B
330
1F
100
AcDbEntity
  8
0
  6
Continuous
 62
     7
370
    15
100
AcDbLine
 10
-1310.5179894409
 20
-165.3954848013
 30
0.0
 11
-1310.0261628504
 21
-160.4187863658
 31
0.0
  0
LINE
  5
62C
330
1F
100
AcDbEntity
  8
0
  6
Continuous
 62
     7
370
    15
100
AcDbLine
 10
-1314.9011782527
 20
-158.907626941
 30
0.0
 11
-1315.001645947
 21
-159.9242401675
 31
0.0
  0
LINE
  5
62D
330
1F
100
AcDbEntity
  8
0
  6
Continuous
 62
     7
370
    15
100
AcDbLine
 10
-1456.0865627329
 20
-139.005050989
 30
0.0
 11
-1472.8091504665
 21
-137.1331688983
 31
0.0
  0
LINE
  5
62E
330
1F
100
AcDbEntity
  8
0
  6
Continuous
 62
     7
370
    15
100
AcDbLine
 10
-1751.7228657634
 20
-112.1393049927
 30
0.0
 11
-1767.9902311162
 21
-109.9631956057
 31
0.0
  0
LINE
  5
62F
330
1F
100
AcDbEntity
  8
0
  6
Continuous
 62
     7
370
    15
100
AcDbLine
 10
-1906.6423765963
 20
-90.5832432382
 30
0.0
 11
-1913.7709088586
 21
-89.5465266285
 31
0.0
  0
LINE
  5
630
330
1F
100
AcDbEntity
  8
0
  6
Continuous
 62
     7
370
    15
100
AcDbLine
 10
-1913.3370073317
 20
-86.5780705812
 30
0.0
 11
-1913.7709088586
 21
-89.5465266285
 31
0.0
  0
LINE
  5
631
330
1F
100
AcDbEntity
  8
0
  6
Continuous
 62
     7
370
    15
100
AcDbLine
 10
-1913.3370073317
 20
-86.5780705812
 30
0.0
 11
-1906.2270861259
 21
-87.6120845053
 31
0.0
  0
LINE
  5
632
330
1F
100
AcDbEntity
  8
0
  6
Continuous
 62
     7
370
    15
100
AcDbLine
 10
-1767.5749406458
 20
-106.9920368728
 30
0.0
 11
-1751.342616722
 21
-109.1634587164
 31
0.0
  0
LINE
  5
633
330
1F
100
AcDbEntity
  8
0
  6
Continuous
 62
     7
370
    15
100
AcDbLine
 10
-2538.7098463898
 20
19.8674705069
 30
0.0
 11
-2522.6330918804
 21
16.7441839024
 31
0.0
  0
LINE
  5
634
330
1F
100
AcDbEntity
  8
0
  6
Continuous
 62
     7
370
    15
100
AcDbLine
 10
-2385.0476060339
 20
-9.1446956477
 30
0.0
 11
-2377.9795404031
 21
-10.4341193388
 31
0.0
  0
LINE
  5
635
330
1F
100
AcDbEntity
  8
0
  6
Continuous
 62
     7
370
    15
100
AcDbLine
 10
-2377.9795404031
 20
-10.4341193388
 30
0.0
 11
-2378.5158095966
 21
-13.3857997401
 31
0.0
  0
LINE
  5
636
330
1F
100
AcDbEntity
  8
0
  6
Continuous
 62
     7
370
    15
100
AcDbLine
 10
-2378.5158095966
 20
-13.3857997401
 30
0.0
 11
-2385.6023754555
 21
-12.0929970705
 31
0.0
  0
LINE
  5
637
330
1F
100
AcDbEntity
  8
0
  6
Continuous
 62
     7
370
    15
100
AcDbLine
 10
-2523.1878613021
 20
13.7958824796
 30
0.0
 11
-2539.2993205298
 21
16.9259112896
 31
0.0
  0
LINE
  5
638
330
1F
100
AcDbEntity
  8
0
  6
Continuous
 62
     7
370
    15
100
AcDbLine
 10
-2061.2975197019
 20
-67.2030234215
 30
0.0
 11
-2077.3727468324
 21
-64.6657566294
 31
0.0
  0
LINE
  5
639
330
1F
100
AcDbEntity
  8
0
  6
Continuous
 62
     7
370
    15
100
AcDbLine
 10
-2076.8875822596
 20
-61.7052050375
 30
0.0
 11
-2060.8472454743
 21
-64.2369648397
 31
0.0
  0
LINE
  5
63A
330
1F
100
AcDbEntity
  8
0
  6
Continuous
 62
     7
370
    15
100
AcDbLine
 10
-2215.5298992839
 20
-42.0250581753
 30
0.0
 11
-2231.5741391186
 21
-39.2987019615
 31
0.0
  0
LINE
  5
63B
330
1F
100
AcDbEntity
  8
0
  6
Continuous
 62
     7
370
    15
100
AcDbLine
 10
-2231.0541514567
 20
-36.3440677672
 30
0.0
 11
-2215.0447347111
 21
-39.0645065834
 31
0.0
  0
LINE
  5
63C
330
1F
100
AcDbEntity
  8
0
  6
Continuous
 62
     7
370
    15
100
AcDbLine
 10
-1913.7709088586
 20
-89.5465266285
 30
0.0
 11
-1914.7604540398
 21
-89.4023028226
 31
0.0
  0
LINE
  5
63D
330
1F
100
AcDbEntity
  8
0
  6
Continuous
 62
     7
370
    15
100
AcDbLine
 10
-2377.5319903029
 20
-13.5649638241
 30
0.0
 11
-2378.5158095966
 21
-13.3857997401
 31
0.0
  0
LINE
  5
63E
330
1F
100
AcDbEntity
  8
0
  6
Continuous
 62
     7
370
    15
100
AcDbLine
 10
-3570.8905658883
 20
323.4350389641
 30
0.0
 11
-3556.0412668081
 21
319.2757803134
 31
0.0
  0
LINE
  5
63F
330
1F
100
AcDbEntity
  8
0
  6
Continuous
 62
     7
370
    15
100
AcDbLine
 10
-3556.0412668081
 20
319.2757803134
 30
0.0
 11
-3555.231461131
 21
322.1669317676
 31
0.0
  0
LINE
  5
640
330
1F
100
AcDbEntity
  8
0
  6
Continuous
 62
     7
370
    15
100
AcDbLine
 10
-3555.231461131
 20
322.1669317676
 30
0.0
 11
-3554.7150589001
 21
322.0226370782
 31
0.0
  0
LINE
  5
641
330
1F
100
AcDbEntity
  8
0
  6
Continuous
 62
     7
370
    15
100
AcDbLine
 10
-3420.4748932368
 20
282.1691398833
 30
0.0
 11
-3405.8370606135
 21
278.2545409006
 31
0.0
  0
LINE
  5
642
330
1F
100
AcDbEntity
  8
0
  6
Continuous
 62
     7
370
    15
100
AcDbLine
 10
-3405.8370606135
 20
278.2545409006
 30
0.0
 11
-3405.0613810063
 21
281.1550342359
 31
0.0
  0
LINE
  5
643
330
1F
100
AcDbEntity
  8
0
  6
Continuous
 62
     7
370
    15
100
AcDbLine
 10
-3270.2289036483
 20
242.8464353569
 30
0.0
 11
-3255.4356663261
 21
239.0764137504
 31
0.0
  0
LINE
  5
644
330
1F
100
AcDbEntity
  8
0
  6
Continuous
 62
     7
370
    15
100
AcDbLine
 10
-3119.5706849651
 20
205.3020619465
 30
0.0
 11
-3104.734085809
 21
201.7064731428
 31
0.0
  0
LINE
  5
645
330
1F
100
AcDbEntity
  8
0
  6
Continuous
 62
     7
370
    15
100
AcDbLine
 10
-2967.6583106114
 20
172.4220477716
 30
0.0
 11
-2968.3310459732
 21
169.4959637706
 31
0.0
  0
LINE
  5
646
330
1F
100
AcDbEntity
  8
0
  6
Continuous
 62
     7
370
    15
100
AcDbLine
 10
-2968.3310459732
 20
169.4959637706
 30
0.0
 11
-2953.5640657702
 21
166.1008904351
 31
0.0
  0
LINE
  5
647
330
1F
100
AcDbEntity
  8
0
  6
Continuous
 62
     7
370
    15
100
AcDbLine
 10
-2816.2882749029
 20
138.458883313
 30
0.0
 11
-2815.7644165984
 21
138.3445821178
 31
0.0
  0
LINE
  5
648
330
1F
100
AcDbEntity
  8
0
  6
Continuous
 62
     7
370
    15
100
AcDbLine
 10
-2815.7644165984
 20
138.3445821178
 30
0.0
 11
-2816.402623877
 21
135.410773425
 31
0.0
  0
LINE
  5
649
330
1F
100
AcDbEntity
  8
0
  6
Continuous
 62
     7
370
    15
100
AcDbLine
 10
-2816.402623877
 20
135.410773425
 30
0.0
 11
-2801.3342321933
 21
132.1328646531
 31
0.0
  0
LINE
  5
64A
330
1F
100
AcDbEntity
  8
0
  6
Continuous
 62
     7
370
    15
100
AcDbLine
 10
-2811.6012682464
 20
82.2632799518
 30
0.0
 11
-2828.0466294837
 21
85.8268423363
 31
0.0
  0
LINE
  5
64B
330
1F
100
AcDbEntity
  8
0
  6
Continuous
 62
     7
370
    15
100
AcDbLine
 10
-2968.4289326817
 20
111.0334912994
 30
0.0
 11
-2968.1996615967
 21
112.0289966873
 31
0.0
  0
LINE
  5
64C
330
1F
100
AcDbEntity
  8
0
  6
Continuous
 62
     7
370
    15
100
AcDbLine
 10
-2973.3020167093
 20
112.1528929461
 30
0.0
 11
-2974.4243836247
 21
107.2795251956
 31
0.0
  0
LINE
  5
64D
330
1F
100
AcDbEntity
  8
0
  6
Continuous
 62
     7
370
    15
100
AcDbLine
 10
-2974.4243836247
 20
107.2795251956
 30
0.0
 11
-2982.7303180792
 21
109.1924335807
 31
0.0
  0
LINE
  5
64E
330
1F
100
AcDbEntity
  8
0
  6
Continuous
 62
     7
370
    15
100
AcDbLine
 10
-3116.4422251637
 20
152.1263975854
 30
0.0
 11
-3131.854639373
 21
155.8870725373
 31
0.0
  0
LINE
  5
64F
330
1F
100
AcDbEntity
  8
0
  6
Continuous
 62
     7
370
    15
100
AcDbLine
 10
-3267.719620734
 20
189.6614243411
 30
0.0
 11
-3283.0989489431
 21
193.555195227
 31
0.0
  0
LINE
  5
650
330
1F
100
AcDbEntity
  8
0
  6
Continuous
 62
     7
370
    15
100
AcDbLine
 10
-3421.3503674982
 20
218.2279459615
 30
0.0
 11
-3429.5852024378
 21
220.4268680045
 31
0.0
  0
LINE
  5
651
330
1F
100
AcDbEntity
  8
0
  6
Continuous
 62
     7
370
    15
100
AcDbLine
 10
-3429.5852024378
 20
220.4268680045
 30
0.0
 11
-3428.2950217962
 21
225.2585193398
 31
0.0
  0
LINE
  5
652
330
1F
100
AcDbEntity
  8
0
  6
Continuous
 62
     7
370
    15
100
AcDbLine
 10
-3432.8614828054
 20
227.5381710306
 30
0.0
 11
-3433.1250339773
 21
226.5511872466
 31
0.0
  0
LINE
  5
653
330
1F
100
AcDbEntity
  8
0
  6
Continuous
 62
     7
370
    15
100
AcDbLine
 10
-3568.9697861409
 20
270.0111634314
 30
0.0
 11
-3585.1695317476
 21
274.5627703287
 31
0.0
  0
LINE
  5
654
330
1F
100
AcDbEntity
  8
0
  6
Continuous
 62
     7
370
    15
100
AcDbLine
 10
-2140.6822046907
 20
477.1605087829
 30
0.0
 11
-2234.4789495303
 21
-55.804193918
 31
0.0
  0
LINE
  5
655
330
1F
100
AcDbEntity
  8
0
  6
Continuous
 62
     7
370
    15
100
AcDbLine
 10
-2372.3599606047
 20
-31.5384405795
 30
0.0
 11
-2278.5632157652
 21
501.4262621216
 31
0.0
  0
LINE
  5
656
330
1F
100
AcDbEntity
  8
0
  6
Continuous
 62
     7
370
    15
100
AcDbLine
 10
-1992.567760539
 20
452.8277934815
 30
0.0
 11
-2080.0830247983
 21
-81.2043049818
 31
0.0
  0
LINE
  5
657
330
1F
100
AcDbEntity
  8
0
  6
Continuous
 62
     7
370
    15
100
AcDbLine
 10
-2218.2401772499
 20
-58.5636065279
 30
0.0
 11
-2130.7249129905
 21
475.4684919356
 31
0.0
  0
LINE
  5
658
330
1F
100
AcDbEntity
  8
0
  6
Continuous
 62
     7
370
    15
100
AcDbLine
 10
-1844.1770959267
 20
430.2406233228
 30
0.0
 11
-1925.3987477675
 21
-104.7848405009
 31
0.0
  0
LINE
  5
659
330
1F
100
AcDbEntity
  8
0
  6
Continuous
 62
     7
370
    15
100
AcDbLine
 10
-2063.8128895086
 20
-83.7723355074
 30
0.0
 11
-1982.5912376676
 21
451.2531283165
 31
0.0
  0
LINE
  5
65A
330
1F
100
AcDbEntity
  8
0
  6
Continuous
 62
     7
370
    15
100
AcDbLine
 10
-1695.3989814169
 20
409.384443817
 30
0.0
 11
-1770.3101709354
 21
-126.5609986978
 31
0.0
  0
LINE
  5
65B
330
1F
100
AcDbEntity
  8
0
  6
Continuous
 62
     7
370
    15
100
AcDbLine
 10
-1908.9623164156
 20
-107.1810463311
 30
0.0
 11
-1834.051126897
 21
428.764396184
 31
0.0
  0
LINE
  5
65C
330
1F
100
AcDbEntity
  8
0
  6
Continuous
 62
     7
370
    15
100
AcDbLine
 10
-1546.3758827666
 20
390.3608762336
 30
0.0
 11
-1562.1533004729
 21
266.8860883519
 31
0.0
  0
LINE
  5
65D
330
1F
100
AcDbEntity
  8
0
  6
Continuous
 62
     7
370
    15
100
AcDbLine
 10
-1685.2467772078
 20
408.1055846591
 30
0.0
 11
-1753.8371014066
 21
-128.6854092054
 31
0.0
  0
LINE
  5
65E
330
1F
100
AcDbEntity
  8
0
  6
Continuous
 62
     7
370
    15
100
AcDbLine
 10
-1701.9918738535
 20
298.8848075379
 30
0.0
 11
-1698.8097048319
 21
322.6729096127
 31
0.0
  0
LINE
  5
65F
330
1F
100
AcDbEntity
  8
0
  6
Continuous
 62
     7
370
    15
100
AcDbLine
 10
-1698.8097048319
 20
322.6729096127
 30
0.0
 11
-1699.8008757517
 21
322.8054999886
 31
0.0
  0
LINE
  5
660
330
1F
100
AcDbEntity
  8
0
  6
Continuous
 62
     7
370
    15
100
AcDbLine
 10
-1703.7655594308
 20
323.3358614922
 30
0.0
 11
-1704.7567303506
 21
323.4684518681
 31
0.0
  0
LINE
  5
661
330
1F
100
AcDbEntity
  8
0
  6
Continuous
 62
     7
370
    15
100
AcDbLine
 10
-1704.7567303506
 20
323.4684518681
 30
0.0
 11
-1707.9388993722
 21
299.6803497934
 31
0.0
  0
LINE
  5
662
330
1F
100
AcDbEntity
  8
0
  6
Continuous
 62
     7
370
    15
100
AcDbLine
 10
-1707.9388993722
 20
299.6803497934
 30
0.0
 11
-1706.9477284524
 21
299.5477594175
 31
0.0
  0
LINE
  5
663
330
1F
100
AcDbEntity
  8
0
  6
Continuous
 62
     7
370
    15
100
AcDbLine
 10
-1702.9830447733
 20
299.0173979138
 30
0.0
 11
-1701.9918738535
 21
298.8848075379
 31
0.0
  0
LINE
  5
664
330
1F
100
AcDbEntity
  8
0
  6
Continuous
 62
     7
370
    15
100
AcDbLine
 10
-2455.2375514536
 20
422.3240066368
 30
0.0
 11
-2454.2559046281
 21
422.1332987188
 31
0.0
  0
LINE
  5
665
330
1F
100
AcDbEntity
  8
0
  6
Continuous
 62
     7
370
    15
100
AcDbLine
 10
-2450.3293173261
 20
421.3704670469
 30
0.0
 11
-2449.3476705006
 21
421.1797591289
 31
0.0
  0
LINE
  5
666
330
1F
100
AcDbEntity
  8
0
  6
Continuous
 62
     7
370
    15
100
AcDbLine
 10
-2449.3476705006
 20
421.1797591289
 30
0.0
 11
-2444.7706804689
 21
444.7392829409
 31
0.0
  0
LINE
  5
667
330
1F
100
AcDbEntity
  8
0
  6
Continuous
 62
     7
370
    15
100
AcDbLine
 10
-2444.7706804689
 20
444.7392829409
 30
0.0
 11
-2445.7523272945
 21
444.9299908589
 31
0.0
  0
LINE
  5
668
330
1F
100
AcDbEntity
  8
0
  6
Continuous
 62
     7
370
    15
100
AcDbLine
 10
-2449.6789145965
 20
445.6928225309
 30
0.0
 11
-2450.660561422
 21
445.8835304488
 31
0.0
  0
LINE
  5
669
330
1F
100
AcDbEntity
  8
0
  6
Continuous
 62
     7
370
    15
100
AcDbLine
 10
-2450.660561422
 20
445.8835304488
 30
0.0
 11
-2455.2375514536
 21
422.3240066368
 31
0.0
  0
LINE
  5
66A
330
1F
100
AcDbEntity
  8
0
  6
Continuous
 62
     7
370
    15
100
AcDbLine
 10
-2157.1557168744
 20
367.9791079193
 30
0.0
 11
-2156.169849207
 21
367.8115819742
 31
0.0
  0
LINE
  5
66B
330
1F
100
AcDbEntity
  8
0
  6
Continuous
 62
     7
370
    15
100
AcDbLine
 10
-2152.2263785372
 20
367.141478194
 30
0.0
 11
-2151.2405108697
 21
366.9739522489
 31
0.0
  0
LINE
  5
66C
330
1F
100
AcDbEntity
  8
0
  6
Continuous
 62
     7
370
    15
100
AcDbLine
 10
-2151.2405108697
 20
366.9739522489
 30
0.0
 11
-2147.2198881883
 21
390.6347762678
 31
0.0
  0
LINE
  5
66D
330
1F
100
AcDbEntity
  8
0
  6
Continuous
 62
     7
370
    15
100
AcDbLine
 10
-2147.2198881883
 20
390.6347762678
 30
0.0
 11
-2148.2057558557
 21
390.8023022129
 31
0.0
  0
LINE
  5
66E
330
1F
100
AcDbEntity
  8
0
  6
Continuous
 62
     7
370
    15
100
AcDbLine
 10
-2152.1492265255
 20
391.4724059931
 30
0.0
 11
-2153.135094193
 21
391.6399319382
 31
0.0
  0
LINE
  5
66F
330
1F
100
AcDbEntity
  8
0
  6
Continuous
 62
     7
370
    15
100
AcDbLine
 10
-2153.135094193
 20
391.6399319382
 30
0.0
 11
-2157.1557168744
 21
367.9791079193
 31
0.0
  0
LINE
  5
670
330
1F
100
AcDbEntity
  8
0
  6
Continuous
 62
     7
370
    15
100
AcDbLine
 10
-2001.8280287875
 20
342.5245636909
 30
0.0
 11
-1998.0862607963
 21
366.2310854159
 31
0.0
  0
LINE
  5
671
330
1F
100
AcDbEntity
  8
0
  6
Continuous
 62
     7
370
    15
100
AcDbLine
 10
-1998.0862607963
 20
366.2310854159
 30
0.0
 11
-1999.0740325348
 21
366.3869924156
 31
0.0
  0
LINE
  5
672
330
1F
100
AcDbEntity
  8
0
  6
Continuous
 62
     7
370
    15
100
AcDbLine
 10
-2003.025119489
 20
367.0106204141
 30
0.0
 11
-2004.0128912275
 21
367.1665274138
 31
0.0
  0
LINE
  5
673
330
1F
100
AcDbEntity
  8
0
  6
Continuous
 62
     7
370
    15
100
AcDbLine
 10
-2004.0128912275
 20
367.1665274138
 30
0.0
 11
-2007.7546592188
 21
343.4600056887
 31
0.0
  0
LINE
  5
674
330
1F
100
AcDbEntity
  8
0
  6
Continuous
 62
     7
370
    15
100
AcDbLine
 10
-2007.7546592188
 20
343.4600056887
 30
0.0
 11
-2006.7668874803
 21
343.3040986891
 31
0.0
  0
LINE
  5
675
330
1F
100
AcDbEntity
  8
0
  6
Continuous
 62
     7
370
    15
100
AcDbLine
 10
-2002.8158005261
 20
342.6804706905
 30
0.0
 11
-2001.8280287875
 21
342.5245636909
 31
0.0
  0
LINE
  5
676
330
1F
100
AcDbEntity
  8
0
  6
Continuous
 62
     7
370
    15
100
AcDbLine
 10
-1852.2403128715
 20
298.6314829475
 30
0.0
 11
-1853.0301813377
 21
298.7462910007
 31
0.0
  0
LINE
  5
677
330
1F
100
AcDbEntity
  8
0
  6
Continuous
 62
     7
370
    15
100
AcDbLine
 10
-1853.0301813377
 20
298.7462910007
 30
0.0
 11
-1852.6157919329
 21
301.7173531428
 31
0.0
  0
LINE
  5
678
330
1F
100
AcDbEntity
  8
0
  6
Continuous
 62
     7
370
    15
100
AcDbLine
 10
-1852.6157919329
 20
301.7173531428
 30
0.0
 11
-1863.4485579359
 21
303.2951270619
 31
0.0
  0
LINE
  5
679
330
1F
100
AcDbEntity
  8
0
  6
Continuous
 62
     7
370
    15
100
AcDbLine
 10
-2002.3126670026
 20
321.3435951063
 30
0.0
 11
-2002.60324007
 21
321.389327065
 31
0.0
  0
LINE
  5
67A
330
1F
100
AcDbEntity
  8
0
  6
Continuous
 62
     7
370
    15
100
AcDbLine
 10
-2002.60324007
 20
321.389327065
 30
0.0
 11
-2002.1530843698
 21
324.3541485759
 31
0.0
  0
LINE
  5
67B
330
1F
100
AcDbEntity
  8
0
  6
Continuous
 62
     7
370
    15
100
AcDbLine
 10
-2002.1530843698
 20
324.3541485759
 30
0.0
 11
-2005.6219489208
 21
324.9017045996
 31
0.0
  0
LINE
  5
67C
330
1F
100
AcDbEntity
  8
0
  6
Continuous
 62
     7
370
    15
100
AcDbLine
 10
-2009.5730287538
 20
325.5253777155
 30
0.0
 11
-2013.3323780053
 21
326.1187863937
 31
0.0
  0
LINE
  5
67D
330
1F
100
AcDbEntity
  8
0
  6
Continuous
 62
     7
370
    15
100
AcDbLine
 10
-2151.4895304568
 20
348.7594848478
 30
0.0
 11
-2155.2416470621
 21
349.397028244
 31
0.0
  0
LINE
  5
67E
330
1F
100
AcDbEntity
  8
0
  6
Continuous
 62
     7
370
    15
100
AcDbLine
 10
-2159.1851253838
 20
350.0670869939
 30
0.0
 11
-2162.6473161678
 21
350.6553674508
 31
0.0
  0
LINE
  5
67F
330
1F
100
AcDbEntity
  8
0
  6
Continuous
 62
     7
370
    15
100
AcDbLine
 10
-2162.6473161678
 20
350.6553674508
 30
0.0
 11
-2163.1670213077
 21
347.7019434526
 31
0.0
  0
LINE
  5
680
330
1F
100
AcDbEntity
  8
0
  6
Continuous
 62
     7
370
    15
100
AcDbLine
 10
-2163.1670213077
 20
347.7019434526
 30
0.0
 11
-2163.4569923647
 21
347.7513489821
 31
0.0
  0
LINE
  5
681
330
1F
100
AcDbEntity
  8
0
  6
Continuous
 62
     7
370
    15
100
AcDbLine
 10
-2300.818370195
 20
374.9697226697
 30
0.0
 11
-2311.5881104144
 21
376.9320899633
 31
0.0
  0
LINE
  5
682
330
1F
100
AcDbEntity
  8
0
  6
Continuous
 62
     7
370
    15
100
AcDbLine
 10
-2311.5881104144
 20
376.9320899633
 30
0.0
 11
-2312.1437029404
 21
373.9841676822
 31
0.0
  0
LINE
  5
683
330
1F
100
AcDbEntity
  8
0
  6
Continuous
 62
     7
370
    15
100
AcDbLine
 10
-2312.1437029404
 20
373.9841676822
 30
0.0
 11
-2312.9289009088
 21
374.1274758653
 31
0.0
  0
LINE
  5
684
330
1F
100
AcDbEntity
  8
0
  6
Continuous
 62
     7
370
    15
100
AcDbLine
 10
-2449.9620979426
 20
402.9514737344
 30
0.0
 11
-2453.762088568
 21
403.7006763643
 31
0.0
  0
LINE
  5
685
330
1F
100
AcDbEntity
  8
0
  6
Continuous
 62
     7
370
    15
100
AcDbLine
 10
-2457.6865558306
 20
404.4744206926
 30
0.0
 11
-2459.3262127707
 21
404.7976939352
 31
0.0
  0
LINE
  5
686
330
1F
100
AcDbEntity
  8
0
  6
Continuous
 62
     7
370
    15
100
AcDbLine
 10
-2459.3262127707
 20
404.7976939352
 30
0.0
 11
-2459.9340022312
 21
401.8455071672
 31
0.0
  0
LINE
  5
687
330
1F
100
AcDbEntity
  8
0
  6
Continuous
 62
     7
370
    15
100
AcDbLine
 10
-2459.9340022312
 20
401.8455071672
 30
0.0
 11
-2462.0796104386
 21
402.26317135
 31
0.0
  0
LINE
  5
688
330
1F
100
AcDbEntity
  8
0
  6
Continuous
 62
     7
370
    15
100
AcDbLine
 10
-2451.4537568016
 20
455.2876818206
 30
0.0
 11
-2447.9476560708
 21
454.604274419
 31
0.0
  0
LINE
  5
689
330
1F
100
AcDbEntity
  8
0
  6
Continuous
 62
     7
370
    15
100
AcDbLine
 10
-2444.021543613
 20
453.8389985416
 30
0.0
 11
-2440.5154027626
 21
453.1555833199
 31
0.0
  0
LINE
  5
68A
330
1F
100
AcDbEntity
  8
0
  6
Continuous
 62
     7
370
    15
100
AcDbLine
 10
-2154.0881977367
 20
400.9859985652
 30
0.0
 11
-2150.6314595939
 21
400.404260364
 31
0.0
  0
LINE
  5
68B
330
1F
100
AcDbEntity
  8
0
  6
Continuous
 62
     7
370
    15
100
AcDbLine
 10
-2146.6869228959
 20
399.7404300163
 30
0.0
 11
-2143.2302864403
 21
399.1587089281
 31
0.0
  0
LINE
  5
68C
330
1F
100
AcDbEntity
  8
0
  6
Continuous
 62
     7
370
    15
100
AcDbLine
 10
-2005.0731339888
 20
376.518010474
 30
0.0
 11
-2001.6116268528
 21
375.9660110118
 31
0.0
  0
LINE
  5
68D
330
1F
100
AcDbEntity
  8
0
  6
Continuous
 62
     7
370
    15
100
AcDbLine
 10
-1997.6615319913
 20
375.3360974644
 30
0.0
 11
-1994.1999230396
 21
374.7840817658
 31
0.0
  0
LINE
  5
68E
330
1F
100
AcDbEntity
  8
0
  6
Continuous
 62
     7
370
    15
100
AcDbLine
 10
-1706.1031067451
 20
332.8027312229
 30
0.0
 11
-1702.5622257604
 21
332.3313057903
 31
0.0
  0
LINE
  5
68F
330
1F
100
AcDbEntity
  8
0
  6
Continuous
 62
     7
370
    15
100
AcDbLine
 10
-1698.5972119441
 20
331.8034122062
 30
0.0
 11
-1695.0567813181
 21
331.3320467334
 31
0.0
  0
LINE
  5
690
330
1F
100
AcDbEntity
  8
0
  6
Continuous
 62
     7
370
    15
100
AcDbLine
 10
-1701.9111458777
 20
277.6894782335
 30
0.0
 11
-1704.0774260512
 21
277.9784433764
 31
0.0
  0
LINE
  5
691
330
1F
100
AcDbEntity
  8
0
  6
Continuous
 62
     7
370
    15
100
AcDbLine
 10
-1704.0774260512
 20
277.9784433764
 30
0.0
 11
-1703.7111422118
 21
280.9702072194
 31
0.0
  0
LINE
  5
692
330
1F
100
AcDbEntity
  8
0
  6
Continuous
 62
     7
370
    15
100
AcDbLine
 10
-1703.7111422118
 20
280.9702072194
 30
0.0
 11
-1705.3682175408
 21
281.1871906329
 31
0.0
  0
LINE
  5
693
330
1F
100
AcDbEntity
  8
0
  6
Continuous
 62
     7
370
    15
100
AcDbLine
 10
-1709.3343751851
 20
281.7065336039
 30
0.0
 11
-1713.1747338605
 21
282.2094040046
 31
0.0
  0
LINE
  5
694
330
1F
100
AcDbEntity
  8
0
  6
Continuous
 62
     7
370
    15
100
AcDbLine
 10
380.5334725392
 20
230.3993265648
 30
0.0
 11
371.1491902161
 21
230.1240888361
 31
0.0
  0
LINE
  5
695
330
1F
100
AcDbEntity
  8
0
  6
Continuous
 62
     7
370
    15
100
AcDbLine
 10
231.1878199039
 20
226.8351203806
 30
0.0
 11
226.2934277477
 21
226.7477776365
 31
0.0
  0
LINE
  5
696
330
1F
100
AcDbEntity
  8
0
  6
Continuous
 62
     7
370
    15
100
AcDbLine
 10
226.2418763726
 20
229.7473350084
 30
0.0
 11
226.2934277477
 21
226.7477776365
 31
0.0
  0
LINE
  5
697
330
1F
100
AcDbEntity
  8
0
  6
Continuous
 62
     7
370
    15
100
AcDbLine
 10
226.2418763726
 20
229.7473350084
 30
0.0
 11
231.116271136
 21
229.8343178372
 31
0.0
  0
LINE
  5
698
330
1F
100
AcDbEntity
  8
0
  6
Continuous
 62
     7
370
    15
100
AcDbLine
 10
371.077641727
 20
233.1232746084
 30
0.0
 11
380.411674294
 21
233.3970321688
 31
0.0
  0
LINE
  5
699
330
1F
100
AcDbEntity
  8
0
  6
Continuous
 62
     7
370
    15
100
AcDbLine
 10
-380.4116742945
 20
233.3970321707
 30
0.0
 11
-371.0776417283
 21
233.1232746102
 31
0.0
  0
LINE
  5
69A
330
1F
100
AcDbEntity
  8
0
  6
Continuous
 62
     7
370
    15
100
AcDbLine
 10
-231.1162711374
 20
229.8343178383
 30
0.0
 11
-226.2418763658
 21
229.7473350094
 31
0.0
  0
LINE
  5
69B
330
1F
100
AcDbEntity
  8
0
  6
Continuous
 62
     7
370
    15
100
AcDbLine
 10
-226.2418763658
 20
229.7473350094
 30
0.0
 11
-226.2934277409
 21
226.7477776375
 31
0.0
  0
LINE
  5
69C
330
1F
100
AcDbEntity
  8
0
  6
Continuous
 62
     7
370
    15
100
AcDbLine
 10
-226.2934277409
 20
226.7477776375
 30
0.0
 11
-231.1878199052
 21
226.8351203817
 31
0.0
  0
LINE
  5
69D
330
1F
100
AcDbEntity
  8
0
  6
Continuous
 62
     7
370
    15
100
AcDbLine
 10
-371.1491902174
 20
230.124088838
 30
0.0
 11
-380.5334725397
 21
230.3993265667
 31
0.0
  0
LINE
  5
69E
330
1F
100
AcDbEntity
  8
0
  6
Continuous
 62
     7
370
    15
100
AcDbLine
 10
80.6477028596
 20
225.0040583042
 30
0.0
 11
70.0
 21
224.9414961647
 31
0.0
  0
LINE
  5
69F
330
1F
100
AcDbEntity
  8
0
  6
Continuous
 62
     7
370
    15
100
AcDbLine
 10
70.0
 20
227.9415408979
 30
0.0
 11
80.6124496712
 21
228.0038959021
 31
0.0
  0
LINE
  5
6A0
330
1F
100
AcDbEntity
  8
0
  6
Continuous
 62
     7
370
    15
100
AcDbLine
 10
-70.0
 20
224.941496165
 30
0.0
 11
-80.6477028603
 21
225.0040583046
 31
0.0
  0
LINE
  5
6A1
330
1F
100
AcDbEntity
  8
0
  6
Continuous
 62
     7
370
    15
100
AcDbLine
 10
-80.6124496718
 20
228.0038959025
 30
0.0
 11
-70.0
 21
227.9415408982
 31
0.0
  0
LINE
  5
6A2
330
1F
100
AcDbEntity
  8
0
  6
Continuous
 62
     7
370
    15
100
AcDbLine
 10
-660.3026411688
 20
241.7664847503
 30
0.0
 11
-669.6783199476
 21
242.2534734186
 31
0.0
  0
LINE
  5
6A3
330
1F
100
AcDbEntity
  8
0
  6
Continuous
 62
     7
370
    15
100
AcDbLine
 10
-809.4451694563
 20
250.3299993785
 30
0.0
 11
-814.3305144208
 21
250.6400121379
 31
0.0
  0
LINE
  5
6A4
330
1F
100
AcDbEntity
  8
0
  6
Continuous
 62
     7
370
    15
100
AcDbLine
 10
-814.138550627
 20
253.6338644846
 30
0.0
 11
-814.3305144208
 21
250.6400121379
 31
0.0
  0
LINE
  5
6A5
330
1F
100
AcDbEntity
  8
0
  6
Continuous
 62
     7
370
    15
100
AcDbLine
 10
-814.138550627
 20
253.6338644846
 30
0.0
 11
-809.2731663381
 21
253.3251153257
 31
0.0
  0
LINE
  5
6A6
330
1F
100
AcDbEntity
  8
0
  6
Continuous
 62
     7
370
    15
100
AcDbLine
 10
-669.5063174995
 20
245.2485776974
 30
0.0
 11
-660.1808429236
 21
244.7641903543
 31
0.0
  0
LINE
  5
6A7
330
1F
100
AcDbEntity
  8
0
  6
Continuous
 62
     7
370
    15
100
AcDbLine
 10
-1418.4963414223
 20
306.4875448817
 30
0.0
 11
-1409.2152851342
 21
305.4574471546
 31
0.0
  0
LINE
  5
6A8
330
1F
100
AcDbEntity
  8
0
  6
Continuous
 62
     7
370
    15
100
AcDbLine
 10
-1269.9820830224
 20
290.8246783108
 30
0.0
 11
-1265.1308120461
 21
290.3425369247
 31
0.0
  0
LINE
  5
6A9
330
1F
100
AcDbEntity
  8
0
  6
Continuous
 62
     7
370
    15
100
AcDbLine
 10
-1265.1308120461
 20
290.3425369247
 30
0.0
 11
-1265.4255387396
 21
287.3570490001
 31
0.0
  0
LINE
  5
6AA
330
1F
100
AcDbEntity
  8
0
  6
Continuous
 62
     7
370
    15
100
AcDbLine
 10
-1265.4255387396
 20
287.3570490001
 30
0.0
 11
-1270.2967119937
 21
287.8411714446
 31
0.0
  0
LINE
  5
6AB
330
1F
100
AcDbEntity
  8
0
  6
Continuous
 62
     7
370
    15
100
AcDbLine
 10
-1409.5299128797
 20
302.4739519116
 30
0.0
 11
-1418.8609332073
 21
303.5096015426
 31
0.0
  0
LINE
  5
6AC
330
1F
100
AcDbEntity
  8
0
  6
Continuous
 62
     7
370
    15
100
AcDbLine
 10
-959.637620051
 20
260.7178486448
 30
0.0
 11
-970.2553010961
 21
261.5193094565
 31
0.0
  0
LINE
  5
6AD
330
1F
100
AcDbEntity
  8
0
  6
Continuous
 62
     7
370
    15
100
AcDbLine
 10
-970.0119163143
 20
264.5094653469
 30
0.0
 11
-959.4293890593
 21
263.71065807
 31
0.0
  0
LINE
  5
6AE
330
1F
100
AcDbEntity
  8
0
  6
Continuous
 62
     7
370
    15
100
AcDbLine
 10
-1109.7938286488
 20
272.8770965826
 30
0.0
 11
-1120.4013587309
 21
273.8032692347
 31
0.0
  0
LINE
  5
6AF
330
1F
100
AcDbEntity
  8
0
  6
Continuous
 62
     7
370
    15
100
AcDbLine
 10
-1120.1228537676
 20
276.7903586854
 30
0.0
 11
-1109.5504438671
 21
275.867252473
 31
0.0
  0
LINE
  5
6B0
330
1F
100
AcDbEntity
  8
0
  6
Continuous
 62
     7
370
    15
100
AcDbLine
 10
-2722.0828283511
 20
517.0769299284
 30
0.0
 11
-2731.256337771
 21
519.0737362407
 31
0.0
  0
LINE
  5
6B1
330
1F
100
AcDbEntity
  8
0
  6
Continuous
 62
     7
370
    15
100
AcDbLine
 10
-2867.8772788169
 20
549.6469428259
 30
0.0
 11
-2872.6481819857
 21
550.7429292706
 31
0.0
  0
LINE
  5
6B2
330
1F
100
AcDbEntity
  8
0
  6
Continuous
 62
     7
370
    15
100
AcDbLine
 10
-2871.9745814192
 20
553.6663287042
 30
0.0
 11
-2872.6481819857
 21
550.7429292706
 31
0.0
  0
LINE
  5
6B3
330
1F
100
AcDbEntity
  8
0
  6
Continuous
 62
     7
370
    15
100
AcDbLine
 10
-2871.9745814192
 20
553.6663287042
 30
0.0
 11
-2867.2231718311
 21
552.574817253
 31
0.0
  0
LINE
  5
6B4
330
1F
100
AcDbEntity
  8
0
  6
Continuous
 62
     7
370
    15
100
AcDbLine
 10
-2730.6022333334
 20
522.0015992614
 30
0.0
 11
-2721.4778465842
 21
520.0154790198
 31
0.0
  0
LINE
  5
6B5
330
1F
100
AcDbEntity
  8
0
  6
Continuous
 62
     7
370
    15
100
AcDbLine
 10
-3459.8296328342
 20
703.5605892758
 30
0.0
 11
-3450.8373315736
 21
701.0431252366
 31
0.0
  0
LINE
  5
6B6
330
1F
100
AcDbEntity
  8
0
  6
Continuous
 62
     7
370
    15
100
AcDbLine
 10
-3315.8032842627
 20
664.0862779527
 30
0.0
 11
-3311.0938430761
 21
662.825939065
 31
0.0
  0
LINE
  5
6B7
330
1F
100
AcDbEntity
  8
0
  6
Continuous
 62
     7
370
    15
100
AcDbLine
 10
-3311.0938430761
 20
662.825939065
 30
0.0
 11
-3311.8675011658
 21
659.9274126925
 31
0.0
  0
LINE
  5
6B8
330
1F
100
AcDbEntity
  8
0
  6
Continuous
 62
     7
370
    15
100
AcDbLine
 10
-3311.8675011658
 20
659.9274126925
 30
0.0
 11
-3316.5962622772
 21
661.1929251435
 31
0.0
  0
LINE
  5
6B9
330
1F
100
AcDbEntity
  8
0
  6
Continuous
 62
     7
370
    15
100
AcDbLine
 10
-3451.6303064989
 20
698.1497836995
 30
0.0
 11
-3460.6710162626
 21
700.6808067099
 31
0.0
  0
LINE
  5
6BA
330
1F
100
AcDbEntity
  8
0
  6
Continuous
 62
     7
370
    15
100
AcDbLine
 10
-3014.4128011816
 20
584.1870689597
 30
0.0
 11
-3024.7611079406
 21
586.6950636622
 31
0.0
  0
LINE
  5
6BB
330
1F
100
AcDbEntity
  8
0
  6
Continuous
 62
     7
370
    15
100
AcDbLine
 10
-3024.0373610389
 20
589.6064995319
 30
0.0
 11
-3013.7233162059
 21
587.1068084805
 31
0.0
  0
LINE
  5
6BC
330
1F
100
AcDbEntity
  8
0
  6
Continuous
 62
     7
370
    15
100
AcDbLine
 10
-3160.6260893016
 20
620.4694154661
 30
0.0
 11
-3170.9442104084
 21
623.0988387963
 31
0.0
  0
LINE
  5
6BD
330
1F
100
AcDbEntity
  8
0
  6
Continuous
 62
     7
370
    15
100
AcDbLine
 10
-3170.1863015214
 20
626.0015689802
 30
0.0
 11
-3159.9023423999
 21
623.3808513358
 31
0.0
  0
LINE
  5
6BE
330
1F
100
AcDbEntity
  8
0
  6
Continuous
 62
     7
370
    15
100
AcDbLine
 10
398.9246262096
 20
-222.2448337501
 30
0.0
 11
381.9528053549
 21
-222.7442976305
 31
0.0
  0
LINE
  5
6BF
330
1F
100
AcDbEntity
  8
0
  6
Continuous
 62
     7
370
    15
100
AcDbLine
 10
241.9914756859
 20
-226.0349697754
 30
0.0
 11
235.4720148654
 21
-226.1522505505
 31
0.0
  0
LINE
  5
6C0
330
1F
100
AcDbEntity
  8
0
  6
Continuous
 62
     7
370
    15
100
AcDbLine
 10
235.4201483023
 20
-223.1526986341
 30
0.0
 11
235.4720148654
 21
-226.1522505505
 31
0.0
  0
LINE
  5
6C1
330
1F
100
AcDbEntity
  8
0
  6
Continuous
 62
     7
370
    15
100
AcDbLine
 10
235.4201483023
 20
-223.1526986341
 30
0.0
 11
241.9199269993
 21
-223.0357757244
 31
0.0
  0
LINE
  5
6C2
330
1F
100
AcDbEntity
  8
0
  6
Continuous
 62
     7
370
    15
100
AcDbLine
 10
381.8812569284
 20
-219.7451144799
 30
0.0
 11
398.8028284519
 21
-219.2471401446
 31
0.0
  0
LINE
  5
6C3
330
1F
100
AcDbEntity
  8
0
  6
Continuous
 62
     7
370
    15
100
AcDbLine
 10
-398.8028284513
 20
-219.2471401446
 30
0.0
 11
-381.8812569284
 21
-219.7451144798
 31
0.0
  0
LINE
  5
6C4
330
1F
100
AcDbEntity
  8
0
  6
Continuous
 62
     7
370
    15
100
AcDbLine
 10
-241.9199269993
 20
-223.0357757244
 30
0.0
 11
-235.4201482419
 21
-223.1526986352
 31
0.0
  0
LINE
  5
6C5
330
1F
100
AcDbEntity
  8
0
  6
Continuous
 62
     7
370
    15
100
AcDbLine
 10
-235.4201482419
 20
-223.1526986352
 30
0.0
 11
-235.472014805
 21
-226.1522505516
 31
0.0
  0
LINE
  5
6C6
330
1F
100
AcDbEntity
  8
0
  6
Continuous
 62
     7
370
    15
100
AcDbLine
 10
-235.472014805
 20
-226.1522505516
 30
0.0
 11
-241.9914756859
 21
-226.0349697754
 31
0.0
  0
LINE
  5
6C7
330
1F
100
AcDbEntity
  8
0
  6
Continuous
 62
     7
370
    15
100
AcDbLine
 10
-381.952805355
 20
-222.7442976305
 30
0.0
 11
-398.924626209
 21
-222.2448337501
 31
0.0
  0
LINE
  5
6C8
330
1F
100
AcDbEntity
  8
0
  6
Continuous
 62
     7
370
    15
100
AcDbLine
 10
85.9708321196
 20
-227.9627226289
 30
0.0
 11
70.0
 21
-228.056561595
 31
0.0
  0
LINE
  5
6C9
330
1F
100
AcDbEntity
  8
0
  6
Continuous
 62
     7
370
    15
100
AcDbLine
 10
70.0
 20
-225.0565198635
 30
0.0
 11
85.9355789664
 21
-224.9628880325
 31
0.0
  0
LINE
  5
6CA
330
1F
100
AcDbEntity
  8
0
  6
Continuous
 62
     7
370
    15
100
AcDbLine
 10
-70.0
 20
-228.056561595
 30
0.0
 11
-85.9708321189
 21
-227.9627226289
 31
0.0
  0
LINE
  5
6CB
330
1F
100
AcDbEntity
  8
0
  6
Continuous
 62
     7
370
    15
100
AcDbLine
 10
-85.9355789658
 20
-224.9628880325
 30
0.0
 11
-70.0
 21
-225.0565198635
 31
0.0
  0
LINE
  5
6CC
330
1F
100
AcDbEntity
  8
0
  6
Continuous
 62
     7
370
    15
100
AcDbLine
 10
235.4720148654
 20
-226.1522505505
 30
0.0
 11
234.4721714929
 21
-226.1699537199
 31
0.0
  0
LINE
  5
6CD
330
1F
100
AcDbEntity
  8
0
  6
Continuous
 62
     7
370
    15
100
AcDbLine
 10
-234.4721714325
 20
-226.169953721
 30
0.0
 11
-235.472014805
 21
-226.1522505516
 31
0.0
  0
LINE
  5
6CE
330
1F
100
AcDbEntity
  8
0
  6
Continuous
 62
     7
370
    15
100
AcDbLine
 10
86.1698511163
 20
-244.8980608288
 30
0.0
 11
80.4119976356
 21
245.0611772207
 31
0.0
  0
LINE
  5
6CF
330
1F
100
AcDbEntity
  8
0
  6
Continuous
 62
     7
370
    15
100
AcDbLine
 10
221.2192846058
 20
-248.3113457822
 30
0.0
 11
91.228260334
 21
-249.8389611705
 31
0.0
  0
LINE
  5
6D0
330
1F
100
AcDbEntity
  8
0
  6
Continuous
 62
     7
370
    15
100
AcDbLine
 10
85.3528979773
 20
250.1195864384
 30
0.0
 11
215.3439222491
 21
251.6472018263
 31
0.0
  0
LINE
  5
6D1
330
1F
100
AcDbEntity
  8
0
  6
Continuous
 62
     7
370
    15
100
AcDbLine
 10
220.4023314668
 20
246.7063014846
 30
0.0
 11
226.1601849474
 21
-243.2529365645
 31
0.0
  0
LINE
  5
6D2
330
1F
100
AcDbEntity
  8
0
  6
Continuous
 62
     7
370
    15
100
AcDbLine
 10
-678.6937948359
 20
-210.8776755647
 30
0.0
 11
-695.6501926672
 21
-209.9986193221
 31
0.0
  0
LINE
  5
6D3
330
1F
100
AcDbEntity
  8
0
  6
Continuous
 62
     7
370
    15
100
AcDbLine
 10
-835.4171398821
 20
-201.923794733
 30
0.0
 11
-841.9246256921
 21
-201.5117842938
 31
0.0
  0
LINE
  5
6D4
330
1F
100
AcDbEntity
  8
0
  6
Continuous
 62
     7
370
    15
100
AcDbLine
 10
-841.73297649
 20
-198.5179118144
 30
0.0
 11
-841.9246256921
 21
-201.5117842938
 31
0.0
  0
LINE
  5
6D5
330
1F
100
AcDbEntity
  8
0
  6
Continuous
 62
     7
370
    15
100
AcDbLine
 10
-841.73297649
 20
-198.5179118144
 30
0.0
 11
-835.2451369592
 21
-198.9286821869
 31
0.0
  0
LINE
  5
6D6
330
1F
100
AcDbEntity
  8
0
  6
Continuous
 62
     7
370
    15
100
AcDbLine
 10
-695.4781903695
 20
-207.0035176614
 30
0.0
 11
-678.5719970782
 21
-207.8799819592
 31
0.0
  0
LINE
  5
6D7
330
1F
100
AcDbEntity
  8
0
  6
Continuous
 62
     7
370
    15
100
AcDbLine
 10
-1473.5485608787
 20
-143.1725872348
 30
0.0
 11
-1456.7231659667
 21
-145.0417173255
 31
0.0
  0
LINE
  5
6D8
330
1F
100
AcDbEntity
  8
0
  6
Continuous
 62
     7
370
    15
100
AcDbLine
 10
-1317.4901426615
 20
-159.6761817249
 30
0.0
 11
-1311.0212742923
 21
-160.3200271128
 31
0.0
  0
LINE
  5
6D9
330
1F
100
AcDbEntity
  8
0
  6
Continuous
 62
     7
370
    15
100
AcDbLine
 10
-1311.0212742923
 20
-160.3200271128
 30
0.0
 11
-1311.3163146921
 21
-163.3054840295
 31
0.0
  0
LINE
  5
6DA
330
1F
100
AcDbEntity
  8
0
  6
Continuous
 62
     7
370
    15
100
AcDbLine
 10
-1311.3163146921
 20
-163.3054840295
 30
0.0
 11
-1317.8047712755
 21
-162.6596852032
 31
0.0
  0
LINE
  5
6DB
330
1F
100
AcDbEntity
  8
0
  6
Continuous
 62
     7
370
    15
100
AcDbLine
 10
-1457.0377934371
 20
-148.0252099605
 30
0.0
 11
-1473.9131512045
 21
-146.1505186546
 31
0.0
  0
LINE
  5
6DC
330
1F
100
AcDbEntity
  8
0
  6
Continuous
 62
     7
370
    15
100
AcDbLine
 10
-991.0798961508
 20
-191.1876985746
 30
0.0
 11
-1007.0056975841
 21
-189.9855617155
 31
0.0
  0
LINE
  5
6DD
330
1F
100
AcDbEntity
  8
0
  6
Continuous
 62
     7
370
    15
100
AcDbLine
 10
-1006.7623130459
 20
-186.9954088168
 30
0.0
 11
-990.8716653674
 21
-188.1948921439
 31
0.0
  0
LINE
  5
6DE
330
1F
100
AcDbEntity
  8
0
  6
Continuous
 62
     7
370
    15
100
AcDbLine
 10
-1146.5442251369
 20
-178.6277745897
 30
0.0
 11
-1162.4548008138
 21
-177.2385784284
 31
0.0
  0
LINE
  5
6DF
330
1F
100
AcDbEntity
  8
0
  6
Continuous
 62
     7
370
    15
100
AcDbLine
 10
-1162.1762961292
 20
-174.2514919664
 30
0.0
 11
-1146.3008405987
 21
-175.6376216911
 31
0.0
  0
LINE
  5
6E0
330
1F
100
AcDbEntity
  8
0
  6
Continuous
 62
     7
370
    15
100
AcDbLine
 10
-841.9246256921
 20
-201.5117842938
 30
0.0
 11
-842.9226095551
 21
-201.4483147652
 31
0.0
  0
LINE
  5
6E1
330
1F
100
AcDbEntity
  8
0
  6
Continuous
 62
     7
370
    15
100
AcDbLine
 10
-1310.321203241
 20
-163.4042431893
 30
0.0
 11
-1311.3163146921
 21
-163.3054840295
 31
0.0
  0
LINE
  5
6E2
330
1F
100
AcDbEntity
  8
0
  6
Continuous
 62
     7
370
    15
100
AcDbLine
 10
-992.2554472109
 20
-208.083359799
 30
0.0
 11
-958.2453734288
 21
280.7279767186
 31
0.0
  0
LINE
  5
6E3
330
1F
100
AcDbEntity
  8
0
  6
Continuous
 62
     7
370
    15
100
AcDbLine
 10
-857.9280776962
 20
-222.4415560386
 30
0.0
 11
-987.6145523559
 21
-213.4183476101
 31
0.0
  0
LINE
  5
6E4
330
1F
100
AcDbEntity
  8
0
  6
Continuous
 62
     7
370
    15
100
AcDbLine
 10
-952.9103856177
 20
285.3688715736
 30
0.0
 11
-823.223910958
 21
276.3456631447
 31
0.0
  0
LINE
  5
6E5
330
1F
100
AcDbEntity
  8
0
  6
Continuous
 62
     7
370
    15
100
AcDbLine
 10
-818.583016103
 20
271.0106753336
 30
0.0
 11
-852.5930898851
 21
-217.8006611836
 31
0.0
  0
LINE
  5
6E6
330
1F
100
AcDbEntity
  8
0
  6
Continuous
 62
     7
370
    15
100
AcDbLine
 10
-1687.8177980916
 20
442.552336803
 30
0.0
 11
-1693.7456979778
 21
398.2386983308
 31
0.0
  0
LINE
  5
6E7
330
1F
100
AcDbEntity
  8
0
  6
Continuous
 62
     7
370
    15
100
AcDbLine
 10
-1688.7107939661
 20
405.7087008367
 30
0.0
 11
-1683.8531144124
 21
442.0219752994
 31
0.0
  0
LINE
  5
6E8
330
1F
100
AcDbEntity
  8
0
  6
Continuous
 62
     7
370
    15
100
AcDbLine
 10
-1695.2881413241
 20
386.708261224
 30
0.0
 11
-1700.603919285
 21
346.9705012615
 31
0.0
  0
LINE
  5
6E9
330
1F
100
AcDbEntity
  8
0
  6
Continuous
 62
     7
370
    15
100
AcDbLine
 10
-1705.7011474793
 20
278.6983940584
 30
0.0
 11
-1709.6658311584
 21
279.228755562
 31
0.0
  0
LINE
  5
6EA
330
1F
100
AcDbEntity
  8
0
  6
Continuous
 62
     7
370
    15
100
AcDbLine
 10
-1702.146358674
 20
335.4400937381
 30
0.0
 11
-1709.6658311584
 21
279.228755562
 31
0.0
  0
LINE
  5
6EB
330
1F
100
AcDbEntity
  8
0
  6
Continuous
 62
     7
370
    15
100
AcDbLine
 10
-1705.7011474793
 20
278.6983940584
 30
0.0
 11
-1698.18191133
 21
334.907965526
 31
0.0
  0
LINE
  5
6EC
330
1F
100
AcDbEntity
  8
0
  6
Continuous
 62
     7
370
    15
100
AcDbLine
 10
-1984.2728714136
 20
485.8182475657
 30
0.0
 11
-1991.2269855888
 21
441.7594338823
 31
0.0
  0
LINE
  5
6ED
330
1F
100
AcDbEntity
  8
0
  6
Continuous
 62
     7
370
    15
100
AcDbLine
 10
-1986.0337091693
 20
449.0058800346
 30
0.0
 11
-1980.3217844595
 21
485.1946195671
 31
0.0
  0
LINE
  5
6EE
330
1F
100
AcDbEntity
  8
0
  6
Continuous
 62
     7
370
    15
100
AcDbLine
 10
-1993.0412055882
 20
430.2651761062
 30
0.0
 11
-1999.2944664577
 21
390.6467216748
 31
0.0
  0
LINE
  5
6EF
330
1F
100
AcDbEntity
  8
0
  6
Continuous
 62
     7
370
    15
100
AcDbLine
 10
-2006.0118940186
 20
322.4311500504
 30
0.0
 11
-2009.9629809728
 21
323.054778049
 31
0.0
  0
LINE
  5
6F0
330
1F
100
AcDbEntity
  8
0
  6
Continuous
 62
     7
370
    15
100
AcDbLine
 10
-2001.1086862698
 20
379.1524650857
 30
0.0
 11
-2009.9629809728
 21
323.054778049
 31
0.0
  0
LINE
  5
6F1
330
1F
100
AcDbEntity
  8
0
  6
Continuous
 62
     7
370
    15
100
AcDbLine
 10
-2006.0118940186
 20
322.4311500504
 30
0.0
 11
-1997.1576549183
 21
378.5284848079
 31
0.0
  0
LINE
  5
6F2
330
1F
100
AcDbEntity
  8
0
  6
Continuous
 62
     7
370
    15
100
AcDbLine
 10
-2426.7408669375
 20
563.7637547998
 30
0.0
 11
-2433.7277839564
 21
527.7994121335
 31
0.0
  0
LINE
  5
6F3
330
1F
100
AcDbEntity
  8
0
  6
Continuous
 62
     7
370
    15
100
AcDbLine
 10
-2431.3405202291
 20
519.1130914079
 30
0.0
 11
-2422.8142796355
 21
563.0009231278
 31
0.0
  0
LINE
  5
6F4
330
1F
100
AcDbEntity
  8
0
  6
Continuous
 62
     7
370
    15
100
AcDbLine
 10
-2441.2048644374
 20
468.337526974
 30
0.0
 11
-2433.5590534914
 21
507.6934494908
 31
0.0
  0
LINE
  5
6F5
330
1F
100
AcDbEntity
  8
0
  6
Continuous
 62
     7
370
    15
100
AcDbLine
 10
-2458.1654169468
 20
402.009538796
 30
0.0
 11
-2454.2388296448
 21
401.2467071241
 31
0.0
  0
LINE
  5
6F6
330
1F
100
AcDbEntity
  8
0
  6
Continuous
 62
     7
370
    15
100
AcDbLine
 10
-2454.2388296448
 20
401.2467071241
 30
0.0
 11
-2443.4233920076
 21
456.9179143561
 31
0.0
  0
LINE
  5
6F7
330
1F
100
AcDbEntity
  8
0
  6
Continuous
 62
     7
370
    15
100
AcDbLine
 10
-2447.3503192362
 20
457.6789962957
 30
0.0
 11
-2458.1654169468
 21
402.009538796
 31
0.0
  0
LINE
  5
6F8
330
1F
100
AcDbEntity
  8
0
  6
Continuous
 62
     7
370
    15
100
AcDbLine
 10
-2131.9994700156
 20
510.0510144765
 30
0.0
 11
-2138.1370750454
 21
473.9320339075
 31
0.0
  0
LINE
  5
6F9
330
1F
100
AcDbEntity
  8
0
  6
Continuous
 62
     7
370
    15
100
AcDbLine
 10
-2135.5283678218
 20
465.4070266682
 30
0.0
 11
-2128.0559993458
 21
509.3809106963
 31
0.0
  0
LINE
  5
6FA
330
1F
100
AcDbEntity
  8
0
  6
Continuous
 62
     7
370
    15
100
AcDbLine
 10
-2144.1970764749
 20
414.3928415129
 30
0.0
 11
-2137.4777922906
 21
453.9349257154
 31
0.0
  0
LINE
  5
6FB
330
1F
100
AcDbEntity
  8
0
  6
Continuous
 62
     7
370
    15
100
AcDbLine
 10
-2159.6041310807
 20
347.6012947914
 30
0.0
 11
-2155.6606604109
 21
346.9311910112
 31
0.0
  0
LINE
  5
6FC
330
1F
100
AcDbEntity
  8
0
  6
Continuous
 62
     7
370
    15
100
AcDbLine
 10
-2155.6606604109
 20
346.9311910112
 30
0.0
 11
-2146.1465007424
 21
402.9207417448
 31
0.0
  0
LINE
  5
6FD
330
1F
100
AcDbEntity
  8
0
  6
Continuous
 62
     7
370
    15
100
AcDbLine
 10
-2150.0900311587
 20
403.5904939248
 30
0.0
 11
-2159.6041310807
 21
347.6012947914
 31
0.0
  0
LINE
  5
6FE
330
1F
100
AcDbEntity
  8
0
  6
Continuous
 62
     7
370
    15
100
AcDbLine
 10
-2813.4331809343
 20
73.3652177961
 30
0.0
 11
-2830.0242180264
 21
76.9748792067
 31
0.0
  0
LINE
  5
6FF
330
1F
100
AcDbEntity
  8
0
  6
Continuous
 62
     7
370
    15
100
AcDbLine
 10
-2966.6455306368
 20
107.5464226175
 30
0.0
 11
-2973.0007271012
 21
109.0053955674
 31
0.0
  0
LINE
  5
700
330
1F
100
AcDbEntity
  8
0
  6
Continuous
 62
     7
370
    15
100
AcDbLine
 10
-2972.3274337294
 20
111.9288657443
 30
0.0
 11
-2973.0007271012
 21
109.0053955674
 31
0.0
  0
LINE
  5
701
330
1F
100
AcDbEntity
  8
0
  6
Continuous
 62
     7
370
    15
100
AcDbLine
 10
-2972.3274337294
 20
111.9288657443
 30
0.0
 11
-2965.9914243937
 21
110.4742937199
 31
0.0
  0
LINE
  5
702
330
1F
100
AcDbEntity
  8
0
  6
Continuous
 62
     7
370
    15
100
AcDbLine
 10
-2829.3701141606
 20
79.9027396681
 30
0.0
 11
-2812.8282015889
 21
76.3037551258
 31
0.0
  0
LINE
  5
703
330
1F
100
AcDbEntity
  8
0
  6
Continuous
 62
     7
370
    15
100
AcDbLine
 10
-3586.8758995079
 20
268.7224269597
 30
0.0
 11
-3570.5742549424
 21
264.156909935
 31
0.0
  0
LINE
  5
704
330
1F
100
AcDbEntity
  8
0
  6
Continuous
 62
     7
370
    15
100
AcDbLine
 10
-3435.5406582885
 20
227.1984183308
 30
0.0
 11
-3429.2610631156
 21
225.5169073059
 31
0.0
  0
LINE
  5
705
330
1F
100
AcDbEntity
  8
0
  6
Continuous
 62
     7
370
    15
100
AcDbLine
 10
-3429.2610631156
 20
225.5169073059
 30
0.0
 11
-3430.0350257677
 21
222.6184622654
 31
0.0
  0
LINE
  5
706
330
1F
100
AcDbEntity
  8
0
  6
Continuous
 62
     7
370
    15
100
AcDbLine
 10
-3430.0350257677
 20
222.6184622654
 30
0.0
 11
-3436.3336354026
 21
224.3050688071
 31
0.0
  0
LINE
  5
707
330
1F
100
AcDbEntity
  8
0
  6
Continuous
 62
     7
370
    15
100
AcDbLine
 10
-3571.3672291745
 20
261.2635709269
 30
0.0
 11
-3587.7172795687
 21
265.8426559202
 31
0.0
  0
LINE
  5
708
330
1F
100
AcDbEntity
  8
0
  6
Continuous
 62
     7
370
    15
100
AcDbLine
 10
-3118.5230337307
 20
143.3148654669
 30
0.0
 11
-3134.044792005
 21
147.0766874183
 31
0.0
  0
LINE
  5
709
330
1F
100
AcDbEntity
  8
0
  6
Continuous
 62
     7
370
    15
100
AcDbLine
 10
-3133.3210458274
 20
149.988120375
 30
0.0
 11
-3117.8335494449
 21
146.2346020663
 31
0.0
  0
LINE
  5
70A
330
1F
100
AcDbEntity
  8
0
  6
Continuous
 62
     7
370
    15
100
AcDbLine
 10
-3269.9097733661
 20
180.8510392218
 30
0.0
 11
-3285.3862552089
 21
184.7949958788
 31
0.0
  0
LINE
  5
70B
330
1F
100
AcDbEntity
  8
0
  6
Continuous
 62
     7
370
    15
100
AcDbLine
 10
-3284.6283470803
 20
187.6977231584
 30
0.0
 11
-3269.1860271885
 21
183.7624721785
 31
0.0
  0
LINE
  5
70C
330
1F
100
AcDbEntity
  8
0
  6
Continuous
 62
     7
370
    15
100
AcDbLine
 10
-2973.0007271012
 20
109.0053955674
 30
0.0
 11
-2973.9753100601
 21
109.2294228605
 31
0.0
  0
LINE
  5
70D
330
1F
100
AcDbEntity
  8
0
  6
Continuous
 62
     7
370
    15
100
AcDbLine
 10
-3429.0689844242
 20
222.3600743898
 30
0.0
 11
-3430.0350257677
 21
222.6184622654
 31
0.0
  0
LINE
  5
70E
330
1F
100
AcDbEntity
  8
0
  6
Continuous
 62
     7
370
    15
100
AcDbLine
 10
-3122.4154648592
 20
126.8317144205
 30
0.0
 11
-3009.8028575774
 21
603.7086466662
 31
0.0
  0
LINE
  5
70F
330
1F
100
AcDbEntity
  8
0
  6
Continuous
 62
     7
370
    15
100
AcDbLine
 10
-2992.1782700231
 20
90.9391931769
 30
0.0
 11
-3118.6984293755
 21
120.816429954
 31
0.0
  0
LINE
  5
710
330
1F
100
AcDbEntity
  8
0
  6
Continuous
 62
     7
370
    15
100
AcDbLine
 10
-3003.7875731109
 20
607.4256821498
 30
0.0
 11
-2877.2674137586
 21
577.5484453722
 31
0.0
  0
LINE
  5
711
330
1F
100
AcDbEntity
  8
0
  6
Continuous
 62
     7
370
    15
100
AcDbLine
 10
-2873.5503782749
 20
571.5331609057
 30
0.0
 11
-2986.1629855566
 21
94.6562286605
 31
0.0
  0
LINE
  5
712
330
1F
100
AcDbEntity
  8
0
  6
PHANTOM
 62
     8
370
     0
100
AcDbLine
 10
230.7100611347
 20
246.861920681
 30
0.0
 11
370.6702406155
 21
250.2008066774
 31
0.0
  0
LINE
  5
713
330
1F
100
AcDbEntity
  8
0
  6
PHANTOM
 62
     8
370
     0
100
AcDbLine
 10
365.5524168485
 20
255.0801385875
 30
0.0
 11
377.4768443986
 21
-244.7707164054
 31
0.0
  0
LINE
  5
714
330
1F
100
AcDbEntity
  8
0
  6
PHANTOM
 62
     8
370
     0
100
AcDbLine
 10
382.3561763087
 20
-239.6528926384
 30
0.0
 11
242.3959968279
 21
-242.9917786352
 31
0.0
  0
LINE
  5
715
330
1F
100
AcDbEntity
  8
0
  6
PHANTOM
 62
     8
370
     0
100
AcDbLine
 10
247.513820595
 20
-247.8711105454
 30
0.0
 11
235.5893930449
 21
251.979744448
 31
0.0
  0
LINE
  5
716
330
1F
100
AcDbEntity
  8
0
  6
PHANTOM
 62
     8
370
     0
100
AcDbLine
 10
-808.2966381745
 20
270.3295458636
 30
0.0
 11
-668.5269259091
 21
262.3028695135
 31
0.0
  0
LINE
  5
717
330
1F
100
AcDbEntity
  8
0
  6
PHANTOM
 62
     8
370
     0
100
AcDbLine
 10
-673.2320343346
 20
267.581311964
 30
0.0
 11
-701.8983382159
 21
-231.5893124034
 31
0.0
  0
LINE
  5
718
330
1F
100
AcDbEntity
  8
0
  6
PHANTOM
 62
     8
370
     0
100
AcDbLine
 10
-696.6198957654
 20
-226.8842039779
 30
0.0
 11
-836.3896080309
 21
-218.8575276282
 31
0.0
  0
LINE
  5
719
330
1F
100
AcDbEntity
  8
0
  6
PHANTOM
 62
     8
370
     0
100
AcDbLine
 10
-831.6844996053
 20
-224.1359700787
 30
0.0
 11
-803.018195724
 21
275.0346542892
 31
0.0
  0
LINE
  5
71A
330
1F
100
AcDbEntity
  8
0
  6
PHANTOM
 62
     8
370
     0
100
AcDbLine
 10
-2863.5095537271
 20
569.1974916994
 30
0.0
 11
-2726.8777259647
 21
538.6730155808
 31
0.0
  0
LINE
  5
71B
330
1F
100
AcDbEntity
  8
0
  6
PHANTOM
 62
     8
370
     0
100
AcDbLine
 10
-2730.6672742377
 20
544.6428835765
 30
0.0
 11
-2839.6817492305
 21
56.6788342331
 31
0.0
  0
LINE
  5
71C
330
1F
100
AcDbEntity
  8
0
  6
PHANTOM
 62
     8
370
     0
100
AcDbLine
 10
-2833.7118812348
 20
60.4683825061
 30
0.0
 11
-2970.3437089973
 21
90.9928586243
 31
0.0
  0
LINE
  5
71D
330
1F
100
AcDbEntity
  8
0
  6
PHANTOM
 62
     8
370
     0
100
AcDbLine
 10
-2966.5541607243
 20
85.0229906285
 30
0.0
 11
-2857.5396857313
 21
572.9870399724
 31
0.0
  0
LINE
  5
71E
330
1F
100
AcDbEntity
  8
0
  6
PHANTOM
 62
     8
370
     0
100
AcDbLine
 10
379.7348089963
 20
250.0560808514
 30
0.0
 11
519.6193933102
 21
255.7396599445
 31
0.0
  0
LINE
  5
71F
330
1F
100
AcDbEntity
  8
0
  6
PHANTOM
 62
     8
370
     0
100
AcDbLine
 10
514.4205303314
 20
260.5325529881
 30
0.0
 11
534.7187457218
 21
-239.0483230086
 31
0.0
  0
LINE
  5
720
330
1F
100
AcDbEntity
  8
0
  6
PHANTOM
 62
     8
370
     0
100
AcDbLine
 10
539.5116387654
 20
-233.8494600298
 30
0.0
 11
399.6270544514
 21
-239.5330391232
 31
0.0
  0
LINE
  5
721
330
1F
100
AcDbEntity
  8
0
  6
PHANTOM
 62
     8
370
     0
100
AcDbLine
 10
404.8259174303
 20
-244.3259321668
 30
0.0
 11
384.5277020399
 21
255.2549438302
 31
0.0
  0
LINE
  5
722
330
1F
100
AcDbEntity
  8
0
  6
PHANTOM
 62
     8
370
     0
100
AcDbLine
 10
-524.4122863556
 20
260.9385229233
 30
0.0
 11
-544.7105017424
 21
-238.6423530735
 31
0.0
  0
LINE
  5
723
330
1F
100
AcDbEntity
  8
0
  6
PHANTOM
 62
     8
370
     0
100
AcDbLine
 10
-674.603330034
 20
-233.3647439166
 30
0.0
 11
-654.3051146472
 21
266.2161320806
 31
0.0
  0
LINE
  5
724
330
1F
100
AcDbEntity
  8
0
  6
PHANTOM
 62
     8
370
     0
100
AcDbLine
 10
-2718.115801728
 20
536.3457792016
 30
0.0
 11
-2583.5454679357
 21
508.640746625
 31
0.0
  0
LINE
  5
725
330
1F
100
AcDbEntity
  8
0
  6
PHANTOM
 62
     8
370
     0
100
AcDbLine
 10
-2584.8807369108
 20
514.0205131751
 30
0.0
 11
-2685.7036198005
 21
24.2983312235
 31
0.0
  0
LINE
  5
726
330
1F
100
AcDbEntity
  8
0
  6
PHANTOM
 62
     8
370
     0
100
AcDbLine
 10
-2679.8114823534
 20
28.1901358675
 30
0.0
 11
-2816.9221990081
 21
56.4181766579
 31
0.0
  0
LINE
  5
727
330
1F
100
AcDbEntity
  8
0
  6
PHANTOM
 62
     8
370
     0
100
AcDbLine
 10
-2813.0331521088
 20
50.5126441489
 30
0.0
 11
-2712.210269219
 21
540.2348261009
 31
0.0
  0
LINE
  5
728
330
1F
100
AcDbEntity
  8
0
  6
PHANTOM
 62
     8
370
     0
100
AcDbLine
 10
-659.503977626
 20
261.4232390369
 30
0.0
 11
-379.7348089969
 21
250.0560808514
 31
0.0
  0
LINE
  5
729
330
1F
100
AcDbEntity
  8
0
  6
PHANTOM
 62
     8
370
     0
100
AcDbLine
 10
-384.5277020405
 20
255.2549438302
 30
0.0
 11
-404.8259174295
 21
-244.3259321665
 31
0.0
  0
LINE
  5
72A
330
1F
100
AcDbEntity
  8
0
  6
PHANTOM
 62
     8
370
     0
100
AcDbLine
 10
-399.6270544507
 20
-239.5330391228
 30
0.0
 11
-679.3962230776
 21
-228.1658809378
 31
0.0
  0
LINE
  5
72B
330
1F
100
AcDbEntity
  8
0
  6
PHANTOM
 62
     8
370
     0
100
AcDbLine
 10
-534.7187457211
 20
-239.048323009
 30
0.0
 11
-514.4205303321
 21
260.5325529881
 31
0.0
  0
LINE
  5
72C
330
1F
100
AcDbEntity
  8
0
  6
PHANTOM
 62
     8
370
     0
100
AcDbLine
 10
-1552.8450044888
 20
339.7332356843
 30
0.0
 11
-1416.4702077393
 21
323.0367693916
 31
0.0
  0
LINE
  5
72D
330
1F
100
AcDbEntity
  8
0
  6
PHANTOM
 62
     8
370
     0
100
AcDbLine
 10
-1420.8255338751
 20
328.607328991
 30
0.0
 11
-1481.5863647966
 21
-167.6800782997
 31
0.0
  0
LINE
  5
72E
330
1F
100
AcDbEntity
  8
0
  6
PHANTOM
 62
     8
370
     0
100
AcDbLine
 10
-1476.0158051972
 20
-163.3247521639
 30
0.0
 11
-1614.9655082496
 21
-146.3130382062
 31
0.0
  0
LINE
  5
72F
330
1F
100
AcDbEntity
  8
0
  6
PHANTOM
 62
     8
370
     0
100
AcDbLine
 10
-1610.6228793547
 20
-151.8820432731
 30
0.0
 11
-1549.8620484332
 21
344.405364018
 31
0.0
  0
LINE
  5
730
330
1F
100
AcDbEntity
  8
0
  6
PHANTOM
 62
     8
370
     0
100
AcDbLine
 10
-3589.5356783973
 20
758.8265262892
 30
0.0
 11
-3455.1538409635
 21
719.5643082174
 31
0.0
  0
LINE
  5
731
330
1F
100
AcDbEntity
  8
0
  6
PHANTOM
 62
     8
370
     0
100
AcDbLine
 10
-3458.5509702264
 20
725.7658816283
 30
0.0
 11
-3598.7712339102
 21
245.8374006417
 31
0.0
  0
LINE
  5
732
330
1F
100
AcDbEntity
  8
0
  6
PHANTOM
 62
     8
370
     0
100
AcDbLine
 10
-3592.5696604993
 20
249.2345299047
 30
0.0
 11
-3726.9514979332
 21
288.4967479761
 31
0.0
  0
LINE
  5
733
330
1F
100
AcDbEntity
  8
0
  6
PHANTOM
 62
     8
370
     0
100
AcDbLine
 10
-3723.5543686702
 20
282.2951745652
 30
0.0
 11
-3583.3341049864
 21
762.2236555521
 31
0.0
  0
LINE
  5
734
330
1F
100
AcDbEntity
  8
0
  6
PHANTOM
 62
     8
370
     0
100
AcDbLine
 10
-370.6702406169
 20
250.2008066774
 30
0.0
 11
-230.7100611361
 21
246.861920681
 31
0.0
  0
LINE
  5
735
330
1F
100
AcDbEntity
  8
0
  6
PHANTOM
 62
     8
370
     0
100
AcDbLine
 10
-235.5893930463
 20
251.9797444481
 30
0.0
 11
-247.513820595
 21
-247.8711105449
 31
0.0
  0
LINE
  5
736
330
1F
100
AcDbEntity
  8
0
  6
PHANTOM
 62
     8
370
     0
100
AcDbLine
 10
-242.3959968279
 20
-242.9917786348
 30
0.0
 11
-382.3561763088
 21
-239.6528926388
 31
0.0
  0
LINE
  5
737
330
1F
100
AcDbEntity
  8
0
  6
PHANTOM
 62
     8
370
     0
100
AcDbLine
 10
-377.4768443986
 20
-244.7707164059
 30
0.0
 11
-365.5524168499
 21
255.0801385876
 31
0.0
  0
LINE
  5
738
330
1F
100
AcDbEntity
  8
0
  6
PHANTOM
 62
     8
370
     0
100
AcDbLine
 10
-1407.4237770981
 20
322.4456364674
 30
0.0
 11
-1268.195812781
 21
307.7631996086
 31
0.0
  0
LINE
  5
739
330
1F
100
AcDbEntity
  8
0
  6
PHANTOM
 62
     8
370
     0
100
AcDbLine
 10
-1272.6438673331
 20
313.2599996506
 30
0.0
 11
-1325.0804149595
 21
-183.9758374354
 31
0.0
  0
LINE
  5
73A
330
1F
100
AcDbEntity
  8
0
  6
PHANTOM
 62
     8
370
     0
100
AcDbLine
 10
-1319.5836149175
 20
-179.5277828833
 30
0.0
 11
-1458.8115792346
 21
-164.845346025
 31
0.0
  0
LINE
  5
73B
330
1F
100
AcDbEntity
  8
0
  6
PHANTOM
 62
     8
370
     0
100
AcDbLine
 10
-1454.3635246825
 20
-170.342146067
 30
0.0
 11
-1401.9269770561
 21
326.8936910195
 31
0.0
  0
LINE
  5
73C
330
1F
100
AcDbEntity
  8
0
  6
PHANTOM
 62
     8
370
     0
100
AcDbLine
 10
-3446.3220878566
 20
717.5179742905
 30
0.0
 11
-3311.3012416696
 21
680.5129598338
 31
0.0
  0
LINE
  5
73D
330
1F
100
AcDbEntity
  8
0
  6
PHANTOM
 62
     8
370
     0
100
AcDbLine
 10
-3314.8018070886
 20
686.6567405711
 30
0.0
 11
-3446.9607410349
 21
204.4461171006
 31
0.0
  0
LINE
  5
73E
330
1F
100
AcDbEntity
  8
0
  6
PHANTOM
 62
     8
370
     0
100
AcDbLine
 10
-3440.8169602976
 20
207.9466825195
 30
0.0
 11
-3575.8378064847
 21
244.9516969758
 31
0.0
  0
LINE
  5
73F
330
1F
100
AcDbEntity
  8
0
  6
PHANTOM
 62
     8
370
     0
100
AcDbLine
 10
-3572.3372410658
 20
238.8079162385
 30
0.0
 11
-3440.1783071194
 21
721.0185397094
 31
0.0
  0
LINE
  5
740
330
1F
100
AcDbEntity
  8
0
  6
PHANTOM
 62
     8
370
     0
100
AcDbLine
 10
-220.4023314674
 20
246.7063014846
 30
0.0
 11
-80.4119976363
 21
245.0611772208
 31
0.0
  0
LINE
  5
741
330
1F
100
AcDbEntity
  8
0
  6
PHANTOM
 62
     8
370
     0
100
AcDbLine
 10
-85.352897978
 20
250.1195864384
 30
0.0
 11
-91.2282603333
 21
-249.8389611701
 31
0.0
  0
LINE
  5
742
330
1F
100
AcDbEntity
  8
0
  6
PHANTOM
 62
     8
370
     0
100
AcDbLine
 10
-86.1698511156
 20
-244.8980608284
 30
0.0
 11
-226.1601849468
 21
-243.252936565
 31
0.0
  0
LINE
  5
743
330
1F
100
AcDbEntity
  8
0
  6
PHANTOM
 62
     8
370
     0
100
AcDbLine
 10
-221.2192846051
 20
-248.3113457826
 30
0.0
 11
-215.3439222498
 21
251.6472018263
 31
0.0
  0
LINE
  5
744
330
1F
100
AcDbEntity
  8
0
  6
PHANTOM
 62
     8
370
     0
100
AcDbLine
 10
-1257.9346847048
 20
306.7718576596
 30
0.0
 11
-1118.5392555388
 21
293.7751531687
 31
0.0
  0
LINE
  5
745
330
1F
100
AcDbEntity
  8
0
  6
PHANTOM
 62
     8
370
     0
100
AcDbLine
 10
-1123.0534957057
 20
299.2177293707
 30
0.0
 11
-1169.4696540438
 21
-198.6161881708
 31
0.0
  0
LINE
  5
746
330
1F
100
AcDbEntity
  8
0
  6
PHANTOM
 62
     8
370
     0
100
AcDbLine
 10
-1164.0270778418
 20
-194.1019480039
 30
0.0
 11
-1303.4225070079
 21
-181.1052435133
 31
0.0
  0
LINE
  5
747
330
1F
100
AcDbEntity
  8
0
  6
PHANTOM
 62
     8
370
     0
100
AcDbLine
 10
-1298.9082668409
 20
-186.5478197153
 30
0.0
 11
-1252.4921085027
 21
311.2860978266
 31
0.0
  0
LINE
  5
748
330
1F
100
AcDbEntity
  8
0
  6
PHANTOM
 62
     8
370
     0
100
AcDbLine
 10
-1770.3101709354
 20
-126.5609986978
 30
0.0
 11
-1908.9623164156
 21
-107.1810463311
 31
0.0
  0
LINE
  5
749
330
1F
100
AcDbEntity
  8
0
  6
PHANTOM
 62
     8
370
     0
100
AcDbLine
 10
-1925.3987477675
 20
-104.7848405009
 30
0.0
 11
-2063.8128895086
 21
-83.7723355074
 31
0.0
  0
LINE
  5
74A
330
1F
100
AcDbEntity
  8
0
  6
PHANTOM
 62
     8
370
     0
100
AcDbLine
 10
-2080.0830247983
 20
-81.2043049818
 30
0.0
 11
-2218.2401772499
 21
-58.5636065279
 31
0.0
  0
LINE
  5
74B
330
1F
100
AcDbEntity
  8
0
  6
PHANTOM
 62
     8
370
     0
100
AcDbLine
 10
-2234.4789495303
 20
-55.804193918
 30
0.0
 11
-2372.3599606047
 21
-31.5384405795
 31
0.0
  0
LINE
  5
74C
330
1F
100
AcDbEntity
  8
0
  6
PHANTOM
 62
     8
370
     0
100
AcDbLine
 10
-2388.7014874352
 20
-28.5631122249
 30
0.0
 11
-2526.2869732818
 21
-2.6742326749
 31
0.0
  0
LINE
  5
74D
330
1F
100
AcDbEntity
  8
0
  6
PHANTOM
 62
     8
370
     0
100
AcDbLine
 10
-2542.5923037
 20
0.4934601611
 30
0.0
 11
-2679.8521154838
 21
27.9996579043
 31
0.0
  0
LINE
  5
74E
330
1F
100
AcDbEntity
  8
0
  6
PHANTOM
 62
     8
370
     0
100
AcDbLine
 10
-1753.8371014066
 20
-128.6854092054
 30
0.0
 11
-1614.9785922852
 21
-146.428535054
 31
0.0
  0
LINE
  5
74F
330
1F
100
AcDbEntity
  8
0
  6
PHANTOM
 62
     8
370
     0
100
AcDbLine
 10
-2440.1814920774
 20
536.9846377861
 30
0.0
 11
-2548.4772774326
 21
-3.4266271041
 31
0.0
  0
LINE
  5
750
330
1F
100
AcDbEntity
  8
0
  6
PHANTOM
 62
     8
370
     0
100
AcDbLine
 10
-2577.3373877032
 20
514.1731809612
 30
0.0
 11
-2449.871594732
 21
488.6296568851
 31
0.0
  0
LINE
  5
751
330
1F
100
AcDbEntity
  8
0
  6
PHANTOM
 62
     8
370
     0
100
AcDbLine
 10
-2675.9430704038
 20
22.1168969718
 30
0.0
 11
-2567.6472850485
 21
562.5281618623
 31
0.0
  0
LINE
  5
752
330
1F
100
AcDbEntity
  8
0
  6
PHANTOM
 62
     8
370
     0
100
AcDbLine
 10
-2576.1992705126
 20
519.852546493
 30
0.0
 11
-2448.7334775414
 21
494.3090224168
 31
0.0
  0
LINE
  5
753
330
1F
100
AcDbEntity
  8
0
  6
PHANTOM
 62
     8
370
     0
100
AcDbLine
 10
-2568.459128805
 20
558.4769468508
 30
0.0
 11
-2440.9933358339
 21
532.9334227743
 31
0.0
  0
LINE
  5
754
330
1F
100
AcDbEntity
  8
0
  6
PHANTOM
 62
     8
370
     0
100
AcDbLine
 10
-2466.5901070174
 20
405.2019192163
 30
0.0
 11
-2594.0558999886
 21
430.7454432925
 31
0.0
  0
LINE
  5
755
330
1F
100
AcDbEntity
  8
0
  6
PHANTOM
 62
     8
370
     0
100
AcDbLine
 10
-2292.619881611
 20
509.0976386478
 30
0.0
 11
-2394.5398576279
 21
-32.5522767355
 31
0.0
  0
LINE
  5
756
330
1F
100
AcDbEntity
  8
0
  6
PHANTOM
 62
     8
370
     0
100
AcDbLine
 10
-2429.4974400125
 20
484.6714995045
 30
0.0
 11
-2301.7394888692
 21
460.6318256364
 31
0.0
  0
LINE
  5
757
330
1F
100
AcDbEntity
  8
0
  6
PHANTOM
 62
     8
370
     0
100
AcDbLine
 10
-2522.2978087712
 20
-8.5126028676
 30
0.0
 11
-2420.3778327542
 21
533.1373125159
 31
0.0
  0
LINE
  5
758
330
1F
100
AcDbEntity
  8
0
  6
PHANTOM
 62
     8
370
     0
100
AcDbLine
 10
-2428.4263283677
 20
490.363882435
 30
0.0
 11
-2300.6683772244
 21
466.3242085669
 31
0.0
  0
LINE
  5
759
330
1F
100
AcDbEntity
  8
0
  6
PHANTOM
 62
     8
370
     0
100
AcDbLine
 10
-2421.1418799968
 20
529.0768119106
 30
0.0
 11
-2293.3839288536
 21
505.0371380422
 31
0.0
  0
LINE
  5
75A
330
1F
100
AcDbEntity
  8
0
  6
PHANTOM
 62
     8
370
     0
100
AcDbLine
 10
-2317.4737149573
 20
377.0128672898
 30
0.0
 11
-2445.2316661006
 21
401.0525411579
 31
0.0
  0
LINE
  5
75B
330
1F
100
AcDbEntity
  8
0
  6
PHANTOM
 62
     8
370
     0
100
AcDbLine
 10
-3301.3355019423
 20
677.8752449242
 30
0.0
 11
-3165.8767798634
 21
642.5066909145
 31
0.0
  0
LINE
  5
75C
330
1F
100
AcDbEntity
  8
0
  6
PHANTOM
 62
     8
370
     0
100
AcDbLine
 10
-3169.451428723
 20
648.6076650605
 30
0.0
 11
-3295.7659420874
 21
164.8332207963
 31
0.0
  0
LINE
  5
75D
330
1F
100
AcDbEntity
  8
0
  6
PHANTOM
 62
     8
370
     0
100
AcDbLine
 10
-3289.6649679413
 20
168.4078696559
 30
0.0
 11
-3425.1236900204
 21
203.7764236652
 31
0.0
  0
LINE
  5
75E
330
1F
100
AcDbEntity
  8
0
  6
PHANTOM
 62
     8
370
     0
100
AcDbLine
 10
-3421.5490411608
 20
197.6754495192
 30
0.0
 11
-3295.2345277963
 21
681.4498937838
 31
0.0
  0
LINE
  5
75F
330
1F
100
AcDbEntity
  8
0
  6
PHANTOM
 62
     8
370
     0
100
AcDbLine
 10
-70.0
 20
245.0000000001
 30
0.0
 11
70.0
 21
244.9999999999
 31
0.0
  0
LINE
  5
760
330
1F
100
AcDbEntity
  8
0
  6
PHANTOM
 62
     8
370
     0
100
AcDbLine
 10
65.0
 20
249.9999999999
 30
0.0
 11
65.0
 21
-249.9930691617
 31
0.0
  0
LINE
  5
761
330
1F
100
AcDbEntity
  8
0
  6
PHANTOM
 62
     8
370
     0
100
AcDbLine
 10
70.0
 20
-244.9930691617
 30
0.0
 11
-70.0
 21
-244.9930691619
 31
0.0
  0
LINE
  5
762
330
1F
100
AcDbEntity
  8
0
  6
PHANTOM
 62
     8
370
     0
100
AcDbLine
 10
-65.0
 20
-249.9930691619
 30
0.0
 11
-65.0
 21
250.0000000001
 31
0.0
  0
LINE
  5
763
330
1F
100
AcDbEntity
  8
0
  6
PHANTOM
 62
     8
370
     0
100
AcDbLine
 10
-1108.1665413873
 20
292.86948294
 30
0.0
 11
-968.6280138345
 21
281.5116958143
 31
0.0
  0
LINE
  5
764
330
1F
100
AcDbEntity
  8
0
  6
PHANTOM
 62
     8
370
     0
100
AcDbLine
 10
-973.2058974212
 20
286.9008499099
 30
0.0
 11
-1013.7688605911
 21
-211.4441262145
 31
0.0
  0
LINE
  5
765
330
1F
100
AcDbEntity
  8
0
  6
PHANTOM
 62
     8
370
     0
100
AcDbLine
 10
-1008.3797064955
 20
-206.8662426278
 30
0.0
 11
-1147.9182340483
 21
-195.5084555025
 31
0.0
  0
LINE
  5
766
330
1F
100
AcDbEntity
  8
0
  6
PHANTOM
 62
     8
370
     0
100
AcDbLine
 10
-1143.3403504616
 20
-200.8976095982
 30
0.0
 11
-1102.7773872916
 21
297.4473665267
 31
0.0
  0
LINE
  5
767
330
1F
100
AcDbEntity
  8
0
  6
PHANTOM
 62
     8
370
     0
100
AcDbLine
 10
-3155.7870681219
 20
639.9354743923
 30
0.0
 11
-3019.9220867608
 21
606.1611225888
 31
0.0
  0
LINE
  5
768
330
1F
100
AcDbEntity
  8
0
  6
PHANTOM
 62
     8
370
     0
100
AcDbLine
 10
-3023.5681806735
 20
612.2196702018
 30
0.0
 11
-3144.1891936528
 21
126.9943200423
 31
0.0
  0
LINE
  5
769
330
1F
100
AcDbEntity
  8
0
  6
PHANTOM
 62
     8
370
     0
100
AcDbLine
 10
-3138.1306460398
 20
130.640413955
 30
0.0
 11
-3273.995627401
 21
164.4147657582
 31
0.0
  0
LINE
  5
76A
330
1F
100
AcDbEntity
  8
0
  6
PHANTOM
 62
     8
370
     0
100
AcDbLine
 10
-3270.3495334882
 20
158.3562181451
 30
0.0
 11
-3149.7285205088
 21
643.5815683051
 31
0.0
  0
LINE
  5
76B
330
1F
100
AcDbEntity
  8
0
  6
PHANTOM
 62
     8
370
     0
100
AcDbLine
 10
-2144.739892467
 20
482.9514646547
 30
0.0
 11
-2240.2699054022
 21
-59.8618816943
 31
0.0
  0
LINE
  5
76C
330
1F
100
AcDbEntity
  8
0
  6
PHANTOM
 62
     8
370
     0
100
AcDbLine
 10
-2281.3201053048
 20
456.9140352776
 30
0.0
 11
-2153.2877378786
 21
434.3815500345
 31
0.0
  0
LINE
  5
76D
330
1F
100
AcDbEntity
  8
0
  6
PHANTOM
 62
     8
370
     0
100
AcDbLine
 10
-2368.3022728285
 20
-37.3293964514
 30
0.0
 11
-2272.7722598933
 21
505.4839498978
 31
0.0
  0
LINE
  5
76E
330
1F
100
AcDbEntity
  8
0
  6
PHANTOM
 62
     8
370
     0
100
AcDbLine
 10
-2280.3161479524
 20
462.6186450993
 30
0.0
 11
-2152.2837805262
 21
440.0861598562
 31
0.0
  0
LINE
  5
76F
330
1F
100
AcDbEntity
  8
0
  6
PHANTOM
 62
     8
370
     0
100
AcDbLine
 10
-2273.4884045179
 20
501.414727585
 30
0.0
 11
-2145.4560370917
 21
478.8822423417
 31
0.0
  0
LINE
  5
770
330
1F
100
AcDbEntity
  8
0
  6
PHANTOM
 62
     8
370
     0
100
AcDbLine
 10
-2168.0354927395
 20
350.582983268
 30
0.0
 11
-2296.0678601657
 21
373.115468511
 31
0.0
  0
LINE
  5
771
330
1F
100
AcDbEntity
  8
0
  6
PHANTOM
 62
     8
370
     0
100
AcDbLine
 10
-1996.6933481817
 20
458.570573871
 30
0.0
 11
-2085.8258051878
 21
-85.3298926246
 31
0.0
  0
LINE
  5
772
330
1F
100
AcDbEntity
  8
0
  6
PHANTOM
 62
     8
370
     0
100
AcDbLine
 10
-2132.9575367722
 20
430.9268914974
 30
0.0
 11
-2004.668752353
 21
409.90338579
 31
0.0
  0
LINE
  5
773
330
1F
100
AcDbEntity
  8
0
  6
PHANTOM
 62
     8
370
     0
100
AcDbLine
 10
-2214.1145896071
 20
-64.3063869174
 30
0.0
 11
-2124.982132601
 21
479.5940795784
 31
0.0
  0
LINE
  5
774
330
1F
100
AcDbEntity
  8
0
  6
PHANTOM
 62
     8
370
     0
100
AcDbLine
 10
-2132.020813508
 20
436.6429262339
 30
0.0
 11
-2003.7320290887
 21
415.6194205265
 31
0.0
  0
LINE
  5
775
330
1F
100
AcDbEntity
  8
0
  6
PHANTOM
 62
     8
370
     0
100
AcDbLine
 10
-2125.6503176876
 20
475.5167076252
 30
0.0
 11
-1997.3615332684
 21
454.4932019175
 31
0.0
  0
LINE
  5
776
330
1F
100
AcDbEntity
  8
0
  6
PHANTOM
 62
     8
370
     0
100
AcDbLine
 10
-2018.4288638162
 20
325.9369913332
 30
0.0
 11
-2146.7176482354
 21
346.9604970405
 31
0.0
  0
LINE
  5
777
330
1F
100
AcDbEntity
  8
0
  6
PHANTOM
 62
     8
370
     0
100
AcDbLine
 10
-1848.3700115248
 20
435.9344321347
 30
0.0
 11
-1931.0925565795
 21
-108.977756099
 31
0.0
  0
LINE
  5
778
330
1F
100
AcDbEntity
  8
0
  6
PHANTOM
 62
     8
370
     0
100
AcDbLine
 10
-1984.299286193
 20
406.6883288804
 30
0.0
 11
-1855.7718688621
 21
387.1767171005
 31
0.0
  0
LINE
  5
779
330
1F
100
AcDbEntity
  8
0
  6
PHANTOM
 62
     8
370
     0
100
AcDbLine
 10
-2059.6199739104
 20
-89.4661443194
 30
0.0
 11
-1976.8974288557
 21
455.4460439146
 31
0.0
  0
LINE
  5
77A
330
1F
100
AcDbEntity
  8
0
  6
PHANTOM
 62
     8
370
     0
100
AcDbLine
 10
-1983.4299268706
 20
412.4149961443
 30
0.0
 11
-1854.9025095397
 21
392.9033843644
 31
0.0
  0
LINE
  5
77B
330
1F
100
AcDbEntity
  8
0
  6
PHANTOM
 62
     8
370
     0
100
AcDbLine
 10
-1977.5175617768
 20
451.3610875483
 30
0.0
 11
-1848.990144446
 21
431.8494757681
 31
0.0
  0
LINE
  5
77C
330
1F
100
AcDbEntity
  8
0
  6
PHANTOM
 62
     8
370
     0
100
AcDbLine
 10
-1868.5424294268
 20
303.0541348266
 30
0.0
 11
-1997.0698467577
 21
322.5657466064
 31
0.0
  0
LINE
  5
77D
330
1F
100
AcDbEntity
  8
0
  6
PHANTOM
 62
     8
370
     0
100
AcDbLine
 10
-1699.6587025995
 20
415.0284473116
 30
0.0
 11
-1775.9541744299
 21
-130.8207198804
 31
0.0
  0
LINE
  5
77E
330
1F
100
AcDbEntity
  8
0
  6
PHANTOM
 62
     8
370
     0
100
AcDbLine
 10
-1835.2338983476
 20
384.1825632221
 30
0.0
 11
-1706.4854775446
 21
366.1868931671
 31
0.0
  0
LINE
  5
77F
330
1F
100
AcDbEntity
  8
0
  6
PHANTOM
 62
     8
370
     0
100
AcDbLine
 10
-1904.702595233
 20
-112.8250498256
 30
0.0
 11
-1828.4071234025
 21
433.0241173666
 31
0.0
  0
LINE
  5
780
330
1F
100
AcDbEntity
  8
0
  6
PHANTOM
 62
     8
370
     0
100
AcDbLine
 10
-1834.4320833206
 20
389.9190775162
 30
0.0
 11
-1705.6836625176
 21
371.9234074611
 31
0.0
  0
LINE
  5
781
330
1F
100
AcDbEntity
  8
0
  6
PHANTOM
 62
     8
370
     0
100
AcDbLine
 10
-1828.979075508
 20
428.9321368995
 30
0.0
 11
-1700.230654705
 21
410.9364668441
 31
0.0
  0
LINE
  5
782
330
1F
100
AcDbEntity
  8
0
  6
PHANTOM
 62
     8
370
     0
100
AcDbLine
 10
-1718.2638378837
 20
281.9196617347
 30
0.0
 11
-1847.0122586867
 21
299.9153317897
 31
0.0
  0
LINE
  5
783
330
1F
100
AcDbEntity
  8
0
  6
PHANTOM
 62
     8
370
     0
100
AcDbLine
 10
-1679.6533628197
 20
412.4315198739
 30
0.0
 11
-1749.5111661918
 21
-134.2788235935
 31
0.0
  0
LINE
  5
784
330
1F
100
AcDbEntity
  8
0
  6
PHANTOM
 62
     8
370
     0
100
AcDbLine
 10
-1620.5596213536
 20
-150.7560528459
 30
0.0
 11
-1550.7018179814
 21
395.9542906217
 31
0.0
  0
LINE
  5
785
330
1F
100
AcDbEntity
  8
0
  6
PHANTOM
 62
     8
370
     0
100
AcDbLine
 10
-1685.9041073309
 20
363.5129093003
 30
0.0
 11
-1556.9525624927
 21
347.0356800481
 31
0.0
  0
LINE
  5
786
330
1F
100
AcDbEntity
  8
0
  6
PHANTOM
 62
     8
370
     0
100
AcDbLine
 10
-1685.1699479483
 20
369.2584739883
 30
0.0
 11
-1556.2184031101
 21
352.7812447361
 31
0.0
  0
LINE
  5
787
330
1F
100
AcDbEntity
  8
0
  6
PHANTOM
 62
     8
370
     0
100
AcDbLine
 10
-1680.1770546819
 20
408.3330835638
 30
0.0
 11
-1551.2255098437
 21
391.8558543114
 31
0.0
  0
LINE
  5
788
330
1F
100
AcDbEntity
  8
0
  6
PHANTOM
 62
     8
370
     0
100
AcDbLine
 10
-1567.7370869327
 20
262.6355017416
 30
0.0
 11
-1696.6886317709
 21
279.1127309938
 31
0.0
  0
LINE
  5
789
330
1F
100
AcDbEntity
  8
0
  6
PHANTOM
 62
     8
370
     0
100
AcDbLine
 10
80.4119976356
 20
245.0611772207
 30
0.0
 11
220.4023314668
 21
246.7063014846
 31
0.0
  0
LINE
  5
78A
330
1F
100
AcDbEntity
  8
0
  6
PHANTOM
 62
     8
370
     0
100
AcDbLine
 10
215.3439222491
 20
251.6472018263
 30
0.0
 11
221.2192846058
 21
-248.3113457822
 31
0.0
  0
LINE
  5
78B
330
1F
100
AcDbEntity
  8
0
  6
PHANTOM
 62
     8
370
     0
100
AcDbLine
 10
226.1601849474
 20
-243.2529365645
 30
0.0
 11
86.1698511163
 21
-244.8980608288
 31
0.0
  0
LINE
  5
78C
330
1F
100
AcDbEntity
  8
0
  6
PHANTOM
 62
     8
370
     0
100
AcDbLine
 10
91.228260334
 20
-249.8389611705
 30
0.0
 11
85.3528979773
 21
250.1195864384
 31
0.0
  0
LINE
  5
78D
330
1F
100
AcDbEntity
  8
0
  6
PHANTOM
 62
     8
370
     0
100
AcDbLine
 10
-958.2453734288
 20
280.7279767186
 30
0.0
 11
-818.583016103
 21
271.0106753336
 31
0.0
  0
LINE
  5
78E
330
1F
100
AcDbEntity
  8
0
  6
PHANTOM
 62
     8
370
     0
100
AcDbLine
 10
-823.223910958
 20
276.3456631447
 30
0.0
 11
-857.9280776962
 21
-222.4415560386
 31
0.0
  0
LINE
  5
78F
330
1F
100
AcDbEntity
  8
0
  6
PHANTOM
 62
     8
370
     0
100
AcDbLine
 10
-852.5930898851
 20
-217.8006611836
 30
0.0
 11
-992.2554472109
 21
-208.083359799
 31
0.0
  0
LINE
  5
790
330
1F
100
AcDbEntity
  8
0
  6
PHANTOM
 62
     8
370
     0
100
AcDbLine
 10
-987.6145523559
 20
-213.4183476101
 30
0.0
 11
-952.9103856177
 21
285.3688715736
 31
0.0
  0
LINE
  5
791
330
1F
100
AcDbEntity
  8
0
  6
PHANTOM
 62
     8
370
     0
100
AcDbLine
 10
-1687.6879348687
 20
413.3550189462
 30
0.0
 11
-1691.6526185478
 21
413.8853804498
 31
0.0
  0
LINE
  5
792
330
1F
100
AcDbEntity
  8
0
  6
PHANTOM
 62
     8
370
     0
100
AcDbLine
 10
-1984.8309756237
 20
456.6259754003
 30
0.0
 11
-1988.7820625778
 21
457.2496033989
 31
0.0
  0
LINE
  5
793
330
1F
100
AcDbEntity
  8
0
  6
PHANTOM
 62
     8
370
     0
100
AcDbLine
 10
-2428.3299938801
 20
534.6094256179
 30
0.0
 11
-2432.2565811821
 21
535.3722572899
 31
0.0
  0
LINE
  5
794
330
1F
100
AcDbEntity
  8
0
  6
PHANTOM
 62
     8
370
     0
100
AcDbLine
 10
-2132.9012372954
 20
480.867336671
 30
0.0
 11
-2136.8447079652
 21
481.5374404512
 31
0.0
  0
LINE
  5
795
330
1F
100
AcDbEntity
  8
0
  6
PHANTOM
 62
     8
370
     0
100
AcDbLine
 10
-3009.8028575774
 20
603.7086466662
 30
0.0
 11
-2873.5503782749
 21
571.5331609057
 31
0.0
  0
LINE
  5
796
330
1F
100
AcDbEntity
  8
0
  6
PHANTOM
 62
     8
370
     0
100
AcDbLine
 10
-2877.2674137586
 20
577.5484453722
 30
0.0
 11
-2992.1782700231
 21
90.9391931769
 31
0.0
  0
LINE
  5
797
330
1F
100
AcDbEntity
  8
0
  6
PHANTOM
 62
     8
370
     0
100
AcDbLine
 10
-2986.1629855566
 20
94.6562286605
 30
0.0
 11
-3122.4154648592
 21
126.8317144205
 31
0.0
  0
LINE
  5
798
330
1F
100
AcDbEntity
  8
0
  6
PHANTOM
 62
     8
370
     0
100
AcDbLine
 10
-3118.6984293755
 20
120.816429954
 30
0.0
 11
-3003.7875731109
 21
607.4256821498
 31
0.0
  0
ARC
  5
799
330
1F
100
AcDbEntity
  8
0
  6
Continuous
 62
     7
370
    15
100
AcDbCircle
 10
-2568.6297282822
 20
557.6256313634
 30
0.0
 40
4.999999999999909
100
AcDbArc
 50
78.6683006744
 51
168.6683006745
  0
ARC
  5
79A
330
1F
100
AcDbEntity
  8
0
  6
Continuous
 62
     7
370
    15
100
AcDbCircle
 10
-2441.1639353111
 20
532.0821072872
 30
0.0
 40
4.999999999999529
100
AcDbArc
 50
348.6683006762
 51
78.6683006745
  0
ARC
  5
79B
330
1F
100
AcDbEntity
  8
0
  6
Continuous
 62
     7
370
    15
100
AcDbCircle
 10
-2465.622589304
 20
410.029969261
 30
0.0
 40
5.000000000000353
100
AcDbArc
 50
258.6683006745
 51
348.6683006745
  0
ARC
  5
79C
330
1F
100
AcDbEntity
  8
0
  6
Continuous
 62
     7
370
    15
100
AcDbCircle
 10
-2593.0883822752
 20
435.5734933371
 30
0.0
 40
4.999999999999906
100
AcDbArc
 50
168.6683006745
 51
258.6683006745
  0
ARC
  5
79D
330
1F
100
AcDbEntity
  8
0
  6
Continuous
 62
     7
370
    15
100
AcDbCircle
 10
-2421.3024355953
 20
528.2235451643
 30
0.0
 40
5.000000000001007
100
AcDbArc
 50
79.3434986117
 51
169.3434986117
  0
ARC
  5
79E
330
1F
100
AcDbEntity
  8
0
  6
Continuous
 62
     7
370
    15
100
AcDbCircle
 10
-2293.5444844521
 20
504.1838712961
 30
0.0
 40
5.000000000000362
100
AcDbArc
 50
349.3434986135
 51
79.3434986117
  0
ARC
  5
79F
330
1F
100
AcDbEntity
  8
0
  6
Continuous
 62
     7
370
    15
100
AcDbCircle
 10
-2316.563158911
 20
381.8519834743
 30
0.0
 40
5.000000000001259
100
AcDbArc
 50
259.3434986118
 51
349.3434986117
  0
ARC
  5
7A0
330
1F
100
AcDbEntity
  8
0
  6
Continuous
 62
     7
370
    15
100
AcDbCircle
 10
-2444.3211100542
 20
405.8916573423
 30
0.0
 40
4.999999999999885
100
AcDbArc
 50
169.3434986117
 51
259.3434986118
  0
ARC
  5
7A1
330
1F
100
AcDbEntity
  8
0
  6
Continuous
 62
     7
370
    15
100
AcDbCircle
 10
-2273.6388939411
 20
500.5596280738
 30
0.0
 40
4.999999999999944
100
AcDbArc
 50
80.0186965492
 51
170.0186965493
  0
ARC
  5
7A2
330
1F
100
AcDbEntity
  8
0
  6
Continuous
 62
     7
370
    15
100
AcDbCircle
 10
-2145.6065265148
 20
478.0271428307
 30
0.0
 40
5.000000000013175
100
AcDbArc
 50
350.018696551
 51
80.0186965493
  0
ARC
  5
7A3
330
1F
100
AcDbEntity
  8
0
  6
Continuous
 62
     7
370
    15
100
AcDbCircle
 10
-2167.1820248101
 20
355.4324935787
 30
0.0
 40
5.000000000000565
100
AcDbArc
 50
260.0186965493
 51
350.0186965493
  0
ARC
  5
7A4
330
1F
100
AcDbEntity
  8
0
  6
Continuous
 62
     7
370
    15
100
AcDbCircle
 10
-2295.2143922364
 20
377.9649788217
 30
0.0
 40
4.999999999999073
100
AcDbArc
 50
170.0186965493
 51
260.0186965493
  0
ARC
  5
7A5
330
1F
100
AcDbEntity
  8
0
  6
Continuous
 62
     7
370
    15
100
AcDbCircle
 10
-2125.7907289743
 20
474.6598955622
 30
0.0
 40
4.999999999999874
100
AcDbArc
 50
80.6932968259
 51
170.693296826
  0
ARC
  5
7A6
330
1F
100
AcDbEntity
  8
0
  6
Continuous
 62
     7
370
    15
100
AcDbCircle
 10
-1997.5019445551
 20
453.6363898548
 30
0.0
 40
5.000000000011806
100
AcDbArc
 50
350.6932968277
 51
80.693296826
  0
ARC
  5
7A7
330
1F
100
AcDbEntity
  8
0
  6
Continuous
 62
     7
370
    15
100
AcDbCircle
 10
-2017.6325518386
 20
330.7962140071
 30
0.0
 40
5.000000000000021
100
AcDbArc
 50
260.693296826
 51
350.693296826
  0
ARC
  5
7A8
330
1F
100
AcDbEntity
  8
0
  6
Continuous
 62
     7
370
    15
100
AcDbCircle
 10
-2145.9213362579
 20
351.8197197144
 30
0.0
 40
4.999999999999618
100
AcDbArc
 50
170.693296826
 51
260.693296826
  0
ARC
  5
7A9
330
1F
100
AcDbEntity
  8
0
  6
Continuous
 62
     7
370
    15
100
AcDbCircle
 10
-1977.6478754626
 20
450.5026817096
 30
0.0
 40
4.99999999999976
100
AcDbArc
 50
81.3678971028
 51
171.3678971028
  0
ARC
  5
7AA
330
1F
100
AcDbEntity
  8
0
  6
Continuous
 62
     7
370
    15
100
AcDbCircle
 10
-1849.1204581317
 20
430.9910699297
 30
0.0
 40
5.000000000010212
100
AcDbArc
 50
351.3678971046
 51
81.3678971028
  0
ARC
  5
7AB
330
1F
100
AcDbEntity
  8
0
  6
Continuous
 62
     7
370
    15
100
AcDbCircle
 10
-1867.8033837901
 20
307.9223962521
 30
0.0
 40
5.00000000000031
100
AcDbArc
 50
261.3678971029
 51
351.3678971028
  0
ARC
  5
7AC
330
1F
100
AcDbEntity
  8
0
  6
Continuous
 62
     7
370
    15
100
AcDbCircle
 10
-1996.330801121
 20
327.4340080319
 30
0.0
 40
5.00000000000033
100
AcDbArc
 50
171.3678971028
 51
261.3678971029
  0
ARC
  5
7AD
330
1F
100
AcDbEntity
  8
0
  6
Continuous
 62
     7
370
    15
100
AcDbCircle
 10
-1829.0992645585
 20
428.072255028
 30
0.0
 40
4.999999999999755
100
AcDbArc
 50
82.0430950403
 51
172.0430950404
  0
ARC
  5
7AE
330
1F
100
AcDbEntity
  8
0
  6
Continuous
 62
     7
370
    15
100
AcDbCircle
 10
-1700.3508437554
 20
410.076584973
 30
0.0
 40
5.000000000017952
100
AcDbArc
 50
352.0430950421
 51
82.0430950404
  0
ARC
  5
7AF
330
1F
100
AcDbEntity
  8
0
  6
Continuous
 62
     7
370
    15
100
AcDbCircle
 10
-1717.5822119071
 20
286.7962941576
 30
0.0
 40
5.000000000000124
100
AcDbArc
 50
262.0430950404
 51
352.0430950404
  0
ARC
  5
7B0
330
1F
100
AcDbEntity
  8
0
  6
Continuous
 62
     7
370
    15
100
AcDbCircle
 10
-1846.3306327101
 20
304.7919642126
 30
0.0
 40
5.000000000000334
100
AcDbArc
 50
172.0430950404
 51
262.0430950404
  0
ARC
  5
7B1
330
1F
100
AcDbEntity
  8
0
  6
Continuous
 62
     7
370
    15
100
AcDbCircle
 10
-1680.2871024063
 20
407.4718450725
 30
0.0
 40
5.000000000000342
100
AcDbArc
 50
82.7182929776
 51
172.7182929776
  0
ARC
  5
7B2
330
1F
100
AcDbEntity
  8
0
  6
Continuous
 62
     7
370
    15
100
AcDbCircle
 10
-1551.335557568
 20
390.9946158203
 30
0.0
 40
5.00000000000005
100
AcDbArc
 50
352.7182929793
 51
82.7182929776
  0
ARC
  5
7B3
330
1F
100
AcDbEntity
  8
0
  6
Continuous
 62
     7
370
    15
100
AcDbCircle
 10
-1567.1129752744
 20
267.5198279385
 30
0.0
 40
5.000000000000268
100
AcDbArc
 50
262.7182929776
 51
352.7182929776
  0
ARC
  5
7B4
330
1F
100
AcDbEntity
  8
0
  6
Continuous
 62
     7
370
    15
100
AcDbCircle
 10
-1696.0645201126
 20
283.9970571907
 30
0.0
 40
5.000000000000652
100
AcDbArc
 50
172.7182929776
 51
262.7182929777
  0
ARC
  5
7B5
330
1F
100
AcDbEntity
  8
0
  6
Continuous
 62
     7
370
    15
100
AcDbCircle
 10
247.3945746665
 20
-242.8725327068
 30
0.0
 40
4.999999999999824
100
AcDbArc
 50
181.3665872545
 51
271.3665872546
  0
ARC
  5
7B6
330
1F
100
AcDbEntity
  8
0
  6
Continuous
 62
     7
370
    15
100
AcDbCircle
 10
235.7086389733
 20
246.9811666094
 30
0.0
 40
5.000000000000138
100
AcDbArc
 50
91.3665872544
 51
181.3665872545
  0
ARC
  5
7B7
330
1F
100
AcDbEntity
  8
0
  6
Continuous
 62
     7
370
    15
100
AcDbCircle
 10
365.6716627769
 20
250.0815607489
 30
0.0
 40
5.000000000000012
100
AcDbArc
 50
1.3665872545
 51
91.3665872544
  0
ARC
  5
7B8
330
1F
100
AcDbEntity
  8
0
  6
Continuous
 62
     7
370
    15
100
AcDbCircle
 10
377.3575984701
 20
-239.7721385668
 30
0.0
 40
4.999999999999834
100
AcDbArc
 50
271.3665872546
 51
1.3665872545
  0
ARC
  5
7B9
330
1F
100
AcDbEntity
  8
0
  6
Continuous
 62
     7
370
    15
100
AcDbCircle
 10
-831.3978325928
 20
-219.1441946407
 30
0.0
 40
5.000000000000046
100
AcDbArc
 50
176.7132356675
 51
266.7132356676
  0
ARC
  5
7BA
330
1F
100
AcDbEntity
  8
0
  6
Continuous
 62
     7
370
    15
100
AcDbCircle
 10
-803.3048627365
 20
270.0428788511
 30
0.0
 40
5.000000000000166
100
AcDbArc
 50
86.7132356674
 51
176.7132356675
  0
ARC
  5
7BB
330
1F
100
AcDbEntity
  8
0
  6
Continuous
 62
     7
370
    15
100
AcDbCircle
 10
-673.5187013471
 20
262.589536526
 30
0.0
 40
5.000000000000263
100
AcDbArc
 50
356.7132356675
 51
86.7132356674
  0
ARC
  5
7BC
330
1F
100
AcDbEntity
  8
0
  6
Continuous
 62
     7
370
    15
100
AcDbCircle
 10
-701.6116712034
 20
-226.5975369654
 30
0.0
 40
4.999999999999823
100
AcDbArc
 50
266.7132356676
 51
356.7132356675
  0
ARC
  5
7BD
330
1F
100
AcDbEntity
  8
0
  6
Continuous
 62
     7
370
    15
100
AcDbCircle
 10
-2965.4640008629
 20
89.9026987629
 30
0.0
 40
4.999999999999827
100
AcDbArc
 50
167.4065324935
 51
257.4065324936
  0
ARC
  5
7BE
330
1F
100
AcDbEntity
  8
0
  6
Continuous
 62
     7
370
    15
100
AcDbCircle
 10
-2858.6298455927
 20
568.107331838
 30
0.0
 40
5.000000000000221
100
AcDbArc
 50
77.4065324934
 51
167.4065324935
  0
ARC
  5
7BF
330
1F
100
AcDbEntity
  8
0
  6
Continuous
 62
     7
370
    15
100
AcDbCircle
 10
-2731.7574340991
 20
539.7631754422
 30
0.0
 40
5.000000000000171
100
AcDbArc
 50
347.4065324935
 51
77.4065324934
  0
ARC
  5
7C0
330
1F
100
AcDbEntity
  8
0
  6
Continuous
 62
     7
370
    15
100
AcDbCircle
 10
-2838.5915893692
 20
61.5585423675
 30
0.0
 40
5.000000000000919
100
AcDbArc
 50
257.4065324936
 51
347.4065324934
  0
ARC
  5
7C1
330
1F
100
AcDbEntity
  8
0
  6
Continuous
 62
     7
370
    15
100
AcDbCircle
 10
404.6229324627
 20
-239.3300541556
 30
0.0
 40
5.000000000000013
100
AcDbArc
 50
182.3266757937
 51
272.3266757938
  0
ARC
  5
7C2
330
1F
100
AcDbEntity
  8
0
  6
Continuous
 62
     7
370
    15
100
AcDbCircle
 10
384.7306870075
 20
250.259065819
 30
0.0
 40
5.00000000000021
100
AcDbArc
 50
92.3266757936
 51
182.3266757937
  0
ARC
  5
7C3
330
1F
100
AcDbEntity
  8
0
  6
Continuous
 62
     7
370
    15
100
AcDbCircle
 10
514.623515299
 20
255.5366749768
 30
0.0
 40
5.000000000000071
100
AcDbArc
 50
2.3266757937
 51
92.3266757936
  0
ARC
  5
7C4
330
1F
100
AcDbEntity
  8
0
  6
Continuous
 62
     7
370
    15
100
AcDbCircle
 10
534.5157607542
 20
-234.0524449974
 30
0.0
 40
4.999999999999982
100
AcDbArc
 50
272.3266757938
 51
2.3266757937
  0
ARC
  5
7C5
330
1F
100
AcDbEntity
  8
0
  6
Continuous
 62
     7
370
    15
100
AcDbCircle
 10
-674.4003450664
 20
-228.3688659054
 30
0.0
 40
5.000000000000064
100
AcDbArc
 50
177.6733242067
 51
267.6733242068
  0
ARC
  5
7C6
330
1F
100
AcDbEntity
  8
0
  6
Continuous
 62
     7
370
    15
100
AcDbCircle
 10
-654.5080996148
 20
261.2202540694
 30
0.0
 40
5.000000000000214
100
AcDbArc
 50
87.6733242066
 51
177.6733242067
  0
ARC
  5
7C7
330
1F
100
AcDbEntity
  8
0
  6
Continuous
 62
     7
370
    15
100
AcDbCircle
 10
-524.6152713232
 20
255.9426449121
 30
0.0
 40
5.000000000000412
100
AcDbArc
 50
357.6733242067
 51
87.6733242066
  0
ARC
  5
7C8
330
1F
100
AcDbEntity
  8
0
  6
Continuous
 62
     7
370
    15
100
AcDbCircle
 10
-544.5075167748
 20
-233.6464750623
 30
0.0
 40
4.999999999999904
100
AcDbArc
 50
267.6733242068
 51
357.6733242067
  0
ARC
  5
7C9
330
1F
100
AcDbEntity
  8
0
  6
Continuous
 62
     7
370
    15
100
AcDbCircle
 10
-1904.2835383809
 20
-86.8665648508
 30
0.0
 40
5.000000000001115
100
AcDbArc
 50
103.4092686224
 51
171.6839244668
  0
ARC
  5
7CA
330
1F
100
AcDbEntity
  8
0
  6
Continuous
 62
     7
370
    15
100
AcDbCircle
 10
-2386.651538273
 20
-7.8178277013
 30
0.0
 40
4.99999999999562
100
AcDbArc
 50
349.7026691853
 51
57.9773257735
  0
ARC
  5
7CB
330
1F
100
AcDbEntity
  8
0
  6
Continuous
 62
     7
370
    15
100
AcDbCircle
 10
-2812.024909304
 20
55.4099338531
 30
0.0
 40
5.00000000000083
100
AcDbArc
 50
168.3666210327
 51
258.3666210328
  0
ARC
  5
7CC
330
1F
100
AcDbEntity
  8
0
  6
Continuous
 62
     7
370
    15
100
AcDbCircle
 10
-2713.2185120239
 20
535.3375363967
 30
0.0
 40
5.000000000001517
100
AcDbArc
 50
78.3666210326
 51
168.3666210327
  0
ARC
  5
7CD
330
1F
100
AcDbEntity
  8
0
  6
Continuous
 62
     7
370
    15
100
AcDbCircle
 10
-2585.8889797157
 20
509.1232234709
 30
0.0
 40
5.000000000001399
100
AcDbArc
 50
50.0791391734
 51
78.3666210326
  0
ARC
  5
7CE
330
1F
100
AcDbEntity
  8
0
  6
Continuous
 62
     7
370
    15
100
AcDbCircle
 10
-2684.6953769957
 20
29.1956209277
 30
0.0
 40
4.999999999999761
100
AcDbArc
 50
258.3666210328
 51
343.3487281611
  0
ARC
  5
7CF
330
1F
100
AcDbEntity
  8
0
  6
Continuous
 62
     7
370
    15
100
AcDbCircle
 10
-534.5157607535
 20
-234.0524449978
 30
0.0
 40
4.999999999999747
100
AcDbArc
 50
177.6733242064
 51
267.6733242066
  0
ARC
  5
7D0
330
1F
100
AcDbEntity
  8
0
  6
Continuous
 62
     7
370
    15
100
AcDbCircle
 10
-514.6235152997
 20
255.5366749769
 30
0.0
 40
4.999999999999836
100
AcDbArc
 50
87.6733242064
 51
177.6733242064
  0
ARC
  5
7D1
330
1F
100
AcDbEntity
  8
0
  6
Continuous
 62
     7
370
    15
100
AcDbCircle
 10
-384.7306870082
 20
250.259065819
 30
0.0
 40
5.00000000000018
100
AcDbArc
 50
357.6733242064
 51
87.6733242064
  0
ARC
  5
7D2
330
1F
100
AcDbEntity
  8
0
  6
Continuous
 62
     7
370
    15
100
AcDbCircle
 10
-404.622932462
 20
-239.3300541552
 30
0.0
 40
4.999999999999872
100
AcDbArc
 50
267.6733242065
 51
357.6733242064
  0
ARC
  5
7D3
330
1F
100
AcDbEntity
  8
0
  6
Continuous
 62
     7
370
    15
100
AcDbCircle
 10
-1610.0152626229
 20
-146.9191004055
 30
0.0
 40
5.000000000000521
100
AcDbArc
 50
173.0199726194
 51
263.0199726196
  0
ARC
  5
7D4
330
1F
100
AcDbEntity
  8
0
  6
Continuous
 62
     7
370
    15
100
AcDbCircle
 10
-1550.469665165
 20
339.4424211504
 30
0.0
 40
5.000000000000886
100
AcDbArc
 50
83.0199726194
 51
111.312850105
  0
ARC
  5
7D5
330
1F
100
AcDbEntity
  8
0
  6
Continuous
 62
     7
370
    15
100
AcDbCircle
 10
-1421.4331506069
 20
323.6443861234
 30
0.0
 40
5.000000000000121
100
AcDbArc
 50
353.0199726194
 51
83.0199726193
  0
ARC
  5
7D6
330
1F
100
AcDbEntity
  8
0
  6
Continuous
 62
     7
370
    15
100
AcDbCircle
 10
-1480.9787480648
 20
-162.7171354321
 30
0.0
 40
5.000000000000529
100
AcDbArc
 50
263.0199726195
 51
353.0199726194
  0
ARC
  5
7D7
330
1F
100
AcDbEntity
  8
0
  6
Continuous
 62
     7
370
    15
100
AcDbCircle
 10
-3722.1521465963
 20
287.0945259021
 30
0.0
 40
4.999999999999756
100
AcDbArc
 50
163.7132694454
 51
253.7132694455
  0
ARC
  5
7D8
330
1F
100
AcDbEntity
  8
0
  6
Continuous
 62
     7
370
    15
100
AcDbCircle
 10
-3584.7363270604
 20
757.4243042152
 30
0.0
 40
4.999999999999309
100
AcDbArc
 50
73.7132694453
 51
163.7132694454
  0
ARC
  5
7D9
330
1F
100
AcDbEntity
  8
0
  6
Continuous
 62
     7
370
    15
100
AcDbCircle
 10
-3459.9531923004
 20
720.9665302914
 30
0.0
 40
4.999999999999983
100
AcDbArc
 50
343.7132694454
 51
73.7132694453
  0
ARC
  5
7DA
330
1F
100
AcDbEntity
  8
0
  6
Continuous
 62
     7
370
    15
100
AcDbCircle
 10
-3597.3690118362
 20
250.6367519787
 30
0.0
 40
5.000000000000018
100
AcDbArc
 50
253.7132694455
 51
343.7132694454
  0
ARC
  5
7DB
330
1F
100
AcDbEntity
  8
0
  6
Continuous
 62
     7
370
    15
100
AcDbCircle
 10
-377.3575984702
 20
-239.7721385673
 30
0.0
 40
5.000000000000057
100
AcDbArc
 50
178.6334127457
 51
268.6334127458
  0
ARC
  5
7DC
330
1F
100
AcDbEntity
  8
0
  6
Continuous
 62
     7
370
    15
100
AcDbCircle
 10
-365.6716627783
 20
250.081560749
 30
0.0
 40
4.999999999999957
100
AcDbArc
 50
88.6334127456
 51
178.6334127457
  0
ARC
  5
7DD
330
1F
100
AcDbEntity
  8
0
  6
Continuous
 62
     7
370
    15
100
AcDbCircle
 10
-235.7086389747
 20
246.9811666095
 30
0.0
 40
4.999999999999942
100
AcDbArc
 50
358.6334127457
 51
88.6334127456
  0
ARC
  5
7DE
330
1F
100
AcDbEntity
  8
0
  6
Continuous
 62
     7
370
    15
100
AcDbCircle
 10
-247.3945746665
 20
-242.8725327063
 30
0.0
 40
5.000000000000169
100
AcDbArc
 50
268.6334127458
 51
358.6334127456
  0
ARC
  5
7DF
330
1F
100
AcDbEntity
  8
0
  6
Continuous
 62
     7
370
    15
100
AcDbCircle
 10
-1453.8391519376
 20
-165.3697187699
 30
0.0
 40
5.000000000000501
100
AcDbArc
 50
173.9800611587
 51
263.9800611588
  0
ARC
  5
7E0
330
1F
100
AcDbEntity
  8
0
  6
Continuous
 62
     7
370
    15
100
AcDbCircle
 10
-1402.4513498011
 20
321.9212637224
 30
0.0
 40
5.000000000000313
100
AcDbArc
 50
83.9800611586
 51
173.9800611587
  0
ARC
  5
7E1
330
1F
100
AcDbEntity
  8
0
  6
Continuous
 62
     7
370
    15
100
AcDbCircle
 10
-1273.168240078
 20
308.2875723536
 30
0.0
 40
4.999999999999869
100
AcDbArc
 50
353.9800611587
 51
83.9800611586
  0
ARC
  5
7E2
330
1F
100
AcDbEntity
  8
0
  6
Continuous
 62
     7
370
    15
100
AcDbCircle
 10
-1324.5560422145
 20
-179.0034101384
 30
0.0
 40
5.0000000000006
100
AcDbArc
 50
263.9800611588
 51
353.9800611586
  0
ARC
  5
7E3
330
1F
100
AcDbEntity
  8
0
  6
Continuous
 62
     7
370
    15
100
AcDbCircle
 10
-3571.0156334066
 20
243.6300893167
 30
0.0
 40
4.999999999999293
100
AcDbArc
 50
164.6733579846
 51
254.6733579848
  0
ARC
  5
7E4
330
1F
100
AcDbEntity
  8
0
  6
Continuous
 62
     7
370
    15
100
AcDbCircle
 10
-3441.4999147785
 20
716.1963666313
 30
0.0
 40
5.000000000000556
100
AcDbArc
 50
74.6733579846
 51
164.6733579846
  0
ARC
  5
7E5
330
1F
100
AcDbEntity
  8
0
  6
Continuous
 62
     7
370
    15
100
AcDbCircle
 10
-3316.1234147477
 20
681.834567493
 30
0.0
 40
4.999999999999439
100
AcDbArc
 50
344.6733579846
 51
74.6733579846
  0
ARC
  5
7E6
330
1F
100
AcDbEntity
  8
0
  6
Continuous
 62
     7
370
    15
100
AcDbCircle
 10
-3445.6391333757
 20
209.2682901787
 30
0.0
 40
5.000000000000025
100
AcDbArc
 50
254.6733579848
 51
344.6733579846
  0
ARC
  5
7E7
330
1F
100
AcDbEntity
  8
0
  6
Continuous
 62
     7
370
    15
100
AcDbCircle
 10
-221.1605301671
 20
-243.3116910029
 30
0.0
 40
4.999999999999802
100
AcDbArc
 50
179.3267082395
 51
269.3267082396
  0
ARC
  5
7E8
330
1F
100
AcDbEntity
  8
0
  6
Continuous
 62
     7
370
    15
100
AcDbCircle
 10
-215.4026766878
 20
246.6475470466
 30
0.0
 40
5.00000000000023
100
AcDbArc
 50
89.3267082394
 51
179.3267082395
  0
ARC
  5
7E9
330
1F
100
AcDbEntity
  8
0
  6
Continuous
 62
     7
370
    15
100
AcDbCircle
 10
-85.411652416
 20
245.1199316587
 30
0.0
 40
4.999999999999972
100
AcDbArc
 50
359.3267082395
 51
89.3267082394
  0
ARC
  5
7EA
330
1F
100
AcDbEntity
  8
0
  6
Continuous
 62
     7
370
    15
100
AcDbCircle
 10
-91.1695058953
 20
-244.8393063904
 30
0.0
 40
4.999999999999551
100
AcDbArc
 50
269.3267082396
 51
359.3267082394
  0
ARC
  5
7EB
330
1F
100
AcDbEntity
  8
0
  6
Continuous
 62
     7
370
    15
100
AcDbCircle
 10
-1298.4440988234
 20
-181.5694115308
 30
0.0
 40
5.000000000000414
100
AcDbArc
 50
174.6733566524
 51
264.6733566526
  0
ARC
  5
7EC
330
1F
100
AcDbEntity
  8
0
  6
Continuous
 62
     7
370
    15
100
AcDbCircle
 10
-1252.9562765203
 20
306.3076896421
 30
0.0
 40
4.999999999999989
100
AcDbArc
 50
84.6733566524
 51
174.6733566524
  0
ARC
  5
7ED
330
1F
100
AcDbEntity
  8
0
  6
Continuous
 62
     7
370
    15
100
AcDbCircle
 10
-1123.5176637233
 20
294.2393211862
 30
0.0
 40
4.999999999999797
100
AcDbArc
 50
354.6733566524
 51
84.6733566524
  0
ARC
  5
7EE
330
1F
100
AcDbEntity
  8
0
  6
Continuous
 62
     7
370
    15
100
AcDbCircle
 10
-1169.0054860263
 20
-193.6377799863
 30
0.0
 40
5.000000000000075
100
AcDbArc
 50
264.6733566526
 51
354.6733566524
  0
ARC
  5
7EF
330
1F
100
AcDbEntity
  8
0
  6
Continuous
 62
     7
370
    15
100
AcDbCircle
 10
-1904.010454077
 20
-107.873187487
 30
0.0
 40
4.999999999999917
100
AcDbArc
 50
172.0430950404
 51
262.0430950405
  0
ARC
  5
7F0
330
1F
100
AcDbEntity
  8
0
  6
Continuous
 62
     7
370
    15
100
AcDbCircle
 10
-1775.262033274
 20
-125.8688575418
 30
0.0
 40
5.000000000000227
100
AcDbArc
 50
262.0430950405
 51
352.0430950404
  0
ARC
  5
7F1
330
1F
100
AcDbEntity
  8
0
  6
Continuous
 62
     7
370
    15
100
AcDbCircle
 10
-2058.8695273035
 20
-84.5227821144
 30
0.0
 40
5.000000000000275
100
AcDbArc
 50
171.3678971028
 51
261.367897103
  0
ARC
  5
7F2
330
1F
100
AcDbEntity
  8
0
  6
Continuous
 62
     7
370
    15
100
AcDbCircle
 10
-1930.3421099726
 20
-104.034393894
 30
0.0
 40
5.00000000000013
100
AcDbArc
 50
261.3678971029
 51
351.3678971028
  0
ARC
  5
7F3
330
1F
100
AcDbEntity
  8
0
  6
Continuous
 62
     7
370
    15
100
AcDbCircle
 10
-2213.3059932337
 20
-59.3722029013
 30
0.0
 40
5.00000000000014
100
AcDbArc
 50
170.693296826
 51
260.6932968261
  0
ARC
  5
7F4
330
1F
100
AcDbEntity
  8
0
  6
Continuous
 62
     7
370
    15
100
AcDbCircle
 10
-2085.0172088144
 20
-80.3957086084
 30
0.0
 40
5.000000000000463
100
AcDbArc
 50
260.6932968261
 51
350.693296826
  0
ARC
  5
7F5
330
1F
100
AcDbEntity
  8
0
  6
Continuous
 62
     7
370
    15
100
AcDbCircle
 10
-2367.4356387807
 20
-32.4050746273
 30
0.0
 40
5.000000000000116
100
AcDbArc
 50
170.0186965493
 51
260.0186965494
  0
ARC
  5
7F6
330
1F
100
AcDbEntity
  8
0
  6
Continuous
 62
     7
370
    15
100
AcDbCircle
 10
-2239.4032713544
 20
-54.9375598702
 30
0.0
 40
4.99999999999998
100
AcDbArc
 50
260.0186965494
 51
350.0186965493
  0
ARC
  5
7F7
330
1F
100
AcDbEntity
  8
0
  6
Continuous
 62
     7
370
    15
100
AcDbCircle
 10
-2521.3732059301
 20
-3.5988355159
 30
0.0
 40
4.999999999999844
100
AcDbArc
 50
169.3434986117
 51
259.3434986119
  0
ARC
  5
7F8
330
1F
100
AcDbEntity
  8
0
  6
Continuous
 62
     7
370
    15
100
AcDbCircle
 10
-2393.6152547868
 20
-27.6385093838
 30
0.0
 40
5.00000000000019
100
AcDbArc
 50
259.3434986118
 51
349.3434986117
  0
ARC
  5
7F9
330
1F
100
AcDbEntity
  8
0
  6
Continuous
 62
     7
370
    15
100
AcDbCircle
 10
-2674.9606271701
 20
27.0194274707
 30
0.0
 40
5.000000000001673
100
AcDbArc
 50
171.4488156488
 51
258.6683006746
  0
ARC
  5
7FA
330
1F
100
AcDbEntity
  8
0
  6
Continuous
 62
     7
370
    15
100
AcDbCircle
 10
-2547.4948341989
 20
1.4759033948
 30
0.0
 40
5.000000000000304
100
AcDbArc
 50
258.6683006746
 51
348.6683006744
  0
ARC
  5
7FB
330
1F
100
AcDbEntity
  8
0
  6
Continuous
 62
     7
370
    15
100
AcDbCircle
 10
-1619.9258817669
 20
-145.7963780444
 30
0.0
 40
4.99999999999949
100
AcDbArc
 50
262.7182929775
 51
349.4050642807
  0
ARC
  5
7FC
330
1F
100
AcDbEntity
  8
0
  6
Continuous
 62
     7
370
    15
100
AcDbCircle
 10
-1748.8774266052
 20
-129.319148792
 30
0.0
 40
5.000000000000022
100
AcDbArc
 50
172.7182929776
 51
262.7182929775
  0
ARC
  5
7FD
330
1F
100
AcDbEntity
  8
0
  6
Continuous
 62
     7
370
    15
100
AcDbCircle
 10
-3420.2858785176
 20
202.513261022
 30
0.0
 40
4.999999999999306
100
AcDbArc
 50
165.3666534784
 51
255.3666534786
  0
ARC
  5
7FE
330
1F
100
AcDbEntity
  8
0
  6
Continuous
 62
     7
370
    15
100
AcDbCircle
 10
-3296.4976904395
 20
676.612082281
 30
0.0
 40
4.999999999999506
100
AcDbArc
 50
75.3666534783
 51
165.3666534784
  0
ARC
  5
7FF
330
1F
100
AcDbEntity
  8
0
  6
Continuous
 62
     7
370
    15
100
AcDbCircle
 10
-3170.7145913662
 20
643.7698535577
 30
0.0
 40
5.000000000000166
100
AcDbArc
 50
345.3666534784
 51
75.3666534783
  0
ARC
  5
800
330
1F
100
AcDbEntity
  8
0
  6
Continuous
 62
     7
370
    15
100
AcDbCircle
 10
-3294.5027794442
 20
169.6710322991
 30
0.0
 40
4.999999999999885
100
AcDbArc
 50
255.3666534785
 51
345.3666534784
  0
ARC
  5
801
330
1F
100
AcDbEntity
  8
0
  6
Continuous
 62
     7
370
    15
100
AcDbCircle
 10
-235.3088698356
 20
225.926599955
 30
0.0
 40
4.999999999997797
100
AcDbArc
 50
323.6823913371
 51
359.015392907
  0
ARC
  5
802
330
1F
100
AcDbEntity
  8
0
  6
Continuous
 62
     7
370
    15
100
AcDbCircle
 10
235.3088698424
 20
225.926599955
 30
0.0
 40
5.000000000005722
100
AcDbArc
 50
180.9846070932
 51
216.3176085003
  0
ARC
  5
803
330
1F
100
AcDbEntity
  8
0
  6
Continuous
 62
     7
370
    15
100
AcDbCircle
 10
-65.0
 20
-244.9930691619
 30
0.0
 40
4.999999999999858
100
AcDbArc
 50
180.0
 51
270.0000000001
  0
ARC
  5
804
330
1F
100
AcDbEntity
  8
0
  6
Continuous
 62
     7
370
    15
100
AcDbCircle
 10
-65.0
 20
245.0000000001
 30
0.0
 40
5.000000000000142
100
AcDbArc
 50
89.9999999999
 51
180.0
  0
ARC
  5
805
330
1F
100
AcDbEntity
  8
0
  6
Continuous
 62
     7
370
    15
100
AcDbCircle
 10
65.0
 20
244.9999999999
 30
0.0
 40
5.000000000000142
100
AcDbArc
 50
0.0
 51
89.9999999999
  0
ARC
  5
806
330
1F
100
AcDbEntity
  8
0
  6
Continuous
 62
     7
370
    15
100
AcDbCircle
 10
65.0
 20
-244.9930691617
 30
0.0
 40
5.0
100
AcDbArc
 50
270.0000000001
 51
360.0
  0
ARC
  5
807
330
1F
100
AcDbEntity
  8
0
  6
Continuous
 62
     7
370
    15
100
AcDbCircle
 10
-1274.4778835713
 20
287.2699743392
 30
0.0
 40
4.999999999991291
100
AcDbArc
 50
319.02903975
 51
354.36204132
  0
ARC
  5
808
330
1F
100
AcDbEntity
  8
0
  6
Continuous
 62
     7
370
    15
100
AcDbCircle
 10
-805.4114090363
 20
249.0901450187
 30
0.0
 40
5.0000000000122
100
AcDbArc
 50
176.3312555062
 51
211.6642569133
  0
ARC
  5
809
330
1F
100
AcDbEntity
  8
0
  6
Continuous
 62
     7
370
    15
100
AcDbCircle
 10
-1142.9347152072
 20
-195.914090757
 30
0.0
 40
4.99999999999989
100
AcDbArc
 50
175.3466484131
 51
265.3466484132
  0
ARC
  5
80A
330
1F
100
AcDbEntity
  8
0
  6
Continuous
 62
     7
370
    15
100
AcDbCircle
 10
-1103.1830225461
 20
292.4638476855
 30
0.0
 40
5.000000000000003
100
AcDbArc
 50
85.346648413
 51
175.3466484131
  0
ARC
  5
80B
330
1F
100
AcDbEntity
  8
0
  6
Continuous
 62
     7
370
    15
100
AcDbCircle
 10
-973.6115326757
 20
281.9173310688
 30
0.0
 40
5.000000000000054
100
AcDbArc
 50
355.3466484131
 51
85.346648413
  0
ARC
  5
80C
330
1F
100
AcDbEntity
  8
0
  6
Continuous
 62
     7
370
    15
100
AcDbCircle
 10
-1013.3632253367
 20
-206.4606073734
 30
0.0
 40
5.000000000000247
100
AcDbArc
 50
265.3466484132
 51
355.346648413
  0
ARC
  5
80D
330
1F
100
AcDbEntity
  8
0
  6
Continuous
 62
     7
370
    15
100
AcDbCircle
 10
-3320.8147698522
 20
661.3054228528
 30
0.0
 40
4.999999999982661
100
AcDbArc
 50
309.722336576
 51
345.055338146
  0
ARC
  5
80E
330
1F
100
AcDbEntity
  8
0
  6
Continuous
 62
     7
370
    15
100
AcDbCircle
 10
-2864.0971239268
 20
547.7710721037
 30
0.0
 40
5.000000000011376
100
AcDbArc
 50
167.0245523322
 51
202.3575537392
  0
ARC
  5
80F
330
1F
100
AcDbEntity
  8
0
  6
Continuous
 62
     7
370
    15
100
AcDbCircle
 10
-3269.1433066381
 20
163.208538908
 30
0.0
 40
4.999999999999803
100
AcDbArc
 50
166.039945239
 51
256.0399452392
  0
ARC
  5
810
330
1F
100
AcDbEntity
  8
0
  6
Continuous
 62
     7
370
    15
100
AcDbCircle
 10
-3150.934747359
 20
638.7292475422
 30
0.0
 40
5.000000000000838
100
AcDbArc
 50
76.039945239
 51
166.039945239
  0
ARC
  5
811
330
1F
100
AcDbEntity
  8
0
  6
Continuous
 62
     7
370
    15
100
AcDbCircle
 10
-3024.7744075237
 20
607.3673494389
 30
0.0
 40
4.999999999999891
100
AcDbArc
 50
346.0399452391
 51
76.039945239
  0
ARC
  5
812
330
1F
100
AcDbEntity
  8
0
  6
Continuous
 62
     7
370
    15
100
AcDbCircle
 10
-3142.9829668027
 20
131.8466408052
 30
0.0
 40
5.00000000000087
100
AcDbArc
 50
256.0399452392
 51
346.039945239
  0
ARC
  5
813
330
1F
100
AcDbEntity
  8
0
  6
Continuous
 62
     7
370
    15
100
AcDbCircle
 10
244.4010997438
 20
-221.9732749649
 30
0.0
 40
5.000000000003983
100
AcDbArc
 50
121.4434519616
 51
180.9906276408
  0
ARC
  5
814
330
1F
100
AcDbEntity
  8
0
  6
Continuous
 62
     7
370
    15
100
AcDbCircle
 10
-244.4010996834
 20
-221.9732749649
 30
0.0
 40
5.000000000001149
100
AcDbArc
 50
359.0093723593
 51
58.5565488389
  0
ARC
  5
815
330
1F
100
AcDbEntity
  8
0
  6
Continuous
 62
     7
370
    15
100
AcDbCircle
 10
-832.6859451819
 20
-198.0709739036
 30
0.0
 40
5.000000000002252
100
AcDbArc
 50
116.7901003745
 51
176.3372760538
  0
ARC
  5
816
330
1F
100
AcDbEntity
  8
0
  6
Continuous
 62
     7
370
    15
100
AcDbCircle
 10
-1319.8769392722
 20
-158.4158929915
 30
0.0
 40
5.000000000001629
100
AcDbArc
 50
354.3560207723
 51
53.9031972518
  0
ARC
  5
817
330
1F
100
AcDbEntity
  8
0
  6
Continuous
 62
     7
370
    15
100
AcDbCircle
 10
-2963.3272117999
 20
110.9068411823
 30
0.0
 40
5.000000000003859
100
AcDbArc
 50
107.4833972005
 51
167.0305728798
  0
ARC
  5
818
330
1F
100
AcDbEntity
  8
0
  6
Continuous
 62
     7
370
    15
100
AcDbCircle
 10
-3437.6922240458
 20
228.8281086523
 30
0.0
 40
4.999999999999911
100
AcDbArc
 50
345.0493175983
 51
44.5964940778
  0
ARC
  5
819
330
1F
100
AcDbEntity
  8
0
  6
Continuous
 62
     7
370
    15
100
AcDbCircle
 10
-2305.2449483381
 20
432.7158642134
 30
0.0
 40
5.000000000003257
100
AcDbArc
 50
300.3810409364
 51
329.1295351262
  0
ARC
  5
81A
330
1F
100
AcDbEntity
  8
0
  6
Continuous
 62
     7
370
    15
100
AcDbCircle
 10
-1840.8220425732
 20
356.6079047049
 30
0.0
 40
5.000000000016749
100
AcDbArc
 50
192.2570585228
 51
221.005552592
  0
ARC
  5
81B
330
1F
100
AcDbEntity
  8
0
  6
Continuous
 62
     7
370
    15
100
AcDbCircle
 10
91.169505896
 20
-244.8393063908
 30
0.0
 40
4.999999999999832
100
AcDbArc
 50
180.6732917607
 51
270.6732917608
  0
ARC
  5
81C
330
1F
100
AcDbEntity
  8
0
  6
Continuous
 62
     7
370
    15
100
AcDbCircle
 10
85.4116524153
 20
245.1199316587
 30
0.0
 40
4.999999999999826
100
AcDbArc
 50
90.6732917606
 51
180.6732917607
  0
ARC
  5
81D
330
1F
100
AcDbEntity
  8
0
  6
Continuous
 62
     7
370
    15
100
AcDbCircle
 10
215.4026766871
 20
246.6475470466
 30
0.0
 40
5.000000000000252
100
AcDbArc
 50
0.6732917607
 51
90.6732917606
  0
ARC
  5
81E
330
1F
100
AcDbEntity
  8
0
  6
Continuous
 62
     7
370
    15
100
AcDbCircle
 10
221.1605301678
 20
-243.3116910025
 30
0.0
 40
4.999999999999728
100
AcDbArc
 50
270.6732917608
 51
0.6732917607
  0
ARC
  5
81F
330
1F
100
AcDbEntity
  8
0
  6
Continuous
 62
     7
370
    15
100
AcDbCircle
 10
-987.2675058779
 20
-208.4304062771
 30
0.0
 40
4.999999999999994
100
AcDbArc
 50
176.0199401737
 51
266.0199401738
  0
ARC
  5
820
330
1F
100
AcDbEntity
  8
0
  6
Continuous
 62
     7
370
    15
100
AcDbCircle
 10
-953.2574320957
 20
280.3809302405
 30
0.0
 40
5.000000000000225
100
AcDbArc
 50
86.0199401736
 51
176.0199401737
  0
ARC
  5
821
330
1F
100
AcDbEntity
  8
0
  6
Continuous
 62
     7
370
    15
100
AcDbCircle
 10
-823.570957436
 20
271.3577218116
 30
0.0
 40
5.000000000000213
100
AcDbArc
 50
356.0199401737
 51
86.0199401736
  0
ARC
  5
822
330
1F
100
AcDbEntity
  8
0
  6
Continuous
 62
     7
370
    15
100
AcDbCircle
 10
-857.5810312182
 20
-217.4536147056
 30
0.0
 40
5.000000000000063
100
AcDbArc
 50
266.0199401738
 51
356.0199401737
  0
ARC
  5
823
330
1F
100
AcDbEntity
  8
0
  6
Continuous
 62
     7
370
    15
100
AcDbCircle
 10
-1684.8088095912
 20
405.2441441088
 30
0.0
 40
7.929333424713197
100
AcDbArc
 50
172.7919211254
 51
256.948738971
  0
ARC
  5
824
330
1F
100
AcDbEntity
  8
0
  6
Continuous
 62
     7
370
    15
100
AcDbCircle
 10
-1684.7929526985
 20
405.2038182566
 30
0.0
 40
3.950238805156879
100
AcDbArc
 50
172.6569037273
 51
250.7678685011
  0
ARC
  5
825
330
1F
100
AcDbEntity
  8
0
  6
Continuous
 62
     7
370
    15
100
AcDbCircle
 10
-1982.1446684795
 20
448.4492978975
 30
0.0
 40
7.92846122770412
100
AcDbArc
 50
171.4392828874
 51
255.1237939136
  0
ARC
  5
826
330
1F
100
AcDbEntity
  8
0
  6
Continuous
 62
     7
370
    15
100
AcDbCircle
 10
-1982.1298371912
 20
448.4086883017
 30
0.0
 40
3.949285300870168
100
AcDbArc
 50
171.3026476938
 51
248.4468270139
  0
ARC
  5
827
330
1F
100
AcDbEntity
  8
0
  6
Continuous
 62
     7
370
    15
100
AcDbCircle
 10
-2437.5739527837
 20
528.6045973769
 30
0.0
 40
7.929338868584575
100
AcDbArc
 50
264.4348875564
 51
348.5946566729
  0
ARC
  5
828
330
1F
100
AcDbEntity
  8
0
  6
Continuous
 62
     7
370
    15
100
AcDbCircle
 10
-2437.6089097648
 20
528.5799514447
 30
0.0
 40
3.958835581026036
100
AcDbArc
 50
270.7134877654
 51
348.6288418238
  0
ARC
  5
829
330
1F
100
AcDbEntity
  8
0
  6
Continuous
 62
     7
370
    15
100
AcDbCircle
 10
-2142.0003450889
 20
474.6458726391
 30
0.0
 40
7.928461227814289
100
AcDbArc
 50
266.2627996783
 51
349.9473107642
  0
ARC
  5
82A
330
1F
100
AcDbEntity
  8
0
  6
Continuous
 62
     7
370
    15
100
AcDbCircle
 10
-2142.0346756154
 20
474.6203836608
 30
0.0
 40
3.957918087410706
100
AcDbArc
 50
273.039360386
 51
349.9843520865
  0
ARC
  5
82B
330
1F
100
AcDbEntity
  8
0
  6
Continuous
 62
     7
370
    15
100
AcDbCircle
 10
-3117.5493048841
 20
125.6825899291
 30
0.0
 40
4.999999999999161
100
AcDbArc
 50
166.7132369997
 51
256.7132369998
  0
ARC
  5
82C
330
1F
100
AcDbEntity
  8
0
  6
Continuous
 62
     7
370
    15
100
AcDbCircle
 10
-3004.9366976023
 20
602.5595221747
 30
0.0
 40
4.999999999999722
100
AcDbArc
 50
76.7132369996
 51
166.7132369997
  0
ARC
  5
82D
330
1F
100
AcDbEntity
  8
0
  6
Continuous
 62
     7
370
    15
100
AcDbCircle
 10
-2878.41653825
 20
572.6822853972
 30
0.0
 40
5.000000000000555
100
AcDbArc
 50
346.7132369997
 51
76.7132369996
  0
ARC
  5
82E
330
1F
100
AcDbEntity
  8
0
  6
Continuous
 62
     7
370
    15
100
AcDbCircle
 10
-2991.0291455317
 20
95.8053531519
 30
0.0
 40
5.00000000000077
100
AcDbArc
 50
256.7132369998
 51
346.7132369996
  0
ARC
  5
82F
330
1F
100
AcDbEntity
  8
0
  6
PHANTOM
 62
     8
370
     0
100
AcDbCircle
 10
-2576.3993070128
 20
519.0461645504
 30
0.0
 40
4.962455485105174
100
AcDbArc
 50
169.1102060944
 51
259.1034924281
  0
ARC
  5
830
330
1F
100
AcDbEntity
  8
0
  6
PHANTOM
 62
     8
370
     0
100
AcDbCircle
 10
-2448.8595993502
 20
493.48782833
 30
0.0
 40
4.96245548510573
100
AcDbArc
 50
258.2331089209
 51
348.2263952545
  0
ARC
  5
831
330
1F
100
AcDbEntity
  8
0
  6
PHANTOM
 62
     8
370
     0
100
AcDbCircle
 10
-2593.1178192982
 20
435.6184268816
 30
0.0
 40
4.962455485104894
100
AcDbArc
 50
169.1102060944
 51
259.1034924281
  0
ARC
  5
832
330
1F
100
AcDbEntity
  8
0
  6
PHANTOM
 62
     8
370
     0
100
AcDbCircle
 10
-2465.5781116356
 20
410.0600906613
 30
0.0
 40
4.962455485105693
100
AcDbArc
 50
258.2331089209
 51
348.2263952545
  0
ARC
  5
833
330
1F
100
AcDbEntity
  8
0
  6
PHANTOM
 62
     8
370
     0
100
AcDbCircle
 10
-2428.616848449
 20
489.555199223
 30
0.0
 40
4.962455485105388
100
AcDbArc
 50
169.7854040317
 51
259.7786903653
  0
ARC
  5
834
330
1F
100
AcDbEntity
  8
0
  6
PHANTOM
 62
     8
370
     0
100
AcDbCircle
 10
-2300.784813198
 20
465.5015852613
 30
0.0
 40
4.962455485105885
100
AcDbArc
 50
258.9083068582
 51
348.9015931918
  0
ARC
  5
835
330
1F
100
AcDbEntity
  8
0
  6
PHANTOM
 62
     8
370
     0
100
AcDbCircle
 10
-2444.3510745371
 20
405.9362408763
 30
0.0
 40
4.962455485105724
100
AcDbArc
 50
169.7854040317
 51
259.7786903653
  0
ARC
  5
836
330
1F
100
AcDbEntity
  8
0
  6
PHANTOM
 62
     8
370
     0
100
AcDbCircle
 10
-2316.5190392861
 20
381.8826269148
 30
0.0
 40
4.962455485107048
100
AcDbArc
 50
258.9083068582
 51
348.9015931918
  0
ARC
  5
837
330
1F
100
AcDbEntity
  8
0
  6
PHANTOM
 62
     8
370
     0
100
AcDbCircle
 10
-2280.4971251571
 20
461.8077729205
 30
0.0
 40
4.962455485106032
100
AcDbArc
 50
170.4606019692
 51
260.4538883029
  0
ARC
  5
838
330
1F
100
AcDbEntity
  8
0
  6
PHANTOM
 62
     8
370
     0
100
AcDbCircle
 10
-2152.3905144949
 20
439.2622215704
 30
0.0
 40
4.962455485104939
100
AcDbArc
 50
259.5835047957
 51
349.5767911294
  0
ARC
  5
839
330
1F
100
AcDbEntity
  8
0
  6
PHANTOM
 62
     8
370
     0
100
AcDbCircle
 10
-2295.244880018
 20
378.0092061539
 30
0.0
 40
4.962455485104927
100
AcDbArc
 50
170.4606019692
 51
260.4538883029
  0
ARC
  5
83A
330
1F
100
AcDbEntity
  8
0
  6
PHANTOM
 62
     8
370
     0
100
AcDbCircle
 10
-2167.1382693558
 20
355.4636548039
 30
0.0
 40
4.962455485105389
100
AcDbArc
 50
259.5835047958
 51
349.5767911294
  0
ARC
  5
83B
330
1F
100
AcDbEntity
  8
0
  6
PHANTOM
 62
     8
370
     0
100
AcDbCircle
 10
-2132.1922311834
 20
435.8299794833
 30
0.0
 40
4.962455485105216
100
AcDbArc
 50
171.1352022459
 51
261.1284885795
  0
ARC
  5
83C
330
1F
100
AcDbEntity
  8
0
  6
PHANTOM
 62
     8
370
     0
100
AcDbCircle
 10
-2003.8290548375
 20
414.7942826939
 30
0.0
 40
4.962455485106035
100
AcDbArc
 50
260.2581050724
 51
350.251391406
  0
ARC
  5
83D
330
1F
100
AcDbEntity
  8
0
  6
PHANTOM
 62
     8
370
     0
100
AcDbCircle
 10
-2145.9523426467
 20
351.8635850264
 30
0.0
 40
4.962455485105594
100
AcDbArc
 50
171.1352022459
 51
261.1284885796
  0
ARC
  5
83E
330
1F
100
AcDbEntity
  8
0
  6
PHANTOM
 62
     8
370
     0
100
AcDbCircle
 10
-2017.5891663008
 20
330.8278882371
 30
0.0
 40
4.962455485105496
100
AcDbArc
 50
260.2581050724
 51
350.251391406
  0
ARC
  5
83F
330
1F
100
AcDbEntity
  8
0
  6
PHANTOM
 62
     8
370
     0
100
AcDbCircle
 10
-1983.591761254
 20
411.6000875168
 30
0.0
 40
4.962455485105764
100
AcDbArc
 50
171.8098025228
 51
261.8030888564
  0
ARC
  5
840
330
1F
100
AcDbEntity
  8
0
  6
PHANTOM
 62
     8
370
     0
100
AcDbCircle
 10
-1854.9898136183
 20
392.0771613699
 30
0.0
 40
4.962455485105659
100
AcDbArc
 50
260.9327053493
 51
350.9259916829
  0
ARC
  5
841
330
1F
100
AcDbEntity
  8
0
  6
PHANTOM
 62
     8
370
     0
100
AcDbCircle
 10
-1996.3623218187
 20
327.4775052428
 30
0.0
 40
4.96245548510539
100
AcDbArc
 50
171.8098025228
 51
261.8030888564
  0
ARC
  5
842
330
1F
100
AcDbEntity
  8
0
  6
PHANTOM
 62
     8
370
     0
100
AcDbCircle
 10
-1867.760374183
 20
307.954579096
 30
0.0
 40
4.96245548510565
100
AcDbArc
 50
260.9327053493
 51
350.9259916829
  0
ARC
  5
843
330
1F
100
AcDbEntity
  8
0
  6
PHANTOM
 62
     8
370
     0
100
AcDbCircle
 10
-1834.5843034579
 20
389.1023183909
 30
0.0
 40
4.96245548510575
100
AcDbArc
 50
172.4850004603
 51
262.478286794
  0
ARC
  5
844
330
1F
100
AcDbEntity
  8
0
  6
PHANTOM
 62
     8
370
     0
100
AcDbCircle
 10
-1705.7612241949
 20
371.0962130311
 30
0.0
 40
4.962455485105798
100
AcDbArc
 50
261.6079032869
 51
351.6011896205
  0
ARC
  5
845
330
1F
100
AcDbEntity
  8
0
  6
PHANTOM
 62
     8
370
     0
100
AcDbCircle
 10
-1846.362663797
 20
304.8350869585
 30
0.0
 40
4.962455485105708
100
AcDbArc
 50
172.4850004603
 51
262.478286794
  0
ARC
  5
846
330
1F
100
AcDbEntity
  8
0
  6
PHANTOM
 62
     8
370
     0
100
AcDbCircle
 10
-1717.539584534
 20
286.8289815987
 30
0.0
 40
4.962455485106081
100
AcDbArc
 50
261.6079032869
 51
351.6011896205
  0
ARC
  5
847
330
1F
100
AcDbEntity
  8
0
  6
PHANTOM
 62
     8
370
     0
100
AcDbCircle
 10
-1685.3125327005
 20
368.4399777896
 30
0.0
 40
4.962455485106163
100
AcDbArc
 50
173.1601983976
 51
263.1534847312
  0
ARC
  5
848
330
1F
100
AcDbEntity
  8
0
  6
PHANTOM
 62
     8
370
     0
100
AcDbCircle
 10
-1556.286211615
 20
351.953193744
 30
0.0
 40
4.962455485105602
100
AcDbArc
 50
262.2831012241
 51
352.2763875577
  0
ARC
  5
849
330
1F
100
AcDbEntity
  8
0
  6
PHANTOM
 62
     8
370
     0
100
AcDbCircle
 10
-1696.0970571405
 20
284.0397994831
 30
0.0
 40
4.962455485105984
100
AcDbArc
 50
173.1601983976
 51
263.1534847312
  0
ARC
  5
84A
330
1F
100
AcDbEntity
  8
0
  6
PHANTOM
 62
     8
370
     0
100
AcDbCircle
 10
-1567.070736055
 20
267.5530154376
 30
0.0
 40
4.962455485105399
100
AcDbArc
 50
262.2831012241
 51
352.2763875577
  0
ENDSEC
  0
SECTION
  2
OBJECTS
  0
DICTIONARY
  5
C
330
0
100
AcDbDictionary
281
     1
  3
ACAD_GROUP
350
D
  3
ACAD_LAYOUT
350
1A
  3
ACAD_MLINESTYLE
350
17
  3
ACAD_PLOTSETTINGS
350
19
  3
ACAD_PLOTSTYLENAME
350
E
  3
ACAD_SCALELIST
350
47
  0
DICTIONARY
  5
D
102
{ACAD_REACTORS
330
C
102
}
330
C
100
AcDbDictionary
281
     1
  0
DICTIONARY
  5
1A
102
{ACAD_REACTORS
330
C
102
}
330
C
100
AcDbDictionary
281
     1
  3
Layout1
350
1E
  3
Layout2
350
26
  3
Model
350
22
  0
DICTIONARY
  5
17
102
{ACAD_REACTORS
330
C
102
}
330
C
100
AcDbDictionary
281
     1
  3
Standard
350
18
  0
DICTIONARY
  5
19
102
{ACAD_REACTORS
330
C
102
}
330
C
100
AcDbDictionary
281
     1
  0
ACDBDICTIONARYWDFLT
  5
E
102
{ACAD_REACTORS
330
C
102
}
330
C
100
AcDbDictionary
281
     1
  3
Normal
350
F
100
AcDbDictionaryWithDefault
340
F
  0
DICTIONARY
  5
47
102
{ACAD_REACTORS
330
C
102
}
330
C
100
AcDbDictionary
281
     1
  3
A0
350
48
  3
A1
350
49
  3
A2
350
4A
  3
A3
350
4B
  3
A4
350
4C
  3
A5
350
4D
  3
A6
350
4E
  3
A7
350
4F
  3
A8
350
50
  3
A9
350
51
  3
B0
350
52
  3
B1
350
53
  3
B2
350
54
  3
B3
350
55
  3
B4
350
56
  3
B5
350
57
  3
B6
350
58
  3
B7
350
59
  3
B8
350
5A
  3
B9
350
5B
  3
C0
350
5C
  3
C1
350
5D
  3
C2
350
5E
  3
C3
350
5F
  3
C4
350
60
  3
C5
350
61
  3
C6
350
62
  3
C7
350
63
  3
C8
350
64
  3
C9
350
65
  3
D0
350
66
  3
D1
350
67
  3
D2
350
68
  0
LAYOUT
  5
1E
102
{ACAD_REACTORS
330
1A
102
}
330
1A
100
AcDbPlotSettings
  1

  2
none_device
  4

  6

 40
0.0
 41
0.0
 42
0.0
 43
0.0
 44
0.0
 45
0.0
 46
0.0
 47
0.0
 48
0.0
 49
0.0
140
0.0
141
0.0
142
1.0
143
1.0
 70
   688
 72
     1
 73
     0
 74
     5
  7

 75
    16
147
1.0
148
0.0
149
0.0
100
AcDbLayout
  1
Layout1
 70
     1
 71
     1
 10
0.0
 20
0.0
 11
420.0
 21
297.0
 12
0.0
 22
0.0
 32
0.0
 14
1.0000000000E+20
 24
1.0000000000E+20
 34
1.0000000000E+20
 15
-1.0000000000E+20
 25
-1.0000000000E+20
 35
-1.0000000000E+20
146
0.0
 13
0.0
 23
0.0
 33
0.0
 16
1.0
 26
0.0
 36
0.0
 17
0.0
 27
1.0
 37
0.0
 76
     0
330
1B
  0
LAYOUT
  5
26
102
{ACAD_REACTORS
330
1A
102
}
330
1A
100
AcDbPlotSettings
  1

  2
none_device
  4

  6

 40
0.0
 41
0.0
 42
0.0
 43
0.0
 44
0.0
 45
0.0
 46
0.0
 47
0.0
 48
0.0
 49
0.0
140
0.0
141
0.0
142
1.0
143
1.0
 70
   688
 72
     1
 73
     0
 74
     5
  7

 75
    16
147
1.0
148
0.0
149
0.0
100
AcDbLayout
  1
Layout2
 70
     1
 71
     2
 10
0.0
 20
0.0
 11
0.0
 21
0.0
 12
0.0
 22
0.0
 32
0.0
 14
0.0
 24
0.0
 34
0.0
 15
0.0
 25
0.0
 35
0.0
146
0.0
 13
0.0
 23
0.0
 33
0.0
 16
1.0
 26
0.0
 36
0.0
 17
0.0
 27
1.0
 37
0.0
 76
     0
330
23
  0
LAYOUT
  5
22
102
{ACAD_REACTORS
330
1A
102
}
330
1A
100
AcDbPlotSettings
  1

  2
none_device
  4
ANSI_A_(11.00_x_8.50_Inches)
  6

 40
6.35
 41
19.05
 42
6.35000508
 43
19.05000254
 44
279.4
 45
215.9
 46
236.676453759
 47
72.2896651769
 48
0.0
 49
0.0
140
0.0
141
0.0
142
0.002552343
143
1.0
 70
  1696
 72
     0
 73
     0
 74
     0
  7

 75
     0
147
0.0179189148
148
-1300.4909072572
149
0.0
100
AcDbLayout
  1
Model
 70
     1
 71
     0
 10
0.0
 20
0.0
 11
420.0
 21
297.0
 12
0.0
 22
0.0
 32
0.0
 14
-3727.1521465963
 24
-249.9930691619
 34
0.0
 15
539.5157607542
 25
762.4243042152
 35
0.0
146
0.0
 13
0.0
 23
0.0
 33
0.0
 16
1.0
 26
0.0
 36
0.0
 17
0.0
 27
1.0
 37
0.0
 76
     0
330
1F
331
29
  0
MLINESTYLE
  5
18
102
{ACAD_REACTORS
330
17
102
}
330
17
100
AcDbMlineStyle
  2
Standard
 70
     0
  3

 62
   256
 51
90.0
 52
90.0
 71
     2
 49
0.5
 62
   256
  6
BYLAYER
 49
-0.5
 62
   256
  6
BYLAYER
  0
ACDBPLACEHOLDER
  5
F
102
{ACAD_REACTORS
330
E
102
}
330
E
  0
SCALE
  5
48
102
{ACAD_REACTORS
330
47
102
}
330
47
100
AcDbScale
 70
     0
300
1:1
140
1.0
141
1.0
290
     1
  0
SCALE
  5
49
102
{ACAD_REACTORS
330
47
102
}
330
47
100
AcDbScale
 70
     0
300
1:2
140
1.0
141
2.0
290
     0
  0
SCALE
  5
4A
102
{ACAD_REACTORS
330
47
102
}
330
47
100
AcDbScale
 70
     0
300
1:4
140
1.0
141
4.0
290
     0
  0
SCALE
  5
4B
102
{ACAD_REACTORS
330
47
102
}
330
47
100
AcDbScale
 70
     0
300
1:5
140
1.0
141
5.0
290
     0
  0
SCALE
  5
4C
102
{ACAD_REACTORS
330
47
102
}
330
47
100
AcDbScale
 70
     0
300
1:8
140
1.0
141
8.0
290
     0
  0
SCALE
  5
4D
102
{ACAD_REACTORS
330
47
102
}
330
47
100
AcDbScale
 70
     0
300
1:10
140
1.0
141
10.0
290
     0
  0
SCALE
  5
4E
102
{ACAD_REACTORS
330
47
102
}
330
47
100
AcDbScale
 70
     0
300
1:16
140
1.0
141
16.0
290
     0
  0
SCALE
  5
4F
102
{ACAD_REACTORS
330
47
102
}
330
47
100
AcDbScale
 70
     0
300
1:20
140
1.0
141
20.0
290
     0
  0
SCALE
  5
50
102
{ACAD_REACTORS
330
47
102
}
330
47
100
AcDbScale
 70
     0
300
1:30
140
1.0
141
30.0
290
     0
  0
SCALE
  5
51
102
{ACAD_REACTORS
330
47
102
}
330
47
100
AcDbScale
 70
     0
300
1:40
140
1.0
141
40.0
290
     0
  0
SCALE
  5
52
102
{ACAD_REACTORS
330
47
102
}
330
47
100
AcDbScale
 70
     0
300
1:50
140
1.0
141
50.0
290
     0
  0
SCALE
  5
53
102
{ACAD_REACTORS
330
47
102
}
330
47
100
AcDbScale
 70
     0
300
1:100
140
1.0
141
100.0
290
     0
  0
SCALE
  5
54
102
{ACAD_REACTORS
330
47
102
}
330
47
100
AcDbScale
 70
     0
300
2:1
140
2.0
141
1.0
290
     0
  0
SCALE
  5
55
102
{ACAD_REACTORS
330
47
102
}
330
47
100
AcDbScale
 70
     0
300
4:1
140
4.0
141
1.0
290
     0
  0
SCALE
  5
56
102
{ACAD_REACTORS
330
47
102
}
330
47
100
AcDbScale
 70
     0
300
8:1
140
8.0
141
1.0
290
     0
  0
SCALE
  5
57
102
{ACAD_REACTORS
330
47
102
}
330
47
100
AcDbScale
 70
     0
300
10:1
140
10.0
141
1.0
290
     0
  0
SCALE
  5
58
102
{ACAD_REACTORS
330
47
102
}
330
47
100
AcDbScale
 70
     0
300
100:1
140
100.0
141
1.0
290
     0
  0
SCALE
  5
59
102
{ACAD_REACTORS
330
47
102
}
330
47
100
AcDbScale
 70
     0
300
1/128" = 1'-0"
140
0.0078125
141
12.0
290
     0
  0
SCALE
  5
5A
102
{ACAD_REACTORS
330
47
102
}
330
47
100
AcDbScale
 70
     0
300
1/64" = 1'-0"
140
0.015625
141
12.0
290
     0
  0
SCALE
  5
5B
102
{ACAD_REACTORS
330
47
102
}
330
47
100
AcDbScale
 70
     0
300
1/32" = 1'-0"
140
0.03125
141
12.0
290
     0
  0
SCALE
  5
5C
102
{ACAD_REACTORS
330
47
102
}
330
47
100
AcDbScale
 70
     0
300
1/16" = 1'-0"
140
0.0625
141
12.0
290
     0
  0
SCALE
  5
5D
102
{ACAD_REACTORS
330
47
102
}
330
47
100
AcDbScale
 70
     0
300
3/32" = 1'-0"
140
0.09375
141
12.0
290
     0
  0
SCALE
  5
5E
102
{ACAD_REACTORS
330
47
102
}
330
47
100
AcDbScale
 70
     0
300
1/8" = 1'-0"
140
0.125
141
12.0
290
     0
  0
SCALE
  5
5F
102
{ACAD_REACTORS
330
47
102
}
330
47
100
AcDbScale
 70
     0
300
3/16" = 1'-0"
140
0.1875
141
12.0
290
     0
  0
SCALE
  5
60
102
{ACAD_REACTORS
330
47
102
}
330
47
100
AcDbScale
 70
     0
300
1/4" = 1'-0"
140
0.25
141
12.0
290
     0
  0
SCALE
  5
61
102
{ACAD_REACTORS
330
47
102
}
330
47
100
AcDbScale
 70
     0
300
3/8" = 1'-0"
140
0.375
141
12.0
290
     0
  0
SCALE
  5
62
102
{ACAD_REACTORS
330
47
102
}
330
47
100
AcDbScale
 70
     0
300
1/2" = 1'-0"
140
0.5
141
12.0
290
     0
  0
SCALE
  5
63
102
{ACAD_REACTORS
330
47
102
}
330
47
100
AcDbScale
 70
     0
300
3/4" = 1'-0"
140
0.75
141
12.0
290
     0
  0
SCALE
  5
64
102
{ACAD_REACTORS
330
47
102
}
330
47
100
AcDbScale
 70
     0
300
1" = 1'-0"
140
1.0
141
12.0
290
     0
  0
SCALE
  5
65
102
{ACAD_REACTORS
330
47
102
}
330
47
100
AcDbScale
 70
     0
300
1-1/2" = 1'-0"
140
1.5
141
12.0
290
     0
  0
SCALE
  5
66
102
{ACAD_REACTORS
330
47
102
}
330
47
100
AcDbScale
 70
     0
300
3" = 1'-0"
140
3.0
141
12.0
290
     0
  0
SCALE
  5
67
102
{ACAD_REACTORS
330
47
102
}
330
47
100
AcDbScale
 70
     0
300
6" = 1'-0"
140
6.0
141
12.0
290
     0
  0
SCALE
  5
68
102
{ACAD_REACTORS
330
47
102
}
330
47
100
AcDbScale
 70
     0
300
1'-0" = 1'-0"
140
12.0
141
12.0
290
     0
  0
ENDSEC
  0
EOF
