  0
SECTION
  2
HEADER
  9
$ACADVER
  1
AC1015
  9
$ACADMAINTVER
 70
     6
  9
$DWGCODEPAGE
  3
ANSI_1251
  9
$INSBASE
 10
0.0
 20
0.0
 30
0.0
  9
$EXTMIN
 10
0.0
 20
0.0
 30
0.0
  9
$EXTMAX
 10
420.0
 20
297.0
 30
0.0
  9
$LIMMIN
 10
0.0
 20
0.0
  9
$LIMMAX
 10
420.0
 20
297.0
  9
$ORTHOMODE
 70
     0
  9
$REGENMODE
 70
     1
  9
$FILLMODE
 70
     1
  9
$QTEXTMODE
 70
     0
  9
$MIRRTEXT
 70
     1
  9
$LTSCALE
 40
1.0
  9
$ATTMODE
 70
     1
  9
$TEXTSIZE
 40
5.0
  9
$TRACEWID
 40
1.0
  9
$TEXTSTYLE
  7
Standard
  9
$CLAYER
  8
0
  9
$CELTYPE
  6
ByLayer
  9
$CECOLOR
 62
   256
  9
$CELTSCALE
 40
1.0
  9
$DISPSILH
 70
     0
  9
$DIMSCALE
 40
1.0
  9
$DIMASZ
 40
5.0
  9
$DIMEXO
 40
0.0
  9
$DIMDLI
 40
3.75
  9
$DIMRND
 40
0.0
  9
$DIMDLE
 40
0.0
  9
$DIMEXE
 40
2.0
  9
$DIMTP
 40
0.0
  9
$DIMTM
 40
0.0
  9
$DIMTXT
 40
5.0
  9
$DIMCEN
 40
2.5
  9
$DIMTSZ
 40
0.0
  9
$DIMTOL
 70
     0
  9
$DIMLIM
 70
     0
  9
$DIMTIH
 70
     1
  9
$DIMTOH
 70
     1
  9
$DIMSE1
 70
     0
  9
$DIMSE2
 70
     0
  9
$DIMTAD
 70
     1
  9
$DIMZIN
 70
     0
  9
$DIMBLK
  1

  9
$DIMASO
 70
     1
  9
$DIMSHO
 70
     1
  9
$DIMPOST
  1

  9
$DIMAPOST
  1

  9
$DIMALT
 70
     0
  9
$DIMALTD
 70
     3
  9
$DIMALTF
 40
0.0393700787
  9
$DIMLFAC
 40
1.0
  9
$DIMTOFL
 70
     1
  9
$DIMTVP
 40
0.0
  9
$DIMTIX
 70
     0
  9
$DIMSOXD
 70
     0
  9
$DIMSAH
 70
     0
  9
$DIMBLK1
  1

  9
$DIMBLK2
  1

  9
$DIMSTYLE
  2
ISO-25
  9
$DIMCLRD
 70
     0
  9
$DIMCLRE
 70
     0
  9
$DIMCLRT
 70
     0
  9
$DIMTFAC
 40
1.0
  9
$DIMGAP
 40
1.524
  9
$DIMJUST
 70
     0
  9
$DIMSD1
 70
     0
  9
$DIMSD2
 70
     0
  9
$DIMTOLJ
 70
     0
  9
$DIMTZIN
 70
     0
  9
$DIMALTZ
 70
     0
  9
$DIMALTTZ
 70
     0
  9
$DIMUPT
 70
     0
  9
$DIMDEC
 70
     1
  9
$DIMTDEC
 70
     2
  9
$DIMALTU
 70
     2
  9
$DIMALTTD
 70
     3
  9
$DIMTXSTY
  7
Standard
  9
$DIMAUNIT
 70
     0
  9
$DIMADEC
 70
     2
  9
$DIMALTRND
 40
0.0
  9
$DIMAZIN
 70
     0
  9
$DIMDSEP
 70
    44
  9
$DIMATFIT
 70
     3
  9
$DIMFRAC
 70
     0
  9
$DIMLDRBLK
  1

  9
$DIMLUNIT
 70
     2
  9
$DIMLWD
 70
    -2
  9
$DIMLWE
 70
    -2
  9
$DIMTMOVE
 70
     0
  9
$LUNITS
 70
     2
  9
$LUPREC
 70
     1
  9
$SKETCHINC
 40
1.0
  9
$FILLETRAD
 40
10.0
  9
$AUNITS
 70
     0
  9
$AUPREC
 70
     2
  9
$MENU
  1
.
  9
$ELEVATION
 40
0.0
  9
$PELEVATION
 40
0.0
  9
$THICKNESS
 40
0.0
  9
$LIMCHECK
 70
     0
  9
$CHAMFERA
 40
0.0
  9
$CHAMFERB
 40
0.0
  9
$CHAMFERC
 40
0.0
  9
$CHAMFERD
 40
0.0
  9
$SKPOLY
 70
     0
  9
$TDCREATE
 40
2459649.664703773
  9
$TDUCREATE
 40
2459649.539703773
  9
$TDUPDATE
 40
2459649.664704132
  9
$TDUUPDATE
 40
2459649.539704132
  9
$TDINDWG
 40
0.0000000116
  9
$TDUSRTIMER
 40
0.0000000116
  9
$USRTIMER
 70
     1
  9
$ANGBASE
 50
0.0
  9
$ANGDIR
 70
     0
  9
$PDMODE
 70
     0
  9
$PDSIZE
 40
-1.0
  9
$PLINEWID
 40
0.0
  9
$SPLFRAME
 70
     0
  9
$SPLINETYPE
 70
     6
  9
$SPLINESEGS
 70
     8
  9
$HANDSEED
  5
6BA
  9
$SURFTAB1
 70
     6
  9
$SURFTAB2
 70
     6
  9
$SURFTYPE
 70
     6
  9
$SURFU
 70
     6
  9
$SURFV
 70
     6
  9
$UCSBASE
  2

  9
$UCSNAME
  2

  9
$UCSORG
 10
0.0
 20
0.0
 30
0.0
  9
$UCSXDIR
 10
1.0
 20
0.0
 30
0.0
  9
$UCSYDIR
 10
0.0
 20
1.0
 30
0.0
  9
$UCSORTHOREF
  2

  9
$UCSORTHOVIEW
 70
     0
  9
$UCSORGTOP
 10
0.0
 20
0.0
 30
0.0
  9
$UCSORGBOTTOM
 10
0.0
 20
0.0
 30
0.0
  9
$UCSORGLEFT
 10
0.0
 20
0.0
 30
0.0
  9
$UCSORGRIGHT
 10
0.0
 20
0.0
 30
0.0
  9
$UCSORGFRONT
 10
0.0
 20
0.0
 30
0.0
  9
$UCSORGBACK
 10
0.0
 20
0.0
 30
0.0
  9
$PUCSBASE
  2

  9
$PUCSNAME
  2

  9
$PUCSORG
 10
0.0
 20
0.0
 30
0.0
  9
$PUCSXDIR
 10
1.0
 20
0.0
 30
0.0
  9
$PUCSYDIR
 10
0.0
 20
1.0
 30
0.0
  9
$PUCSORTHOREF
  2

  9
$PUCSORTHOVIEW
 70
     0
  9
$PUCSORGTOP
 10
0.0
 20
0.0
 30
0.0
  9
$PUCSORGBOTTOM
 10
0.0
 20
0.0
 30
0.0
  9
$PUCSORGLEFT
 10
0.0
 20
0.0
 30
0.0
  9
$PUCSORGRIGHT
 10
0.0
 20
0.0
 30
0.0
  9
$PUCSORGFRONT
 10
0.0
 20
0.0
 30
0.0
  9
$PUCSORGBACK
 10
0.0
 20
0.0
 30
0.0
  9
$USERI1
 70
     0
  9
$USERI2
 70
     0
  9
$USERI3
 70
     0
  9
$USERI4
 70
     0
  9
$USERI5
 70
     0
  9
$USERR1
 40
0.0
  9
$USERR2
 40
0.0
  9
$USERR3
 40
0.0
  9
$USERR4
 40
0.0
  9
$USERR5
 40
0.0
  9
$WORLDVIEW
 70
     1
  9
$SHADEDGE
 70
     3
  9
$SHADEDIF
 70
    70
  9
$TILEMODE
 70
     1
  9
$MAXACTVP
 70
    64
  9
$PINSBASE
 10
0.0
 20
0.0
 30
0.0
  9
$PLIMCHECK
 70
     0
  9
$PEXTMIN
 10
1.0000000000E+20
 20
1.0000000000E+20
 30
1.0000000000E+20
  9
$PEXTMAX
 10
-1.0000000000E+20
 20
-1.0000000000E+20
 30
-1.0000000000E+20
  9
$PLIMMIN
 10
0.0
 20
0.0
  9
$PLIMMAX
 10
420.0
 20
297.0
  9
$UNITMODE
 70
     0
  9
$VISRETAIN
 70
     1
  9
$PLINEGEN
 70
     0
  9
$PSLTSCALE
 70
     1
  9
$TREEDEPTH
 70
  3020
  9
$CMLSTYLE
  2
Standard
  9
$CMLJUST
 70
     0
  9
$CMLSCALE
 40
20.0
  9
$PROXYGRAPHICS
 70
     1
  9
$MEASUREMENT
 70
     1
  9
$CELWEIGHT
370
    -1
  9
$ENDCAPS
280
     0
  9
$JOINSTYLE
280
     0
  9
$LWDISPLAY
290
     1
  9
$INSUNITS
 70
     4
  9
$HYPERLINKBASE
  1

  9
$STYLESHEET
  1

  9
$XEDIT
290
     1
  9
$CEPSNTYPE
380
     0
  9
$PSTYLEMODE
290
     1
  9
$FINGERPRINTGUID
  2
{F93CF4D9-F749-4767-AC43-E4AF16C52725}
  9
$VERSIONGUID
  2
{FAEB1C32-E019-11D5-929B-00C0DF256EC4}
  9
$EXTNAMES
290
     1
  9
$PSVPSCALE
 40
0.0
  9
$OLESTARTUP
290
     0
  0
ENDSEC
  0
SECTION
  2
CLASSES
  0
CLASS
  1
ACDBDICTIONARYWDFLT
  2
AcDbDictionaryWithDefault
  3
ObjectDBX Classes
 90
        0
280
     0
281
     0
  0
CLASS
  1
VISUALSTYLE
  2
AcDbVisualStyle
  3
ObjectDBX Classes
 90
     4095
280
     0
281
     0
  0
CLASS
  1
MATERIAL
  2
AcDbMaterial
  3
ObjectDBX Classes
 90
     1153
280
     0
281
     0
  0
CLASS
  1
SCALE
  2
AcDbScale
  3
ObjectDBX Classes
 90
     1153
280
     0
281
     0
  0
CLASS
  1
SUN
  2
AcDbSun
  3
SCENEOE
 90
     1153
280
     0
281
     0
  0
CLASS
  1
ACDBPLACEHOLDER
  2
AcDbPlaceHolder
  3
ObjectDBX Classes
 90
        0
280
     0
281
     0
  0
CLASS
  1
LAYOUT
  2
AcDbLayout
  3
ObjectDBX Classes
 90
        0
280
     0
281
     0
  0
ENDSEC
  0
SECTION
  2
TABLES
  0
TABLE
  2
VPORT
  5
8
330
0
100
AcDbSymbolTable
 70
     1
  0
VPORT
  5
29
330
8
100
AcDbSymbolTableRecord
100
AcDbViewportTableRecord
  2
*Active
 70
     0
 10
0.0
 20
0.0
 11
1.0
 21
1.0
 12
210.0
 22
148.5
 13
0.0
 23
0.0
 14
10.0
 24
10.0
 15
10.0
 25
10.0
 16
0.0
 26
0.0
 36
1.0
 17
0.0
 27
0.0
 37
0.0
 40
297.0
 41
1.4141414141
 42
50.0
 43
0.0
 44
0.0
 50
0.0
 51
0.0
 71
     0
 72
  2000
 73
     1
 74
     3
 75
     0
 76
     0
 77
     0
 78
     0
281
     0
 65
     1
110
0.0
120
0.0
130
0.0
111
1.0
121
0.0
131
0.0
112
0.0
122
1.0
132
0.0
 79
     0
146
0.0
  0
ENDTAB
  0
TABLE
  2
LTYPE
  5
5
330
0
100
AcDbSymbolTable
 70
     6
  0
LTYPE
  5
14
330
5
100
AcDbSymbolTableRecord
100
AcDbLinetypeTableRecord
  2
ByBlock
 70
     0
  3

 72
    65
 73
     0
 40
0.0
  0
LTYPE
  5
15
330
5
100
AcDbSymbolTableRecord
100
AcDbLinetypeTableRecord
  2
ByLayer
 70
     0
  3

 72
    65
 73
     0
 40
0.0
  0
LTYPE
  5
16
330
5
100
AcDbSymbolTableRecord
100
AcDbLinetypeTableRecord
  2
Continuous
 70
     0
  3
Solid line
 72
    65
 73
     0
 40
0.0
  0
LTYPE
  5
6A
330
5
100
AcDbSymbolTableRecord
100
AcDbLinetypeTableRecord
  2
HIDDEN
 70
     0
  3
Hidden __ __ __ __ __ __ __ __ __ __ __ __ __ __
 72
    65
 73
     2
 40
1.905
 49
1.27
 74
     0
 49
-0.635
 74
     0
  0
LTYPE
  5
6B
330
5
100
AcDbSymbolTableRecord
100
AcDbLinetypeTableRecord
  2
PHANTOM
 70
     0
  3
Phantom ______  __  __  ______  __  __  ______
 72
    65
 73
     6
 40
12.7
 49
6.35
 74
     0
 49
-1.27
 74
     0
 49
1.27
 74
     0
 49
-1.27
 74
     0
 49
1.27
 74
     0
 49
-1.27
 74
     0
  0
LTYPE
  5
6C
330
5
100
AcDbSymbolTableRecord
100
AcDbLinetypeTableRecord
  2
CENTER
 70
     0
  3
Center ____ _ ____ _ ____ _ ____ _ ____ _ ____
 72
    65
 73
     4
 40
10.16
 49
6.35
 74
     0
 49
-1.27
 74
     0
 49
1.27
 74
     0
 49
-1.27
 74
     0
  0
LTYPE
  5
6D
330
5
100
AcDbSymbolTableRecord
100
AcDbLinetypeTableRecord
  2
CENTERX2
 70
     0
  3
Center (2x) ________  __  ________  __  _____
 72
    65
 73
     4
 40
20.32
 49
12.7
 74
     0
 49
-2.54
 74
     0
 49
2.54
 74
     0
 49
-2.54
 74
     0
  0
LTYPE
  5
6E
330
5
100
AcDbSymbolTableRecord
100
AcDbLinetypeTableRecord
  2
DOT2
 70
     0
  3
Dot (.5x) ........................................
 72
    65
 73
     2
 40
0.635
 49
0.0
 74
     0
 49
-0.635
 74
     0
  0
ENDTAB
  0
TABLE
  2
LAYER
  5
2
330
0
100
AcDbSymbolTable
 70
     6
  0
LAYER
  5
10
330
2
100
AcDbSymbolTableRecord
100
AcDbLayerTableRecord
  2
0
 70
     0
 62
     7
  6
Continuous
370
    -3
390
F
  0
LAYER
  5
6F
330
2
100
AcDbSymbolTableRecord
100
AcDbLayerTableRecord
  2
THIN_LINE
 70
     0
 62
     7
  6
Continuous
370
    -3
390
F
  0
LAYER
  5
70
330
2
100
AcDbSymbolTableRecord
100
AcDbLayerTableRecord
  2
THICK_LINE
 70
     0
 62
     7
  6
Continuous
370
    15
390
F
  0
LAYER
  5
71
330
2
100
AcDbSymbolTableRecord
100
AcDbLayerTableRecord
  2
FORMAT
 70
     0
 62
     7
  6
Continuous
370
    -3
390
F
  0
LAYER
  5
72
330
2
100
AcDbSymbolTableRecord
100
AcDbLayerTableRecord
  2
THIN_LIONE
 70
     0
 62
     7
  6
Continuous
370
    -3
390
F
  0
LAYER
  5
73
330
2
100
AcDbSymbolTableRecord
100
AcDbLayerTableRecord
  2
THICK_LIONE
 70
     0
 62
     7
  6
Continuous
370
    15
390
F
  0
ENDTAB
  0
TABLE
  2
STYLE
  5
3
330
0
100
AcDbSymbolTable
 70
     1
  0
STYLE
  5
11
330
3
100
AcDbSymbolTableRecord
100
AcDbTextStyleTableRecord
  2
Standard
 70
     0
 40
0.0
 41
1.0
 50
0.0
 71
     0
 42
5.0
  3
txt
  4

  0
ENDTAB
  0
TABLE
  2
VIEW
  5
6
330
0
100
AcDbSymbolTable
 70
     0
  0
ENDTAB
  0
TABLE
  2
UCS
  5
7
330
0
100
AcDbSymbolTable
 70
     0
  0
ENDTAB
  0
TABLE
  2
APPID
  5
9
330
0
100
AcDbSymbolTable
 70
     1
  0
APPID
  5
12
330
9
100
AcDbSymbolTableRecord
100
AcDbRegAppTableRecord
  2
ACAD
 70
     0
  0
ENDTAB
  0
TABLE
  2
DIMSTYLE
  5
A
330
0
100
AcDbSymbolTable
 70
     1
100
AcDbDimStyleTable
  0
DIMSTYLE
105
27
330
A
100
AcDbSymbolTableRecord
100
AcDbDimStyleTableRecord
  2
ISO-25
 70
     0
 41
2.5
 42
0.625
 43
3.75
 44
1.25
 73
     0
 74
     0
 77
     1
 78
     8
140
2.5
141
2.5
143
0.0393700787
147
0.625
171
     3
172
     1
178
     0
271
     2
272
     2
274
     3
278
    44
283
     0
284
     8
340
11
  0
ENDTAB
  0
TABLE
  2
BLOCK_RECORD
  5
1
330
0
100
AcDbSymbolTable
 70
    57
  0
BLOCK_RECORD
  5
1F
330
1
100
AcDbSymbolTableRecord
100
AcDbBlockTableRecord
  2
*Model_Space
340
22
  0
BLOCK_RECORD
  5
1B
330
1
100
AcDbSymbolTableRecord
100
AcDbBlockTableRecord
  2
*Paper_Space
340
1E
  0
BLOCK_RECORD
  5
23
330
1
100
AcDbSymbolTableRecord
100
AcDbBlockTableRecord
  2
*Paper_Space0
340
26
  0
BLOCK_RECORD
  5
4AA
330
1
100
AcDbSymbolTableRecord
100
AcDbBlockTableRecord
  2
SW_CENTERMARKSYMBOL_0
340
0
102
{BLKREFS
331
4B5
102
}
  0
BLOCK_RECORD
  5
4B6
330
1
100
AcDbSymbolTableRecord
100
AcDbBlockTableRecord
  2
SW_CENTERMARKSYMBOL_1
340
0
102
{BLKREFS
331
4C1
102
}
  0
BLOCK_RECORD
  5
4C2
330
1
100
AcDbSymbolTableRecord
100
AcDbBlockTableRecord
  2
SW_CENTERMARKSYMBOL_2
340
0
102
{BLKREFS
331
4CD
102
}
  0
BLOCK_RECORD
  5
4CE
330
1
100
AcDbSymbolTableRecord
100
AcDbBlockTableRecord
  2
SW_CENTERMARKSYMBOL_3
340
0
102
{BLKREFS
331
4D9
102
}
  0
BLOCK_RECORD
  5
4DA
330
1
100
AcDbSymbolTableRecord
100
AcDbBlockTableRecord
  2
SW_CENTERMARKSYMBOL_4
340
0
102
{BLKREFS
331
4E1
102
}
  0
BLOCK_RECORD
  5
4E2
330
1
100
AcDbSymbolTableRecord
100
AcDbBlockTableRecord
  2
SW_CENTERMARKSYMBOL_5
340
0
102
{BLKREFS
331
4E9
102
}
  0
BLOCK_RECORD
  5
4EA
330
1
100
AcDbSymbolTableRecord
100
AcDbBlockTableRecord
  2
SW_CENTERMARKSYMBOL_6
340
0
102
{BLKREFS
331
4F1
102
}
  0
BLOCK_RECORD
  5
4F2
330
1
100
AcDbSymbolTableRecord
100
AcDbBlockTableRecord
  2
SW_CENTERMARKSYMBOL_7
340
0
102
{BLKREFS
331
4F9
102
}
  0
BLOCK_RECORD
  5
4FA
330
1
100
AcDbSymbolTableRecord
100
AcDbBlockTableRecord
  2
SW_CENTERMARKSYMBOL_8
340
0
102
{BLKREFS
331
501
102
}
  0
BLOCK_RECORD
  5
502
330
1
100
AcDbSymbolTableRecord
100
AcDbBlockTableRecord
  2
SW_CENTERMARKSYMBOL_9
340
0
102
{BLKREFS
331
509
102
}
  0
BLOCK_RECORD
  5
50A
330
1
100
AcDbSymbolTableRecord
100
AcDbBlockTableRecord
  2
SW_CENTERMARKSYMBOL_10
340
0
102
{BLKREFS
331
511
102
}
  0
BLOCK_RECORD
  5
512
330
1
100
AcDbSymbolTableRecord
100
AcDbBlockTableRecord
  2
SW_CENTERMARKSYMBOL_11
340
0
102
{BLKREFS
331
519
102
}
  0
BLOCK_RECORD
  5
51A
330
1
100
AcDbSymbolTableRecord
100
AcDbBlockTableRecord
  2
SW_CENTERMARKSYMBOL_12
340
0
102
{BLKREFS
331
521
102
}
  0
BLOCK_RECORD
  5
522
330
1
100
AcDbSymbolTableRecord
100
AcDbBlockTableRecord
  2
SW_CENTERMARKSYMBOL_13
340
0
102
{BLKREFS
331
529
102
}
  0
BLOCK_RECORD
  5
52A
330
1
100
AcDbSymbolTableRecord
100
AcDbBlockTableRecord
  2
SW_CENTERMARKSYMBOL_14
340
0
102
{BLKREFS
331
531
102
}
  0
BLOCK_RECORD
  5
532
330
1
100
AcDbSymbolTableRecord
100
AcDbBlockTableRecord
  2
SW_CENTERMARKSYMBOL_15
340
0
102
{BLKREFS
331
53D
102
}
  0
BLOCK_RECORD
  5
53E
330
1
100
AcDbSymbolTableRecord
100
AcDbBlockTableRecord
  2
SW_CENTERMARKSYMBOL_16
340
0
102
{BLKREFS
331
549
102
}
  0
BLOCK_RECORD
  5
54A
330
1
100
AcDbSymbolTableRecord
100
AcDbBlockTableRecord
  2
SW_CENTERMARKSYMBOL_17
340
0
102
{BLKREFS
331
551
102
}
  0
BLOCK_RECORD
  5
552
330
1
100
AcDbSymbolTableRecord
100
AcDbBlockTableRecord
  2
SW_CENTERMARKSYMBOL_18
340
0
102
{BLKREFS
331
559
102
}
  0
BLOCK_RECORD
  5
55A
330
1
100
AcDbSymbolTableRecord
100
AcDbBlockTableRecord
  2
SW_CENTERMARKSYMBOL_19
340
0
102
{BLKREFS
331
561
102
}
  0
BLOCK_RECORD
  5
562
330
1
100
AcDbSymbolTableRecord
100
AcDbBlockTableRecord
  2
SW_CENTERMARKSYMBOL_20
340
0
102
{BLKREFS
331
56D
102
}
  0
BLOCK_RECORD
  5
56E
330
1
100
AcDbSymbolTableRecord
100
AcDbBlockTableRecord
  2
SW_CENTERMARKSYMBOL_21
340
0
102
{BLKREFS
331
579
102
}
  0
BLOCK_RECORD
  5
57A
330
1
100
AcDbSymbolTableRecord
100
AcDbBlockTableRecord
  2
SW_CENTERMARKSYMBOL_22
340
0
102
{BLKREFS
331
585
102
}
  0
BLOCK_RECORD
  5
586
330
1
100
AcDbSymbolTableRecord
100
AcDbBlockTableRecord
  2
SW_CENTERMARKSYMBOL_23
340
0
102
{BLKREFS
331
591
102
}
  0
BLOCK_RECORD
  5
592
330
1
100
AcDbSymbolTableRecord
100
AcDbBlockTableRecord
  2
SW_CENTERMARKSYMBOL_24
340
0
102
{BLKREFS
331
59D
102
}
  0
BLOCK_RECORD
  5
59E
330
1
100
AcDbSymbolTableRecord
100
AcDbBlockTableRecord
  2
SW_CENTERMARKSYMBOL_25
340
0
102
{BLKREFS
331
5A9
102
}
  0
BLOCK_RECORD
  5
5AA
330
1
100
AcDbSymbolTableRecord
100
AcDbBlockTableRecord
  2
SW_CENTERMARKSYMBOL_26
340
0
102
{BLKREFS
331
5B1
102
}
  0
BLOCK_RECORD
  5
5B2
330
1
100
AcDbSymbolTableRecord
100
AcDbBlockTableRecord
  2
SW_CENTERMARKSYMBOL_27
340
0
102
{BLKREFS
331
5B9
102
}
  0
BLOCK_RECORD
  5
5BA
330
1
100
AcDbSymbolTableRecord
100
AcDbBlockTableRecord
  2
SW_CENTERMARKSYMBOL_28
340
0
102
{BLKREFS
331
5C1
102
}
  0
BLOCK_RECORD
  5
5C2
330
1
100
AcDbSymbolTableRecord
100
AcDbBlockTableRecord
  2
SW_CENTERMARKSYMBOL_29
340
0
102
{BLKREFS
331
5C9
102
}
  0
BLOCK_RECORD
  5
5CA
330
1
100
AcDbSymbolTableRecord
100
AcDbBlockTableRecord
  2
SW_CENTERMARKSYMBOL_30
340
0
102
{BLKREFS
331
5D1
102
}
  0
BLOCK_RECORD
  5
5D2
330
1
100
AcDbSymbolTableRecord
100
AcDbBlockTableRecord
  2
SW_CENTERMARKSYMBOL_31
340
0
102
{BLKREFS
331
5D9
102
}
  0
BLOCK_RECORD
  5
5DA
330
1
100
AcDbSymbolTableRecord
100
AcDbBlockTableRecord
  2
SW_CENTERMARKSYMBOL_32
340
0
102
{BLKREFS
331
5E1
102
}
  0
BLOCK_RECORD
  5
5E2
330
1
100
AcDbSymbolTableRecord
100
AcDbBlockTableRecord
  2
SW_CENTERMARKSYMBOL_33
340
0
102
{BLKREFS
331
5E9
102
}
  0
BLOCK_RECORD
  5
5EA
330
1
100
AcDbSymbolTableRecord
100
AcDbBlockTableRecord
  2
SW_CENTERMARKSYMBOL_34
340
0
102
{BLKREFS
331
5F1
102
}
  0
BLOCK_RECORD
  5
5F2
330
1
100
AcDbSymbolTableRecord
100
AcDbBlockTableRecord
  2
SW_CENTERMARKSYMBOL_35
340
0
102
{BLKREFS
331
5F9
102
}
  0
BLOCK_RECORD
  5
5FA
330
1
100
AcDbSymbolTableRecord
100
AcDbBlockTableRecord
  2
SW_CENTERMARKSYMBOL_36
340
0
102
{BLKREFS
331
601
102
}
  0
BLOCK_RECORD
  5
602
330
1
100
AcDbSymbolTableRecord
100
AcDbBlockTableRecord
  2
SW_CENTERMARKSYMBOL_37
340
0
102
{BLKREFS
331
609
102
}
  0
BLOCK_RECORD
  5
60A
330
1
100
AcDbSymbolTableRecord
100
AcDbBlockTableRecord
  2
SW_CENTERMARKSYMBOL_38
340
0
102
{BLKREFS
331
615
102
}
  0
BLOCK_RECORD
  5
616
330
1
100
AcDbSymbolTableRecord
100
AcDbBlockTableRecord
  2
SW_CENTERMARKSYMBOL_39
340
0
102
{BLKREFS
331
621
102
}
  0
BLOCK_RECORD
  5
622
330
1
100
AcDbSymbolTableRecord
100
AcDbBlockTableRecord
  2
SW_CENTERMARKSYMBOL_40
340
0
102
{BLKREFS
331
62D
102
}
  0
BLOCK_RECORD
  5
62E
330
1
100
AcDbSymbolTableRecord
100
AcDbBlockTableRecord
  2
SW_CENTERMARKSYMBOL_41
340
0
102
{BLKREFS
331
639
102
}
  0
BLOCK_RECORD
  5
63A
330
1
100
AcDbSymbolTableRecord
100
AcDbBlockTableRecord
  2
SW_CENTERMARKSYMBOL_42
340
0
102
{BLKREFS
331
641
102
}
  0
BLOCK_RECORD
  5
642
330
1
100
AcDbSymbolTableRecord
100
AcDbBlockTableRecord
  2
SW_CENTERMARKSYMBOL_43
340
0
102
{BLKREFS
331
649
102
}
  0
BLOCK_RECORD
  5
64A
330
1
100
AcDbSymbolTableRecord
100
AcDbBlockTableRecord
  2
SW_CENTERMARKSYMBOL_44
340
0
102
{BLKREFS
331
651
102
}
  0
BLOCK_RECORD
  5
652
330
1
100
AcDbSymbolTableRecord
100
AcDbBlockTableRecord
  2
SW_CENTERMARKSYMBOL_45
340
0
102
{BLKREFS
331
659
102
}
  0
BLOCK_RECORD
  5
65A
330
1
100
AcDbSymbolTableRecord
100
AcDbBlockTableRecord
  2
SW_CENTERMARKSYMBOL_46
340
0
102
{BLKREFS
331
661
102
}
  0
BLOCK_RECORD
  5
662
330
1
100
AcDbSymbolTableRecord
100
AcDbBlockTableRecord
  2
SW_CENTERMARKSYMBOL_47
340
0
102
{BLKREFS
331
669
102
}
  0
BLOCK_RECORD
  5
66A
330
1
100
AcDbSymbolTableRecord
100
AcDbBlockTableRecord
  2
SW_CENTERMARKSYMBOL_48
340
0
102
{BLKREFS
331
671
102
}
  0
BLOCK_RECORD
  5
672
330
1
100
AcDbSymbolTableRecord
100
AcDbBlockTableRecord
  2
SW_CENTERMARKSYMBOL_49
340
0
102
{BLKREFS
331
67D
102
}
  0
BLOCK_RECORD
  5
67E
330
1
100
AcDbSymbolTableRecord
100
AcDbBlockTableRecord
  2
SW_CENTERMARKSYMBOL_50
340
0
102
{BLKREFS
331
689
102
}
  0
BLOCK_RECORD
  5
68A
330
1
100
AcDbSymbolTableRecord
100
AcDbBlockTableRecord
  2
SW_CENTERMARKSYMBOL_51
340
0
102
{BLKREFS
331
691
102
}
  0
BLOCK_RECORD
  5
692
330
1
100
AcDbSymbolTableRecord
100
AcDbBlockTableRecord
  2
SW_CENTERMARKSYMBOL_52
340
0
102
{BLKREFS
331
699
102
}
  0
BLOCK_RECORD
  5
69A
330
1
100
AcDbSymbolTableRecord
100
AcDbBlockTableRecord
  2
SW_CENTERMARKSYMBOL_53
340
0
102
{BLKREFS
331
6A1
102
}
  0
BLOCK_RECORD
  5
6A2
330
1
100
AcDbSymbolTableRecord
100
AcDbBlockTableRecord
  2
SW_CENTERMARKSYMBOL_54
340
0
102
{BLKREFS
331
6AD
102
}
  0
BLOCK_RECORD
  5
6AE
330
1
100
AcDbSymbolTableRecord
100
AcDbBlockTableRecord
  2
SW_CENTERMARKSYMBOL_55
340
0
102
{BLKREFS
331
6B9
102
}
  0
ENDTAB
  0
ENDSEC
  0
SECTION
  2
BLOCKS
  0
BLOCK
  5
20
330
1F
100
AcDbEntity
  8
0
100
AcDbBlockBegin
  2
*Model_Space
 70
     0
 10
0.0
 20
0.0
 30
0.0
  3
*Model_Space
  1
*Model_Space
  0
ENDBLK
  5
21
330
1F
100
AcDbEntity
  8
0
100
AcDbBlockEnd
  0
BLOCK
  5
1C
330
1B
100
AcDbEntity
 67
     1
  8
0
100
AcDbBlockBegin
  2
*Paper_Space
 70
     0
 10
0.0
 20
0.0
 30
0.0
  3
*Paper_Space
  1
*Paper_Space
  0
ENDBLK
  5
1D
330
1B
100
AcDbEntity
 67
     1
  8
0
100
AcDbBlockEnd
  0
BLOCK
  5
24
330
23
100
AcDbEntity
  8
0
100
AcDbBlockBegin
  2
*Paper_Space0
 70
     0
 10
0.0
 20
0.0
 30
0.0
  3
*Paper_Space0
  1
*Paper_Space0
  0
ENDBLK
  5
25
330
23
100
AcDbEntity
  8
0
100
AcDbBlockEnd
  0
BLOCK
  5
4AB
330
4AA
100
AcDbEntity
  8
0
100
AcDbBlockBegin
  2
SW_CENTERMARKSYMBOL_0
 70
     0
 10
0.0
 20
0.0
 30
0.0
  3
SW_CENTERMARKSYMBOL_0
  1
SW_CENTERMARKSYMBOL_0
  0
LINE
  5
4AD
330
4AA
100
AcDbEntity
  8
THICK_LINE
 62
     0
100
AcDbLine
 10
0.0
 20
0.0
 30
0.0
 11
0.0
 21
2.5
 31
0.0
  0
LINE
  5
4AE
330
4AA
100
AcDbEntity
  8
THICK_LINE
 62
     0
100
AcDbLine
 10
0.0
 20
0.0
 30
0.0
 11
-2.5
 21
0.0
 31
0.0
  0
LINE
  5
4AF
330
4AA
100
AcDbEntity
  8
THICK_LINE
 62
     0
100
AcDbLine
 10
0.0
 20
0.0
 30
0.0
 11
0.0
 21
-2.5
 31
0.0
  0
LINE
  5
4B0
330
4AA
100
AcDbEntity
  8
THICK_LINE
 62
     0
100
AcDbLine
 10
0.0
 20
0.0
 30
0.0
 11
2.5
 21
0.0
 31
0.0
  0
LINE
  5
4B1
330
4AA
100
AcDbEntity
  8
THICK_LINE
 62
     0
100
AcDbLine
 10
0.0
 20
5.0
 30
0.0
 11
0.0
 21
11.5
 31
0.0
  0
LINE
  5
4B2
330
4AA
100
AcDbEntity
  8
THICK_LINE
 62
     0
100
AcDbLine
 10
-5.0
 20
0.0
 30
0.0
 11
-11.5
 21
0.0
 31
0.0
  0
LINE
  5
4B3
330
4AA
100
AcDbEntity
  8
THICK_LINE
 62
     0
100
AcDbLine
 10
0.0
 20
-5.0
 30
0.0
 11
0.0
 21
-11.5
 31
0.0
  0
LINE
  5
4B4
330
4AA
100
AcDbEntity
  8
THICK_LINE
 62
     0
100
AcDbLine
 10
5.0
 20
0.0
 30
0.0
 11
11.5
 21
0.0
 31
0.0
  0
ENDBLK
  5
4AC
330
4AA
100
AcDbEntity
  8
0
100
AcDbBlockEnd
  0
BLOCK
  5
4B7
330
4B6
100
AcDbEntity
  8
0
100
AcDbBlockBegin
  2
SW_CENTERMARKSYMBOL_1
 70
     0
 10
0.0
 20
0.0
 30
0.0
  3
SW_CENTERMARKSYMBOL_1
  1
SW_CENTERMARKSYMBOL_1
  0
LINE
  5
4B9
330
4B6
100
AcDbEntity
  8
THICK_LINE
 62
     0
100
AcDbLine
 10
0.0
 20
0.0
 30
0.0
 11
0.0
 21
2.5
 31
0.0
  0
LINE
  5
4BA
330
4B6
100
AcDbEntity
  8
THICK_LINE
 62
     0
100
AcDbLine
 10
0.0
 20
0.0
 30
0.0
 11
-2.5
 21
0.0
 31
0.0
  0
LINE
  5
4BB
330
4B6
100
AcDbEntity
  8
THICK_LINE
 62
     0
100
AcDbLine
 10
0.0
 20
0.0
 30
0.0
 11
0.0
 21
-2.5
 31
0.0
  0
LINE
  5
4BC
330
4B6
100
AcDbEntity
  8
THICK_LINE
 62
     0
100
AcDbLine
 10
0.0
 20
0.0
 30
0.0
 11
2.5
 21
0.0
 31
0.0
  0
LINE
  5
4BD
330
4B6
100
AcDbEntity
  8
THICK_LINE
 62
     0
100
AcDbLine
 10
0.0
 20
5.0
 30
0.0
 11
0.0
 21
11.5
 31
0.0
  0
LINE
  5
4BE
330
4B6
100
AcDbEntity
  8
THICK_LINE
 62
     0
100
AcDbLine
 10
-5.0
 20
0.0
 30
0.0
 11
-11.5
 21
0.0
 31
0.0
  0
LINE
  5
4BF
330
4B6
100
AcDbEntity
  8
THICK_LINE
 62
     0
100
AcDbLine
 10
0.0
 20
-5.0
 30
0.0
 11
0.0
 21
-11.5
 31
0.0
  0
LINE
  5
4C0
330
4B6
100
AcDbEntity
  8
THICK_LINE
 62
     0
100
AcDbLine
 10
5.0
 20
0.0
 30
0.0
 11
11.5
 21
0.0
 31
0.0
  0
ENDBLK
  5
4B8
330
4B6
100
AcDbEntity
  8
0
100
AcDbBlockEnd
  0
BLOCK
  5
4C3
330
4C2
100
AcDbEntity
  8
0
100
AcDbBlockBegin
  2
SW_CENTERMARKSYMBOL_2
 70
     0
 10
0.0
 20
0.0
 30
0.0
  3
SW_CENTERMARKSYMBOL_2
  1
SW_CENTERMARKSYMBOL_2
  0
LINE
  5
4C5
330
4C2
100
AcDbEntity
  8
THICK_LINE
 62
     0
100
AcDbLine
 10
0.0
 20
0.0
 30
0.0
 11
0.0
 21
2.5
 31
0.0
  0
LINE
  5
4C6
330
4C2
100
AcDbEntity
  8
THICK_LINE
 62
     0
100
AcDbLine
 10
0.0
 20
0.0
 30
0.0
 11
-2.5
 21
0.0
 31
0.0
  0
LINE
  5
4C7
330
4C2
100
AcDbEntity
  8
THICK_LINE
 62
     0
100
AcDbLine
 10
0.0
 20
0.0
 30
0.0
 11
0.0
 21
-2.5
 31
0.0
  0
LINE
  5
4C8
330
4C2
100
AcDbEntity
  8
THICK_LINE
 62
     0
100
AcDbLine
 10
0.0
 20
0.0
 30
0.0
 11
2.5
 21
0.0
 31
0.0
  0
LINE
  5
4C9
330
4C2
100
AcDbEntity
  8
THICK_LINE
 62
     0
100
AcDbLine
 10
0.0
 20
5.0
 30
0.0
 11
0.0
 21
11.5
 31
0.0
  0
LINE
  5
4CA
330
4C2
100
AcDbEntity
  8
THICK_LINE
 62
     0
100
AcDbLine
 10
-5.0
 20
0.0
 30
0.0
 11
-11.5
 21
0.0
 31
0.0
  0
LINE
  5
4CB
330
4C2
100
AcDbEntity
  8
THICK_LINE
 62
     0
100
AcDbLine
 10
0.0
 20
-5.0
 30
0.0
 11
0.0
 21
-11.5
 31
0.0
  0
LINE
  5
4CC
330
4C2
100
AcDbEntity
  8
THICK_LINE
 62
     0
100
AcDbLine
 10
5.0
 20
0.0
 30
0.0
 11
11.5
 21
0.0
 31
0.0
  0
ENDBLK
  5
4C4
330
4C2
100
AcDbEntity
  8
0
100
AcDbBlockEnd
  0
BLOCK
  5
4CF
330
4CE
100
AcDbEntity
  8
0
100
AcDbBlockBegin
  2
SW_CENTERMARKSYMBOL_3
 70
     0
 10
0.0
 20
0.0
 30
0.0
  3
SW_CENTERMARKSYMBOL_3
  1
SW_CENTERMARKSYMBOL_3
  0
LINE
  5
4D1
330
4CE
100
AcDbEntity
  8
THICK_LINE
 62
     0
100
AcDbLine
 10
0.0
 20
0.0
 30
0.0
 11
0.0
 21
2.5
 31
0.0
  0
LINE
  5
4D2
330
4CE
100
AcDbEntity
  8
THICK_LINE
 62
     0
100
AcDbLine
 10
0.0
 20
0.0
 30
0.0
 11
-2.5
 21
0.0
 31
0.0
  0
LINE
  5
4D3
330
4CE
100
AcDbEntity
  8
THICK_LINE
 62
     0
100
AcDbLine
 10
0.0
 20
0.0
 30
0.0
 11
0.0
 21
-2.5
 31
0.0
  0
LINE
  5
4D4
330
4CE
100
AcDbEntity
  8
THICK_LINE
 62
     0
100
AcDbLine
 10
0.0
 20
0.0
 30
0.0
 11
2.5
 21
0.0
 31
0.0
  0
LINE
  5
4D5
330
4CE
100
AcDbEntity
  8
THICK_LINE
 62
     0
100
AcDbLine
 10
0.0
 20
5.0
 30
0.0
 11
0.0
 21
11.5
 31
0.0
  0
LINE
  5
4D6
330
4CE
100
AcDbEntity
  8
THICK_LINE
 62
     0
100
AcDbLine
 10
-5.0
 20
0.0
 30
0.0
 11
-11.5
 21
0.0
 31
0.0
  0
LINE
  5
4D7
330
4CE
100
AcDbEntity
  8
THICK_LINE
 62
     0
100
AcDbLine
 10
0.0
 20
-5.0
 30
0.0
 11
0.0
 21
-11.5
 31
0.0
  0
LINE
  5
4D8
330
4CE
100
AcDbEntity
  8
THICK_LINE
 62
     0
100
AcDbLine
 10
5.0
 20
0.0
 30
0.0
 11
11.5
 21
0.0
 31
0.0
  0
ENDBLK
  5
4D0
330
4CE
100
AcDbEntity
  8
0
100
AcDbBlockEnd
  0
BLOCK
  5
4DB
330
4DA
100
AcDbEntity
  8
0
100
AcDbBlockBegin
  2
SW_CENTERMARKSYMBOL_4
 70
     0
 10
0.0
 20
0.0
 30
0.0
  3
SW_CENTERMARKSYMBOL_4
  1
SW_CENTERMARKSYMBOL_4
  0
LINE
  5
4DD
330
4DA
100
AcDbEntity
  8
THICK_LINE
 62
     0
100
AcDbLine
 10
0.0
 20
0.0
 30
0.0
 11
0.0
 21
2.5
 31
0.0
  0
LINE
  5
4DE
330
4DA
100
AcDbEntity
  8
THICK_LINE
 62
     0
100
AcDbLine
 10
0.0
 20
0.0
 30
0.0
 11
-2.5
 21
0.0
 31
0.0
  0
LINE
  5
4DF
330
4DA
100
AcDbEntity
  8
THICK_LINE
 62
     0
100
AcDbLine
 10
0.0
 20
0.0
 30
0.0
 11
0.0
 21
-2.5
 31
0.0
  0
LINE
  5
4E0
330
4DA
100
AcDbEntity
  8
THICK_LINE
 62
     0
100
AcDbLine
 10
0.0
 20
0.0
 30
0.0
 11
2.5
 21
0.0
 31
0.0
  0
ENDBLK
  5
4DC
330
4DA
100
AcDbEntity
  8
0
100
AcDbBlockEnd
  0
BLOCK
  5
4E3
330
4E2
100
AcDbEntity
  8
0
100
AcDbBlockBegin
  2
SW_CENTERMARKSYMBOL_5
 70
     0
 10
0.0
 20
0.0
 30
0.0
  3
SW_CENTERMARKSYMBOL_5
  1
SW_CENTERMARKSYMBOL_5
  0
LINE
  5
4E5
330
4E2
100
AcDbEntity
  8
THICK_LINE
 62
     0
100
AcDbLine
 10
0.0
 20
0.0
 30
0.0
 11
0.0
 21
2.5
 31
0.0
  0
LINE
  5
4E6
330
4E2
100
AcDbEntity
  8
THICK_LINE
 62
     0
100
AcDbLine
 10
0.0
 20
0.0
 30
0.0
 11
-2.5
 21
0.0
 31
0.0
  0
LINE
  5
4E7
330
4E2
100
AcDbEntity
  8
THICK_LINE
 62
     0
100
AcDbLine
 10
0.0
 20
0.0
 30
0.0
 11
0.0
 21
-2.5
 31
0.0
  0
LINE
  5
4E8
330
4E2
100
AcDbEntity
  8
THICK_LINE
 62
     0
100
AcDbLine
 10
0.0
 20
0.0
 30
0.0
 11
2.5
 21
0.0
 31
0.0
  0
ENDBLK
  5
4E4
330
4E2
100
AcDbEntity
  8
0
100
AcDbBlockEnd
  0
BLOCK
  5
4EB
330
4EA
100
AcDbEntity
  8
0
100
AcDbBlockBegin
  2
SW_CENTERMARKSYMBOL_6
 70
     0
 10
0.0
 20
0.0
 30
0.0
  3
SW_CENTERMARKSYMBOL_6
  1
SW_CENTERMARKSYMBOL_6
  0
LINE
  5
4ED
330
4EA
100
AcDbEntity
  8
THICK_LINE
 62
     0
100
AcDbLine
 10
0.0
 20
0.0
 30
0.0
 11
0.0
 21
2.5
 31
0.0
  0
LINE
  5
4EE
330
4EA
100
AcDbEntity
  8
THICK_LINE
 62
     0
100
AcDbLine
 10
0.0
 20
0.0
 30
0.0
 11
-2.5
 21
0.0
 31
0.0
  0
LINE
  5
4EF
330
4EA
100
AcDbEntity
  8
THICK_LINE
 62
     0
100
AcDbLine
 10
0.0
 20
0.0
 30
0.0
 11
0.0
 21
-2.5
 31
0.0
  0
LINE
  5
4F0
330
4EA
100
AcDbEntity
  8
THICK_LINE
 62
     0
100
AcDbLine
 10
0.0
 20
0.0
 30
0.0
 11
2.5
 21
0.0
 31
0.0
  0
ENDBLK
  5
4EC
330
4EA
100
AcDbEntity
  8
0
100
AcDbBlockEnd
  0
BLOCK
  5
4F3
330
4F2
100
AcDbEntity
  8
0
100
AcDbBlockBegin
  2
SW_CENTERMARKSYMBOL_7
 70
     0
 10
0.0
 20
0.0
 30
0.0
  3
SW_CENTERMARKSYMBOL_7
  1
SW_CENTERMARKSYMBOL_7
  0
LINE
  5
4F5
330
4F2
100
AcDbEntity
  8
THICK_LINE
 62
     0
100
AcDbLine
 10
0.0
 20
0.0
 30
0.0
 11
0.0
 21
2.5
 31
0.0
  0
LINE
  5
4F6
330
4F2
100
AcDbEntity
  8
THICK_LINE
 62
     0
100
AcDbLine
 10
0.0
 20
0.0
 30
0.0
 11
-2.5
 21
0.0
 31
0.0
  0
LINE
  5
4F7
330
4F2
100
AcDbEntity
  8
THICK_LINE
 62
     0
100
AcDbLine
 10
0.0
 20
0.0
 30
0.0
 11
0.0
 21
-2.5
 31
0.0
  0
LINE
  5
4F8
330
4F2
100
AcDbEntity
  8
THICK_LINE
 62
     0
100
AcDbLine
 10
0.0
 20
0.0
 30
0.0
 11
2.5
 21
0.0
 31
0.0
  0
ENDBLK
  5
4F4
330
4F2
100
AcDbEntity
  8
0
100
AcDbBlockEnd
  0
BLOCK
  5
4FB
330
4FA
100
AcDbEntity
  8
0
100
AcDbBlockBegin
  2
SW_CENTERMARKSYMBOL_8
 70
     0
 10
0.0
 20
0.0
 30
0.0
  3
SW_CENTERMARKSYMBOL_8
  1
SW_CENTERMARKSYMBOL_8
  0
LINE
  5
4FD
330
4FA
100
AcDbEntity
  8
THICK_LINE
 62
     0
100
AcDbLine
 10
0.0
 20
0.0
 30
0.0
 11
0.0
 21
2.5
 31
0.0
  0
LINE
  5
4FE
330
4FA
100
AcDbEntity
  8
THICK_LINE
 62
     0
100
AcDbLine
 10
0.0
 20
0.0
 30
0.0
 11
-2.5
 21
0.0
 31
0.0
  0
LINE
  5
4FF
330
4FA
100
AcDbEntity
  8
THICK_LINE
 62
     0
100
AcDbLine
 10
0.0
 20
0.0
 30
0.0
 11
0.0
 21
-2.5
 31
0.0
  0
LINE
  5
500
330
4FA
100
AcDbEntity
  8
THICK_LINE
 62
     0
100
AcDbLine
 10
0.0
 20
0.0
 30
0.0
 11
2.5
 21
0.0
 31
0.0
  0
ENDBLK
  5
4FC
330
4FA
100
AcDbEntity
  8
0
100
AcDbBlockEnd
  0
BLOCK
  5
503
330
502
100
AcDbEntity
  8
0
100
AcDbBlockBegin
  2
SW_CENTERMARKSYMBOL_9
 70
     0
 10
0.0
 20
0.0
 30
0.0
  3
SW_CENTERMARKSYMBOL_9
  1
SW_CENTERMARKSYMBOL_9
  0
LINE
  5
505
330
502
100
AcDbEntity
  8
THICK_LINE
 62
     0
100
AcDbLine
 10
0.0
 20
0.0
 30
0.0
 11
0.0
 21
2.5
 31
0.0
  0
LINE
  5
506
330
502
100
AcDbEntity
  8
THICK_LINE
 62
     0
100
AcDbLine
 10
0.0
 20
0.0
 30
0.0
 11
-2.5
 21
0.0
 31
0.0
  0
LINE
  5
507
330
502
100
AcDbEntity
  8
THICK_LINE
 62
     0
100
AcDbLine
 10
0.0
 20
0.0
 30
0.0
 11
0.0
 21
-2.5
 31
0.0
  0
LINE
  5
508
330
502
100
AcDbEntity
  8
THICK_LINE
 62
     0
100
AcDbLine
 10
0.0
 20
0.0
 30
0.0
 11
2.5
 21
0.0
 31
0.0
  0
ENDBLK
  5
504
330
502
100
AcDbEntity
  8
0
100
AcDbBlockEnd
  0
BLOCK
  5
50B
330
50A
100
AcDbEntity
  8
0
100
AcDbBlockBegin
  2
SW_CENTERMARKSYMBOL_10
 70
     0
 10
0.0
 20
0.0
 30
0.0
  3
SW_CENTERMARKSYMBOL_10
  1
SW_CENTERMARKSYMBOL_10
  0
LINE
  5
50D
330
50A
100
AcDbEntity
  8
THICK_LINE
 62
     0
100
AcDbLine
 10
0.0
 20
0.0
 30
0.0
 11
0.0
 21
2.5
 31
0.0
  0
LINE
  5
50E
330
50A
100
AcDbEntity
  8
THICK_LINE
 62
     0
100
AcDbLine
 10
0.0
 20
0.0
 30
0.0
 11
-2.5
 21
0.0
 31
0.0
  0
LINE
  5
50F
330
50A
100
AcDbEntity
  8
THICK_LINE
 62
     0
100
AcDbLine
 10
0.0
 20
0.0
 30
0.0
 11
0.0
 21
-2.5
 31
0.0
  0
LINE
  5
510
330
50A
100
AcDbEntity
  8
THICK_LINE
 62
     0
100
AcDbLine
 10
0.0
 20
0.0
 30
0.0
 11
2.5
 21
0.0
 31
0.0
  0
ENDBLK
  5
50C
330
50A
100
AcDbEntity
  8
0
100
AcDbBlockEnd
  0
BLOCK
  5
513
330
512
100
AcDbEntity
  8
0
100
AcDbBlockBegin
  2
SW_CENTERMARKSYMBOL_11
 70
     0
 10
0.0
 20
0.0
 30
0.0
  3
SW_CENTERMARKSYMBOL_11
  1
SW_CENTERMARKSYMBOL_11
  0
LINE
  5
515
330
512
100
AcDbEntity
  8
THICK_LINE
 62
     0
100
AcDbLine
 10
0.0
 20
0.0
 30
0.0
 11
0.0
 21
2.5
 31
0.0
  0
LINE
  5
516
330
512
100
AcDbEntity
  8
THICK_LINE
 62
     0
100
AcDbLine
 10
0.0
 20
0.0
 30
0.0
 11
-2.5
 21
0.0
 31
0.0
  0
LINE
  5
517
330
512
100
AcDbEntity
  8
THICK_LINE
 62
     0
100
AcDbLine
 10
0.0
 20
0.0
 30
0.0
 11
0.0
 21
-2.5
 31
0.0
  0
LINE
  5
518
330
512
100
AcDbEntity
  8
THICK_LINE
 62
     0
100
AcDbLine
 10
0.0
 20
0.0
 30
0.0
 11
2.5
 21
0.0
 31
0.0
  0
ENDBLK
  5
514
330
512
100
AcDbEntity
  8
0
100
AcDbBlockEnd
  0
BLOCK
  5
51B
330
51A
100
AcDbEntity
  8
0
100
AcDbBlockBegin
  2
SW_CENTERMARKSYMBOL_12
 70
     0
 10
0.0
 20
0.0
 30
0.0
  3
SW_CENTERMARKSYMBOL_12
  1
SW_CENTERMARKSYMBOL_12
  0
LINE
  5
51D
330
51A
100
AcDbEntity
  8
THICK_LINE
 62
     0
100
AcDbLine
 10
0.0
 20
0.0
 30
0.0
 11
0.0
 21
2.5
 31
0.0
  0
LINE
  5
51E
330
51A
100
AcDbEntity
  8
THICK_LINE
 62
     0
100
AcDbLine
 10
0.0
 20
0.0
 30
0.0
 11
-2.5
 21
0.0
 31
0.0
  0
LINE
  5
51F
330
51A
100
AcDbEntity
  8
THICK_LINE
 62
     0
100
AcDbLine
 10
0.0
 20
0.0
 30
0.0
 11
0.0
 21
-2.5
 31
0.0
  0
LINE
  5
520
330
51A
100
AcDbEntity
  8
THICK_LINE
 62
     0
100
AcDbLine
 10
0.0
 20
0.0
 30
0.0
 11
2.5
 21
0.0
 31
0.0
  0
ENDBLK
  5
51C
330
51A
100
AcDbEntity
  8
0
100
AcDbBlockEnd
  0
BLOCK
  5
523
330
522
100
AcDbEntity
  8
0
100
AcDbBlockBegin
  2
SW_CENTERMARKSYMBOL_13
 70
     0
 10
0.0
 20
0.0
 30
0.0
  3
SW_CENTERMARKSYMBOL_13
  1
SW_CENTERMARKSYMBOL_13
  0
LINE
  5
525
330
522
100
AcDbEntity
  8
THICK_LINE
 62
     0
100
AcDbLine
 10
0.0
 20
0.0
 30
0.0
 11
0.0
 21
2.5
 31
0.0
  0
LINE
  5
526
330
522
100
AcDbEntity
  8
THICK_LINE
 62
     0
100
AcDbLine
 10
0.0
 20
0.0
 30
0.0
 11
-2.5
 21
0.0
 31
0.0
  0
LINE
  5
527
330
522
100
AcDbEntity
  8
THICK_LINE
 62
     0
100
AcDbLine
 10
0.0
 20
0.0
 30
0.0
 11
0.0
 21
-2.5
 31
0.0
  0
LINE
  5
528
330
522
100
AcDbEntity
  8
THICK_LINE
 62
     0
100
AcDbLine
 10
0.0
 20
0.0
 30
0.0
 11
2.5
 21
0.0
 31
0.0
  0
ENDBLK
  5
524
330
522
100
AcDbEntity
  8
0
100
AcDbBlockEnd
  0
BLOCK
  5
52B
330
52A
100
AcDbEntity
  8
0
100
AcDbBlockBegin
  2
SW_CENTERMARKSYMBOL_14
 70
     0
 10
0.0
 20
0.0
 30
0.0
  3
SW_CENTERMARKSYMBOL_14
  1
SW_CENTERMARKSYMBOL_14
  0
LINE
  5
52D
330
52A
100
AcDbEntity
  8
THICK_LINE
 62
     0
100
AcDbLine
 10
0.0
 20
0.0
 30
0.0
 11
0.0
 21
2.5
 31
0.0
  0
LINE
  5
52E
330
52A
100
AcDbEntity
  8
THICK_LINE
 62
     0
100
AcDbLine
 10
0.0
 20
0.0
 30
0.0
 11
-2.5
 21
0.0
 31
0.0
  0
LINE
  5
52F
330
52A
100
AcDbEntity
  8
THICK_LINE
 62
     0
100
AcDbLine
 10
0.0
 20
0.0
 30
0.0
 11
0.0
 21
-2.5
 31
0.0
  0
LINE
  5
530
330
52A
100
AcDbEntity
  8
THICK_LINE
 62
     0
100
AcDbLine
 10
0.0
 20
0.0
 30
0.0
 11
2.5
 21
0.0
 31
0.0
  0
ENDBLK
  5
52C
330
52A
100
AcDbEntity
  8
0
100
AcDbBlockEnd
  0
BLOCK
  5
533
330
532
100
AcDbEntity
  8
0
100
AcDbBlockBegin
  2
SW_CENTERMARKSYMBOL_15
 70
     0
 10
0.0
 20
0.0
 30
0.0
  3
SW_CENTERMARKSYMBOL_15
  1
SW_CENTERMARKSYMBOL_15
  0
LINE
  5
535
330
532
100
AcDbEntity
  8
THICK_LINE
 62
     0
100
AcDbLine
 10
0.0
 20
0.0
 30
0.0
 11
0.0
 21
2.5
 31
0.0
  0
LINE
  5
536
330
532
100
AcDbEntity
  8
THICK_LINE
 62
     0
100
AcDbLine
 10
0.0
 20
0.0
 30
0.0
 11
-2.5
 21
0.0
 31
0.0
  0
LINE
  5
537
330
532
100
AcDbEntity
  8
THICK_LINE
 62
     0
100
AcDbLine
 10
0.0
 20
0.0
 30
0.0
 11
0.0
 21
-2.5
 31
0.0
  0
LINE
  5
538
330
532
100
AcDbEntity
  8
THICK_LINE
 62
     0
100
AcDbLine
 10
0.0
 20
0.0
 30
0.0
 11
2.5
 21
0.0
 31
0.0
  0
LINE
  5
539
330
532
100
AcDbEntity
  8
THICK_LINE
 62
     0
100
AcDbLine
 10
0.0
 20
5.0
 30
0.0
 11
0.0
 21
9.5
 31
0.0
  0
LINE
  5
53A
330
532
100
AcDbEntity
  8
THICK_LINE
 62
     0
100
AcDbLine
 10
-5.0
 20
0.0
 30
0.0
 11
-9.5
 21
0.0
 31
0.0
  0
LINE
  5
53B
330
532
100
AcDbEntity
  8
THICK_LINE
 62
     0
100
AcDbLine
 10
0.0
 20
-5.0
 30
0.0
 11
0.0
 21
-9.5
 31
0.0
  0
LINE
  5
53C
330
532
100
AcDbEntity
  8
THICK_LINE
 62
     0
100
AcDbLine
 10
5.0
 20
0.0
 30
0.0
 11
9.5
 21
0.0
 31
0.0
  0
ENDBLK
  5
534
330
532
100
AcDbEntity
  8
0
100
AcDbBlockEnd
  0
BLOCK
  5
53F
330
53E
100
AcDbEntity
  8
0
100
AcDbBlockBegin
  2
SW_CENTERMARKSYMBOL_16
 70
     0
 10
0.0
 20
0.0
 30
0.0
  3
SW_CENTERMARKSYMBOL_16
  1
SW_CENTERMARKSYMBOL_16
  0
LINE
  5
541
330
53E
100
AcDbEntity
  8
THICK_LINE
 62
     0
100
AcDbLine
 10
0.0
 20
0.0
 30
0.0
 11
0.0
 21
2.5
 31
0.0
  0
LINE
  5
542
330
53E
100
AcDbEntity
  8
THICK_LINE
 62
     0
100
AcDbLine
 10
0.0
 20
0.0
 30
0.0
 11
-2.5
 21
0.0
 31
0.0
  0
LINE
  5
543
330
53E
100
AcDbEntity
  8
THICK_LINE
 62
     0
100
AcDbLine
 10
0.0
 20
0.0
 30
0.0
 11
0.0
 21
-2.5
 31
0.0
  0
LINE
  5
544
330
53E
100
AcDbEntity
  8
THICK_LINE
 62
     0
100
AcDbLine
 10
0.0
 20
0.0
 30
0.0
 11
2.5
 21
0.0
 31
0.0
  0
LINE
  5
545
330
53E
100
AcDbEntity
  8
THICK_LINE
 62
     0
100
AcDbLine
 10
0.0
 20
5.0
 30
0.0
 11
0.0
 21
9.5
 31
0.0
  0
LINE
  5
546
330
53E
100
AcDbEntity
  8
THICK_LINE
 62
     0
100
AcDbLine
 10
-5.0
 20
0.0
 30
0.0
 11
-9.5
 21
0.0
 31
0.0
  0
LINE
  5
547
330
53E
100
AcDbEntity
  8
THICK_LINE
 62
     0
100
AcDbLine
 10
0.0
 20
-5.0
 30
0.0
 11
0.0
 21
-9.5
 31
0.0
  0
LINE
  5
548
330
53E
100
AcDbEntity
  8
THICK_LINE
 62
     0
100
AcDbLine
 10
5.0
 20
0.0
 30
0.0
 11
9.5
 21
0.0
 31
0.0
  0
ENDBLK
  5
540
330
53E
100
AcDbEntity
  8
0
100
AcDbBlockEnd
  0
BLOCK
  5
54B
330
54A
100
AcDbEntity
  8
0
100
AcDbBlockBegin
  2
SW_CENTERMARKSYMBOL_17
 70
     0
 10
0.0
 20
0.0
 30
0.0
  3
SW_CENTERMARKSYMBOL_17
  1
SW_CENTERMARKSYMBOL_17
  0
LINE
  5
54D
330
54A
100
AcDbEntity
  8
THICK_LINE
 62
     0
100
AcDbLine
 10
0.0
 20
0.0
 30
0.0
 11
0.0
 21
2.5
 31
0.0
  0
LINE
  5
54E
330
54A
100
AcDbEntity
  8
THICK_LINE
 62
     0
100
AcDbLine
 10
0.0
 20
0.0
 30
0.0
 11
-2.5
 21
0.0
 31
0.0
  0
LINE
  5
54F
330
54A
100
AcDbEntity
  8
THICK_LINE
 62
     0
100
AcDbLine
 10
0.0
 20
0.0
 30
0.0
 11
0.0
 21
-2.5
 31
0.0
  0
LINE
  5
550
330
54A
100
AcDbEntity
  8
THICK_LINE
 62
     0
100
AcDbLine
 10
0.0
 20
0.0
 30
0.0
 11
2.5
 21
0.0
 31
0.0
  0
ENDBLK
  5
54C
330
54A
100
AcDbEntity
  8
0
100
AcDbBlockEnd
  0
BLOCK
  5
553
330
552
100
AcDbEntity
  8
0
100
AcDbBlockBegin
  2
SW_CENTERMARKSYMBOL_18
 70
     0
 10
0.0
 20
0.0
 30
0.0
  3
SW_CENTERMARKSYMBOL_18
  1
SW_CENTERMARKSYMBOL_18
  0
LINE
  5
555
330
552
100
AcDbEntity
  8
THICK_LINE
 62
     0
100
AcDbLine
 10
0.0
 20
0.0
 30
0.0
 11
0.0
 21
2.5
 31
0.0
  0
LINE
  5
556
330
552
100
AcDbEntity
  8
THICK_LINE
 62
     0
100
AcDbLine
 10
0.0
 20
0.0
 30
0.0
 11
-2.5
 21
0.0
 31
0.0
  0
LINE
  5
557
330
552
100
AcDbEntity
  8
THICK_LINE
 62
     0
100
AcDbLine
 10
0.0
 20
0.0
 30
0.0
 11
0.0
 21
-2.5
 31
0.0
  0
LINE
  5
558
330
552
100
AcDbEntity
  8
THICK_LINE
 62
     0
100
AcDbLine
 10
0.0
 20
0.0
 30
0.0
 11
2.5
 21
0.0
 31
0.0
  0
ENDBLK
  5
554
330
552
100
AcDbEntity
  8
0
100
AcDbBlockEnd
  0
BLOCK
  5
55B
330
55A
100
AcDbEntity
  8
0
100
AcDbBlockBegin
  2
SW_CENTERMARKSYMBOL_19
 70
     0
 10
0.0
 20
0.0
 30
0.0
  3
SW_CENTERMARKSYMBOL_19
  1
SW_CENTERMARKSYMBOL_19
  0
LINE
  5
55D
330
55A
100
AcDbEntity
  8
THICK_LINE
 62
     0
100
AcDbLine
 10
0.0
 20
0.0
 30
0.0
 11
0.0
 21
2.5
 31
0.0
  0
LINE
  5
55E
330
55A
100
AcDbEntity
  8
THICK_LINE
 62
     0
100
AcDbLine
 10
0.0
 20
0.0
 30
0.0
 11
-2.5
 21
0.0
 31
0.0
  0
LINE
  5
55F
330
55A
100
AcDbEntity
  8
THICK_LINE
 62
     0
100
AcDbLine
 10
0.0
 20
0.0
 30
0.0
 11
0.0
 21
-2.5
 31
0.0
  0
LINE
  5
560
330
55A
100
AcDbEntity
  8
THICK_LINE
 62
     0
100
AcDbLine
 10
0.0
 20
0.0
 30
0.0
 11
2.5
 21
0.0
 31
0.0
  0
ENDBLK
  5
55C
330
55A
100
AcDbEntity
  8
0
100
AcDbBlockEnd
  0
BLOCK
  5
563
330
562
100
AcDbEntity
  8
0
100
AcDbBlockBegin
  2
SW_CENTERMARKSYMBOL_20
 70
     0
 10
0.0
 20
0.0
 30
0.0
  3
SW_CENTERMARKSYMBOL_20
  1
SW_CENTERMARKSYMBOL_20
  0
LINE
  5
565
330
562
100
AcDbEntity
  8
THICK_LINE
 62
     0
100
AcDbLine
 10
0.0
 20
0.0
 30
0.0
 11
0.0
 21
2.5
 31
0.0
  0
LINE
  5
566
330
562
100
AcDbEntity
  8
THICK_LINE
 62
     0
100
AcDbLine
 10
0.0
 20
0.0
 30
0.0
 11
-2.5
 21
0.0
 31
0.0
  0
LINE
  5
567
330
562
100
AcDbEntity
  8
THICK_LINE
 62
     0
100
AcDbLine
 10
0.0
 20
0.0
 30
0.0
 11
0.0
 21
-2.5
 31
0.0
  0
LINE
  5
568
330
562
100
AcDbEntity
  8
THICK_LINE
 62
     0
100
AcDbLine
 10
0.0
 20
0.0
 30
0.0
 11
2.5
 21
0.0
 31
0.0
  0
LINE
  5
569
330
562
100
AcDbEntity
  8
THICK_LINE
 62
     0
100
AcDbLine
 10
0.0
 20
5.0
 30
0.0
 11
0.0
 21
9.5
 31
0.0
  0
LINE
  5
56A
330
562
100
AcDbEntity
  8
THICK_LINE
 62
     0
100
AcDbLine
 10
-5.0
 20
0.0
 30
0.0
 11
-9.5
 21
0.0
 31
0.0
  0
LINE
  5
56B
330
562
100
AcDbEntity
  8
THICK_LINE
 62
     0
100
AcDbLine
 10
0.0
 20
-5.0
 30
0.0
 11
0.0
 21
-9.5
 31
0.0
  0
LINE
  5
56C
330
562
100
AcDbEntity
  8
THICK_LINE
 62
     0
100
AcDbLine
 10
5.0
 20
0.0
 30
0.0
 11
9.5
 21
0.0
 31
0.0
  0
ENDBLK
  5
564
330
562
100
AcDbEntity
  8
0
100
AcDbBlockEnd
  0
BLOCK
  5
56F
330
56E
100
AcDbEntity
  8
0
100
AcDbBlockBegin
  2
SW_CENTERMARKSYMBOL_21
 70
     0
 10
0.0
 20
0.0
 30
0.0
  3
SW_CENTERMARKSYMBOL_21
  1
SW_CENTERMARKSYMBOL_21
  0
LINE
  5
571
330
56E
100
AcDbEntity
  8
THICK_LINE
 62
     0
100
AcDbLine
 10
0.0
 20
0.0
 30
0.0
 11
0.0
 21
2.5
 31
0.0
  0
LINE
  5
572
330
56E
100
AcDbEntity
  8
THICK_LINE
 62
     0
100
AcDbLine
 10
0.0
 20
0.0
 30
0.0
 11
-2.5
 21
0.0
 31
0.0
  0
LINE
  5
573
330
56E
100
AcDbEntity
  8
THICK_LINE
 62
     0
100
AcDbLine
 10
0.0
 20
0.0
 30
0.0
 11
0.0
 21
-2.5
 31
0.0
  0
LINE
  5
574
330
56E
100
AcDbEntity
  8
THICK_LINE
 62
     0
100
AcDbLine
 10
0.0
 20
0.0
 30
0.0
 11
2.5
 21
0.0
 31
0.0
  0
LINE
  5
575
330
56E
100
AcDbEntity
  8
THICK_LINE
 62
     0
100
AcDbLine
 10
0.0
 20
5.0
 30
0.0
 11
0.0
 21
9.5
 31
0.0
  0
LINE
  5
576
330
56E
100
AcDbEntity
  8
THICK_LINE
 62
     0
100
AcDbLine
 10
-5.0
 20
0.0
 30
0.0
 11
-9.5
 21
0.0
 31
0.0
  0
LINE
  5
577
330
56E
100
AcDbEntity
  8
THICK_LINE
 62
     0
100
AcDbLine
 10
0.0
 20
-5.0
 30
0.0
 11
0.0
 21
-9.5
 31
0.0
  0
LINE
  5
578
330
56E
100
AcDbEntity
  8
THICK_LINE
 62
     0
100
AcDbLine
 10
5.0
 20
0.0
 30
0.0
 11
9.5
 21
0.0
 31
0.0
  0
ENDBLK
  5
570
330
56E
100
AcDbEntity
  8
0
100
AcDbBlockEnd
  0
BLOCK
  5
57B
330
57A
100
AcDbEntity
  8
0
100
AcDbBlockBegin
  2
SW_CENTERMARKSYMBOL_22
 70
     0
 10
0.0
 20
0.0
 30
0.0
  3
SW_CENTERMARKSYMBOL_22
  1
SW_CENTERMARKSYMBOL_22
  0
LINE
  5
57D
330
57A
100
AcDbEntity
  8
THICK_LINE
 62
     0
100
AcDbLine
 10
0.0
 20
0.0
 30
0.0
 11
0.0
 21
2.5
 31
0.0
  0
LINE
  5
57E
330
57A
100
AcDbEntity
  8
THICK_LINE
 62
     0
100
AcDbLine
 10
0.0
 20
0.0
 30
0.0
 11
-2.5
 21
0.0
 31
0.0
  0
LINE
  5
57F
330
57A
100
AcDbEntity
  8
THICK_LINE
 62
     0
100
AcDbLine
 10
0.0
 20
0.0
 30
0.0
 11
0.0
 21
-2.5
 31
0.0
  0
LINE
  5
580
330
57A
100
AcDbEntity
  8
THICK_LINE
 62
     0
100
AcDbLine
 10
0.0
 20
0.0
 30
0.0
 11
2.5
 21
0.0
 31
0.0
  0
LINE
  5
581
330
57A
100
AcDbEntity
  8
THICK_LINE
 62
     0
100
AcDbLine
 10
0.0
 20
5.0
 30
0.0
 11
0.0
 21
11.5
 31
0.0
  0
LINE
  5
582
330
57A
100
AcDbEntity
  8
THICK_LINE
 62
     0
100
AcDbLine
 10
-5.0
 20
0.0
 30
0.0
 11
-11.5
 21
0.0
 31
0.0
  0
LINE
  5
583
330
57A
100
AcDbEntity
  8
THICK_LINE
 62
     0
100
AcDbLine
 10
0.0
 20
-5.0
 30
0.0
 11
0.0
 21
-11.5
 31
0.0
  0
LINE
  5
584
330
57A
100
AcDbEntity
  8
THICK_LINE
 62
     0
100
AcDbLine
 10
5.0
 20
0.0
 30
0.0
 11
11.5
 21
0.0
 31
0.0
  0
ENDBLK
  5
57C
330
57A
100
AcDbEntity
  8
0
100
AcDbBlockEnd
  0
BLOCK
  5
587
330
586
100
AcDbEntity
  8
0
100
AcDbBlockBegin
  2
SW_CENTERMARKSYMBOL_23
 70
     0
 10
0.0
 20
0.0
 30
0.0
  3
SW_CENTERMARKSYMBOL_23
  1
SW_CENTERMARKSYMBOL_23
  0
LINE
  5
589
330
586
100
AcDbEntity
  8
THICK_LINE
 62
     0
100
AcDbLine
 10
0.0
 20
0.0
 30
0.0
 11
0.0
 21
2.5
 31
0.0
  0
LINE
  5
58A
330
586
100
AcDbEntity
  8
THICK_LINE
 62
     0
100
AcDbLine
 10
0.0
 20
0.0
 30
0.0
 11
-2.5
 21
0.0
 31
0.0
  0
LINE
  5
58B
330
586
100
AcDbEntity
  8
THICK_LINE
 62
     0
100
AcDbLine
 10
0.0
 20
0.0
 30
0.0
 11
0.0
 21
-2.5
 31
0.0
  0
LINE
  5
58C
330
586
100
AcDbEntity
  8
THICK_LINE
 62
     0
100
AcDbLine
 10
0.0
 20
0.0
 30
0.0
 11
2.5
 21
0.0
 31
0.0
  0
LINE
  5
58D
330
586
100
AcDbEntity
  8
THICK_LINE
 62
     0
100
AcDbLine
 10
0.0
 20
5.0
 30
0.0
 11
0.0
 21
11.5
 31
0.0
  0
LINE
  5
58E
330
586
100
AcDbEntity
  8
THICK_LINE
 62
     0
100
AcDbLine
 10
-5.0
 20
0.0
 30
0.0
 11
-11.5
 21
0.0
 31
0.0
  0
LINE
  5
58F
330
586
100
AcDbEntity
  8
THICK_LINE
 62
     0
100
AcDbLine
 10
0.0
 20
-5.0
 30
0.0
 11
0.0
 21
-11.5
 31
0.0
  0
LINE
  5
590
330
586
100
AcDbEntity
  8
THICK_LINE
 62
     0
100
AcDbLine
 10
5.0
 20
0.0
 30
0.0
 11
11.5
 21
0.0
 31
0.0
  0
ENDBLK
  5
588
330
586
100
AcDbEntity
  8
0
100
AcDbBlockEnd
  0
BLOCK
  5
593
330
592
100
AcDbEntity
  8
0
100
AcDbBlockBegin
  2
SW_CENTERMARKSYMBOL_24
 70
     0
 10
0.0
 20
0.0
 30
0.0
  3
SW_CENTERMARKSYMBOL_24
  1
SW_CENTERMARKSYMBOL_24
  0
LINE
  5
595
330
592
100
AcDbEntity
  8
THICK_LINE
 62
     0
100
AcDbLine
 10
0.0
 20
0.0
 30
0.0
 11
0.0
 21
2.5
 31
0.0
  0
LINE
  5
596
330
592
100
AcDbEntity
  8
THICK_LINE
 62
     0
100
AcDbLine
 10
0.0
 20
0.0
 30
0.0
 11
-2.5
 21
0.0
 31
0.0
  0
LINE
  5
597
330
592
100
AcDbEntity
  8
THICK_LINE
 62
     0
100
AcDbLine
 10
0.0
 20
0.0
 30
0.0
 11
0.0
 21
-2.5
 31
0.0
  0
LINE
  5
598
330
592
100
AcDbEntity
  8
THICK_LINE
 62
     0
100
AcDbLine
 10
0.0
 20
0.0
 30
0.0
 11
2.5
 21
0.0
 31
0.0
  0
LINE
  5
599
330
592
100
AcDbEntity
  8
THICK_LINE
 62
     0
100
AcDbLine
 10
0.0
 20
5.0
 30
0.0
 11
0.0
 21
11.5
 31
0.0
  0
LINE
  5
59A
330
592
100
AcDbEntity
  8
THICK_LINE
 62
     0
100
AcDbLine
 10
-5.0
 20
0.0
 30
0.0
 11
-11.5
 21
0.0
 31
0.0
  0
LINE
  5
59B
330
592
100
AcDbEntity
  8
THICK_LINE
 62
     0
100
AcDbLine
 10
0.0
 20
-5.0
 30
0.0
 11
0.0
 21
-11.5
 31
0.0
  0
LINE
  5
59C
330
592
100
AcDbEntity
  8
THICK_LINE
 62
     0
100
AcDbLine
 10
5.0
 20
0.0
 30
0.0
 11
11.5
 21
0.0
 31
0.0
  0
ENDBLK
  5
594
330
592
100
AcDbEntity
  8
0
100
AcDbBlockEnd
  0
BLOCK
  5
59F
330
59E
100
AcDbEntity
  8
0
100
AcDbBlockBegin
  2
SW_CENTERMARKSYMBOL_25
 70
     0
 10
0.0
 20
0.0
 30
0.0
  3
SW_CENTERMARKSYMBOL_25
  1
SW_CENTERMARKSYMBOL_25
  0
LINE
  5
5A1
330
59E
100
AcDbEntity
  8
THICK_LINE
 62
     0
100
AcDbLine
 10
0.0
 20
0.0
 30
0.0
 11
0.0
 21
2.5
 31
0.0
  0
LINE
  5
5A2
330
59E
100
AcDbEntity
  8
THICK_LINE
 62
     0
100
AcDbLine
 10
0.0
 20
0.0
 30
0.0
 11
-2.5
 21
0.0
 31
0.0
  0
LINE
  5
5A3
330
59E
100
AcDbEntity
  8
THICK_LINE
 62
     0
100
AcDbLine
 10
0.0
 20
0.0
 30
0.0
 11
0.0
 21
-2.5
 31
0.0
  0
LINE
  5
5A4
330
59E
100
AcDbEntity
  8
THICK_LINE
 62
     0
100
AcDbLine
 10
0.0
 20
0.0
 30
0.0
 11
2.5
 21
0.0
 31
0.0
  0
LINE
  5
5A5
330
59E
100
AcDbEntity
  8
THICK_LINE
 62
     0
100
AcDbLine
 10
0.0
 20
5.0
 30
0.0
 11
0.0
 21
11.5
 31
0.0
  0
LINE
  5
5A6
330
59E
100
AcDbEntity
  8
THICK_LINE
 62
     0
100
AcDbLine
 10
-5.0
 20
0.0
 30
0.0
 11
-11.5
 21
0.0
 31
0.0
  0
LINE
  5
5A7
330
59E
100
AcDbEntity
  8
THICK_LINE
 62
     0
100
AcDbLine
 10
0.0
 20
-5.0
 30
0.0
 11
0.0
 21
-11.5
 31
0.0
  0
LINE
  5
5A8
330
59E
100
AcDbEntity
  8
THICK_LINE
 62
     0
100
AcDbLine
 10
5.0
 20
0.0
 30
0.0
 11
11.5
 21
0.0
 31
0.0
  0
ENDBLK
  5
5A0
330
59E
100
AcDbEntity
  8
0
100
AcDbBlockEnd
  0
BLOCK
  5
5AB
330
5AA
100
AcDbEntity
  8
0
100
AcDbBlockBegin
  2
SW_CENTERMARKSYMBOL_26
 70
     0
 10
0.0
 20
0.0
 30
0.0
  3
SW_CENTERMARKSYMBOL_26
  1
SW_CENTERMARKSYMBOL_26
  0
LINE
  5
5AD
330
5AA
100
AcDbEntity
  8
THICK_LINE
 62
     0
100
AcDbLine
 10
0.0
 20
0.0
 30
0.0
 11
0.0
 21
2.5
 31
0.0
  0
LINE
  5
5AE
330
5AA
100
AcDbEntity
  8
THICK_LINE
 62
     0
100
AcDbLine
 10
0.0
 20
0.0
 30
0.0
 11
-2.5
 21
0.0
 31
0.0
  0
LINE
  5
5AF
330
5AA
100
AcDbEntity
  8
THICK_LINE
 62
     0
100
AcDbLine
 10
0.0
 20
0.0
 30
0.0
 11
0.0
 21
-2.5
 31
0.0
  0
LINE
  5
5B0
330
5AA
100
AcDbEntity
  8
THICK_LINE
 62
     0
100
AcDbLine
 10
0.0
 20
0.0
 30
0.0
 11
2.5
 21
0.0
 31
0.0
  0
ENDBLK
  5
5AC
330
5AA
100
AcDbEntity
  8
0
100
AcDbBlockEnd
  0
BLOCK
  5
5B3
330
5B2
100
AcDbEntity
  8
0
100
AcDbBlockBegin
  2
SW_CENTERMARKSYMBOL_27
 70
     0
 10
0.0
 20
0.0
 30
0.0
  3
SW_CENTERMARKSYMBOL_27
  1
SW_CENTERMARKSYMBOL_27
  0
LINE
  5
5B5
330
5B2
100
AcDbEntity
  8
THICK_LINE
 62
     0
100
AcDbLine
 10
0.0
 20
0.0
 30
0.0
 11
0.0
 21
2.5
 31
0.0
  0
LINE
  5
5B6
330
5B2
100
AcDbEntity
  8
THICK_LINE
 62
     0
100
AcDbLine
 10
0.0
 20
0.0
 30
0.0
 11
-2.5
 21
0.0
 31
0.0
  0
LINE
  5
5B7
330
5B2
100
AcDbEntity
  8
THICK_LINE
 62
     0
100
AcDbLine
 10
0.0
 20
0.0
 30
0.0
 11
0.0
 21
-2.5
 31
0.0
  0
LINE
  5
5B8
330
5B2
100
AcDbEntity
  8
THICK_LINE
 62
     0
100
AcDbLine
 10
0.0
 20
0.0
 30
0.0
 11
2.5
 21
0.0
 31
0.0
  0
ENDBLK
  5
5B4
330
5B2
100
AcDbEntity
  8
0
100
AcDbBlockEnd
  0
BLOCK
  5
5BB
330
5BA
100
AcDbEntity
  8
0
100
AcDbBlockBegin
  2
SW_CENTERMARKSYMBOL_28
 70
     0
 10
0.0
 20
0.0
 30
0.0
  3
SW_CENTERMARKSYMBOL_28
  1
SW_CENTERMARKSYMBOL_28
  0
LINE
  5
5BD
330
5BA
100
AcDbEntity
  8
THICK_LINE
 62
     0
100
AcDbLine
 10
0.0
 20
0.0
 30
0.0
 11
0.0
 21
2.5
 31
0.0
  0
LINE
  5
5BE
330
5BA
100
AcDbEntity
  8
THICK_LINE
 62
     0
100
AcDbLine
 10
0.0
 20
0.0
 30
0.0
 11
-2.5
 21
0.0
 31
0.0
  0
LINE
  5
5BF
330
5BA
100
AcDbEntity
  8
THICK_LINE
 62
     0
100
AcDbLine
 10
0.0
 20
0.0
 30
0.0
 11
0.0
 21
-2.5
 31
0.0
  0
LINE
  5
5C0
330
5BA
100
AcDbEntity
  8
THICK_LINE
 62
     0
100
AcDbLine
 10
0.0
 20
0.0
 30
0.0
 11
2.5
 21
0.0
 31
0.0
  0
ENDBLK
  5
5BC
330
5BA
100
AcDbEntity
  8
0
100
AcDbBlockEnd
  0
BLOCK
  5
5C3
330
5C2
100
AcDbEntity
  8
0
100
AcDbBlockBegin
  2
SW_CENTERMARKSYMBOL_29
 70
     0
 10
0.0
 20
0.0
 30
0.0
  3
SW_CENTERMARKSYMBOL_29
  1
SW_CENTERMARKSYMBOL_29
  0
LINE
  5
5C5
330
5C2
100
AcDbEntity
  8
THICK_LINE
 62
     0
100
AcDbLine
 10
0.0
 20
0.0
 30
0.0
 11
0.0
 21
2.5
 31
0.0
  0
LINE
  5
5C6
330
5C2
100
AcDbEntity
  8
THICK_LINE
 62
     0
100
AcDbLine
 10
0.0
 20
0.0
 30
0.0
 11
-2.5
 21
0.0
 31
0.0
  0
LINE
  5
5C7
330
5C2
100
AcDbEntity
  8
THICK_LINE
 62
     0
100
AcDbLine
 10
0.0
 20
0.0
 30
0.0
 11
0.0
 21
-2.5
 31
0.0
  0
LINE
  5
5C8
330
5C2
100
AcDbEntity
  8
THICK_LINE
 62
     0
100
AcDbLine
 10
0.0
 20
0.0
 30
0.0
 11
2.5
 21
0.0
 31
0.0
  0
ENDBLK
  5
5C4
330
5C2
100
AcDbEntity
  8
0
100
AcDbBlockEnd
  0
BLOCK
  5
5CB
330
5CA
100
AcDbEntity
  8
0
100
AcDbBlockBegin
  2
SW_CENTERMARKSYMBOL_30
 70
     0
 10
0.0
 20
0.0
 30
0.0
  3
SW_CENTERMARKSYMBOL_30
  1
SW_CENTERMARKSYMBOL_30
  0
LINE
  5
5CD
330
5CA
100
AcDbEntity
  8
THICK_LINE
 62
     0
100
AcDbLine
 10
0.0
 20
0.0
 30
0.0
 11
0.0
 21
2.5
 31
0.0
  0
LINE
  5
5CE
330
5CA
100
AcDbEntity
  8
THICK_LINE
 62
     0
100
AcDbLine
 10
0.0
 20
0.0
 30
0.0
 11
-2.5
 21
0.0
 31
0.0
  0
LINE
  5
5CF
330
5CA
100
AcDbEntity
  8
THICK_LINE
 62
     0
100
AcDbLine
 10
0.0
 20
0.0
 30
0.0
 11
0.0
 21
-2.5
 31
0.0
  0
LINE
  5
5D0
330
5CA
100
AcDbEntity
  8
THICK_LINE
 62
     0
100
AcDbLine
 10
0.0
 20
0.0
 30
0.0
 11
2.5
 21
0.0
 31
0.0
  0
ENDBLK
  5
5CC
330
5CA
100
AcDbEntity
  8
0
100
AcDbBlockEnd
  0
BLOCK
  5
5D3
330
5D2
100
AcDbEntity
  8
0
100
AcDbBlockBegin
  2
SW_CENTERMARKSYMBOL_31
 70
     0
 10
0.0
 20
0.0
 30
0.0
  3
SW_CENTERMARKSYMBOL_31
  1
SW_CENTERMARKSYMBOL_31
  0
LINE
  5
5D5
330
5D2
100
AcDbEntity
  8
THICK_LINE
 62
     0
100
AcDbLine
 10
0.0
 20
0.0
 30
0.0
 11
0.0
 21
2.5
 31
0.0
  0
LINE
  5
5D6
330
5D2
100
AcDbEntity
  8
THICK_LINE
 62
     0
100
AcDbLine
 10
0.0
 20
0.0
 30
0.0
 11
-2.5
 21
0.0
 31
0.0
  0
LINE
  5
5D7
330
5D2
100
AcDbEntity
  8
THICK_LINE
 62
     0
100
AcDbLine
 10
0.0
 20
0.0
 30
0.0
 11
0.0
 21
-2.5
 31
0.0
  0
LINE
  5
5D8
330
5D2
100
AcDbEntity
  8
THICK_LINE
 62
     0
100
AcDbLine
 10
0.0
 20
0.0
 30
0.0
 11
2.5
 21
0.0
 31
0.0
  0
ENDBLK
  5
5D4
330
5D2
100
AcDbEntity
  8
0
100
AcDbBlockEnd
  0
BLOCK
  5
5DB
330
5DA
100
AcDbEntity
  8
0
100
AcDbBlockBegin
  2
SW_CENTERMARKSYMBOL_32
 70
     0
 10
0.0
 20
0.0
 30
0.0
  3
SW_CENTERMARKSYMBOL_32
  1
SW_CENTERMARKSYMBOL_32
  0
LINE
  5
5DD
330
5DA
100
AcDbEntity
  8
THICK_LINE
 62
     0
100
AcDbLine
 10
0.0
 20
0.0
 30
0.0
 11
0.0
 21
2.5
 31
0.0
  0
LINE
  5
5DE
330
5DA
100
AcDbEntity
  8
THICK_LINE
 62
     0
100
AcDbLine
 10
0.0
 20
0.0
 30
0.0
 11
-2.5
 21
0.0
 31
0.0
  0
LINE
  5
5DF
330
5DA
100
AcDbEntity
  8
THICK_LINE
 62
     0
100
AcDbLine
 10
0.0
 20
0.0
 30
0.0
 11
0.0
 21
-2.5
 31
0.0
  0
LINE
  5
5E0
330
5DA
100
AcDbEntity
  8
THICK_LINE
 62
     0
100
AcDbLine
 10
0.0
 20
0.0
 30
0.0
 11
2.5
 21
0.0
 31
0.0
  0
ENDBLK
  5
5DC
330
5DA
100
AcDbEntity
  8
0
100
AcDbBlockEnd
  0
BLOCK
  5
5E3
330
5E2
100
AcDbEntity
  8
0
100
AcDbBlockBegin
  2
SW_CENTERMARKSYMBOL_33
 70
     0
 10
0.0
 20
0.0
 30
0.0
  3
SW_CENTERMARKSYMBOL_33
  1
SW_CENTERMARKSYMBOL_33
  0
LINE
  5
5E5
330
5E2
100
AcDbEntity
  8
THICK_LINE
 62
     0
100
AcDbLine
 10
0.0
 20
0.0
 30
0.0
 11
0.0
 21
2.5
 31
0.0
  0
LINE
  5
5E6
330
5E2
100
AcDbEntity
  8
THICK_LINE
 62
     0
100
AcDbLine
 10
0.0
 20
0.0
 30
0.0
 11
-2.5
 21
0.0
 31
0.0
  0
LINE
  5
5E7
330
5E2
100
AcDbEntity
  8
THICK_LINE
 62
     0
100
AcDbLine
 10
0.0
 20
0.0
 30
0.0
 11
0.0
 21
-2.5
 31
0.0
  0
LINE
  5
5E8
330
5E2
100
AcDbEntity
  8
THICK_LINE
 62
     0
100
AcDbLine
 10
0.0
 20
0.0
 30
0.0
 11
2.5
 21
0.0
 31
0.0
  0
ENDBLK
  5
5E4
330
5E2
100
AcDbEntity
  8
0
100
AcDbBlockEnd
  0
BLOCK
  5
5EB
330
5EA
100
AcDbEntity
  8
0
100
AcDbBlockBegin
  2
SW_CENTERMARKSYMBOL_34
 70
     0
 10
0.0
 20
0.0
 30
0.0
  3
SW_CENTERMARKSYMBOL_34
  1
SW_CENTERMARKSYMBOL_34
  0
LINE
  5
5ED
330
5EA
100
AcDbEntity
  8
THICK_LINE
 62
     0
100
AcDbLine
 10
0.0
 20
0.0
 30
0.0
 11
0.0
 21
2.5
 31
0.0
  0
LINE
  5
5EE
330
5EA
100
AcDbEntity
  8
THICK_LINE
 62
     0
100
AcDbLine
 10
0.0
 20
0.0
 30
0.0
 11
-2.5
 21
0.0
 31
0.0
  0
LINE
  5
5EF
330
5EA
100
AcDbEntity
  8
THICK_LINE
 62
     0
100
AcDbLine
 10
0.0
 20
0.0
 30
0.0
 11
0.0
 21
-2.5
 31
0.0
  0
LINE
  5
5F0
330
5EA
100
AcDbEntity
  8
THICK_LINE
 62
     0
100
AcDbLine
 10
0.0
 20
0.0
 30
0.0
 11
2.5
 21
0.0
 31
0.0
  0
ENDBLK
  5
5EC
330
5EA
100
AcDbEntity
  8
0
100
AcDbBlockEnd
  0
BLOCK
  5
5F3
330
5F2
100
AcDbEntity
  8
0
100
AcDbBlockBegin
  2
SW_CENTERMARKSYMBOL_35
 70
     0
 10
0.0
 20
0.0
 30
0.0
  3
SW_CENTERMARKSYMBOL_35
  1
SW_CENTERMARKSYMBOL_35
  0
LINE
  5
5F5
330
5F2
100
AcDbEntity
  8
THICK_LINE
 62
     0
100
AcDbLine
 10
0.0
 20
0.0
 30
0.0
 11
0.0
 21
2.5
 31
0.0
  0
LINE
  5
5F6
330
5F2
100
AcDbEntity
  8
THICK_LINE
 62
     0
100
AcDbLine
 10
0.0
 20
0.0
 30
0.0
 11
-2.5
 21
0.0
 31
0.0
  0
LINE
  5
5F7
330
5F2
100
AcDbEntity
  8
THICK_LINE
 62
     0
100
AcDbLine
 10
0.0
 20
0.0
 30
0.0
 11
0.0
 21
-2.5
 31
0.0
  0
LINE
  5
5F8
330
5F2
100
AcDbEntity
  8
THICK_LINE
 62
     0
100
AcDbLine
 10
0.0
 20
0.0
 30
0.0
 11
2.5
 21
0.0
 31
0.0
  0
ENDBLK
  5
5F4
330
5F2
100
AcDbEntity
  8
0
100
AcDbBlockEnd
  0
BLOCK
  5
5FB
330
5FA
100
AcDbEntity
  8
0
100
AcDbBlockBegin
  2
SW_CENTERMARKSYMBOL_36
 70
     0
 10
0.0
 20
0.0
 30
0.0
  3
SW_CENTERMARKSYMBOL_36
  1
SW_CENTERMARKSYMBOL_36
  0
LINE
  5
5FD
330
5FA
100
AcDbEntity
  8
THICK_LINE
 62
     0
100
AcDbLine
 10
0.0
 20
0.0
 30
0.0
 11
0.0
 21
2.5
 31
0.0
  0
LINE
  5
5FE
330
5FA
100
AcDbEntity
  8
THICK_LINE
 62
     0
100
AcDbLine
 10
0.0
 20
0.0
 30
0.0
 11
-2.5
 21
0.0
 31
0.0
  0
LINE
  5
5FF
330
5FA
100
AcDbEntity
  8
THICK_LINE
 62
     0
100
AcDbLine
 10
0.0
 20
0.0
 30
0.0
 11
0.0
 21
-2.5
 31
0.0
  0
LINE
  5
600
330
5FA
100
AcDbEntity
  8
THICK_LINE
 62
     0
100
AcDbLine
 10
0.0
 20
0.0
 30
0.0
 11
2.5
 21
0.0
 31
0.0
  0
ENDBLK
  5
5FC
330
5FA
100
AcDbEntity
  8
0
100
AcDbBlockEnd
  0
BLOCK
  5
603
330
602
100
AcDbEntity
  8
0
100
AcDbBlockBegin
  2
SW_CENTERMARKSYMBOL_37
 70
     0
 10
0.0
 20
0.0
 30
0.0
  3
SW_CENTERMARKSYMBOL_37
  1
SW_CENTERMARKSYMBOL_37
  0
LINE
  5
605
330
602
100
AcDbEntity
  8
THICK_LINE
 62
     0
100
AcDbLine
 10
0.0
 20
0.0
 30
0.0
 11
0.0
 21
2.5
 31
0.0
  0
LINE
  5
606
330
602
100
AcDbEntity
  8
THICK_LINE
 62
     0
100
AcDbLine
 10
0.0
 20
0.0
 30
0.0
 11
-2.5
 21
0.0
 31
0.0
  0
LINE
  5
607
330
602
100
AcDbEntity
  8
THICK_LINE
 62
     0
100
AcDbLine
 10
0.0
 20
0.0
 30
0.0
 11
0.0
 21
-2.5
 31
0.0
  0
LINE
  5
608
330
602
100
AcDbEntity
  8
THICK_LINE
 62
     0
100
AcDbLine
 10
0.0
 20
0.0
 30
0.0
 11
2.5
 21
0.0
 31
0.0
  0
ENDBLK
  5
604
330
602
100
AcDbEntity
  8
0
100
AcDbBlockEnd
  0
BLOCK
  5
60B
330
60A
100
AcDbEntity
  8
0
100
AcDbBlockBegin
  2
SW_CENTERMARKSYMBOL_38
 70
     0
 10
0.0
 20
0.0
 30
0.0
  3
SW_CENTERMARKSYMBOL_38
  1
SW_CENTERMARKSYMBOL_38
  0
LINE
  5
60D
330
60A
100
AcDbEntity
  8
THICK_LINE
 62
     0
100
AcDbLine
 10
0.0
 20
0.0
 30
0.0
 11
0.0
 21
2.5
 31
0.0
  0
LINE
  5
60E
330
60A
100
AcDbEntity
  8
THICK_LINE
 62
     0
100
AcDbLine
 10
0.0
 20
0.0
 30
0.0
 11
-2.5
 21
0.0
 31
0.0
  0
LINE
  5
60F
330
60A
100
AcDbEntity
  8
THICK_LINE
 62
     0
100
AcDbLine
 10
0.0
 20
0.0
 30
0.0
 11
0.0
 21
-2.5
 31
0.0
  0
LINE
  5
610
330
60A
100
AcDbEntity
  8
THICK_LINE
 62
     0
100
AcDbLine
 10
0.0
 20
0.0
 30
0.0
 11
2.5
 21
0.0
 31
0.0
  0
LINE
  5
611
330
60A
100
AcDbEntity
  8
THICK_LINE
 62
     0
100
AcDbLine
 10
0.0
 20
5.0
 30
0.0
 11
0.0
 21
11.5
 31
0.0
  0
LINE
  5
612
330
60A
100
AcDbEntity
  8
THICK_LINE
 62
     0
100
AcDbLine
 10
-5.0
 20
0.0
 30
0.0
 11
-11.5
 21
0.0
 31
0.0
  0
LINE
  5
613
330
60A
100
AcDbEntity
  8
THICK_LINE
 62
     0
100
AcDbLine
 10
0.0
 20
-5.0
 30
0.0
 11
0.0
 21
-11.5
 31
0.0
  0
LINE
  5
614
330
60A
100
AcDbEntity
  8
THICK_LINE
 62
     0
100
AcDbLine
 10
5.0
 20
0.0
 30
0.0
 11
11.5
 21
0.0
 31
0.0
  0
ENDBLK
  5
60C
330
60A
100
AcDbEntity
  8
0
100
AcDbBlockEnd
  0
BLOCK
  5
617
330
616
100
AcDbEntity
  8
0
100
AcDbBlockBegin
  2
SW_CENTERMARKSYMBOL_39
 70
     0
 10
0.0
 20
0.0
 30
0.0
  3
SW_CENTERMARKSYMBOL_39
  1
SW_CENTERMARKSYMBOL_39
  0
LINE
  5
619
330
616
100
AcDbEntity
  8
THICK_LINE
 62
     0
100
AcDbLine
 10
0.0
 20
0.0
 30
0.0
 11
0.0
 21
2.5
 31
0.0
  0
LINE
  5
61A
330
616
100
AcDbEntity
  8
THICK_LINE
 62
     0
100
AcDbLine
 10
0.0
 20
0.0
 30
0.0
 11
-2.5
 21
0.0
 31
0.0
  0
LINE
  5
61B
330
616
100
AcDbEntity
  8
THICK_LINE
 62
     0
100
AcDbLine
 10
0.0
 20
0.0
 30
0.0
 11
0.0
 21
-2.5
 31
0.0
  0
LINE
  5
61C
330
616
100
AcDbEntity
  8
THICK_LINE
 62
     0
100
AcDbLine
 10
0.0
 20
0.0
 30
0.0
 11
2.5
 21
0.0
 31
0.0
  0
LINE
  5
61D
330
616
100
AcDbEntity
  8
THICK_LINE
 62
     0
100
AcDbLine
 10
0.0
 20
5.0
 30
0.0
 11
0.0
 21
11.5
 31
0.0
  0
LINE
  5
61E
330
616
100
AcDbEntity
  8
THICK_LINE
 62
     0
100
AcDbLine
 10
-5.0
 20
0.0
 30
0.0
 11
-11.5
 21
0.0
 31
0.0
  0
LINE
  5
61F
330
616
100
AcDbEntity
  8
THICK_LINE
 62
     0
100
AcDbLine
 10
0.0
 20
-5.0
 30
0.0
 11
0.0
 21
-11.5
 31
0.0
  0
LINE
  5
620
330
616
100
AcDbEntity
  8
THICK_LINE
 62
     0
100
AcDbLine
 10
5.0
 20
0.0
 30
0.0
 11
11.5
 21
0.0
 31
0.0
  0
ENDBLK
  5
618
330
616
100
AcDbEntity
  8
0
100
AcDbBlockEnd
  0
BLOCK
  5
623
330
622
100
AcDbEntity
  8
0
100
AcDbBlockBegin
  2
SW_CENTERMARKSYMBOL_40
 70
     0
 10
0.0
 20
0.0
 30
0.0
  3
SW_CENTERMARKSYMBOL_40
  1
SW_CENTERMARKSYMBOL_40
  0
LINE
  5
625
330
622
100
AcDbEntity
  8
THICK_LINE
 62
     0
100
AcDbLine
 10
0.0
 20
0.0
 30
0.0
 11
0.0
 21
2.5
 31
0.0
  0
LINE
  5
626
330
622
100
AcDbEntity
  8
THICK_LINE
 62
     0
100
AcDbLine
 10
0.0
 20
0.0
 30
0.0
 11
-2.5
 21
0.0
 31
0.0
  0
LINE
  5
627
330
622
100
AcDbEntity
  8
THICK_LINE
 62
     0
100
AcDbLine
 10
0.0
 20
0.0
 30
0.0
 11
0.0
 21
-2.5
 31
0.0
  0
LINE
  5
628
330
622
100
AcDbEntity
  8
THICK_LINE
 62
     0
100
AcDbLine
 10
0.0
 20
0.0
 30
0.0
 11
2.5
 21
0.0
 31
0.0
  0
LINE
  5
629
330
622
100
AcDbEntity
  8
THICK_LINE
 62
     0
100
AcDbLine
 10
0.0
 20
5.0
 30
0.0
 11
0.0
 21
11.5
 31
0.0
  0
LINE
  5
62A
330
622
100
AcDbEntity
  8
THICK_LINE
 62
     0
100
AcDbLine
 10
-5.0
 20
0.0
 30
0.0
 11
-11.5
 21
0.0
 31
0.0
  0
LINE
  5
62B
330
622
100
AcDbEntity
  8
THICK_LINE
 62
     0
100
AcDbLine
 10
0.0
 20
-5.0
 30
0.0
 11
0.0
 21
-11.5
 31
0.0
  0
LINE
  5
62C
330
622
100
AcDbEntity
  8
THICK_LINE
 62
     0
100
AcDbLine
 10
5.0
 20
0.0
 30
0.0
 11
11.5
 21
0.0
 31
0.0
  0
ENDBLK
  5
624
330
622
100
AcDbEntity
  8
0
100
AcDbBlockEnd
  0
BLOCK
  5
62F
330
62E
100
AcDbEntity
  8
0
100
AcDbBlockBegin
  2
SW_CENTERMARKSYMBOL_41
 70
     0
 10
0.0
 20
0.0
 30
0.0
  3
SW_CENTERMARKSYMBOL_41
  1
SW_CENTERMARKSYMBOL_41
  0
LINE
  5
631
330
62E
100
AcDbEntity
  8
THICK_LINE
 62
     0
100
AcDbLine
 10
0.0
 20
0.0
 30
0.0
 11
0.0
 21
2.5
 31
0.0
  0
LINE
  5
632
330
62E
100
AcDbEntity
  8
THICK_LINE
 62
     0
100
AcDbLine
 10
0.0
 20
0.0
 30
0.0
 11
-2.5
 21
0.0
 31
0.0
  0
LINE
  5
633
330
62E
100
AcDbEntity
  8
THICK_LINE
 62
     0
100
AcDbLine
 10
0.0
 20
0.0
 30
0.0
 11
0.0
 21
-2.5
 31
0.0
  0
LINE
  5
634
330
62E
100
AcDbEntity
  8
THICK_LINE
 62
     0
100
AcDbLine
 10
0.0
 20
0.0
 30
0.0
 11
2.5
 21
0.0
 31
0.0
  0
LINE
  5
635
330
62E
100
AcDbEntity
  8
THICK_LINE
 62
     0
100
AcDbLine
 10
0.0
 20
5.0
 30
0.0
 11
0.0
 21
11.5
 31
0.0
  0
LINE
  5
636
330
62E
100
AcDbEntity
  8
THICK_LINE
 62
     0
100
AcDbLine
 10
-5.0
 20
0.0
 30
0.0
 11
-11.5
 21
0.0
 31
0.0
  0
LINE
  5
637
330
62E
100
AcDbEntity
  8
THICK_LINE
 62
     0
100
AcDbLine
 10
0.0
 20
-5.0
 30
0.0
 11
0.0
 21
-11.5
 31
0.0
  0
LINE
  5
638
330
62E
100
AcDbEntity
  8
THICK_LINE
 62
     0
100
AcDbLine
 10
5.0
 20
0.0
 30
0.0
 11
11.5
 21
0.0
 31
0.0
  0
ENDBLK
  5
630
330
62E
100
AcDbEntity
  8
0
100
AcDbBlockEnd
  0
BLOCK
  5
63B
330
63A
100
AcDbEntity
  8
0
100
AcDbBlockBegin
  2
SW_CENTERMARKSYMBOL_42
 70
     0
 10
0.0
 20
0.0
 30
0.0
  3
SW_CENTERMARKSYMBOL_42
  1
SW_CENTERMARKSYMBOL_42
  0
LINE
  5
63D
330
63A
100
AcDbEntity
  8
THICK_LINE
 62
     0
100
AcDbLine
 10
0.0
 20
0.0
 30
0.0
 11
0.0
 21
2.5
 31
0.0
  0
LINE
  5
63E
330
63A
100
AcDbEntity
  8
THICK_LINE
 62
     0
100
AcDbLine
 10
0.0
 20
0.0
 30
0.0
 11
-2.5
 21
0.0
 31
0.0
  0
LINE
  5
63F
330
63A
100
AcDbEntity
  8
THICK_LINE
 62
     0
100
AcDbLine
 10
0.0
 20
0.0
 30
0.0
 11
0.0
 21
-2.5
 31
0.0
  0
LINE
  5
640
330
63A
100
AcDbEntity
  8
THICK_LINE
 62
     0
100
AcDbLine
 10
0.0
 20
0.0
 30
0.0
 11
2.5
 21
0.0
 31
0.0
  0
ENDBLK
  5
63C
330
63A
100
AcDbEntity
  8
0
100
AcDbBlockEnd
  0
BLOCK
  5
643
330
642
100
AcDbEntity
  8
0
100
AcDbBlockBegin
  2
SW_CENTERMARKSYMBOL_43
 70
     0
 10
0.0
 20
0.0
 30
0.0
  3
SW_CENTERMARKSYMBOL_43
  1
SW_CENTERMARKSYMBOL_43
  0
LINE
  5
645
330
642
100
AcDbEntity
  8
THICK_LINE
 62
     0
100
AcDbLine
 10
0.0
 20
0.0
 30
0.0
 11
0.0
 21
2.5
 31
0.0
  0
LINE
  5
646
330
642
100
AcDbEntity
  8
THICK_LINE
 62
     0
100
AcDbLine
 10
0.0
 20
0.0
 30
0.0
 11
-2.5
 21
0.0
 31
0.0
  0
LINE
  5
647
330
642
100
AcDbEntity
  8
THICK_LINE
 62
     0
100
AcDbLine
 10
0.0
 20
0.0
 30
0.0
 11
0.0
 21
-2.5
 31
0.0
  0
LINE
  5
648
330
642
100
AcDbEntity
  8
THICK_LINE
 62
     0
100
AcDbLine
 10
0.0
 20
0.0
 30
0.0
 11
2.5
 21
0.0
 31
0.0
  0
ENDBLK
  5
644
330
642
100
AcDbEntity
  8
0
100
AcDbBlockEnd
  0
BLOCK
  5
64B
330
64A
100
AcDbEntity
  8
0
100
AcDbBlockBegin
  2
SW_CENTERMARKSYMBOL_44
 70
     0
 10
0.0
 20
0.0
 30
0.0
  3
SW_CENTERMARKSYMBOL_44
  1
SW_CENTERMARKSYMBOL_44
  0
LINE
  5
64D
330
64A
100
AcDbEntity
  8
THICK_LINE
 62
     0
100
AcDbLine
 10
0.0
 20
0.0
 30
0.0
 11
0.0
 21
2.5
 31
0.0
  0
LINE
  5
64E
330
64A
100
AcDbEntity
  8
THICK_LINE
 62
     0
100
AcDbLine
 10
0.0
 20
0.0
 30
0.0
 11
-2.5
 21
0.0
 31
0.0
  0
LINE
  5
64F
330
64A
100
AcDbEntity
  8
THICK_LINE
 62
     0
100
AcDbLine
 10
0.0
 20
0.0
 30
0.0
 11
0.0
 21
-2.5
 31
0.0
  0
LINE
  5
650
330
64A
100
AcDbEntity
  8
THICK_LINE
 62
     0
100
AcDbLine
 10
0.0
 20
0.0
 30
0.0
 11
2.5
 21
0.0
 31
0.0
  0
ENDBLK
  5
64C
330
64A
100
AcDbEntity
  8
0
100
AcDbBlockEnd
  0
BLOCK
  5
653
330
652
100
AcDbEntity
  8
0
100
AcDbBlockBegin
  2
SW_CENTERMARKSYMBOL_45
 70
     0
 10
0.0
 20
0.0
 30
0.0
  3
SW_CENTERMARKSYMBOL_45
  1
SW_CENTERMARKSYMBOL_45
  0
LINE
  5
655
330
652
100
AcDbEntity
  8
THICK_LINE
 62
     0
100
AcDbLine
 10
0.0
 20
0.0
 30
0.0
 11
0.0
 21
2.5
 31
0.0
  0
LINE
  5
656
330
652
100
AcDbEntity
  8
THICK_LINE
 62
     0
100
AcDbLine
 10
0.0
 20
0.0
 30
0.0
 11
-2.5
 21
0.0
 31
0.0
  0
LINE
  5
657
330
652
100
AcDbEntity
  8
THICK_LINE
 62
     0
100
AcDbLine
 10
0.0
 20
0.0
 30
0.0
 11
0.0
 21
-2.5
 31
0.0
  0
LINE
  5
658
330
652
100
AcDbEntity
  8
THICK_LINE
 62
     0
100
AcDbLine
 10
0.0
 20
0.0
 30
0.0
 11
2.5
 21
0.0
 31
0.0
  0
ENDBLK
  5
654
330
652
100
AcDbEntity
  8
0
100
AcDbBlockEnd
  0
BLOCK
  5
65B
330
65A
100
AcDbEntity
  8
0
100
AcDbBlockBegin
  2
SW_CENTERMARKSYMBOL_46
 70
     0
 10
0.0
 20
0.0
 30
0.0
  3
SW_CENTERMARKSYMBOL_46
  1
SW_CENTERMARKSYMBOL_46
  0
LINE
  5
65D
330
65A
100
AcDbEntity
  8
THICK_LINE
 62
     0
100
AcDbLine
 10
0.0
 20
0.0
 30
0.0
 11
0.0
 21
2.5
 31
0.0
  0
LINE
  5
65E
330
65A
100
AcDbEntity
  8
THICK_LINE
 62
     0
100
AcDbLine
 10
0.0
 20
0.0
 30
0.0
 11
-2.5
 21
0.0
 31
0.0
  0
LINE
  5
65F
330
65A
100
AcDbEntity
  8
THICK_LINE
 62
     0
100
AcDbLine
 10
0.0
 20
0.0
 30
0.0
 11
0.0
 21
-2.5
 31
0.0
  0
LINE
  5
660
330
65A
100
AcDbEntity
  8
THICK_LINE
 62
     0
100
AcDbLine
 10
0.0
 20
0.0
 30
0.0
 11
2.5
 21
0.0
 31
0.0
  0
ENDBLK
  5
65C
330
65A
100
AcDbEntity
  8
0
100
AcDbBlockEnd
  0
BLOCK
  5
663
330
662
100
AcDbEntity
  8
0
100
AcDbBlockBegin
  2
SW_CENTERMARKSYMBOL_47
 70
     0
 10
0.0
 20
0.0
 30
0.0
  3
SW_CENTERMARKSYMBOL_47
  1
SW_CENTERMARKSYMBOL_47
  0
LINE
  5
665
330
662
100
AcDbEntity
  8
THICK_LINE
 62
     0
100
AcDbLine
 10
0.0
 20
0.0
 30
0.0
 11
0.0
 21
2.5
 31
0.0
  0
LINE
  5
666
330
662
100
AcDbEntity
  8
THICK_LINE
 62
     0
100
AcDbLine
 10
0.0
 20
0.0
 30
0.0
 11
-2.5
 21
0.0
 31
0.0
  0
LINE
  5
667
330
662
100
AcDbEntity
  8
THICK_LINE
 62
     0
100
AcDbLine
 10
0.0
 20
0.0
 30
0.0
 11
0.0
 21
-2.5
 31
0.0
  0
LINE
  5
668
330
662
100
AcDbEntity
  8
THICK_LINE
 62
     0
100
AcDbLine
 10
0.0
 20
0.0
 30
0.0
 11
2.5
 21
0.0
 31
0.0
  0
ENDBLK
  5
664
330
662
100
AcDbEntity
  8
0
100
AcDbBlockEnd
  0
BLOCK
  5
66B
330
66A
100
AcDbEntity
  8
0
100
AcDbBlockBegin
  2
SW_CENTERMARKSYMBOL_48
 70
     0
 10
0.0
 20
0.0
 30
0.0
  3
SW_CENTERMARKSYMBOL_48
  1
SW_CENTERMARKSYMBOL_48
  0
LINE
  5
66D
330
66A
100
AcDbEntity
  8
THICK_LINE
 62
     0
100
AcDbLine
 10
0.0
 20
0.0
 30
0.0
 11
0.0
 21
2.5
 31
0.0
  0
LINE
  5
66E
330
66A
100
AcDbEntity
  8
THICK_LINE
 62
     0
100
AcDbLine
 10
0.0
 20
0.0
 30
0.0
 11
-2.5
 21
0.0
 31
0.0
  0
LINE
  5
66F
330
66A
100
AcDbEntity
  8
THICK_LINE
 62
     0
100
AcDbLine
 10
0.0
 20
0.0
 30
0.0
 11
0.0
 21
-2.5
 31
0.0
  0
LINE
  5
670
330
66A
100
AcDbEntity
  8
THICK_LINE
 62
     0
100
AcDbLine
 10
0.0
 20
0.0
 30
0.0
 11
2.5
 21
0.0
 31
0.0
  0
ENDBLK
  5
66C
330
66A
100
AcDbEntity
  8
0
100
AcDbBlockEnd
  0
BLOCK
  5
673
330
672
100
AcDbEntity
  8
0
100
AcDbBlockBegin
  2
SW_CENTERMARKSYMBOL_49
 70
     0
 10
0.0
 20
0.0
 30
0.0
  3
SW_CENTERMARKSYMBOL_49
  1
SW_CENTERMARKSYMBOL_49
  0
LINE
  5
675
330
672
100
AcDbEntity
  8
THICK_LINE
 62
     0
100
AcDbLine
 10
0.0
 20
0.0
 30
0.0
 11
0.0
 21
2.5
 31
0.0
  0
LINE
  5
676
330
672
100
AcDbEntity
  8
THICK_LINE
 62
     0
100
AcDbLine
 10
0.0
 20
0.0
 30
0.0
 11
-2.5
 21
0.0
 31
0.0
  0
LINE
  5
677
330
672
100
AcDbEntity
  8
THICK_LINE
 62
     0
100
AcDbLine
 10
0.0
 20
0.0
 30
0.0
 11
0.0
 21
-2.5
 31
0.0
  0
LINE
  5
678
330
672
100
AcDbEntity
  8
THICK_LINE
 62
     0
100
AcDbLine
 10
0.0
 20
0.0
 30
0.0
 11
2.5
 21
0.0
 31
0.0
  0
LINE
  5
679
330
672
100
AcDbEntity
  8
THICK_LINE
 62
     0
100
AcDbLine
 10
0.0
 20
5.0
 30
0.0
 11
0.0
 21
9.5
 31
0.0
  0
LINE
  5
67A
330
672
100
AcDbEntity
  8
THICK_LINE
 62
     0
100
AcDbLine
 10
-5.0
 20
0.0
 30
0.0
 11
-9.5
 21
0.0
 31
0.0
  0
LINE
  5
67B
330
672
100
AcDbEntity
  8
THICK_LINE
 62
     0
100
AcDbLine
 10
0.0
 20
-5.0
 30
0.0
 11
0.0
 21
-9.5
 31
0.0
  0
LINE
  5
67C
330
672
100
AcDbEntity
  8
THICK_LINE
 62
     0
100
AcDbLine
 10
5.0
 20
0.0
 30
0.0
 11
9.5
 21
0.0
 31
0.0
  0
ENDBLK
  5
674
330
672
100
AcDbEntity
  8
0
100
AcDbBlockEnd
  0
BLOCK
  5
67F
330
67E
100
AcDbEntity
  8
0
100
AcDbBlockBegin
  2
SW_CENTERMARKSYMBOL_50
 70
     0
 10
0.0
 20
0.0
 30
0.0
  3
SW_CENTERMARKSYMBOL_50
  1
SW_CENTERMARKSYMBOL_50
  0
LINE
  5
681
330
67E
100
AcDbEntity
  8
THICK_LINE
 62
     0
100
AcDbLine
 10
0.0
 20
0.0
 30
0.0
 11
0.0
 21
2.5
 31
0.0
  0
LINE
  5
682
330
67E
100
AcDbEntity
  8
THICK_LINE
 62
     0
100
AcDbLine
 10
0.0
 20
0.0
 30
0.0
 11
-2.5
 21
0.0
 31
0.0
  0
LINE
  5
683
330
67E
100
AcDbEntity
  8
THICK_LINE
 62
     0
100
AcDbLine
 10
0.0
 20
0.0
 30
0.0
 11
0.0
 21
-2.5
 31
0.0
  0
LINE
  5
684
330
67E
100
AcDbEntity
  8
THICK_LINE
 62
     0
100
AcDbLine
 10
0.0
 20
0.0
 30
0.0
 11
2.5
 21
0.0
 31
0.0
  0
LINE
  5
685
330
67E
100
AcDbEntity
  8
THICK_LINE
 62
     0
100
AcDbLine
 10
0.0
 20
5.0
 30
0.0
 11
0.0
 21
9.5
 31
0.0
  0
LINE
  5
686
330
67E
100
AcDbEntity
  8
THICK_LINE
 62
     0
100
AcDbLine
 10
-5.0
 20
0.0
 30
0.0
 11
-9.5
 21
0.0
 31
0.0
  0
LINE
  5
687
330
67E
100
AcDbEntity
  8
THICK_LINE
 62
     0
100
AcDbLine
 10
0.0
 20
-5.0
 30
0.0
 11
0.0
 21
-9.5
 31
0.0
  0
LINE
  5
688
330
67E
100
AcDbEntity
  8
THICK_LINE
 62
     0
100
AcDbLine
 10
5.0
 20
0.0
 30
0.0
 11
9.5
 21
0.0
 31
0.0
  0
ENDBLK
  5
680
330
67E
100
AcDbEntity
  8
0
100
AcDbBlockEnd
  0
BLOCK
  5
68B
330
68A
100
AcDbEntity
  8
0
100
AcDbBlockBegin
  2
SW_CENTERMARKSYMBOL_51
 70
     0
 10
0.0
 20
0.0
 30
0.0
  3
SW_CENTERMARKSYMBOL_51
  1
SW_CENTERMARKSYMBOL_51
  0
LINE
  5
68D
330
68A
100
AcDbEntity
  8
THICK_LINE
 62
     0
100
AcDbLine
 10
0.0
 20
0.0
 30
0.0
 11
0.0
 21
2.5
 31
0.0
  0
LINE
  5
68E
330
68A
100
AcDbEntity
  8
THICK_LINE
 62
     0
100
AcDbLine
 10
0.0
 20
0.0
 30
0.0
 11
-2.5
 21
0.0
 31
0.0
  0
LINE
  5
68F
330
68A
100
AcDbEntity
  8
THICK_LINE
 62
     0
100
AcDbLine
 10
0.0
 20
0.0
 30
0.0
 11
0.0
 21
-2.5
 31
0.0
  0
LINE
  5
690
330
68A
100
AcDbEntity
  8
THICK_LINE
 62
     0
100
AcDbLine
 10
0.0
 20
0.0
 30
0.0
 11
2.5
 21
0.0
 31
0.0
  0
ENDBLK
  5
68C
330
68A
100
AcDbEntity
  8
0
100
AcDbBlockEnd
  0
BLOCK
  5
693
330
692
100
AcDbEntity
  8
0
100
AcDbBlockBegin
  2
SW_CENTERMARKSYMBOL_52
 70
     0
 10
0.0
 20
0.0
 30
0.0
  3
SW_CENTERMARKSYMBOL_52
  1
SW_CENTERMARKSYMBOL_52
  0
LINE
  5
695
330
692
100
AcDbEntity
  8
THICK_LINE
 62
     0
100
AcDbLine
 10
0.0
 20
0.0
 30
0.0
 11
0.0
 21
2.5
 31
0.0
  0
LINE
  5
696
330
692
100
AcDbEntity
  8
THICK_LINE
 62
     0
100
AcDbLine
 10
0.0
 20
0.0
 30
0.0
 11
-2.5
 21
0.0
 31
0.0
  0
LINE
  5
697
330
692
100
AcDbEntity
  8
THICK_LINE
 62
     0
100
AcDbLine
 10
0.0
 20
0.0
 30
0.0
 11
0.0
 21
-2.5
 31
0.0
  0
LINE
  5
698
330
692
100
AcDbEntity
  8
THICK_LINE
 62
     0
100
AcDbLine
 10
0.0
 20
0.0
 30
0.0
 11
2.5
 21
0.0
 31
0.0
  0
ENDBLK
  5
694
330
692
100
AcDbEntity
  8
0
100
AcDbBlockEnd
  0
BLOCK
  5
69B
330
69A
100
AcDbEntity
  8
0
100
AcDbBlockBegin
  2
SW_CENTERMARKSYMBOL_53
 70
     0
 10
0.0
 20
0.0
 30
0.0
  3
SW_CENTERMARKSYMBOL_53
  1
SW_CENTERMARKSYMBOL_53
  0
LINE
  5
69D
330
69A
100
AcDbEntity
  8
THICK_LINE
 62
     0
100
AcDbLine
 10
0.0
 20
0.0
 30
0.0
 11
0.0
 21
2.5
 31
0.0
  0
LINE
  5
69E
330
69A
100
AcDbEntity
  8
THICK_LINE
 62
     0
100
AcDbLine
 10
0.0
 20
0.0
 30
0.0
 11
-2.5
 21
0.0
 31
0.0
  0
LINE
  5
69F
330
69A
100
AcDbEntity
  8
THICK_LINE
 62
     0
100
AcDbLine
 10
0.0
 20
0.0
 30
0.0
 11
0.0
 21
-2.5
 31
0.0
  0
LINE
  5
6A0
330
69A
100
AcDbEntity
  8
THICK_LINE
 62
     0
100
AcDbLine
 10
0.0
 20
0.0
 30
0.0
 11
2.5
 21
0.0
 31
0.0
  0
ENDBLK
  5
69C
330
69A
100
AcDbEntity
  8
0
100
AcDbBlockEnd
  0
BLOCK
  5
6A3
330
6A2
100
AcDbEntity
  8
0
100
AcDbBlockBegin
  2
SW_CENTERMARKSYMBOL_54
 70
     0
 10
0.0
 20
0.0
 30
0.0
  3
SW_CENTERMARKSYMBOL_54
  1
SW_CENTERMARKSYMBOL_54
  0
LINE
  5
6A5
330
6A2
100
AcDbEntity
  8
THICK_LINE
 62
     0
100
AcDbLine
 10
0.0
 20
0.0
 30
0.0
 11
0.0
 21
2.5
 31
0.0
  0
LINE
  5
6A6
330
6A2
100
AcDbEntity
  8
THICK_LINE
 62
     0
100
AcDbLine
 10
0.0
 20
0.0
 30
0.0
 11
-2.5
 21
0.0
 31
0.0
  0
LINE
  5
6A7
330
6A2
100
AcDbEntity
  8
THICK_LINE
 62
     0
100
AcDbLine
 10
0.0
 20
0.0
 30
0.0
 11
0.0
 21
-2.5
 31
0.0
  0
LINE
  5
6A8
330
6A2
100
AcDbEntity
  8
THICK_LINE
 62
     0
100
AcDbLine
 10
0.0
 20
0.0
 30
0.0
 11
2.5
 21
0.0
 31
0.0
  0
LINE
  5
6A9
330
6A2
100
AcDbEntity
  8
THICK_LINE
 62
     0
100
AcDbLine
 10
0.0
 20
5.0
 30
0.0
 11
0.0
 21
9.5
 31
0.0
  0
LINE
  5
6AA
330
6A2
100
AcDbEntity
  8
THICK_LINE
 62
     0
100
AcDbLine
 10
-5.0
 20
0.0
 30
0.0
 11
-9.5
 21
0.0
 31
0.0
  0
LINE
  5
6AB
330
6A2
100
AcDbEntity
  8
THICK_LINE
 62
     0
100
AcDbLine
 10
0.0
 20
-5.0
 30
0.0
 11
0.0
 21
-9.5
 31
0.0
  0
LINE
  5
6AC
330
6A2
100
AcDbEntity
  8
THICK_LINE
 62
     0
100
AcDbLine
 10
5.0
 20
0.0
 30
0.0
 11
9.5
 21
0.0
 31
0.0
  0
ENDBLK
  5
6A4
330
6A2
100
AcDbEntity
  8
0
100
AcDbBlockEnd
  0
BLOCK
  5
6AF
330
6AE
100
AcDbEntity
  8
0
100
AcDbBlockBegin
  2
SW_CENTERMARKSYMBOL_55
 70
     0
 10
0.0
 20
0.0
 30
0.0
  3
SW_CENTERMARKSYMBOL_55
  1
SW_CENTERMARKSYMBOL_55
  0
LINE
  5
6B1
330
6AE
100
AcDbEntity
  8
THICK_LINE
 62
     0
100
AcDbLine
 10
0.0
 20
0.0
 30
0.0
 11
0.0
 21
2.5
 31
0.0
  0
LINE
  5
6B2
330
6AE
100
AcDbEntity
  8
THICK_LINE
 62
     0
100
AcDbLine
 10
0.0
 20
0.0
 30
0.0
 11
-2.5
 21
0.0
 31
0.0
  0
LINE
  5
6B3
330
6AE
100
AcDbEntity
  8
THICK_LINE
 62
     0
100
AcDbLine
 10
0.0
 20
0.0
 30
0.0
 11
0.0
 21
-2.5
 31
0.0
  0
LINE
  5
6B4
330
6AE
100
AcDbEntity
  8
THICK_LINE
 62
     0
100
AcDbLine
 10
0.0
 20
0.0
 30
0.0
 11
2.5
 21
0.0
 31
0.0
  0
LINE
  5
6B5
330
6AE
100
AcDbEntity
  8
THICK_LINE
 62
     0
100
AcDbLine
 10
0.0
 20
5.0
 30
0.0
 11
0.0
 21
9.5
 31
0.0
  0
LINE
  5
6B6
330
6AE
100
AcDbEntity
  8
THICK_LINE
 62
     0
100
AcDbLine
 10
-5.0
 20
0.0
 30
0.0
 11
-9.5
 21
0.0
 31
0.0
  0
LINE
  5
6B7
330
6AE
100
AcDbEntity
  8
THICK_LINE
 62
     0
100
AcDbLine
 10
0.0
 20
-5.0
 30
0.0
 11
0.0
 21
-9.5
 31
0.0
  0
LINE
  5
6B8
330
6AE
100
AcDbEntity
  8
THICK_LINE
 62
     0
100
AcDbLine
 10
5.0
 20
0.0
 30
0.0
 11
9.5
 21
0.0
 31
0.0
  0
ENDBLK
  5
6B0
330
6AE
100
AcDbEntity
  8
0
100
AcDbBlockEnd
  0
ENDSEC
  0
SECTION
  2
ENTITIES
  0
ARC
  5
74
330
1F
100
AcDbEntity
  8
0
  6
Continuous
 62
     7
370
    15
100
AcDbCircle
 10
1034.9497595498
 20
-1254.0783853308
 30
0.0
 40
8.839516129032367
100
AcDbArc
 50
196.4286378534
 51
214.4468723823
  0
ARC
  5
75
330
1F
100
AcDbEntity
  8
0
  6
Continuous
 62
     7
370
    15
100
AcDbCircle
 10
1034.9497595498
 20
-1254.0783853308
 30
0.0
 40
8.839516129032367
100
AcDbArc
 50
145.5531276177
 51
163.5713621466
  0
LINE
  5
76
330
1F
100
AcDbEntity
  8
0
  6
Continuous
 62
     7
370
    15
100
AcDbLine
 10
1029.2102447618
 20
-1249.0784085168
 30
0.0
 11
1027.6602446009
 21
-1249.0784085168
 31
0.0
  0
LINE
  5
77
330
1F
100
AcDbEntity
  8
0
  6
Continuous
 62
     7
370
    15
100
AcDbLine
 10
1027.6602446009
 20
-1259.0783989801
 30
0.0
 11
1029.2102447618
 21
-1259.0783989801
 31
0.0
  0
LWPOLYLINE
  5
78
330
1F
100
AcDbEntity
  8
0
  6
Continuous
 62
     7
370
    15
100
AcDbPolyline
 90
        3
 70
   128
 43
0.0
 10
1261.6641237308
 20
239.9892502652
 10
1262.3714818527
 20
240.9449511395
 10
1262.9473223258
 20
241.8723100052
  0
LWPOLYLINE
  5
79
330
1F
100
AcDbEntity
  8
0
  6
Continuous
 62
     7
370
    15
100
AcDbPolyline
 90
        3
 70
   128
 43
0.0
 10
1262.9473223258
 20
255.7044320927
 10
1262.3714818527
 20
256.6317760573
 10
1261.6641237308
 20
257.5874918328
  0
LINE
  5
7A
330
1F
100
AcDbEntity
  8
0
  6
Continuous
 62
     7
370
    15
100
AcDbLine
 10
1260.622964697
 20
239.7883677111
 30
0.0
 11
1261.3357766439
 21
239.7883677111
 31
0.0
  0
LINE
  5
7B
330
1F
100
AcDbEntity
  8
0
  6
Continuous
 62
     7
370
    15
100
AcDbLine
 10
1261.3357766439
 20
257.7883594857
 30
0.0
 11
1260.622964697
 21
257.7883594857
 31
0.0
  0
ARC
  5
7C
330
1F
100
AcDbEntity
  8
0
  6
Continuous
 62
     7
370
    15
100
AcDbCircle
 10
1236.8830355549
 20
-51.2116349115
 30
0.0
 40
14.00000000000016
100
AcDbArc
 50
321.0598272168
 51
0.0
  0
ARC
  5
7D
330
1F
100
AcDbEntity
  8
0
  6
Continuous
 62
     7
370
    15
100
AcDbCircle
 10
1236.8830355549
 20
-51.2116349115
 30
0.0
 40
14.00000000000016
100
AcDbArc
 50
0.0
 51
38.9401727832
  0
LINE
  5
7E
330
1F
100
AcDbEntity
  8
0
  6
Continuous
 62
     7
370
    15
100
AcDbLine
 10
1246.7311187555
 20
-60.2116293087
 30
0.0
 11
1247.4439158012
 21
-60.2116293087
 31
0.0
  0
LINE
  5
7F
330
1F
100
AcDbEntity
  8
0
  6
Continuous
 62
     7
370
    15
100
AcDbLine
 10
1247.4439158012
 20
-42.2116375341
 30
0.0
 11
1246.7311187555
 21
-42.2116375341
 31
0.0
  0
ARC
  5
80
330
1F
100
AcDbEntity
  8
0
  6
Continuous
 62
     7
370
    15
100
AcDbCircle
 10
1236.8830355549
 20
-1191.2116349115
 30
0.0
 40
14.00000000000029
100
AcDbArc
 50
321.0598272168
 51
0.0
  0
ARC
  5
81
330
1F
100
AcDbEntity
  8
0
  6
Continuous
 62
     7
370
    15
100
AcDbCircle
 10
1236.8830355549
 20
-1191.2116349115
 30
0.0
 40
14.00000000000014
100
AcDbArc
 50
0.0
 51
38.9401727832
  0
LINE
  5
82
330
1F
100
AcDbEntity
  8
0
  6
Continuous
 62
     7
370
    15
100
AcDbLine
 10
1246.7311187555
 20
-1200.211659707
 30
0.0
 11
1247.4439158012
 21
-1200.211659707
 31
0.0
  0
LINE
  5
83
330
1F
100
AcDbEntity
  8
0
  6
Continuous
 62
     7
370
    15
100
AcDbLine
 10
1247.4439158012
 20
-1182.2116530313
 30
0.0
 11
1246.7311187555
 21
-1182.2116530313
 31
0.0
  0
LWPOLYLINE
  5
84
330
1F
100
AcDbEntity
  8
0
  6
Continuous
 62
     7
370
    15
100
AcDbPolyline
 90
        3
 70
   128
 43
0.0
 10
1261.6641237308
 20
-60.0107616558
 10
1262.3714818527
 20
-59.0550458803
 10
1262.9473223258
 20
-58.1277019157
  0
LWPOLYLINE
  5
85
330
1F
100
AcDbEntity
  8
0
  6
Continuous
 62
     7
370
    15
100
AcDbPolyline
 90
        3
 70
   128
 43
0.0
 10
1262.9473223258
 20
-44.2955798282
 10
1262.3714818527
 20
-43.3682209625
 10
1261.6641237308
 20
-42.4125200882
  0
LINE
  5
86
330
1F
100
AcDbEntity
  8
0
  6
Continuous
 62
     7
370
    15
100
AcDbLine
 10
1260.622964697
 20
-60.2116293087
 30
0.0
 11
1261.3357766439
 21
-60.2116293087
 31
0.0
  0
LINE
  5
87
330
1F
100
AcDbEntity
  8
0
  6
Continuous
 62
     7
370
    15
100
AcDbLine
 10
1261.3357766439
 20
-42.2116375341
 30
0.0
 11
1260.622964697
 21
-42.2116375341
 31
0.0
  0
LWPOLYLINE
  5
88
330
1F
100
AcDbEntity
  8
0
  6
Continuous
 62
     7
370
    15
100
AcDbPolyline
 90
        3
 70
   128
 43
0.0
 10
1261.6641237308
 20
-1200.0107920541
 10
1262.3714818527
 20
-1199.0550911798
 10
1262.9473223258
 20
-1198.1276429071
  0
LWPOLYLINE
  5
89
330
1F
100
AcDbEntity
  8
0
  6
Continuous
 62
     7
370
    15
100
AcDbPolyline
 90
        3
 70
   128
 43
0.0
 10
1262.9473223258
 20
-1184.2955506219
 10
1262.3714818527
 20
-1183.3682215585
 10
1261.6641237308
 20
-1182.4125206842
  0
LINE
  5
8A
330
1F
100
AcDbEntity
  8
0
  6
Continuous
 62
     7
370
    15
100
AcDbLine
 10
1260.622964697
 20
-1200.211659707
 30
0.0
 11
1261.3357766439
 21
-1200.211659707
 31
0.0
  0
LINE
  5
8B
330
1F
100
AcDbEntity
  8
0
  6
Continuous
 62
     7
370
    15
100
AcDbLine
 10
1261.3357766439
 20
-1182.2116530313
 30
0.0
 11
1260.622964697
 21
-1182.2116530313
 31
0.0
  0
ARC
  5
8C
330
1F
100
AcDbEntity
  8
0
  6
Continuous
 62
     7
370
    15
100
AcDbCircle
 10
1236.8830355549
 20
248.7883650885
 30
0.0
 40
14.00000000000018
100
AcDbArc
 50
321.0598272168
 51
0.0
  0
ARC
  5
8D
330
1F
100
AcDbEntity
  8
0
  6
Continuous
 62
     7
370
    15
100
AcDbCircle
 10
1236.8830355549
 20
248.7883650885
 30
0.0
 40
14.00000000000016
100
AcDbArc
 50
0.0
 51
38.9401727832
  0
LINE
  5
8E
330
1F
100
AcDbEntity
  8
0
  6
Continuous
 62
     7
370
    15
100
AcDbLine
 10
1246.7311187555
 20
239.7883677111
 30
0.0
 11
1247.4439158012
 21
239.7883677111
 31
0.0
  0
LINE
  5
8F
330
1F
100
AcDbEntity
  8
0
  6
Continuous
 62
     7
370
    15
100
AcDbLine
 10
1247.4439158012
 20
257.7883594857
 30
0.0
 11
1246.7311187555
 21
257.7883594857
 31
0.0
  0
ARC
  5
90
330
1F
100
AcDbEntity
  8
0
  6
Continuous
 62
     7
370
    15
100
AcDbCircle
 10
1236.8830355549
 20
1388.7883650885
 30
0.0
 40
14.00000000000029
100
AcDbArc
 50
321.0598272168
 51
0.0
  0
ARC
  5
91
330
1F
100
AcDbEntity
  8
0
  6
Continuous
 62
     7
370
    15
100
AcDbCircle
 10
1236.8830355549
 20
1388.7883650885
 30
0.0
 40
14.00000000000014
100
AcDbArc
 50
0.0
 51
38.9401727832
  0
LINE
  5
92
330
1F
100
AcDbEntity
  8
0
  6
Continuous
 62
     7
370
    15
100
AcDbLine
 10
1246.7311187555
 20
1379.7883832083
 30
0.0
 11
1247.4439158012
 21
1379.7883832083
 31
0.0
  0
LINE
  5
93
330
1F
100
AcDbEntity
  8
0
  6
Continuous
 62
     7
370
    15
100
AcDbLine
 10
1247.4439158012
 20
1397.788389884
 30
0.0
 11
1246.7311187555
 21
1397.788389884
 31
0.0
  0
LWPOLYLINE
  5
94
330
1F
100
AcDbEntity
  8
0
  6
Continuous
 62
     7
370
    15
100
AcDbPolyline
 90
        3
 70
   128
 43
0.0
 10
1261.6641237308
 20
1379.9892508612
 10
1262.3714818527
 20
1380.9449517355
 10
1262.9473223258
 20
1381.872280799
  0
LWPOLYLINE
  5
95
330
1F
100
AcDbEntity
  8
0
  6
Continuous
 62
     7
370
    15
100
AcDbPolyline
 90
        3
 70
   128
 43
0.0
 10
1262.9473223258
 20
1395.7043730841
 10
1262.3714818527
 20
1396.6318213568
 10
1261.6641237308
 20
1397.5875222311
  0
LINE
  5
96
330
1F
100
AcDbEntity
  8
0
  6
Continuous
 62
     7
370
    15
100
AcDbLine
 10
1260.622964697
 20
1379.7883832083
 30
0.0
 11
1261.3357766439
 21
1379.7883832083
 31
0.0
  0
LINE
  5
97
330
1F
100
AcDbEntity
  8
0
  6
Continuous
 62
     7
370
    15
100
AcDbLine
 10
1261.3357766439
 20
1397.788389884
 30
0.0
 11
1260.622964697
 21
1397.788389884
 31
0.0
  0
LINE
  5
98
330
1F
100
AcDbEntity
  8
0
  6
Continuous
 62
     7
370
    15
100
AcDbLine
 10
1026.4858915378
 20
-1256.5783417596
 30
0.0
 11
1026.4711393882
 21
-1256.5783417596
 31
0.0
  0
ARC
  5
99
330
1F
100
AcDbEntity
  8
0
  6
Continuous
 62
     7
370
    15
100
AcDbCircle
 10
1034.9497595498
 20
-1254.0783853308
 30
0.0
 40
8.825363754283561
100
AcDbArc
 50
183.2478250514
 51
196.4557313042
  0
LINE
  5
9A
330
1F
100
AcDbEntity
  8
0
  6
Continuous
 62
     7
370
    15
100
AcDbLine
 10
1026.4858915378
 20
-1254.5783675088
 30
0.0
 11
1026.1385678221
 21
-1254.5783675088
 31
0.0
  0
ARC
  5
9B
330
1F
100
AcDbEntity
  8
0
  6
Continuous
 62
     7
370
    15
100
AcDbCircle
 10
1034.9497595498
 20
-1254.0783853308
 30
0.0
 40
8.47862284781096
100
AcDbArc
 50
176.6192009009
 51
183.3807990991
  0
LINE
  5
9C
330
1F
100
AcDbEntity
  8
0
  6
Continuous
 62
     7
370
    15
100
AcDbLine
 10
1026.1385678221
 20
-1253.5784399881
 30
0.0
 11
1026.4858915378
 21
-1253.5784399881
 31
0.0
  0
ARC
  5
9D
330
1F
100
AcDbEntity
  8
0
  6
Continuous
 62
     7
370
    15
100
AcDbCircle
 10
1034.9497595498
 20
-1254.0783853308
 30
0.0
 40
8.825363754283561
100
AcDbArc
 50
163.5442686958
 51
176.7521749486
  0
LINE
  5
9E
330
1F
100
AcDbEntity
  8
0
  6
Continuous
 62
     7
370
    15
100
AcDbLine
 10
1026.4711393882
 20
-1251.578346528
 30
0.0
 11
1026.4858915378
 21
-1251.578346528
 31
0.0
  0
LINE
  5
9F
330
1F
100
AcDbEntity
  8
0
  6
Continuous
 62
     7
370
    15
100
AcDbLine
 10
1027.6602446009
 20
-1259.0783989801
 30
0.0
 11
1027.6602446009
 21
-1249.0784085168
 31
0.0
  0
ARC
  5
A0
330
1F
100
AcDbEntity
  8
0
  6
Continuous
 62
     7
370
    15
100
AcDbCircle
 10
1311.750230659
 20
248.7883635984
 30
0.0
 40
9.004478833390941
100
AcDbArc
 50
279.6122308357
 51
80.3877691643
  0
ARC
  5
A1
330
1F
100
AcDbEntity
  8
0
  6
Continuous
 62
     7
370
    15
100
AcDbCircle
 10
1311.8135646083
 20
248.7883635984
 30
0.0
 40
9.004284138853514
100
AcDbArc
 50
279.2039403693
 51
80.7960596307
  0
ARC
  5
A2
330
1F
100
AcDbEntity
  8
0
  6
Continuous
 62
     7
370
    15
100
AcDbCircle
 10
1311.7502612933
 20
-1191.2116563692
 30
0.0
 40
9.004466372162648
100
AcDbArc
 50
279.6120465611
 51
80.3879534389
  0
ARC
  5
A3
330
1F
100
AcDbEntity
  8
0
  6
Continuous
 62
     7
370
    15
100
AcDbCircle
 10
1311.8135854913
 20
-1191.2115967645
 30
0.0
 40
9.004288153314384
100
AcDbArc
 50
279.2038016149
 51
80.7961983851
  0
ARC
  5
A4
330
1F
100
AcDbEntity
  8
0
  6
Continuous
 62
     7
370
    15
100
AcDbCircle
 10
1391.4458130488
 20
248.7883635984
 30
0.0
 40
9.004478833390941
100
AcDbArc
 50
279.6122308357
 51
80.3877691643
  0
ARC
  5
A5
330
1F
100
AcDbEntity
  8
0
  6
Continuous
 62
     7
370
    15
100
AcDbCircle
 10
1391.5091410741
 20
248.7883635984
 30
0.0
 40
9.004285086402188
100
AcDbArc
 50
279.2039775797
 51
80.7960224203
  0
ARC
  5
A6
330
1F
100
AcDbEntity
  8
0
  6
Continuous
 62
     7
370
    15
100
AcDbCircle
 10
1391.4458048512
 20
1388.7883865462
 30
0.0
 40
9.004472856250718
100
AcDbArc
 50
279.6122901813
 51
80.3877098187
  0
ARC
  5
A7
330
1F
100
AcDbEntity
  8
0
  6
Continuous
 62
     7
370
    15
100
AcDbCircle
 10
1391.5090926461
 20
1388.7883269415
 30
0.0
 40
9.004300187216618
100
AcDbArc
 50
279.2042741839
 51
80.7957258161
  0
LWPOLYLINE
  5
A8
330
1F
100
AcDbEntity
  8
0
  6
Continuous
 62
     7
370
    15
100
AcDbPolyline
 90
       10
 70
   128
 43
0.0
 10
1259.7729428579
 20
248.788371049
 10
1259.804935651
 20
250.6000542269
 10
1259.899602728
 20
252.3375743256
 10
1260.053054886
 20
253.9297783003
 10
1260.2590336372
 20
255.3115033732
 10
1260.5090900232
 20
256.4261698351
 10
1260.7930018474
 20
257.2281354294
 10
1261.0991164018
 20
257.684572898
 10
1261.4149316121
 20
257.7768110857
 10
1261.6641237308
 20
257.5874918328
  0
LWPOLYLINE
  5
A9
330
1F
100
AcDbEntity
  8
0
  6
Continuous
 62
     7
370
    15
100
AcDbPolyline
 90
       10
 70
   128
 43
0.0
 10
1261.6641237308
 20
239.9892502652
 10
1261.4149316121
 20
239.799916111
 10
1261.0991164018
 20
239.8921542988
 10
1260.7930018474
 20
240.3485917674
 10
1260.5090900232
 20
241.1505722628
 10
1260.2590336372
 20
242.2652238236
 10
1260.053054886
 20
243.6469488964
 10
1259.899602728
 20
245.2391677723
 10
1259.804935651
 20
246.9766729699
 10
1259.7729428579
 20
248.788371049
  0
LWPOLYLINE
  5
AA
330
1F
100
AcDbEntity
  8
0
  6
Continuous
 62
     7
370
    15
100
AcDbPolyline
 90
        9
 70
   128
 43
0.0
 10
1259.060130911
 20
248.788371049
 10
1259.0921237041
 20
250.6000542269
 10
1259.1867907812
 20
252.3375743256
 10
1259.3402578403
 20
253.9297783003
 10
1259.5462216903
 20
255.3115033732
 10
1259.7962780763
 20
256.4261698351
 10
1260.0801899005
 20
257.2281354294
 10
1260.3863044549
 20
257.684572898
 10
1260.622964697
 20
257.7883594857
  0
LWPOLYLINE
  5
AB
330
1F
100
AcDbEntity
  8
0
  6
Continuous
 62
     7
370
    15
100
AcDbPolyline
 90
        9
 70
   128
 43
0.0
 10
1260.622964697
 20
239.7883677111
 10
1260.3863044549
 20
239.8921542988
 10
1260.0801899005
 20
240.3485917674
 10
1259.7962780763
 20
241.1505722628
 10
1259.5462216903
 20
242.2652238236
 10
1259.3402578403
 20
243.6469488964
 10
1259.1867907812
 20
245.2391677723
 10
1259.0921237041
 20
246.9766729699
 10
1259.060130911
 20
248.788371049
  0
LWPOLYLINE
  5
AC
330
1F
100
AcDbEntity
  8
0
  6
Continuous
 62
     7
370
    15
100
AcDbPolyline
 90
       10
 70
   128
 43
0.0
 10
1245.8810820152
 20
-51.211640872
 10
1245.9130748083
 20
-49.3999427929
 10
1246.0077418853
 20
-47.6624375953
 10
1246.1612089445
 20
-46.0702187194
 10
1246.3671876956
 20
-44.6884936466
 10
1246.6172440816
 20
-43.5738420858
 10
1246.9011410047
 20
-42.7718615903
 10
1247.2072704603
 20
-42.3154241218
 10
1247.5230856706
 20
-42.223185934
 10
1247.7722777892
 20
-42.4125200882
  0
LWPOLYLINE
  5
AD
330
1F
100
AcDbEntity
  8
0
  6
Continuous
 62
     7
370
    15
100
AcDbPolyline
 90
       10
 70
   128
 43
0.0
 10
1247.7722777892
 20
-60.0107616558
 10
1247.5230856706
 20
-60.2000809087
 10
1247.2072704603
 20
-60.1078427209
 10
1246.9011410047
 20
-59.6514052524
 10
1246.6172440816
 20
-58.8494396581
 10
1246.3671876956
 20
-57.7347731962
 10
1246.1612089445
 20
-56.3530481233
 10
1246.0077418853
 20
-54.7608441486
 10
1245.9130748083
 20
-53.0233240499
 10
1245.8810820152
 20
-51.211640872
  0
LWPOLYLINE
  5
AE
330
1F
100
AcDbEntity
  8
0
  6
Continuous
 62
     7
370
    15
100
AcDbPolyline
 90
        9
 70
   128
 43
0.0
 10
1245.1682849695
 20
-51.211640872
 10
1245.2002777625
 20
-49.3999427929
 10
1245.2949299384
 20
-47.6624375953
 10
1245.4483969976
 20
-46.0702187194
 10
1245.6543757488
 20
-44.6884936466
 10
1245.9044321348
 20
-43.5738420858
 10
1246.1883290578
 20
-42.7718615903
 10
1246.4944585134
 20
-42.3154241218
 10
1246.7311187555
 20
-42.2116375341
  0
LWPOLYLINE
  5
AF
330
1F
100
AcDbEntity
  8
0
  6
Continuous
 62
     7
370
    15
100
AcDbPolyline
 90
        9
 70
   128
 43
0.0
 10
1246.7311187555
 20
-60.2116293087
 10
1246.4944585134
 20
-60.1078427209
 10
1246.1883290578
 20
-59.6514052524
 10
1245.9044321348
 20
-58.8494396581
 10
1245.6543757488
 20
-57.7347731962
 10
1245.4483969976
 20
-56.3530481233
 10
1245.2949299384
 20
-54.7608441486
 10
1245.2002777625
 20
-53.0233240499
 10
1245.1682849695
 20
-51.211640872
  0
ARC
  5
B0
330
1F
100
AcDbEntity
  8
0
  6
Continuous
 62
     7
370
    15
100
AcDbCircle
 10
1545.8325220642
 20
248.788371049
 30
0.0
 40
9.022707785037042
100
AcDbArc
 50
316.161342459
 51
43.838657541
  0
ARC
  5
B1
330
1F
100
AcDbEntity
  8
0
  6
Continuous
 62
     7
370
    15
100
AcDbCircle
 10
1545.8958740481
 20
248.7883635984
 30
0.0
 40
9.02246305988668
100
AcDbArc
 50
315.5851285623
 51
44.4148714377
  0
ARC
  5
B2
330
1F
100
AcDbEntity
  8
0
  6
Continuous
 62
     7
370
    15
100
AcDbCircle
 10
1545.8326137534
 20
-1191.2116563692
 30
0.0
 40
9.02262100837528
100
AcDbArc
 50
316.1610756825
 51
43.8389243175
  0
ARC
  5
B3
330
1F
100
AcDbEntity
  8
0
  6
Continuous
 62
     7
370
    15
100
AcDbCircle
 10
1545.8959362981
 20
-1191.2116563692
 30
0.0
 40
9.02240295243465
100
AcDbArc
 50
315.5849532917
 51
44.4150467083
  0
LWPOLYLINE
  5
B4
330
1F
100
AcDbEntity
  8
0
  6
Continuous
 62
     7
370
    15
100
AcDbPolyline
 90
       10
 70
   128
 43
0.0
 10
1245.8810820152
 20
-1191.2115967645
 10
1245.9130748083
 20
-1189.3999731912
 10
1246.0077418853
 20
-1187.6623785867
 10
1246.1612089445
 20
-1186.0702193155
 10
1246.3671876956
 20
-1184.6884644403
 10
1246.6172440816
 20
-1183.573857583
 10
1246.9011410047
 20
-1182.7718174829
 10
1247.2072704603
 20
-1182.3153651132
 10
1247.5230856706
 20
-1182.2232163324
 10
1247.7722777892
 20
-1182.4125206842
  0
LWPOLYLINE
  5
B5
330
1F
100
AcDbEntity
  8
0
  6
Continuous
 62
     7
370
    15
100
AcDbPolyline
 90
       10
 70
   128
 43
0.0
 10
1247.7722777892
 20
-1200.0107920541
 10
1247.5230856706
 20
-1200.2000964059
 10
1247.2072704603
 20
-1200.1078284158
 10
1246.9011410047
 20
-1199.6513760461
 10
1246.6172440816
 20
-1198.8494551553
 10
1246.3671876956
 20
-1197.7347290887
 10
1246.1612089445
 20
-1196.3530934228
 10
1246.0077418853
 20
-1194.7608149423
 10
1245.9130748083
 20
-1193.0233395471
 10
1245.8810820152
 20
-1191.2115967645
  0
LWPOLYLINE
  5
B6
330
1F
100
AcDbEntity
  8
0
  6
Continuous
 62
     7
370
    15
100
AcDbPolyline
 90
        9
 70
   128
 43
0.0
 10
1245.1682849695
 20
-1191.2115967645
 10
1245.2002777625
 20
-1189.3999731912
 10
1245.2949299384
 20
-1187.6623785867
 10
1245.4483969976
 20
-1186.0702193155
 10
1245.6543757488
 20
-1184.6884644403
 10
1245.9044321348
 20
-1183.573857583
 10
1246.1883290578
 20
-1182.7718174829
 10
1246.4944585134
 20
-1182.3153651132
 10
1246.7311187555
 20
-1182.2116530313
  0
LWPOLYLINE
  5
B7
330
1F
100
AcDbEntity
  8
0
  6
Continuous
 62
     7
370
    15
100
AcDbPolyline
 90
        9
 70
   128
 43
0.0
 10
1246.7311187555
 20
-1200.211659707
 10
1246.4944585134
 20
-1200.1078284158
 10
1246.1883290578
 20
-1199.6513760461
 10
1245.9044321348
 20
-1198.8494551553
 10
1245.6543757488
 20
-1197.7347290887
 10
1245.4483969976
 20
-1196.3530934228
 10
1245.2949299384
 20
-1194.7608149423
 10
1245.2002777625
 20
-1193.0233395471
 10
1245.1682849695
 20
-1191.2115967645
  0
ARC
  5
B8
330
1F
100
AcDbEntity
  8
0
  6
Continuous
 62
     7
370
    15
100
AcDbCircle
 10
1391.4458436831
 20
-1191.2116563692
 30
0.0
 40
9.004466372162648
100
AcDbArc
 50
279.6120465611
 51
80.3879534389
  0
ARC
  5
B9
330
1F
100
AcDbEntity
  8
0
  6
Continuous
 62
     7
370
    15
100
AcDbCircle
 10
1391.5091619571
 20
-1191.2115967645
 30
0.0
 40
9.004289100849732
100
AcDbArc
 50
279.2038388253
 51
80.7961611747
  0
LWPOLYLINE
  5
BA
330
1F
100
AcDbEntity
  8
0
  6
Continuous
 62
     7
370
    15
100
AcDbPolyline
 90
       10
 70
   128
 43
0.0
 10
1259.7729428579
 20
-51.211640872
 10
1259.804935651
 20
-49.3999427929
 10
1259.899602728
 20
-47.6624375953
 10
1260.053054886
 20
-46.0702187194
 10
1260.2590336372
 20
-44.6884936466
 10
1260.5090900232
 20
-43.5738420858
 10
1260.7930018474
 20
-42.7718615903
 10
1261.0991164018
 20
-42.3154241218
 10
1261.4149316121
 20
-42.223185934
 10
1261.6641237308
 20
-42.4125200882
  0
LWPOLYLINE
  5
BB
330
1F
100
AcDbEntity
  8
0
  6
Continuous
 62
     7
370
    15
100
AcDbPolyline
 90
       10
 70
   128
 43
0.0
 10
1261.6641237308
 20
-60.0107616558
 10
1261.4149316121
 20
-60.2000809087
 10
1261.0991164018
 20
-60.1078427209
 10
1260.7930018474
 20
-59.6514052524
 10
1260.5090900232
 20
-58.8494396581
 10
1260.2590336372
 20
-57.7347731962
 10
1260.053054886
 20
-56.3530481233
 10
1259.899602728
 20
-54.7608441486
 10
1259.804935651
 20
-53.0233240499
 10
1259.7729428579
 20
-51.211640872
  0
LWPOLYLINE
  5
BC
330
1F
100
AcDbEntity
  8
0
  6
Continuous
 62
     7
370
    15
100
AcDbPolyline
 90
        9
 70
   128
 43
0.0
 10
1259.060130911
 20
-51.211640872
 10
1259.0921237041
 20
-49.3999427929
 10
1259.1867907812
 20
-47.6624375953
 10
1259.3402578403
 20
-46.0702187194
 10
1259.5462216903
 20
-44.6884936466
 10
1259.7962780763
 20
-43.5738420858
 10
1260.0801899005
 20
-42.7718615903
 10
1260.3863044549
 20
-42.3154241218
 10
1260.622964697
 20
-42.2116375341
  0
LWPOLYLINE
  5
BD
330
1F
100
AcDbEntity
  8
0
  6
Continuous
 62
     7
370
    15
100
AcDbPolyline
 90
        9
 70
   128
 43
0.0
 10
1260.622964697
 20
-60.2116293087
 10
1260.3863044549
 20
-60.1078427209
 10
1260.0801899005
 20
-59.6514052524
 10
1259.7962780763
 20
-58.8494396581
 10
1259.5462216903
 20
-57.7347731962
 10
1259.3402578403
 20
-56.3530481233
 10
1259.1867907812
 20
-54.7608441486
 10
1259.0921237041
 20
-53.0233240499
 10
1259.060130911
 20
-51.211640872
  0
LWPOLYLINE
  5
BE
330
1F
100
AcDbEntity
  8
0
  6
Continuous
 62
     7
370
    15
100
AcDbPolyline
 90
       10
 70
   128
 43
0.0
 10
1259.7729428579
 20
-1191.2115967645
 10
1259.804935651
 20
-1189.3999731912
 10
1259.899602728
 20
-1187.6623785867
 10
1260.053054886
 20
-1186.0702193155
 10
1260.2590336372
 20
-1184.6884644403
 10
1260.5090900232
 20
-1183.573857583
 10
1260.7930018474
 20
-1182.7718174829
 10
1261.0991164018
 20
-1182.3153651132
 10
1261.4149316121
 20
-1182.2232163324
 10
1261.6641237308
 20
-1182.4125206842
  0
LWPOLYLINE
  5
BF
330
1F
100
AcDbEntity
  8
0
  6
Continuous
 62
     7
370
    15
100
AcDbPolyline
 90
       10
 70
   128
 43
0.0
 10
1261.6641237308
 20
-1200.0107920541
 10
1261.4149316121
 20
-1200.2000964059
 10
1261.0991164018
 20
-1200.1078284158
 10
1260.7930018474
 20
-1199.6513760461
 10
1260.5090900232
 20
-1198.8494551553
 10
1260.2590336372
 20
-1197.7347290887
 10
1260.053054886
 20
-1196.3530934228
 10
1259.899602728
 20
-1194.7608149423
 10
1259.804935651
 20
-1193.0233395471
 10
1259.7729428579
 20
-1191.2115967645
  0
LWPOLYLINE
  5
C0
330
1F
100
AcDbEntity
  8
0
  6
Continuous
 62
     7
370
    15
100
AcDbPolyline
 90
        9
 70
   128
 43
0.0
 10
1259.060130911
 20
-1191.2115967645
 10
1259.0921237041
 20
-1189.3999731912
 10
1259.1867907812
 20
-1187.6623785867
 10
1259.3402578403
 20
-1186.0702193155
 10
1259.5462216903
 20
-1184.6884644403
 10
1259.7962780763
 20
-1183.573857583
 10
1260.0801899005
 20
-1182.7718174829
 10
1260.3863044549
 20
-1182.3153651132
 10
1260.622964697
 20
-1182.2116530313
  0
LWPOLYLINE
  5
C1
330
1F
100
AcDbEntity
  8
0
  6
Continuous
 62
     7
370
    15
100
AcDbPolyline
 90
        9
 70
   128
 43
0.0
 10
1260.622964697
 20
-1200.211659707
 10
1260.3863044549
 20
-1200.1078284158
 10
1260.0801899005
 20
-1199.6513760461
 10
1259.7962780763
 20
-1198.8494551553
 10
1259.5462216903
 20
-1197.7347290887
 10
1259.3402578403
 20
-1196.3530934228
 10
1259.1867907812
 20
-1194.7608149423
 10
1259.0921237041
 20
-1193.0233395471
 10
1259.060130911
 20
-1191.2115967645
  0
ARC
  5
C2
330
1F
100
AcDbEntity
  8
0
  6
Continuous
 62
     7
370
    15
100
AcDbCircle
 10
1466.137052726
 20
248.788371049
 30
0.0
 40
9.022626242008757
100
AcDbArc
 50
316.1608452169
 51
43.8391547831
  0
ARC
  5
C3
330
1F
100
AcDbEntity
  8
0
  6
Continuous
 62
     7
370
    15
100
AcDbCircle
 10
1466.2002916583
 20
248.7883635984
 30
0.0
 40
9.02246305988668
100
AcDbArc
 50
315.5851285623
 51
44.4148714377
  0
LWPOLYLINE
  5
C4
330
1F
100
AcDbEntity
  8
0
  6
Continuous
 62
     7
370
    15
100
AcDbPolyline
 90
       10
 70
   128
 43
0.0
 10
1245.8810820152
 20
248.788371049
 10
1245.9130748083
 20
250.6000542269
 10
1246.0077418853
 20
252.3375743256
 10
1246.1612089445
 20
253.9297783003
 10
1246.3671876956
 20
255.3115033732
 10
1246.6172440816
 20
256.4261698351
 10
1246.9011410047
 20
257.2281354294
 10
1247.2072704603
 20
257.684572898
 10
1247.5230856706
 20
257.7768110857
 10
1247.7722777892
 20
257.5874918328
  0
LWPOLYLINE
  5
C5
330
1F
100
AcDbEntity
  8
0
  6
Continuous
 62
     7
370
    15
100
AcDbPolyline
 90
       10
 70
   128
 43
0.0
 10
1247.7722777892
 20
239.9892502652
 10
1247.5230856706
 20
239.799916111
 10
1247.2072704603
 20
239.8921542988
 10
1246.9011410047
 20
240.3485917674
 10
1246.6172440816
 20
241.1505722628
 10
1246.3671876956
 20
242.2652238236
 10
1246.1612089445
 20
243.6469488964
 10
1246.0077418853
 20
245.2391677723
 10
1245.9130748083
 20
246.9766729699
 10
1245.8810820152
 20
248.788371049
  0
LWPOLYLINE
  5
C6
330
1F
100
AcDbEntity
  8
0
  6
Continuous
 62
     7
370
    15
100
AcDbPolyline
 90
        9
 70
   128
 43
0.0
 10
1245.1682849695
 20
248.788371049
 10
1245.2002777625
 20
250.6000542269
 10
1245.2949299384
 20
252.3375743256
 10
1245.4483969976
 20
253.9297783003
 10
1245.6543757488
 20
255.3115033732
 10
1245.9044321348
 20
256.4261698351
 10
1246.1883290578
 20
257.2281354294
 10
1246.4944585134
 20
257.684572898
 10
1246.7311187555
 20
257.7883594857
  0
LWPOLYLINE
  5
C7
330
1F
100
AcDbEntity
  8
0
  6
Continuous
 62
     7
370
    15
100
AcDbPolyline
 90
        9
 70
   128
 43
0.0
 10
1246.7311187555
 20
239.7883677111
 10
1246.4944585134
 20
239.8921542988
 10
1246.1883290578
 20
240.3485917674
 10
1245.9044321348
 20
241.1505722628
 10
1245.6543757488
 20
242.2652238236
 10
1245.4483969976
 20
243.6469488964
 10
1245.2949299384
 20
245.2391677723
 10
1245.2002777625
 20
246.9766729699
 10
1245.1682849695
 20
248.788371049
  0
ARC
  5
C8
330
1F
100
AcDbEntity
  8
0
  6
Continuous
 62
     7
370
    15
100
AcDbCircle
 10
1311.750230659
 20
-51.2116334214
 30
0.0
 40
9.00447883339092
100
AcDbArc
 50
279.6122308357
 51
80.3877691643
  0
ARC
  5
C9
330
1F
100
AcDbEntity
  8
0
  6
Continuous
 62
     7
370
    15
100
AcDbCircle
 10
1311.8135646083
 20
-51.2116334214
 30
0.0
 40
9.004284138853492
100
AcDbArc
 50
279.2039403693
 51
80.7960596307
  0
ARC
  5
CA
330
1F
100
AcDbEntity
  8
0
  6
Continuous
 62
     7
370
    15
100
AcDbCircle
 10
1391.4458130488
 20
-51.2116334214
 30
0.0
 40
9.00447883339092
100
AcDbArc
 50
279.6122308357
 51
80.3877691643
  0
ARC
  5
CB
330
1F
100
AcDbEntity
  8
0
  6
Continuous
 62
     7
370
    15
100
AcDbCircle
 10
1391.5091410741
 20
-51.2116334214
 30
0.0
 40
9.004285086402167
100
AcDbArc
 50
279.2039775797
 51
80.7960224203
  0
ARC
  5
CC
330
1F
100
AcDbEntity
  8
0
  6
Continuous
 62
     7
370
    15
100
AcDbCircle
 10
1545.8325202316
 20
-51.211640872
 30
0.0
 40
9.022709106847492
100
AcDbArc
 50
316.1613505192
 51
43.8386494809
  0
ARC
  5
CD
330
1F
100
AcDbEntity
  8
0
  6
Continuous
 62
     7
370
    15
100
AcDbCircle
 10
1545.8958740481
 20
-51.2116334214
 30
0.0
 40
9.022463059886686
100
AcDbArc
 50
315.5851285623
 51
44.4148714377
  0
ARC
  5
CE
330
1F
100
AcDbEntity
  8
0
  6
Continuous
 62
     7
370
    15
100
AcDbCircle
 10
1466.1370508934
 20
-51.211640872
 30
0.0
 40
9.022627563808193
100
AcDbArc
 50
316.1608532773
 51
43.8391467227
  0
ARC
  5
CF
330
1F
100
AcDbEntity
  8
0
  6
Continuous
 62
     7
370
    15
100
AcDbCircle
 10
1466.2002916583
 20
-51.2116334214
 30
0.0
 40
9.022463059886686
100
AcDbArc
 50
315.5851285623
 51
44.4148714377
  0
LWPOLYLINE
  5
D0
330
1F
100
AcDbEntity
  8
0
  6
Continuous
 62
     7
370
    15
100
AcDbPolyline
 90
       10
 70
   128
 43
0.0
 10
1245.8810820152
 20
1388.7883269415
 10
1245.9130748083
 20
1390.6000697241
 10
1246.0077418853
 20
1392.3375451193
 10
1246.1612089445
 20
1393.9298235999
 10
1246.3671876956
 20
1395.3114592657
 10
1246.6172440816
 20
1396.4261853323
 10
1246.9011410047
 20
1397.2281062231
 10
1247.2072704603
 20
1397.6845585928
 10
1247.5230856706
 20
1397.7768265829
 10
1247.7722777892
 20
1397.5875222311
  0
LWPOLYLINE
  5
D1
330
1F
100
AcDbEntity
  8
0
  6
Continuous
 62
     7
370
    15
100
AcDbPolyline
 90
       10
 70
   128
 43
0.0
 10
1247.7722777892
 20
1379.9892508612
 10
1247.5230856706
 20
1379.7999465094
 10
1247.2072704603
 20
1379.8920952902
 10
1246.9011410047
 20
1380.3485476599
 10
1246.6172440816
 20
1381.15058776
 10
1246.3671876956
 20
1382.2651946173
 10
1246.1612089445
 20
1383.6469494925
 10
1246.0077418853
 20
1385.2391087637
 10
1245.9130748083
 20
1386.9767033682
 10
1245.8810820152
 20
1388.7883269415
  0
LWPOLYLINE
  5
D2
330
1F
100
AcDbEntity
  8
0
  6
Continuous
 62
     7
370
    15
100
AcDbPolyline
 90
        9
 70
   128
 43
0.0
 10
1245.1682849695
 20
1388.7883269415
 10
1245.2002777625
 20
1390.6000697241
 10
1245.2949299384
 20
1392.3375451193
 10
1245.4483969976
 20
1393.9298235999
 10
1245.6543757488
 20
1395.3114592657
 10
1245.9044321348
 20
1396.4261853323
 10
1246.1883290578
 20
1397.2281062231
 10
1246.4944585134
 20
1397.6845585928
 10
1246.7311187555
 20
1397.788389884
  0
LWPOLYLINE
  5
D3
330
1F
100
AcDbEntity
  8
0
  6
Continuous
 62
     7
370
    15
100
AcDbPolyline
 90
        9
 70
   128
 43
0.0
 10
1246.7311187555
 20
1379.7883832083
 10
1246.4944585134
 20
1379.8920952902
 10
1246.1883290578
 20
1380.3485476599
 10
1245.9044321348
 20
1381.15058776
 10
1245.6543757488
 20
1382.2651946173
 10
1245.4483969976
 20
1383.6469494925
 10
1245.2949299384
 20
1385.2391087637
 10
1245.2002777625
 20
1386.9767033682
 10
1245.1682849695
 20
1388.7883269415
  0
ARC
  5
D4
330
1F
100
AcDbEntity
  8
0
  6
Continuous
 62
     7
370
    15
100
AcDbCircle
 10
1466.1371590741
 20
1388.7883865462
 30
0.0
 40
9.022528892427333
100
AcDbArc
 50
316.1605139562
 51
43.8394860438
  0
ARC
  5
D5
330
1F
100
AcDbEntity
  8
0
  6
Continuous
 62
     7
370
    15
100
AcDbCircle
 10
1466.2003682036
 20
1388.7883865462
 30
0.0
 40
9.022392741473901
100
AcDbArc
 50
315.5848897587
 51
44.4151102413
  0
ARC
  5
D6
330
1F
100
AcDbEntity
  8
0
  6
Continuous
 62
     7
370
    15
100
AcDbCircle
 10
1311.7502224614
 20
1388.7883865462
 30
0.0
 40
9.004472856250718
100
AcDbArc
 50
279.6122901813
 51
80.3877098187
  0
ARC
  5
D7
330
1F
100
AcDbEntity
  8
0
  6
Continuous
 62
     7
370
    15
100
AcDbCircle
 10
1311.8135161803
 20
1388.7883269415
 30
0.0
 40
9.004299239636799
100
AcDbArc
 50
279.2042369736
 51
80.7957630264
  0
ARC
  5
D8
330
1F
100
AcDbEntity
  8
0
  6
Continuous
 62
     7
370
    15
100
AcDbCircle
 10
1545.8326284139
 20
1388.7883865462
 30
0.0
 40
9.022610433858334
100
AcDbArc
 50
316.1610111996
 51
43.8389888004
  0
ARC
  5
D9
330
1F
100
AcDbEntity
  8
0
  6
Continuous
 62
     7
370
    15
100
AcDbCircle
 10
1545.8959505934
 20
1388.7883865462
 30
0.0
 40
9.022392741473901
100
AcDbArc
 50
315.5848897587
 51
44.4151102413
  0
LWPOLYLINE
  5
DA
330
1F
100
AcDbEntity
  8
0
  6
Continuous
 62
     7
370
    15
100
AcDbPolyline
 90
       10
 70
   128
 43
0.0
 10
1259.7729428579
 20
1388.7883269415
 10
1259.804935651
 20
1390.6000697241
 10
1259.899602728
 20
1392.3375451193
 10
1260.053054886
 20
1393.9298235999
 10
1260.2590336372
 20
1395.3114592657
 10
1260.5090900232
 20
1396.4261853323
 10
1260.7930018474
 20
1397.2281062231
 10
1261.0991164018
 20
1397.6845585928
 10
1261.4149316121
 20
1397.7768265829
 10
1261.6641237308
 20
1397.5875222311
  0
LWPOLYLINE
  5
DB
330
1F
100
AcDbEntity
  8
0
  6
Continuous
 62
     7
370
    15
100
AcDbPolyline
 90
       10
 70
   128
 43
0.0
 10
1261.6641237308
 20
1379.9892508612
 10
1261.4149316121
 20
1379.7999465094
 10
1261.0991164018
 20
1379.8920952902
 10
1260.7930018474
 20
1380.3485476599
 10
1260.5090900232
 20
1381.15058776
 10
1260.2590336372
 20
1382.2651946173
 10
1260.053054886
 20
1383.6469494925
 10
1259.899602728
 20
1385.2391087637
 10
1259.804935651
 20
1386.9767033682
 10
1259.7729428579
 20
1388.7883269415
  0
LWPOLYLINE
  5
DC
330
1F
100
AcDbEntity
  8
0
  6
Continuous
 62
     7
370
    15
100
AcDbPolyline
 90
        9
 70
   128
 43
0.0
 10
1259.060130911
 20
1388.7883269415
 10
1259.0921237041
 20
1390.6000697241
 10
1259.1867907812
 20
1392.3375451193
 10
1259.3402578403
 20
1393.9298235999
 10
1259.5462216903
 20
1395.3114592657
 10
1259.7962780763
 20
1396.4261853323
 10
1260.0801899005
 20
1397.2281062231
 10
1260.3863044549
 20
1397.6845585928
 10
1260.622964697
 20
1397.788389884
  0
LWPOLYLINE
  5
DD
330
1F
100
AcDbEntity
  8
0
  6
Continuous
 62
     7
370
    15
100
AcDbPolyline
 90
        9
 70
   128
 43
0.0
 10
1260.622964697
 20
1379.7883832083
 10
1260.3863044549
 20
1379.8920952902
 10
1260.0801899005
 20
1380.3485476599
 10
1259.7962780763
 20
1381.15058776
 10
1259.5462216903
 20
1382.2651946173
 10
1259.3402578403
 20
1383.6469494925
 10
1259.1867907812
 20
1385.2391087637
 10
1259.0921237041
 20
1386.9767033682
 10
1259.060130911
 20
1388.7883269415
  0
ARC
  5
DE
330
1F
100
AcDbEntity
  8
0
  6
Continuous
 62
     7
370
    15
100
AcDbCircle
 10
1466.1371444136
 20
-1191.2116563692
 30
0.0
 40
9.022539466856154
100
AcDbArc
 50
316.1605784403
 51
43.8394215597
  0
ARC
  5
DF
330
1F
100
AcDbEntity
  8
0
  6
Continuous
 62
     7
370
    15
100
AcDbCircle
 10
1466.2004120494
 20
-1191.2116563692
 30
0.0
 40
9.022348906730192
100
AcDbArc
 50
315.295624286
 51
44.704375714
  0
LINE
  5
E0
330
1F
100
AcDbEntity
  8
0
  6
Continuous
 62
     7
370
    15
100
AcDbLine
 10
1579.759599166
 20
1348.7883650885
 30
0.0
 11
1581.7296220828
 21
1348.7883650885
 31
0.0
  0
LINE
  5
E1
330
1F
100
AcDbEntity
  8
0
  6
Continuous
 62
     7
370
    15
100
AcDbLine
 10
1581.7296220828
 20
1428.7884080038
 30
0.0
 11
1579.759599166
 21
1428.7884080038
 31
0.0
  0
LINE
  5
E2
330
1F
100
AcDbEntity
  8
0
  6
Continuous
 62
     7
370
    15
100
AcDbLine
 10
1579.759599166
 20
-91.2116325273
 30
0.0
 11
1581.7296220828
 21
-91.2116325273
 31
0.0
  0
LINE
  5
E3
330
1F
100
AcDbEntity
  8
0
  6
Continuous
 62
     7
370
    15
100
AcDbLine
 10
1581.7296220828
 20
-11.2116343155
 30
0.0
 11
1579.759599166
 21
-11.2116343155
 31
0.0
  0
LINE
  5
E4
330
1F
100
AcDbEntity
  8
0
  6
Continuous
 62
     7
370
    15
100
AcDbLine
 10
1579.759599166
 20
-1231.2116778268
 30
0.0
 11
1581.7296220828
 21
-1231.2116778268
 31
0.0
  0
LINE
  5
E5
330
1F
100
AcDbEntity
  8
0
  6
Continuous
 62
     7
370
    15
100
AcDbLine
 10
1581.7296220828
 20
-1151.2116349115
 30
0.0
 11
1579.759599166
 21
-1151.2116349115
 31
0.0
  0
LINE
  5
E6
330
1F
100
AcDbEntity
  8
0
  6
Continuous
 62
     7
370
    15
100
AcDbLine
 10
1579.759599166
 20
208.7883644925
 30
0.0
 11
1581.7296220828
 21
208.7883644925
 31
0.0
  0
LINE
  5
E7
330
1F
100
AcDbEntity
  8
0
  6
Continuous
 62
     7
370
    15
100
AcDbLine
 10
1581.7296220828
 20
288.7883627043
 30
0.0
 11
1579.759599166
 21
288.7883627043
 31
0.0
  0
LWPOLYLINE
  5
E8
330
1F
100
AcDbEntity
  8
0
  6
Continuous
 62
     7
370
    15
100
AcDbPolyline
 90
        3
 70
   128
 43
0.0
 10
1155.1178558637
 20
-11.2116343155
 10
1153.9650945832
 20
-11.3269245996
 10
1153.8626491
 20
-11.3485759868
  0
LINE
  5
E9
330
1F
100
AcDbEntity
  8
0
  6
Continuous
 62
     7
370
    15
100
AcDbLine
 10
1183.2517473866
 20
-11.2116343155
 30
0.0
 11
1155.1178558637
 21
-11.2116343155
 31
0.0
  0
LINE
  5
EA
330
1F
100
AcDbEntity
  8
0
  6
Continuous
 62
     7
370
    15
100
AcDbLine
 10
1155.1178558637
 20
-91.2116325273
 30
0.0
 11
1183.2517473866
 21
-91.2116325273
 31
0.0
  0
LWPOLYLINE
  5
EB
330
1F
100
AcDbEntity
  8
0
  6
Continuous
 62
     7
370
    15
100
AcDbPolyline
 90
        3
 70
   128
 43
0.0
 10
1153.8626491
 20
-91.0746908559
 10
1153.9650945832
 20
-91.0963422432
 10
1155.1178558637
 20
-91.2116325273
  0
LINE
  5
EC
330
1F
100
AcDbEntity
  8
0
  6
Continuous
 62
     7
370
    15
100
AcDbLine
 10
1154.3352394272
 20
-91.2116325273
 30
0.0
 11
1155.1178558637
 21
-91.2116325273
 31
0.0
  0
LINE
  5
ED
330
1F
100
AcDbEntity
  8
0
  6
Continuous
 62
     7
370
    15
100
AcDbLine
 10
1154.3352394272
 20
-11.2116343155
 30
0.0
 11
1153.8626491
 21
-11.237294115
 31
0.0
  0
LINE
  5
EE
330
1F
100
AcDbEntity
  8
0
  6
Continuous
 62
     7
370
    15
100
AcDbLine
 10
1153.8626491
 20
-91.1859727277
 30
0.0
 11
1154.3352394272
 21
-91.2116325273
 31
0.0
  0
LWPOLYLINE
  5
EF
330
1F
100
AcDbEntity
  8
0
  6
Continuous
 62
     7
370
    15
100
AcDbPolyline
 90
        3
 70
   128
 43
0.0
 10
1155.1178558637
 20
-1151.2116349115
 10
1153.9650945832
 20
-1151.3269102945
 10
1153.8626491
 20
-1151.3486063852
  0
LINE
  5
F0
330
1F
100
AcDbEntity
  8
0
  6
Continuous
 62
     7
370
    15
100
AcDbLine
 10
1183.2517473866
 20
-1151.2116349115
 30
0.0
 11
1155.1178558637
 21
-1151.2116349115
 31
0.0
  0
LINE
  5
F1
330
1F
100
AcDbEntity
  8
0
  6
Continuous
 62
     7
370
    15
100
AcDbLine
 10
1155.1178558637
 20
-1231.2116778268
 30
0.0
 11
1183.2517473866
 21
-1231.2116778268
 31
0.0
  0
LWPOLYLINE
  5
F2
330
1F
100
AcDbEntity
  8
0
  6
Continuous
 62
     7
370
    15
100
AcDbPolyline
 90
        3
 70
   128
 43
0.0
 10
1153.8626491
 20
-1231.0747063531
 10
1153.9650945832
 20
-1231.0964024438
 10
1155.1178558637
 20
-1231.2116778268
  0
LINE
  5
F3
330
1F
100
AcDbEntity
  8
0
  6
Continuous
 62
     7
370
    15
100
AcDbLine
 10
1154.3352394272
 20
-1231.2116778268
 30
0.0
 11
1155.1178558637
 21
-1231.2116778268
 31
0.0
  0
LINE
  5
F4
330
1F
100
AcDbEntity
  8
0
  6
Continuous
 62
     7
370
    15
100
AcDbLine
 10
1154.3352394272
 20
-1151.2116349115
 30
0.0
 11
1153.8626491
 21
-1151.2372649088
 31
0.0
  0
LINE
  5
F5
330
1F
100
AcDbEntity
  8
0
  6
Continuous
 62
     7
370
    15
100
AcDbLine
 10
1153.8626491
 20
-1231.1859286203
 30
0.0
 11
1154.3352394272
 21
-1231.2116778268
 31
0.0
  0
LWPOLYLINE
  5
F6
330
1F
100
AcDbEntity
  8
0
  6
Continuous
 62
     7
370
    15
100
AcDbPolyline
 90
        3
 70
   128
 43
0.0
 10
1155.1178558637
 20
1428.7884080038
 10
1153.9650945832
 20
1428.6731326209
 10
1153.8626491
 20
1428.6514365302
  0
LINE
  5
F7
330
1F
100
AcDbEntity
  8
0
  6
Continuous
 62
     7
370
    15
100
AcDbLine
 10
1183.2517473866
 20
1428.7884080038
 30
0.0
 11
1155.1178558637
 21
1428.7884080038
 31
0.0
  0
LINE
  5
F8
330
1F
100
AcDbEntity
  8
0
  6
Continuous
 62
     7
370
    15
100
AcDbLine
 10
1155.1178558637
 20
1348.7883650885
 30
0.0
 11
1183.2517473866
 21
1348.7883650885
 31
0.0
  0
LWPOLYLINE
  5
F9
330
1F
100
AcDbEntity
  8
0
  6
Continuous
 62
     7
370
    15
100
AcDbPolyline
 90
        3
 70
   128
 43
0.0
 10
1153.8626491
 20
1348.9253365622
 10
1153.9650945832
 20
1348.9036404715
 10
1155.1178558637
 20
1348.7883650885
  0
LINE
  5
FA
330
1F
100
AcDbEntity
  8
0
  6
Continuous
 62
     7
370
    15
100
AcDbLine
 10
1154.3352394272
 20
1348.7883650885
 30
0.0
 11
1155.1178558637
 21
1348.7883650885
 31
0.0
  0
LINE
  5
FB
330
1F
100
AcDbEntity
  8
0
  6
Continuous
 62
     7
370
    15
100
AcDbLine
 10
1154.3352394272
 20
1428.7884080038
 30
0.0
 11
1153.8626491
 21
1428.7626587973
 31
0.0
  0
LINE
  5
FC
330
1F
100
AcDbEntity
  8
0
  6
Continuous
 62
     7
370
    15
100
AcDbLine
 10
1153.8626491
 20
1348.8139950858
 30
0.0
 11
1154.3352394272
 21
1348.7883650885
 31
0.0
  0
LWPOLYLINE
  5
FD
330
1F
100
AcDbEntity
  8
0
  6
Continuous
 62
     7
370
    15
100
AcDbPolyline
 90
        3
 70
   128
 43
0.0
 10
1155.1178558637
 20
288.7883627043
 10
1153.9650945832
 20
288.6730724202
 10
1153.8626491
 20
288.6514210329
  0
LINE
  5
FE
330
1F
100
AcDbEntity
  8
0
  6
Continuous
 62
     7
370
    15
100
AcDbLine
 10
1183.2517473866
 20
288.7883627043
 30
0.0
 11
1155.1178558637
 21
288.7883627043
 31
0.0
  0
LINE
  5
FF
330
1F
100
AcDbEntity
  8
0
  6
Continuous
 62
     7
370
    15
100
AcDbLine
 10
1155.1178558637
 20
208.7883644925
 30
0.0
 11
1183.2517473866
 21
208.7883644925
 31
0.0
  0
LWPOLYLINE
  5
100
330
1F
100
AcDbEntity
  8
0
  6
Continuous
 62
     7
370
    15
100
AcDbPolyline
 90
        3
 70
   128
 43
0.0
 10
1153.8626491
 20
208.9253061638
 10
1153.9650945832
 20
208.9036547766
 10
1155.1178558637
 20
208.7883644925
  0
LINE
  5
101
330
1F
100
AcDbEntity
  8
0
  6
Continuous
 62
     7
370
    15
100
AcDbLine
 10
1154.3352394272
 20
208.7883644925
 30
0.0
 11
1155.1178558637
 21
208.7883644925
 31
0.0
  0
LINE
  5
102
330
1F
100
AcDbEntity
  8
0
  6
Continuous
 62
     7
370
    15
100
AcDbLine
 10
1154.3352394272
 20
288.7883627043
 30
0.0
 11
1153.8626491
 21
288.7627029047
 31
0.0
  0
LINE
  5
103
330
1F
100
AcDbEntity
  8
0
  6
Continuous
 62
     7
370
    15
100
AcDbLine
 10
1153.8626491
 20
208.814024292
 30
0.0
 11
1154.3352394272
 21
208.7883644925
 31
0.0
  0
LINE
  5
104
330
1F
100
AcDbEntity
  8
0
  6
Continuous
 62
     7
370
    15
100
AcDbLine
 10
1730.2477671672
 20
197.921618186
 30
0.0
 11
1730.2477671672
 21
1439.6551692114
 31
0.0
  0
LINE
  5
105
330
1F
100
AcDbEntity
  8
0
  6
Continuous
 62
     7
370
    15
100
AcDbLine
 10
1734.1698123981
 20
197.921618186
 30
0.0
 11
1734.1698123981
 21
1439.6551692114
 31
0.0
  0
LINE
  5
106
330
1F
100
AcDbEntity
  8
0
  6
Continuous
 62
     7
370
    15
100
AcDbLine
 10
1575.8375837375
 20
197.921618186
 30
0.0
 11
1575.8375837375
 21
1439.6551692114
 31
0.0
  0
LINE
  5
107
330
1F
100
AcDbEntity
  8
0
  6
Continuous
 62
     7
370
    15
100
AcDbLine
 10
1579.759599166
 20
197.921618186
 30
0.0
 11
1579.759599166
 21
1439.6551692114
 31
0.0
  0
LINE
  5
108
330
1F
100
AcDbEntity
  8
0
  6
Continuous
 62
     7
370
    15
100
AcDbLine
 10
1575.8375837375
 20
-1242.0784390344
 30
0.0
 11
1575.8375837375
 21
-0.344888009
 31
0.0
  0
LINE
  5
109
330
1F
100
AcDbEntity
  8
0
  6
Continuous
 62
     7
370
    15
100
AcDbLine
 10
1579.759599166
 20
-1242.0784390344
 30
0.0
 11
1579.759599166
 21
-0.344888009
 31
0.0
  0
LINE
  5
10A
330
1F
100
AcDbEntity
  8
0
  6
Continuous
 62
     7
370
    15
100
AcDbLine
 10
1241.5216728021
 20
197.921618186
 30
0.0
 11
1241.5216728021
 21
1439.6551692114
 31
0.0
  0
LINE
  5
10B
330
1F
100
AcDbEntity
  8
0
  6
Continuous
 62
     7
370
    15
100
AcDbLine
 10
1421.4274301101
 20
197.921618186
 30
0.0
 11
1421.4274301101
 21
1439.6551692114
 31
0.0
  0
LINE
  5
10C
330
1F
100
AcDbEntity
  8
0
  6
Continuous
 62
     7
370
    15
100
AcDbLine
 10
1421.4274301101
 20
-1242.0784390344
 30
0.0
 11
1421.4274301101
 21
-0.344888009
 31
0.0
  0
LINE
  5
10D
330
1F
100
AcDbEntity
  8
0
  6
Continuous
 62
     7
370
    15
100
AcDbLine
 10
1241.5216728021
 20
-1242.0784390344
 30
0.0
 11
1241.5216728021
 21
-0.344888009
 31
0.0
  0
LINE
  5
10E
330
1F
100
AcDbEntity
  8
0
  6
Continuous
 62
     7
370
    15
100
AcDbLine
 10
1730.2477671672
 20
-1242.0784390344
 30
0.0
 11
1730.2477671672
 21
-0.344888009
 31
0.0
  0
LINE
  5
10F
330
1F
100
AcDbEntity
  8
0
  6
Continuous
 62
     7
370
    15
100
AcDbLine
 10
1734.1698123981
 20
-1242.0784390344
 30
0.0
 11
1734.1698123981
 21
-0.344888009
 31
0.0
  0
ARC
  5
110
330
1F
100
AcDbEntity
  8
0
  6
Continuous
 62
     7
370
    15
100
AcDbCircle
 10
3622.7719479079
 20
195.9226011009
 30
0.0
 40
2.002241526309182
100
AcDbArc
 50
359.9717571029
 51
34.3311364311
  0
LINE
  5
111
330
1F
100
AcDbEntity
  8
0
  6
Continuous
 62
     7
370
    15
100
AcDbLine
 10
3624.774189191
 20
195.9216141329
 30
0.0
 11
3624.4253828098
 21
195.9216141329
 31
0.0
  0
LINE
  5
112
330
1F
100
AcDbEntity
  8
0
  6
Continuous
 62
     7
370
    15
100
AcDbLine
 10
3574.1190626193
 20
197.921618186
 30
0.0
 11
3544.7299196292
 21
197.921618186
 31
0.0
  0
LINE
  5
113
330
1F
100
AcDbEntity
  8
0
  6
Continuous
 62
     7
370
    15
100
AcDbLine
 10
3494.4233610202
 20
197.921618186
 30
0.0
 11
3465.0344564487
 21
197.921618186
 31
0.0
  0
LINE
  5
114
330
1F
100
AcDbEntity
  8
0
  6
Continuous
 62
     7
370
    15
100
AcDbLine
 10
3414.7278978397
 20
197.921618186
 30
0.0
 11
3385.3387548496
 21
197.921618186
 31
0.0
  0
LINE
  5
115
330
1F
100
AcDbEntity
  8
0
  6
Continuous
 62
     7
370
    15
100
AcDbLine
 10
3335.0321962406
 20
197.921618186
 30
0.0
 11
3305.643291669
 21
197.921618186
 31
0.0
  0
LINE
  5
116
330
1F
100
AcDbEntity
  8
0
  6
Continuous
 62
     7
370
    15
100
AcDbLine
 10
3255.33673306
 20
197.921618186
 30
0.0
 11
3225.9475900699
 21
197.921618186
 31
0.0
  0
LINE
  5
117
330
1F
100
AcDbEntity
  8
0
  6
Continuous
 62
     7
370
    15
100
AcDbLine
 10
3175.6410314609
 20
197.921618186
 30
0.0
 11
3146.2521268894
 21
197.921618186
 31
0.0
  0
LINE
  5
118
330
1F
100
AcDbEntity
  8
0
  6
Continuous
 62
     7
370
    15
100
AcDbLine
 10
3095.9455682804
 20
197.921618186
 30
0.0
 11
3066.5564252902
 21
197.921618186
 31
0.0
  0
LINE
  5
119
330
1F
100
AcDbEntity
  8
0
  6
Continuous
 62
     7
370
    15
100
AcDbLine
 10
3016.2499858905
 20
197.921618186
 30
0.0
 11
2986.8608429004
 21
197.921618186
 31
0.0
  0
LINE
  5
11A
330
1F
100
AcDbEntity
  8
0
  6
Continuous
 62
     7
370
    15
100
AcDbLine
 10
2936.5544035007
 20
197.921618186
 30
0.0
 11
2907.1652605106
 21
197.921618186
 31
0.0
  0
LINE
  5
11B
330
1F
100
AcDbEntity
  8
0
  6
Continuous
 62
     7
370
    15
100
AcDbLine
 10
2856.8588211109
 20
197.921618186
 30
0.0
 11
2827.46979733
 21
197.921618186
 31
0.0
  0
LINE
  5
11C
330
1F
100
AcDbEntity
  8
0
  6
Continuous
 62
     7
370
    15
100
AcDbLine
 10
2777.163238721
 20
197.921618186
 30
0.0
 11
2747.7742149402
 21
197.921618186
 31
0.0
  0
LINE
  5
11D
330
1F
100
AcDbEntity
  8
0
  6
Continuous
 62
     7
370
    15
100
AcDbLine
 10
2697.4676563312
 20
197.921618186
 30
0.0
 11
2668.0786325504
 21
197.921618186
 31
0.0
  0
LINE
  5
11E
330
1F
100
AcDbEntity
  8
0
  6
Continuous
 62
     7
370
    15
100
AcDbLine
 10
2617.7720739414
 20
197.921618186
 30
0.0
 11
2588.3830501605
 21
197.921618186
 31
0.0
  0
LINE
  5
11F
330
1F
100
AcDbEntity
  8
0
  6
Continuous
 62
     7
370
    15
100
AcDbLine
 10
2538.0764915515
 20
197.921618186
 30
0.0
 11
2508.6874677707
 21
197.921618186
 31
0.0
  0
LINE
  5
120
330
1F
100
AcDbEntity
  8
0
  6
Continuous
 62
     7
370
    15
100
AcDbLine
 10
2458.3809091617
 20
197.921618186
 30
0.0
 11
2428.9918853809
 21
197.921618186
 31
0.0
  0
LINE
  5
121
330
1F
100
AcDbEntity
  8
0
  6
Continuous
 62
     7
370
    15
100
AcDbLine
 10
2378.6853267719
 20
197.921618186
 30
0.0
 11
2349.296302991
 21
197.921618186
 31
0.0
  0
LINE
  5
122
330
1F
100
AcDbEntity
  8
0
  6
Continuous
 62
     7
370
    15
100
AcDbLine
 10
2298.9898635913
 20
197.921618186
 30
0.0
 11
2269.6007206012
 21
197.921618186
 31
0.0
  0
LINE
  5
123
330
1F
100
AcDbEntity
  8
0
  6
Continuous
 62
     7
370
    15
100
AcDbLine
 10
2219.2942812015
 20
197.921618186
 30
0.0
 11
2189.9051382114
 21
197.921618186
 31
0.0
  0
LINE
  5
124
330
1F
100
AcDbEntity
  8
0
  6
Continuous
 62
     7
370
    15
100
AcDbLine
 10
2139.5986988117
 20
197.921618186
 30
0.0
 11
2110.2095558215
 21
197.921618186
 31
0.0
  0
LINE
  5
125
330
1F
100
AcDbEntity
  8
0
  6
Continuous
 62
     7
370
    15
100
AcDbLine
 10
2059.9030568172
 20
197.921618186
 30
0.0
 11
2030.5139734317
 21
197.921618186
 31
0.0
  0
LINE
  5
126
330
1F
100
AcDbEntity
  8
0
  6
Continuous
 62
     7
370
    15
100
AcDbLine
 10
1980.2074744274
 20
197.921618186
 30
0.0
 11
1950.8183910419
 21
197.921618186
 31
0.0
  0
LINE
  5
127
330
1F
100
AcDbEntity
  8
0
  6
Continuous
 62
     7
370
    15
100
AcDbLine
 10
1900.5119516422
 20
197.921618186
 30
0.0
 11
1871.1228086521
 21
197.921618186
 31
0.0
  0
LINE
  5
128
330
1F
100
AcDbEntity
  8
0
  6
Continuous
 62
     7
370
    15
100
AcDbLine
 10
1820.8163692523
 20
197.921618186
 30
0.0
 11
1791.4272262622
 21
197.921618186
 31
0.0
  0
LINE
  5
129
330
1F
100
AcDbEntity
  8
0
  6
Continuous
 62
     7
370
    15
100
AcDbLine
 10
1741.1207868625
 20
197.921618186
 30
0.0
 11
1711.731703477
 21
197.921618186
 31
0.0
  0
LINE
  5
12A
330
1F
100
AcDbEntity
  8
0
  6
Continuous
 62
     7
370
    15
100
AcDbLine
 10
1661.4252044727
 20
197.921618186
 30
0.0
 11
1632.0361210872
 21
197.921618186
 31
0.0
  0
LINE
  5
12B
330
1F
100
AcDbEntity
  8
0
  6
Continuous
 62
     7
370
    15
100
AcDbLine
 10
1581.7296220828
 20
197.921618186
 30
0.0
 11
1552.3405386974
 21
197.921618186
 31
0.0
  0
LINE
  5
12C
330
1F
100
AcDbEntity
  8
0
  6
Continuous
 62
     7
370
    15
100
AcDbLine
 10
1502.034039693
 20
197.921618186
 30
0.0
 11
1472.6449563075
 21
197.921618186
 31
0.0
  0
LINE
  5
12D
330
1F
100
AcDbEntity
  8
0
  6
Continuous
 62
     7
370
    15
100
AcDbLine
 10
1422.3384871055
 20
197.921618186
 30
0.0
 11
1392.9493739177
 21
197.921618186
 31
0.0
  0
LINE
  5
12E
330
1F
100
AcDbEntity
  8
0
  6
Continuous
 62
     7
370
    15
100
AcDbLine
 10
1342.6429047157
 20
197.921618186
 30
0.0
 11
1313.2537915279
 21
197.921618186
 31
0.0
  0
LINE
  5
12F
330
1F
100
AcDbEntity
  8
0
  6
Continuous
 62
     7
370
    15
100
AcDbLine
 10
1262.9473223258
 20
197.921618186
 30
0.0
 11
1233.5582240392
 21
197.921618186
 31
0.0
  0
LINE
  5
130
330
1F
100
AcDbEntity
  8
0
  6
Continuous
 62
     7
370
    15
100
AcDbLine
 10
1183.2517473866
 20
197.921618186
 30
0.0
 11
1153.8626491
 21
197.921618186
 31
0.0
  0
LINE
  5
131
330
1F
100
AcDbEntity
  8
0
  6
Continuous
 62
     7
370
    15
100
AcDbLine
 10
3624.4253828098
 20
159.9216156826
 30
0.0
 11
3624.4253828098
 21
195.9216141329
 31
0.0
  0
ARC
  5
132
330
1F
100
AcDbEntity
  8
0
  6
Continuous
 62
     7
370
    15
100
AcDbCircle
 10
3622.4102883495
 20
159.9239932757
 30
0.0
 40
2.015095862917061
100
AcDbArc
 50
325.6975728075
 51
359.9323972213
  0
ARC
  5
133
330
1F
100
AcDbEntity
  8
0
  6
Continuous
 62
     7
370
    15
100
AcDbCircle
 10
1116.0196994078
 20
159.9211616885
 30
0.0
 40
2.004839691550409
100
AcDbArc
 50
179.9870254227
 51
214.4044913256
  0
LINE
  5
134
330
1F
100
AcDbEntity
  8
0
  6
Continuous
 62
     7
370
    15
100
AcDbLine
 10
1114.0148597677
 20
161.2883650885
 30
0.0
 11
1114.0148597677
 21
159.9216156826
 31
0.0
  0
LINE
  5
135
330
1F
100
AcDbEntity
  8
0
  6
Continuous
 62
     7
370
    15
100
AcDbLine
 10
3624.4253828098
 20
159.9216156826
 30
0.0
 11
3624.774189191
 21
159.9216156826
 31
0.0
  0
ARC
  5
136
330
1F
100
AcDbEntity
  8
0
  6
Continuous
 62
     7
370
    15
100
AcDbCircle
 10
3622.7682702931
 20
159.9216572933
 30
0.0
 40
2.005918898375087
100
AcDbArc
 50
318.4501212793
 51
359.9988114592
  0
LINE
  5
137
330
1F
100
AcDbEntity
  8
0
  6
Continuous
 62
     7
370
    15
100
AcDbLine
 10
3624.774189191
 20
159.9216156826
 30
0.0
 11
3624.774189191
 21
195.9216141329
 31
0.0
  0
LINE
  5
138
330
1F
100
AcDbEntity
  8
0
  6
Continuous
 62
     7
370
    15
100
AcDbLine
 10
3574.1190626193
 20
-1242.0784390344
 30
0.0
 11
3544.7299196292
 21
-1242.0784390344
 31
0.0
  0
LINE
  5
139
330
1F
100
AcDbEntity
  8
0
  6
Continuous
 62
     7
370
    15
100
AcDbLine
 10
3494.4233610202
 20
-1242.0784390344
 30
0.0
 11
3465.0344564487
 21
-1242.0784390344
 31
0.0
  0
LINE
  5
13A
330
1F
100
AcDbEntity
  8
0
  6
Continuous
 62
     7
370
    15
100
AcDbLine
 10
3414.7278978397
 20
-1242.0784390344
 30
0.0
 11
3385.3387548496
 21
-1242.0784390344
 31
0.0
  0
LINE
  5
13B
330
1F
100
AcDbEntity
  8
0
  6
Continuous
 62
     7
370
    15
100
AcDbLine
 10
3335.0321962406
 20
-1242.0784390344
 30
0.0
 11
3305.643291669
 21
-1242.0784390344
 31
0.0
  0
LINE
  5
13C
330
1F
100
AcDbEntity
  8
0
  6
Continuous
 62
     7
370
    15
100
AcDbLine
 10
3255.33673306
 20
-1242.0784390344
 30
0.0
 11
3225.9475900699
 21
-1242.0784390344
 31
0.0
  0
LINE
  5
13D
330
1F
100
AcDbEntity
  8
0
  6
Continuous
 62
     7
370
    15
100
AcDbLine
 10
3175.6410314609
 20
-1242.0784390344
 30
0.0
 11
3146.2521268894
 21
-1242.0784390344
 31
0.0
  0
LINE
  5
13E
330
1F
100
AcDbEntity
  8
0
  6
Continuous
 62
     7
370
    15
100
AcDbLine
 10
3095.9455682804
 20
-1242.0784390344
 30
0.0
 11
3066.5564252902
 21
-1242.0784390344
 31
0.0
  0
LINE
  5
13F
330
1F
100
AcDbEntity
  8
0
  6
Continuous
 62
     7
370
    15
100
AcDbLine
 10
3016.2499858905
 20
-1242.0784390344
 30
0.0
 11
2986.8608429004
 21
-1242.0784390344
 31
0.0
  0
LINE
  5
140
330
1F
100
AcDbEntity
  8
0
  6
Continuous
 62
     7
370
    15
100
AcDbLine
 10
2936.5544035007
 20
-1242.0784390344
 30
0.0
 11
2907.1652605106
 21
-1242.0784390344
 31
0.0
  0
LINE
  5
141
330
1F
100
AcDbEntity
  8
0
  6
Continuous
 62
     7
370
    15
100
AcDbLine
 10
2856.8588211109
 20
-1242.0784390344
 30
0.0
 11
2827.46979733
 21
-1242.0784390344
 31
0.0
  0
LINE
  5
142
330
1F
100
AcDbEntity
  8
0
  6
Continuous
 62
     7
370
    15
100
AcDbLine
 10
2777.163238721
 20
-1242.0784390344
 30
0.0
 11
2747.7742149402
 21
-1242.0784390344
 31
0.0
  0
LINE
  5
143
330
1F
100
AcDbEntity
  8
0
  6
Continuous
 62
     7
370
    15
100
AcDbLine
 10
2697.4676563312
 20
-1242.0784390344
 30
0.0
 11
2668.0786325504
 21
-1242.0784390344
 31
0.0
  0
LINE
  5
144
330
1F
100
AcDbEntity
  8
0
  6
Continuous
 62
     7
370
    15
100
AcDbLine
 10
2617.7720739414
 20
-1242.0784390344
 30
0.0
 11
2588.3830501605
 21
-1242.0784390344
 31
0.0
  0
LINE
  5
145
330
1F
100
AcDbEntity
  8
0
  6
Continuous
 62
     7
370
    15
100
AcDbLine
 10
2538.0764915515
 20
-1242.0784390344
 30
0.0
 11
2508.6874677707
 21
-1242.0784390344
 31
0.0
  0
LINE
  5
146
330
1F
100
AcDbEntity
  8
0
  6
Continuous
 62
     7
370
    15
100
AcDbLine
 10
2458.3809091617
 20
-1242.0784390344
 30
0.0
 11
2428.9918853809
 21
-1242.0784390344
 31
0.0
  0
LINE
  5
147
330
1F
100
AcDbEntity
  8
0
  6
Continuous
 62
     7
370
    15
100
AcDbLine
 10
2378.6853267719
 20
-1242.0784390344
 30
0.0
 11
2349.296302991
 21
-1242.0784390344
 31
0.0
  0
LINE
  5
148
330
1F
100
AcDbEntity
  8
0
  6
Continuous
 62
     7
370
    15
100
AcDbLine
 10
2298.9898635913
 20
-1242.0784390344
 30
0.0
 11
2269.6007206012
 21
-1242.0784390344
 31
0.0
  0
LINE
  5
149
330
1F
100
AcDbEntity
  8
0
  6
Continuous
 62
     7
370
    15
100
AcDbLine
 10
2219.2942812015
 20
-1242.0784390344
 30
0.0
 11
2189.9051382114
 21
-1242.0784390344
 31
0.0
  0
LINE
  5
14A
330
1F
100
AcDbEntity
  8
0
  6
Continuous
 62
     7
370
    15
100
AcDbLine
 10
2139.5986988117
 20
-1242.0784390344
 30
0.0
 11
2110.2095558215
 21
-1242.0784390344
 31
0.0
  0
LINE
  5
14B
330
1F
100
AcDbEntity
  8
0
  6
Continuous
 62
     7
370
    15
100
AcDbLine
 10
2059.9030568172
 20
-1242.0784390344
 30
0.0
 11
2030.5139734317
 21
-1242.0784390344
 31
0.0
  0
LINE
  5
14C
330
1F
100
AcDbEntity
  8
0
  6
Continuous
 62
     7
370
    15
100
AcDbLine
 10
1980.2074744274
 20
-1242.0784390344
 30
0.0
 11
1950.8183910419
 21
-1242.0784390344
 31
0.0
  0
LINE
  5
14D
330
1F
100
AcDbEntity
  8
0
  6
Continuous
 62
     7
370
    15
100
AcDbLine
 10
1900.5119516422
 20
-1242.0784390344
 30
0.0
 11
1871.1228086521
 21
-1242.0784390344
 31
0.0
  0
LINE
  5
14E
330
1F
100
AcDbEntity
  8
0
  6
Continuous
 62
     7
370
    15
100
AcDbLine
 10
1820.8163692523
 20
-1242.0784390344
 30
0.0
 11
1791.4272262622
 21
-1242.0784390344
 31
0.0
  0
LINE
  5
14F
330
1F
100
AcDbEntity
  8
0
  6
Continuous
 62
     7
370
    15
100
AcDbLine
 10
1741.1207868625
 20
-1242.0784390344
 30
0.0
 11
1711.731703477
 21
-1242.0784390344
 31
0.0
  0
LINE
  5
150
330
1F
100
AcDbEntity
  8
0
  6
Continuous
 62
     7
370
    15
100
AcDbLine
 10
1661.4252044727
 20
-1242.0784390344
 30
0.0
 11
1632.0361210872
 21
-1242.0784390344
 31
0.0
  0
LINE
  5
151
330
1F
100
AcDbEntity
  8
0
  6
Continuous
 62
     7
370
    15
100
AcDbLine
 10
1581.7296220828
 20
-1242.0784390344
 30
0.0
 11
1552.3405386974
 21
-1242.0784390344
 31
0.0
  0
LINE
  5
152
330
1F
100
AcDbEntity
  8
0
  6
Continuous
 62
     7
370
    15
100
AcDbLine
 10
1502.034039693
 20
-1242.0784390344
 30
0.0
 11
1472.6449563075
 21
-1242.0784390344
 31
0.0
  0
LINE
  5
153
330
1F
100
AcDbEntity
  8
0
  6
Continuous
 62
     7
370
    15
100
AcDbLine
 10
1422.3384871055
 20
-1242.0784390344
 30
0.0
 11
1392.9493739177
 21
-1242.0784390344
 31
0.0
  0
LINE
  5
154
330
1F
100
AcDbEntity
  8
0
  6
Continuous
 62
     7
370
    15
100
AcDbLine
 10
1342.6429047157
 20
-1242.0784390344
 30
0.0
 11
1313.2537915279
 21
-1242.0784390344
 31
0.0
  0
LINE
  5
155
330
1F
100
AcDbEntity
  8
0
  6
Continuous
 62
     7
370
    15
100
AcDbLine
 10
1262.9473223258
 20
-1242.0784390344
 30
0.0
 11
1233.5582240392
 21
-1242.0784390344
 31
0.0
  0
LINE
  5
156
330
1F
100
AcDbEntity
  8
0
  6
Continuous
 62
     7
370
    15
100
AcDbLine
 10
1183.2517473866
 20
-1242.0784390344
 30
0.0
 11
1153.8626491
 21
-1242.0784390344
 31
0.0
  0
LINE
  5
157
330
1F
100
AcDbEntity
  8
0
  6
Continuous
 62
     7
370
    15
100
AcDbLine
 10
3624.4253828098
 20
-1280.0784266367
 30
0.0
 11
3624.4253828098
 21
-1244.0784132852
 31
0.0
  0
ARC
  5
158
330
1F
100
AcDbEntity
  8
0
  6
Continuous
 62
     7
370
    15
100
AcDbCircle
 10
3622.4129767078
 20
-1280.0768319632
 30
0.0
 40
2.012406733770304
100
AcDbArc
 50
325.6739900981
 51
359.9545976135
  0
ARC
  5
159
330
1F
100
AcDbEntity
  8
0
  6
Continuous
 62
     7
370
    15
100
AcDbCircle
 10
1116.017077791
 20
-1280.0796435684
 30
0.0
 40
2.002218393110719
100
AcDbArc
 50
179.9651760992
 51
214.4277237241
  0
LINE
  5
15A
330
1F
100
AcDbEntity
  8
0
  6
Continuous
 62
     7
370
    15
100
AcDbLine
 10
1114.0148597677
 20
-1278.711692132
 30
0.0
 11
1114.0148597677
 21
-1280.0784266367
 31
0.0
  0
LINE
  5
15B
330
1F
100
AcDbEntity
  8
0
  6
Continuous
 62
     7
370
    15
100
AcDbLine
 10
3624.4253828098
 20
-1280.0784266367
 30
0.0
 11
3624.774189191
 21
-1280.0784266367
 31
0.0
  0
ARC
  5
15C
330
1F
100
AcDbEntity
  8
0
  6
Continuous
 62
     7
370
    15
100
AcDbCircle
 10
3622.7685905187
 20
-1280.0784543599
 30
0.0
 40
2.005598672497104
100
AcDbArc
 50
318.446650916
 51
0.0007919947
  0
LINE
  5
15D
330
1F
100
AcDbEntity
  8
0
  6
Continuous
 62
     7
370
    15
100
AcDbLine
 10
3624.774189191
 20
-1244.0784132852
 30
0.0
 11
3624.4253828098
 21
-1244.0784132852
 31
0.0
  0
LINE
  5
15E
330
1F
100
AcDbEntity
  8
0
  6
Continuous
 62
     7
370
    15
100
AcDbLine
 10
3624.774189191
 20
-1280.0784266367
 30
0.0
 11
3624.774189191
 21
-1244.0784132852
 31
0.0
  0
ARC
  5
15F
330
1F
100
AcDbEntity
  8
0
  6
Continuous
 62
     7
370
    15
100
AcDbCircle
 10
3622.7712695154
 20
-1244.0776133489
 30
0.0
 40
2.002919835370857
100
AcDbArc
 50
359.977116919
 51
34.3251380331
  0
LINE
  5
160
330
1F
100
AcDbEntity
  8
0
  6
Continuous
 62
     7
370
    15
100
AcDbLine
 10
3624.4253828098
 20
1441.6551434622
 30
0.0
 11
3624.774189191
 21
1441.6551434622
 31
0.0
  0
LINE
  5
161
330
1F
100
AcDbEntity
  8
0
  6
Continuous
 62
     7
370
    15
100
AcDbLine
 10
3624.4253828098
 20
1441.6551434622
 30
0.0
 11
3624.4253828098
 21
1477.6551568137
 31
0.0
  0
LINE
  5
162
330
1F
100
AcDbEntity
  8
0
  6
Continuous
 62
     7
370
    15
100
AcDbLine
 10
3624.774189191
 20
1477.6551568137
 30
0.0
 11
3624.4253828098
 21
1477.6551568137
 31
0.0
  0
LINE
  5
163
330
1F
100
AcDbEntity
  8
0
  6
Continuous
 62
     7
370
    15
100
AcDbLine
 10
3624.774189191
 20
1441.6551434622
 30
0.0
 11
3624.774189191
 21
1477.6551568137
 31
0.0
  0
ARC
  5
164
330
1F
100
AcDbEntity
  8
0
  6
Continuous
 62
     7
370
    15
100
AcDbCircle
 10
3622.7685905187
 20
1477.6551845369
 30
0.0
 40
2.005598672496649
100
AcDbArc
 50
359.9992080053
 51
41.553349084
  0
ARC
  5
165
330
1F
100
AcDbEntity
  8
0
  6
Continuous
 62
     7
370
    15
100
AcDbCircle
 10
3622.4129767078
 20
1477.6535621402
 30
0.0
 40
2.012406733770304
100
AcDbArc
 50
0.0454023865
 51
34.3260099019
  0
LINE
  5
166
330
1F
100
AcDbEntity
  8
0
  6
Continuous
 62
     7
370
    15
100
AcDbLine
 10
1153.8626491
 20
1439.6551692114
 30
0.0
 11
1183.2517473866
 21
1439.6551692114
 31
0.0
  0
LINE
  5
167
330
1F
100
AcDbEntity
  8
0
  6
Continuous
 62
     7
370
    15
100
AcDbLine
 10
1233.5582240392
 20
1439.6551692114
 30
0.0
 11
1262.9473223258
 21
1439.6551692114
 31
0.0
  0
LINE
  5
168
330
1F
100
AcDbEntity
  8
0
  6
Continuous
 62
     7
370
    15
100
AcDbLine
 10
1313.2537915279
 20
1439.6551692114
 30
0.0
 11
1342.6429047157
 21
1439.6551692114
 31
0.0
  0
LINE
  5
169
330
1F
100
AcDbEntity
  8
0
  6
Continuous
 62
     7
370
    15
100
AcDbLine
 10
1392.9493739177
 20
1439.6551692114
 30
0.0
 11
1422.3384871055
 21
1439.6551692114
 31
0.0
  0
LINE
  5
16A
330
1F
100
AcDbEntity
  8
0
  6
Continuous
 62
     7
370
    15
100
AcDbLine
 10
1472.6449563075
 20
1439.6551692114
 30
0.0
 11
1502.034039693
 21
1439.6551692114
 31
0.0
  0
LINE
  5
16B
330
1F
100
AcDbEntity
  8
0
  6
Continuous
 62
     7
370
    15
100
AcDbLine
 10
1552.3405386974
 20
1439.6551692114
 30
0.0
 11
1581.7296220828
 21
1439.6551692114
 31
0.0
  0
LINE
  5
16C
330
1F
100
AcDbEntity
  8
0
  6
Continuous
 62
     7
370
    15
100
AcDbLine
 10
1632.0361210872
 20
1439.6551692114
 30
0.0
 11
1661.4252044727
 21
1439.6551692114
 31
0.0
  0
LINE
  5
16D
330
1F
100
AcDbEntity
  8
0
  6
Continuous
 62
     7
370
    15
100
AcDbLine
 10
1711.731703477
 20
1439.6551692114
 30
0.0
 11
1741.1207868625
 21
1439.6551692114
 31
0.0
  0
LINE
  5
16E
330
1F
100
AcDbEntity
  8
0
  6
Continuous
 62
     7
370
    15
100
AcDbLine
 10
1791.4272262622
 20
1439.6551692114
 30
0.0
 11
1820.8163692523
 21
1439.6551692114
 31
0.0
  0
LINE
  5
16F
330
1F
100
AcDbEntity
  8
0
  6
Continuous
 62
     7
370
    15
100
AcDbLine
 10
1871.1228086521
 20
1439.6551692114
 30
0.0
 11
1900.5119516422
 21
1439.6551692114
 31
0.0
  0
LINE
  5
170
330
1F
100
AcDbEntity
  8
0
  6
Continuous
 62
     7
370
    15
100
AcDbLine
 10
1950.8183910419
 20
1439.6551692114
 30
0.0
 11
1980.2074744274
 21
1439.6551692114
 31
0.0
  0
LINE
  5
171
330
1F
100
AcDbEntity
  8
0
  6
Continuous
 62
     7
370
    15
100
AcDbLine
 10
2030.5139734317
 20
1439.6551692114
 30
0.0
 11
2059.9030568172
 21
1439.6551692114
 31
0.0
  0
LINE
  5
172
330
1F
100
AcDbEntity
  8
0
  6
Continuous
 62
     7
370
    15
100
AcDbLine
 10
2110.2095558215
 20
1439.6551692114
 30
0.0
 11
2139.5986988117
 21
1439.6551692114
 31
0.0
  0
LINE
  5
173
330
1F
100
AcDbEntity
  8
0
  6
Continuous
 62
     7
370
    15
100
AcDbLine
 10
2189.9051382114
 20
1439.6551692114
 30
0.0
 11
2219.2942812015
 21
1439.6551692114
 31
0.0
  0
LINE
  5
174
330
1F
100
AcDbEntity
  8
0
  6
Continuous
 62
     7
370
    15
100
AcDbLine
 10
2269.6007206012
 20
1439.6551692114
 30
0.0
 11
2298.9898635913
 21
1439.6551692114
 31
0.0
  0
LINE
  5
175
330
1F
100
AcDbEntity
  8
0
  6
Continuous
 62
     7
370
    15
100
AcDbLine
 10
2349.296302991
 20
1439.6551692114
 30
0.0
 11
2378.6853267719
 21
1439.6551692114
 31
0.0
  0
LINE
  5
176
330
1F
100
AcDbEntity
  8
0
  6
Continuous
 62
     7
370
    15
100
AcDbLine
 10
2428.9918853809
 20
1439.6551692114
 30
0.0
 11
2458.3809091617
 21
1439.6551692114
 31
0.0
  0
LINE
  5
177
330
1F
100
AcDbEntity
  8
0
  6
Continuous
 62
     7
370
    15
100
AcDbLine
 10
2508.6874677707
 20
1439.6551692114
 30
0.0
 11
2538.0764915515
 21
1439.6551692114
 31
0.0
  0
LINE
  5
178
330
1F
100
AcDbEntity
  8
0
  6
Continuous
 62
     7
370
    15
100
AcDbLine
 10
2588.3830501605
 20
1439.6551692114
 30
0.0
 11
2617.7720739414
 21
1439.6551692114
 31
0.0
  0
LINE
  5
179
330
1F
100
AcDbEntity
  8
0
  6
Continuous
 62
     7
370
    15
100
AcDbLine
 10
2668.0786325504
 20
1439.6551692114
 30
0.0
 11
2697.4676563312
 21
1439.6551692114
 31
0.0
  0
LINE
  5
17A
330
1F
100
AcDbEntity
  8
0
  6
Continuous
 62
     7
370
    15
100
AcDbLine
 10
2747.7742149402
 20
1439.6551692114
 30
0.0
 11
2777.163238721
 21
1439.6551692114
 31
0.0
  0
LINE
  5
17B
330
1F
100
AcDbEntity
  8
0
  6
Continuous
 62
     7
370
    15
100
AcDbLine
 10
2827.46979733
 20
1439.6551692114
 30
0.0
 11
2856.8588211109
 21
1439.6551692114
 31
0.0
  0
LINE
  5
17C
330
1F
100
AcDbEntity
  8
0
  6
Continuous
 62
     7
370
    15
100
AcDbLine
 10
2907.1652605106
 20
1439.6551692114
 30
0.0
 11
2936.5544035007
 21
1439.6551692114
 31
0.0
  0
LINE
  5
17D
330
1F
100
AcDbEntity
  8
0
  6
Continuous
 62
     7
370
    15
100
AcDbLine
 10
2986.8608429004
 20
1439.6551692114
 30
0.0
 11
3016.2499858905
 21
1439.6551692114
 31
0.0
  0
LINE
  5
17E
330
1F
100
AcDbEntity
  8
0
  6
Continuous
 62
     7
370
    15
100
AcDbLine
 10
3066.5564252902
 20
1439.6551692114
 30
0.0
 11
3095.9455682804
 21
1439.6551692114
 31
0.0
  0
LINE
  5
17F
330
1F
100
AcDbEntity
  8
0
  6
Continuous
 62
     7
370
    15
100
AcDbLine
 10
3146.2521268894
 20
1439.6551692114
 30
0.0
 11
3175.6410314609
 21
1439.6551692114
 31
0.0
  0
LINE
  5
180
330
1F
100
AcDbEntity
  8
0
  6
Continuous
 62
     7
370
    15
100
AcDbLine
 10
3225.9475900699
 20
1439.6551692114
 30
0.0
 11
3255.33673306
 21
1439.6551692114
 31
0.0
  0
LINE
  5
181
330
1F
100
AcDbEntity
  8
0
  6
Continuous
 62
     7
370
    15
100
AcDbLine
 10
3305.643291669
 20
1439.6551692114
 30
0.0
 11
3335.0321962406
 21
1439.6551692114
 31
0.0
  0
LINE
  5
182
330
1F
100
AcDbEntity
  8
0
  6
Continuous
 62
     7
370
    15
100
AcDbLine
 10
3385.3387548496
 20
1439.6551692114
 30
0.0
 11
3414.7278978397
 21
1439.6551692114
 31
0.0
  0
LINE
  5
183
330
1F
100
AcDbEntity
  8
0
  6
Continuous
 62
     7
370
    15
100
AcDbLine
 10
3465.0344564487
 20
1439.6551692114
 30
0.0
 11
3494.4233610202
 21
1439.6551692114
 31
0.0
  0
LINE
  5
184
330
1F
100
AcDbEntity
  8
0
  6
Continuous
 62
     7
370
    15
100
AcDbLine
 10
3544.7299196292
 20
1439.6551692114
 30
0.0
 11
3574.1190626193
 21
1439.6551692114
 31
0.0
  0
LINE
  5
185
330
1F
100
AcDbEntity
  8
0
  6
Continuous
 62
     7
370
    15
100
AcDbLine
 10
1114.0148597677
 20
1477.6551568137
 30
0.0
 11
1114.0148597677
 21
1476.288422309
 31
0.0
  0
ARC
  5
186
330
1F
100
AcDbEntity
  8
0
  6
Continuous
 62
     7
370
    15
100
AcDbCircle
 10
1116.017077791
 20
1477.6563737454
 30
0.0
 40
2.002218393110494
100
AcDbArc
 50
145.5722762759
 51
180.0348239008
  0
ARC
  5
187
330
1F
100
AcDbEntity
  8
0
  6
Continuous
 62
     7
370
    15
100
AcDbCircle
 10
3622.7712695154
 20
1441.6543435259
 30
0.0
 40
2.002919835370857
100
AcDbArc
 50
325.6748619669
 51
0.022883081
  0
ARC
  5
188
330
1F
100
AcDbEntity
  8
0
  6
Continuous
 62
     7
370
    15
100
AcDbCircle
 10
3622.7682702931
 20
37.6550728837
 30
0.0
 40
2.005918898375087
100
AcDbArc
 50
0.0011885409
 51
41.5498787207
  0
LINE
  5
189
330
1F
100
AcDbEntity
  8
0
  6
Continuous
 62
     7
370
    15
100
AcDbLine
 10
3624.774189191
 20
37.6551144944
 30
0.0
 11
3624.4253828098
 21
37.6551144944
 31
0.0
  0
ARC
  5
18A
330
1F
100
AcDbEntity
  8
0
  6
Continuous
 62
     7
370
    15
100
AcDbCircle
 10
3622.4102883495
 20
37.6527369013
 30
0.0
 40
2.015095862917061
100
AcDbArc
 50
0.0676027787
 51
34.3024271925
  0
LINE
  5
18B
330
1F
100
AcDbEntity
  8
0
  6
Continuous
 62
     7
370
    15
100
AcDbLine
 10
3624.4253828098
 20
1.6551160441
 30
0.0
 11
3624.774189191
 21
1.6551160441
 31
0.0
  0
ARC
  5
18C
330
1F
100
AcDbEntity
  8
0
  6
Continuous
 62
     7
370
    15
100
AcDbCircle
 10
3622.7719479079
 20
1.6541290761
 30
0.0
 40
2.002241526309182
100
AcDbArc
 50
325.6688635689
 51
0.0282428971
  0
LINE
  5
18D
330
1F
100
AcDbEntity
  8
0
  6
Continuous
 62
     7
370
    15
100
AcDbLine
 10
1153.8626491
 20
-0.344888009
 30
0.0
 11
1183.2517473866
 21
-0.344888009
 31
0.0
  0
LINE
  5
18E
330
1F
100
AcDbEntity
  8
0
  6
Continuous
 62
     7
370
    15
100
AcDbLine
 10
1233.5582240392
 20
-0.344888009
 30
0.0
 11
1262.9473223258
 21
-0.344888009
 31
0.0
  0
LINE
  5
18F
330
1F
100
AcDbEntity
  8
0
  6
Continuous
 62
     7
370
    15
100
AcDbLine
 10
1313.2537915279
 20
-0.344888009
 30
0.0
 11
1342.6429047157
 21
-0.344888009
 31
0.0
  0
LINE
  5
190
330
1F
100
AcDbEntity
  8
0
  6
Continuous
 62
     7
370
    15
100
AcDbLine
 10
1392.9493739177
 20
-0.344888009
 30
0.0
 11
1422.3384871055
 21
-0.344888009
 31
0.0
  0
LINE
  5
191
330
1F
100
AcDbEntity
  8
0
  6
Continuous
 62
     7
370
    15
100
AcDbLine
 10
1472.6449563075
 20
-0.344888009
 30
0.0
 11
1502.034039693
 21
-0.344888009
 31
0.0
  0
LINE
  5
192
330
1F
100
AcDbEntity
  8
0
  6
Continuous
 62
     7
370
    15
100
AcDbLine
 10
1552.3405386974
 20
-0.344888009
 30
0.0
 11
1581.7296220828
 21
-0.344888009
 31
0.0
  0
LINE
  5
193
330
1F
100
AcDbEntity
  8
0
  6
Continuous
 62
     7
370
    15
100
AcDbLine
 10
1632.0361210872
 20
-0.344888009
 30
0.0
 11
1661.4252044727
 21
-0.344888009
 31
0.0
  0
LINE
  5
194
330
1F
100
AcDbEntity
  8
0
  6
Continuous
 62
     7
370
    15
100
AcDbLine
 10
1711.731703477
 20
-0.344888009
 30
0.0
 11
1741.1207868625
 21
-0.344888009
 31
0.0
  0
LINE
  5
195
330
1F
100
AcDbEntity
  8
0
  6
Continuous
 62
     7
370
    15
100
AcDbLine
 10
1791.4272262622
 20
-0.344888009
 30
0.0
 11
1820.8163692523
 21
-0.344888009
 31
0.0
  0
LINE
  5
196
330
1F
100
AcDbEntity
  8
0
  6
Continuous
 62
     7
370
    15
100
AcDbLine
 10
1871.1228086521
 20
-0.344888009
 30
0.0
 11
1900.5119516422
 21
-0.344888009
 31
0.0
  0
LINE
  5
197
330
1F
100
AcDbEntity
  8
0
  6
Continuous
 62
     7
370
    15
100
AcDbLine
 10
1950.8183910419
 20
-0.344888009
 30
0.0
 11
1980.2074744274
 21
-0.344888009
 31
0.0
  0
LINE
  5
198
330
1F
100
AcDbEntity
  8
0
  6
Continuous
 62
     7
370
    15
100
AcDbLine
 10
2030.5139734317
 20
-0.344888009
 30
0.0
 11
2059.9030568172
 21
-0.344888009
 31
0.0
  0
LINE
  5
199
330
1F
100
AcDbEntity
  8
0
  6
Continuous
 62
     7
370
    15
100
AcDbLine
 10
2110.2095558215
 20
-0.344888009
 30
0.0
 11
2139.5986988117
 21
-0.344888009
 31
0.0
  0
LINE
  5
19A
330
1F
100
AcDbEntity
  8
0
  6
Continuous
 62
     7
370
    15
100
AcDbLine
 10
2189.9051382114
 20
-0.344888009
 30
0.0
 11
2219.2942812015
 21
-0.344888009
 31
0.0
  0
LINE
  5
19B
330
1F
100
AcDbEntity
  8
0
  6
Continuous
 62
     7
370
    15
100
AcDbLine
 10
2269.6007206012
 20
-0.344888009
 30
0.0
 11
2298.9898635913
 21
-0.344888009
 31
0.0
  0
LINE
  5
19C
330
1F
100
AcDbEntity
  8
0
  6
Continuous
 62
     7
370
    15
100
AcDbLine
 10
2349.296302991
 20
-0.344888009
 30
0.0
 11
2378.6853267719
 21
-0.344888009
 31
0.0
  0
LINE
  5
19D
330
1F
100
AcDbEntity
  8
0
  6
Continuous
 62
     7
370
    15
100
AcDbLine
 10
2428.9918853809
 20
-0.344888009
 30
0.0
 11
2458.3809091617
 21
-0.344888009
 31
0.0
  0
LINE
  5
19E
330
1F
100
AcDbEntity
  8
0
  6
Continuous
 62
     7
370
    15
100
AcDbLine
 10
2508.6874677707
 20
-0.344888009
 30
0.0
 11
2538.0764915515
 21
-0.344888009
 31
0.0
  0
LINE
  5
19F
330
1F
100
AcDbEntity
  8
0
  6
Continuous
 62
     7
370
    15
100
AcDbLine
 10
2588.3830501605
 20
-0.344888009
 30
0.0
 11
2617.7720739414
 21
-0.344888009
 31
0.0
  0
LINE
  5
1A0
330
1F
100
AcDbEntity
  8
0
  6
Continuous
 62
     7
370
    15
100
AcDbLine
 10
2668.0786325504
 20
-0.344888009
 30
0.0
 11
2697.4676563312
 21
-0.344888009
 31
0.0
  0
LINE
  5
1A1
330
1F
100
AcDbEntity
  8
0
  6
Continuous
 62
     7
370
    15
100
AcDbLine
 10
2747.7742149402
 20
-0.344888009
 30
0.0
 11
2777.163238721
 21
-0.344888009
 31
0.0
  0
LINE
  5
1A2
330
1F
100
AcDbEntity
  8
0
  6
Continuous
 62
     7
370
    15
100
AcDbLine
 10
2827.46979733
 20
-0.344888009
 30
0.0
 11
2856.8588211109
 21
-0.344888009
 31
0.0
  0
LINE
  5
1A3
330
1F
100
AcDbEntity
  8
0
  6
Continuous
 62
     7
370
    15
100
AcDbLine
 10
2907.1652605106
 20
-0.344888009
 30
0.0
 11
2936.5544035007
 21
-0.344888009
 31
0.0
  0
LINE
  5
1A4
330
1F
100
AcDbEntity
  8
0
  6
Continuous
 62
     7
370
    15
100
AcDbLine
 10
2986.8608429004
 20
-0.344888009
 30
0.0
 11
3016.2499858905
 21
-0.344888009
 31
0.0
  0
LINE
  5
1A5
330
1F
100
AcDbEntity
  8
0
  6
Continuous
 62
     7
370
    15
100
AcDbLine
 10
3066.5564252902
 20
-0.344888009
 30
0.0
 11
3095.9455682804
 21
-0.344888009
 31
0.0
  0
LINE
  5
1A6
330
1F
100
AcDbEntity
  8
0
  6
Continuous
 62
     7
370
    15
100
AcDbLine
 10
3146.2521268894
 20
-0.344888009
 30
0.0
 11
3175.6410314609
 21
-0.344888009
 31
0.0
  0
LINE
  5
1A7
330
1F
100
AcDbEntity
  8
0
  6
Continuous
 62
     7
370
    15
100
AcDbLine
 10
3225.9475900699
 20
-0.344888009
 30
0.0
 11
3255.33673306
 21
-0.344888009
 31
0.0
  0
LINE
  5
1A8
330
1F
100
AcDbEntity
  8
0
  6
Continuous
 62
     7
370
    15
100
AcDbLine
 10
3305.643291669
 20
-0.344888009
 30
0.0
 11
3335.0321962406
 21
-0.344888009
 31
0.0
  0
LINE
  5
1A9
330
1F
100
AcDbEntity
  8
0
  6
Continuous
 62
     7
370
    15
100
AcDbLine
 10
3385.3387548496
 20
-0.344888009
 30
0.0
 11
3414.7278978397
 21
-0.344888009
 31
0.0
  0
LINE
  5
1AA
330
1F
100
AcDbEntity
  8
0
  6
Continuous
 62
     7
370
    15
100
AcDbLine
 10
3465.0344564487
 20
-0.344888009
 30
0.0
 11
3494.4233610202
 21
-0.344888009
 31
0.0
  0
LINE
  5
1AB
330
1F
100
AcDbEntity
  8
0
  6
Continuous
 62
     7
370
    15
100
AcDbLine
 10
3544.7299196292
 20
-0.344888009
 30
0.0
 11
3574.1190626193
 21
-0.344888009
 31
0.0
  0
LINE
  5
1AC
330
1F
100
AcDbEntity
  8
0
  6
Continuous
 62
     7
370
    15
100
AcDbLine
 10
1114.0148597677
 20
37.6551144944
 30
0.0
 11
1114.0148597677
 21
36.2883650885
 31
0.0
  0
ARC
  5
1AD
330
1F
100
AcDbEntity
  8
0
  6
Continuous
 62
     7
370
    15
100
AcDbCircle
 10
1116.0196994078
 20
37.6555684885
 30
0.0
 40
2.004839691550618
100
AcDbArc
 50
145.5955086744
 51
180.0129745773
  0
LINE
  5
1AE
330
1F
100
AcDbEntity
  8
0
  6
Continuous
 62
     7
370
    15
100
AcDbLine
 10
3624.4253828098
 20
1.6551160441
 30
0.0
 11
3624.4253828098
 21
37.6551144944
 31
0.0
  0
LINE
  5
1AF
330
1F
100
AcDbEntity
  8
0
  6
Continuous
 62
     7
370
    15
100
AcDbLine
 10
3624.774189191
 20
1.6551160441
 30
0.0
 11
3624.774189191
 21
37.6551144944
 31
0.0
  0
LINE
  5
1B0
330
1F
100
AcDbEntity
  8
0
  6
Continuous
 62
     7
370
    15
100
AcDbLine
 10
1029.2102447618
 20
-1280.0784266367
 30
0.0
 11
1033.2102416922
 21
-1280.0784266367
 31
0.0
  0
LINE
  5
1B1
330
1F
100
AcDbEntity
  8
0
  6
Continuous
 62
     7
370
    15
100
AcDbLine
 10
1033.2102416922
 20
-1282.0784008874
 30
0.0
 11
1029.2102447618
 21
-1282.0784008874
 31
0.0
  0
LINE
  5
1B2
330
1F
100
AcDbEntity
  8
0
  6
Continuous
 62
     7
370
    15
100
AcDbLine
 10
1033.2102416922
 20
-1280.0784266367
 30
0.0
 11
1033.2102416922
 21
-1282.0784008874
 31
0.0
  0
LINE
  5
1B3
330
1F
100
AcDbEntity
  8
0
  6
Continuous
 62
     7
370
    15
100
AcDbLine
 10
1029.2102447618
 20
-1282.0784008874
 30
0.0
 11
1029.2102447618
 21
-1280.0784266367
 31
0.0
  0
LINE
  5
1B4
330
1F
100
AcDbEntity
  8
0
  6
Continuous
 62
     7
370
    15
100
AcDbLine
 10
1033.2102416922
 20
-1244.0784132852
 30
0.0
 11
1029.2102447618
 21
-1244.0784132852
 31
0.0
  0
LINE
  5
1B5
330
1F
100
AcDbEntity
  8
0
  6
Continuous
 62
     7
370
    15
100
AcDbLine
 10
1033.2102416922
 20
-1280.0784266367
 30
0.0
 11
1033.2102416922
 21
-1278.711692132
 31
0.0
  0
LINE
  5
1B6
330
1F
100
AcDbEntity
  8
0
  6
Continuous
 62
     7
370
    15
100
AcDbLine
 10
1029.2102447618
 20
-1280.0784266367
 30
0.0
 11
1029.2102447618
 21
-1244.0784132852
 31
0.0
  0
LINE
  5
1B7
330
1F
100
AcDbEntity
  8
0
  6
Continuous
 62
     7
370
    15
100
AcDbLine
 10
1029.2102447618
 20
-1242.0784390344
 30
0.0
 11
1033.2102416922
 21
-1242.0784390344
 31
0.0
  0
LINE
  5
1B8
330
1F
100
AcDbEntity
  8
0
  6
Continuous
 62
     7
370
    15
100
AcDbLine
 10
1029.2102447618
 20
-1244.0784132852
 30
0.0
 11
1029.2102447618
 21
-1242.0784390344
 31
0.0
  0
LINE
  5
1B9
330
1F
100
AcDbEntity
  8
0
  6
Continuous
 62
     7
370
    15
100
AcDbLine
 10
1029.2102447618
 20
197.921618186
 30
0.0
 11
1033.2102416922
 21
197.921618186
 31
0.0
  0
LINE
  5
1BA
330
1F
100
AcDbEntity
  8
0
  6
Continuous
 62
     7
370
    15
100
AcDbLine
 10
1033.2102416922
 20
195.9216141329
 30
0.0
 11
1029.2102447618
 21
195.9216141329
 31
0.0
  0
LINE
  5
1BB
330
1F
100
AcDbEntity
  8
0
  6
Continuous
 62
     7
370
    15
100
AcDbLine
 10
1029.2102447618
 20
195.9216141329
 30
0.0
 11
1029.2102447618
 21
197.921618186
 31
0.0
  0
LINE
  5
1BC
330
1F
100
AcDbEntity
  8
0
  6
Continuous
 62
     7
370
    15
100
AcDbLine
 10
1029.2102447618
 20
159.9216156826
 30
0.0
 11
1033.2102416922
 21
159.9216156826
 31
0.0
  0
LINE
  5
1BD
330
1F
100
AcDbEntity
  8
0
  6
Continuous
 62
     7
370
    15
100
AcDbLine
 10
1033.2102416922
 20
157.9216153548
 30
0.0
 11
1029.2102447618
 21
157.9216153548
 31
0.0
  0
LINE
  5
1BE
330
1F
100
AcDbEntity
  8
0
  6
Continuous
 62
     7
370
    15
100
AcDbLine
 10
1029.2102447618
 20
157.9216153548
 30
0.0
 11
1029.2102447618
 21
159.9216156826
 31
0.0
  0
LINE
  5
1BF
330
1F
100
AcDbEntity
  8
0
  6
Continuous
 62
     7
370
    15
100
AcDbLine
 10
1033.2102416922
 20
159.9216156826
 30
0.0
 11
1033.2102416922
 21
157.9216153548
 31
0.0
  0
LINE
  5
1C0
330
1F
100
AcDbEntity
  8
0
  6
Continuous
 62
     7
370
    15
100
AcDbLine
 10
1029.2102447618
 20
159.9216156826
 30
0.0
 11
1029.2102447618
 21
195.9216141329
 31
0.0
  0
LINE
  5
1C1
330
1F
100
AcDbEntity
  8
0
  6
Continuous
 62
     7
370
    15
100
AcDbLine
 10
1033.2102416922
 20
159.9216156826
 30
0.0
 11
1033.2102416922
 21
161.2883650885
 31
0.0
  0
LINE
  5
1C2
330
1F
100
AcDbEntity
  8
0
  6
Continuous
 62
     7
370
    15
100
AcDbLine
 10
1033.2102416922
 20
1439.6551692114
 30
0.0
 11
1029.2102447618
 21
1439.6551692114
 31
0.0
  0
LINE
  5
1C3
330
1F
100
AcDbEntity
  8
0
  6
Continuous
 62
     7
370
    15
100
AcDbLine
 10
1029.2102447618
 20
1439.6551692114
 30
0.0
 11
1029.2102447618
 21
1441.6551434622
 31
0.0
  0
LINE
  5
1C4
330
1F
100
AcDbEntity
  8
0
  6
Continuous
 62
     7
370
    15
100
AcDbLine
 10
1029.2102447618
 20
1441.6551434622
 30
0.0
 11
1033.2102416922
 21
1441.6551434622
 31
0.0
  0
LINE
  5
1C5
330
1F
100
AcDbEntity
  8
0
  6
Continuous
 62
     7
370
    15
100
AcDbLine
 10
1029.2102447618
 20
1477.6551568137
 30
0.0
 11
1029.2102447618
 21
1441.6551434622
 31
0.0
  0
LINE
  5
1C6
330
1F
100
AcDbEntity
  8
0
  6
Continuous
 62
     7
370
    15
100
AcDbLine
 10
1033.2102416922
 20
1477.6551568137
 30
0.0
 11
1029.2102447618
 21
1477.6551568137
 31
0.0
  0
LINE
  5
1C7
330
1F
100
AcDbEntity
  8
0
  6
Continuous
 62
     7
370
    15
100
AcDbLine
 10
1033.2102416922
 20
1477.6551568137
 30
0.0
 11
1033.2102416922
 21
1476.288422309
 31
0.0
  0
LINE
  5
1C8
330
1F
100
AcDbEntity
  8
0
  6
Continuous
 62
     7
370
    15
100
AcDbLine
 10
1029.2102447618
 20
1477.6551568137
 30
0.0
 11
1029.2102447618
 21
1479.6551310645
 31
0.0
  0
LINE
  5
1C9
330
1F
100
AcDbEntity
  8
0
  6
Continuous
 62
     7
370
    15
100
AcDbLine
 10
1029.2102447618
 20
1479.6551310645
 30
0.0
 11
1033.2102416922
 21
1479.6551310645
 31
0.0
  0
LINE
  5
1CA
330
1F
100
AcDbEntity
  8
0
  6
Continuous
 62
     7
370
    15
100
AcDbLine
 10
1033.2102416922
 20
1479.6551310645
 30
0.0
 11
1033.2102416922
 21
1477.6551568137
 31
0.0
  0
LINE
  5
1CB
330
1F
100
AcDbEntity
  8
0
  6
Continuous
 62
     7
370
    15
100
AcDbLine
 10
1033.2102416922
 20
37.6551144944
 30
0.0
 11
1029.2102447618
 21
37.6551144944
 31
0.0
  0
LINE
  5
1CC
330
1F
100
AcDbEntity
  8
0
  6
Continuous
 62
     7
370
    15
100
AcDbLine
 10
1029.2102447618
 20
37.6551144944
 30
0.0
 11
1029.2102447618
 21
39.6551148222
 31
0.0
  0
LINE
  5
1CD
330
1F
100
AcDbEntity
  8
0
  6
Continuous
 62
     7
370
    15
100
AcDbLine
 10
1029.2102447618
 20
39.6551148222
 30
0.0
 11
1033.2102416922
 21
39.6551148222
 31
0.0
  0
LINE
  5
1CE
330
1F
100
AcDbEntity
  8
0
  6
Continuous
 62
     7
370
    15
100
AcDbLine
 10
1033.2102416922
 20
39.6551148222
 30
0.0
 11
1033.2102416922
 21
37.6551144944
 31
0.0
  0
LINE
  5
1CF
330
1F
100
AcDbEntity
  8
0
  6
Continuous
 62
     7
370
    15
100
AcDbLine
 10
1033.2102416922
 20
-0.344888009
 30
0.0
 11
1029.2102447618
 21
-0.344888009
 31
0.0
  0
LINE
  5
1D0
330
1F
100
AcDbEntity
  8
0
  6
Continuous
 62
     7
370
    15
100
AcDbLine
 10
1029.2102447618
 20
-0.344888009
 30
0.0
 11
1029.2102447618
 21
1.6551160441
 31
0.0
  0
LINE
  5
1D1
330
1F
100
AcDbEntity
  8
0
  6
Continuous
 62
     7
370
    15
100
AcDbLine
 10
1029.2102447618
 20
1.6551160441
 30
0.0
 11
1033.2102416922
 21
1.6551160441
 31
0.0
  0
LINE
  5
1D2
330
1F
100
AcDbEntity
  8
0
  6
Continuous
 62
     7
370
    15
100
AcDbLine
 10
1029.2102447618
 20
37.6551144944
 30
0.0
 11
1029.2102447618
 21
1.6551160441
 31
0.0
  0
LINE
  5
1D3
330
1F
100
AcDbEntity
  8
0
  6
Continuous
 62
     7
370
    15
100
AcDbLine
 10
1033.2102416922
 20
37.6551144944
 30
0.0
 11
1033.2102416922
 21
36.2883650885
 31
0.0
  0
LINE
  5
1D4
330
1F
100
AcDbEntity
  8
0
  6
Continuous
 62
     7
370
    15
100
AcDbLine
 10
1029.2102447618
 20
1534.7883545981
 30
0.0
 11
1029.2102447618
 21
1486.2884127722
 31
0.0
  0
LINE
  5
1D5
330
1F
100
AcDbEntity
  8
0
  6
Continuous
 62
     7
370
    15
100
AcDbLine
 10
1029.2102447618
 20
1534.7883545981
 30
0.0
 11
1033.7744629849
 21
1534.7883545981
 31
0.0
  0
ARC
  5
1D6
330
1F
100
AcDbEntity
  8
0
  6
Continuous
 62
     7
370
    15
100
AcDbCircle
 10
1036.7102434207
 20
1486.2883650885
 30
0.0
 40
7.500000000000227
100
AcDbArc
 50
180.0
 51
270.0
  0
LINE
  5
1D7
330
1F
100
AcDbEntity
  8
0
  6
Continuous
 62
     7
370
    15
100
AcDbLine
 10
1029.2102447618
 20
1591.2883126364
 30
0.0
 11
1029.2102447618
 21
1542.7883708105
 31
0.0
  0
LINE
  5
1D8
330
1F
100
AcDbEntity
  8
0
  6
Continuous
 62
     7
370
    15
100
AcDbLine
 10
1029.2102447618
 20
1542.7883708105
 30
0.0
 11
1033.7744629849
 21
1542.7883708105
 31
0.0
  0
ARC
  5
1D9
330
1F
100
AcDbEntity
  8
0
  6
Continuous
 62
     7
370
    15
100
AcDbCircle
 10
1036.7102434207
 20
1591.2883650885
 30
0.0
 40
7.5
100
AcDbArc
 50
90.0
 51
180.0
  0
LINE
  5
1DA
330
1F
100
AcDbEntity
  8
0
  6
Continuous
 62
     7
370
    15
100
AcDbLine
 10
1149.2102420796
 20
1542.7883708105
 30
0.0
 11
1149.2102420796
 21
1541.7883240805
 31
0.0
  0
LINE
  5
1DB
330
1F
100
AcDbEntity
  8
0
  6
Continuous
 62
     7
370
    15
100
AcDbLine
 10
1149.2102420796
 20
1535.7884013281
 30
0.0
 11
1149.2102420796
 21
1534.7883545981
 31
0.0
  0
LINE
  5
1DC
330
1F
100
AcDbEntity
  8
0
  6
Continuous
 62
     7
370
    15
100
AcDbLine
 10
1144.2102431227
 20
1542.7883708105
 30
0.0
 11
1144.2102431227
 21
1541.7883240805
 31
0.0
  0
LINE
  5
1DD
330
1F
100
AcDbEntity
  8
0
  6
Continuous
 62
     7
370
    15
100
AcDbLine
 10
1144.2102431227
 20
1535.7884013281
 30
0.0
 11
1144.2102431227
 21
1534.7883545981
 31
0.0
  0
LINE
  5
1DE
330
1F
100
AcDbEntity
  8
0
  6
Continuous
 62
     7
370
    15
100
AcDbLine
 10
1029.2102447618
 20
1534.7883545981
 30
0.0
 11
1029.2102447618
 21
1535.7884013281
 31
0.0
  0
LINE
  5
1DF
330
1F
100
AcDbEntity
  8
0
  6
Continuous
 62
     7
370
    15
100
AcDbLine
 10
1029.2102447618
 20
1541.7883240805
 30
0.0
 11
1029.2102447618
 21
1542.7883708105
 31
0.0
  0
LINE
  5
1E0
330
1F
100
AcDbEntity
  8
0
  6
Continuous
 62
     7
370
    15
100
AcDbLine
 10
1034.2102437188
 20
1534.7883545981
 30
0.0
 11
1034.2102437188
 21
1535.7884013281
 31
0.0
  0
LINE
  5
1E1
330
1F
100
AcDbEntity
  8
0
  6
Continuous
 62
     7
370
    15
100
AcDbLine
 10
1034.2102437188
 20
1541.7883240805
 30
0.0
 11
1034.2102437188
 21
1542.7883708105
 31
0.0
  0
LINE
  5
1E2
330
1F
100
AcDbEntity
  8
0
  6
Continuous
 62
     7
370
    15
100
AcDbLine
 10
1029.2102447618
 20
-1337.2116244211
 30
0.0
 11
1033.7744629849
 21
-1337.2116244211
 31
0.0
  0
LINE
  5
1E3
330
1F
100
AcDbEntity
  8
0
  6
Continuous
 62
     7
370
    15
100
AcDbLine
 10
1029.2102447618
 20
-1288.7116825952
 30
0.0
 11
1029.2102447618
 21
-1337.2116244211
 31
0.0
  0
LINE
  5
1E4
330
1F
100
AcDbEntity
  8
0
  6
Continuous
 62
     7
370
    15
100
AcDbLine
 10
1029.2102447618
 20
-1345.2116406335
 30
0.0
 11
1029.2102447618
 21
-1393.7115824594
 31
0.0
  0
LINE
  5
1E5
330
1F
100
AcDbEntity
  8
0
  6
Continuous
 62
     7
370
    15
100
AcDbLine
 10
1029.2102447618
 20
-1345.2116406335
 30
0.0
 11
1033.7744629849
 21
-1345.2116406335
 31
0.0
  0
ARC
  5
1E6
330
1F
100
AcDbEntity
  8
0
  6
Continuous
 62
     7
370
    15
100
AcDbCircle
 10
1036.7102434207
 20
-1288.7116349115
 30
0.0
 40
7.5
100
AcDbArc
 50
90.0
 51
180.0
  0
ARC
  5
1E7
330
1F
100
AcDbEntity
  8
0
  6
Continuous
 62
     7
370
    15
100
AcDbCircle
 10
1036.7102434207
 20
-1393.7116349115
 30
0.0
 40
7.500000000000227
100
AcDbArc
 50
180.0
 51
270.0
  0
LINE
  5
1E8
330
1F
100
AcDbEntity
  8
0
  6
Continuous
 62
     7
370
    15
100
AcDbLine
 10
1149.2102420796
 20
-1337.2116244211
 30
0.0
 11
1149.2102420796
 21
-1338.2116711511
 31
0.0
  0
LINE
  5
1E9
330
1F
100
AcDbEntity
  8
0
  6
Continuous
 62
     7
370
    15
100
AcDbLine
 10
1149.2102420796
 20
-1344.2115939035
 30
0.0
 11
1149.2102420796
 21
-1345.2116406335
 31
0.0
  0
LINE
  5
1EA
330
1F
100
AcDbEntity
  8
0
  6
Continuous
 62
     7
370
    15
100
AcDbLine
 10
1144.2102431227
 20
-1337.2116244211
 30
0.0
 11
1144.2102431227
 21
-1338.2116711511
 31
0.0
  0
LINE
  5
1EB
330
1F
100
AcDbEntity
  8
0
  6
Continuous
 62
     7
370
    15
100
AcDbLine
 10
1144.2102431227
 20
-1344.2115939035
 30
0.0
 11
1144.2102431227
 21
-1345.2116406335
 31
0.0
  0
LINE
  5
1EC
330
1F
100
AcDbEntity
  8
0
  6
Continuous
 62
     7
370
    15
100
AcDbLine
 10
1029.2102447618
 20
-1345.2116406335
 30
0.0
 11
1029.2102447618
 21
-1344.2115939035
 31
0.0
  0
LINE
  5
1ED
330
1F
100
AcDbEntity
  8
0
  6
Continuous
 62
     7
370
    15
100
AcDbLine
 10
1029.2102447618
 20
-1338.2116711511
 30
0.0
 11
1029.2102447618
 21
-1337.2116244211
 31
0.0
  0
LINE
  5
1EE
330
1F
100
AcDbEntity
  8
0
  6
Continuous
 62
     7
370
    15
100
AcDbLine
 10
1034.2102437188
 20
-1345.2116406335
 30
0.0
 11
1034.2102437188
 21
-1344.2115939035
 31
0.0
  0
LINE
  5
1EF
330
1F
100
AcDbEntity
  8
0
  6
Continuous
 62
     7
370
    15
100
AcDbLine
 10
1034.2102437188
 20
-1338.2116711511
 30
0.0
 11
1034.2102437188
 21
-1337.2116244211
 31
0.0
  0
LINE
  5
1F0
330
1F
100
AcDbEntity
  8
0
  6
Continuous
 62
     7
370
    15
100
AcDbLine
 10
1029.2102447618
 20
94.7883648985
 30
0.0
 11
1029.2102447618
 21
46.2883667276
 31
0.0
  0
LINE
  5
1F1
330
1F
100
AcDbEntity
  8
0
  6
Continuous
 62
     7
370
    15
100
AcDbLine
 10
1029.2102447618
 20
94.7883648985
 30
0.0
 11
1033.7744629849
 21
94.7883648985
 31
0.0
  0
ARC
  5
1F2
330
1F
100
AcDbEntity
  8
0
  6
Continuous
 62
     7
370
    15
100
AcDbCircle
 10
1036.7102434207
 20
46.2883650885
 30
0.0
 40
7.500000000000227
100
AcDbArc
 50
180.0
 51
270.0
  0
ARC
  5
1F3
330
1F
100
AcDbEntity
  8
0
  6
Continuous
 62
     7
370
    15
100
AcDbCircle
 10
1036.7102434207
 20
151.2883650885
 30
0.0
 40
7.5
100
AcDbArc
 50
90.0
 51
180.0
  0
LINE
  5
1F4
330
1F
100
AcDbEntity
  8
0
  6
Continuous
 62
     7
370
    15
100
AcDbLine
 10
1029.2102447618
 20
151.2883634494
 30
0.0
 11
1029.2102447618
 21
102.7883652785
 31
0.0
  0
LINE
  5
1F5
330
1F
100
AcDbEntity
  8
0
  6
Continuous
 62
     7
370
    15
100
AcDbLine
 10
1029.2102447618
 20
102.7883652785
 30
0.0
 11
1033.7744629849
 21
102.7883652785
 31
0.0
  0
LINE
  5
1F6
330
1F
100
AcDbEntity
  8
0
  6
Continuous
 62
     7
370
    15
100
AcDbLine
 10
1144.2102431227
 20
102.7883652785
 30
0.0
 11
1144.2102431227
 21
101.7883651146
 31
0.0
  0
LINE
  5
1F7
330
1F
100
AcDbEntity
  8
0
  6
Continuous
 62
     7
370
    15
100
AcDbLine
 10
1144.2102431227
 20
95.7883650624
 30
0.0
 11
1144.2102431227
 21
94.7883648985
 31
0.0
  0
LINE
  5
1F8
330
1F
100
AcDbEntity
  8
0
  6
Continuous
 62
     7
370
    15
100
AcDbLine
 10
1149.2102420796
 20
102.7883652785
 30
0.0
 11
1149.2102420796
 21
101.7883651146
 31
0.0
  0
LINE
  5
1F9
330
1F
100
AcDbEntity
  8
0
  6
Continuous
 62
     7
370
    15
100
AcDbLine
 10
1149.2102420796
 20
95.7883650624
 30
0.0
 11
1149.2102420796
 21
94.7883648985
 31
0.0
  0
LINE
  5
1FA
330
1F
100
AcDbEntity
  8
0
  6
Continuous
 62
     7
370
    15
100
AcDbLine
 10
1029.2102447618
 20
94.7883648985
 30
0.0
 11
1029.2102447618
 21
95.7883650624
 31
0.0
  0
LINE
  5
1FB
330
1F
100
AcDbEntity
  8
0
  6
Continuous
 62
     7
370
    15
100
AcDbLine
 10
1029.2102447618
 20
101.7883651146
 30
0.0
 11
1029.2102447618
 21
102.7883652785
 31
0.0
  0
LINE
  5
1FC
330
1F
100
AcDbEntity
  8
0
  6
Continuous
 62
     7
370
    15
100
AcDbLine
 10
1034.2102437188
 20
94.7883648985
 30
0.0
 11
1034.2102437188
 21
95.7883650624
 31
0.0
  0
LINE
  5
1FD
330
1F
100
AcDbEntity
  8
0
  6
Continuous
 62
     7
370
    15
100
AcDbLine
 10
1034.2102437188
 20
101.7883651146
 30
0.0
 11
1034.2102437188
 21
102.7883652785
 31
0.0
  0
ELLIPSE
  5
1FE
330
1F
100
AcDbEntity
  8
0
  6
Continuous
 62
     7
370
    15
100
AcDbEllipse
 10
1036.7102434207
 20
151.2883650885
 30
0.0
 11
0.0
 21
7.500000000000114
 31
0.0
210
0.0
220
0.0
230
1.0
 40
0.3914371618
 41
0.0
 42
1.570796326794897
  0
LINE
  5
1FF
330
1F
100
AcDbEntity
  8
0
  6
Continuous
 62
     7
370
    15
100
AcDbLine
 10
1036.7102450599
 20
158.7883637474
 30
0.0
 11
3614.9689867069
 21
158.7883637474
 31
0.0
  0
LWPOLYLINE
  5
200
330
1F
100
AcDbEntity
  8
0
  6
Continuous
 62
     7
370
    15
100
AcDbPolyline
 90
        9
 70
   128
 43
0.0
 10
3614.3154813815
 20
151.2883634494
 10
3614.3278791477
 20
152.7515419946
 10
3614.365072446
 20
154.1584910081
 10
3614.4256307651
 20
155.4551416264
 10
3614.5069315006
 20
156.5916643665
 10
3614.6058752109
 20
157.5243876503
 10
3614.7188856174
 20
158.2174630092
 10
3614.8416711856
 20
158.6442546175
 10
3614.9689867069
 20
158.7883637474
  0
LINE
  5
201
330
1F
100
AcDbEntity
  8
0
  6
Continuous
 62
     7
370
    15
100
AcDbLine
 10
1033.7744629849
 20
151.2883634494
 30
0.0
 11
3614.3154813815
 21
151.2883634494
 31
0.0
  0
ELLIPSE
  5
202
330
1F
100
AcDbEntity
  8
0
  6
Continuous
 62
     7
370
    15
100
AcDbEllipse
 10
1036.7102434207
 20
46.2883650885
 30
0.0
 11
0.0
 21
7.500000000000148
 31
0.0
210
0.0
220
0.0
230
1.0
 40
0.3914371618
 41
1.570796326794905
 42
3.141592653589793
  0
LINE
  5
203
330
1F
100
AcDbEntity
  8
0
  6
Continuous
 62
     7
370
    15
100
AcDbLine
 10
1033.7744629849
 20
46.2883667276
 30
0.0
 11
3614.3154813815
 21
46.2883667276
 31
0.0
  0
LWPOLYLINE
  5
204
330
1F
100
AcDbEntity
  8
0
  6
Continuous
 62
     7
370
    15
100
AcDbPolyline
 90
        9
 70
   128
 43
0.0
 10
3614.9689867069
 20
38.7883664296
 10
3614.8416711856
 20
38.9324755595
 10
3614.7188856174
 20
39.3592671678
 10
3614.6058752109
 20
40.0523425267
 10
3614.5069315006
 20
40.9850658105
 10
3614.4256307651
 20
42.1215885506
 10
3614.365072446
 20
43.4182391689
 10
3614.3278791477
 20
44.8251881824
 10
3614.3154813815
 20
46.2883667276
  0
LINE
  5
205
330
1F
100
AcDbEntity
  8
0
  6
Continuous
 62
     7
370
    15
100
AcDbLine
 10
1036.7102450599
 20
38.7883664296
 30
0.0
 11
3614.9689867069
 21
38.7883664296
 31
0.0
  0
LINE
  5
206
330
1F
100
AcDbEntity
  8
0
  6
Continuous
 62
     7
370
    15
100
AcDbLine
 10
1033.7744629849
 20
151.2883634494
 30
0.0
 11
1033.7744629849
 21
102.7883652785
 31
0.0
  0
LINE
  5
207
330
1F
100
AcDbEntity
  8
0
  6
Continuous
 62
     7
370
    15
100
AcDbLine
 10
3614.3154813815
 20
46.2883667276
 30
0.0
 11
3614.3154813815
 21
151.2883634494
 31
0.0
  0
LINE
  5
208
330
1F
100
AcDbEntity
  8
0
  6
Continuous
 62
     7
370
    15
100
AcDbLine
 10
1033.7744629849
 20
94.7883648985
 30
0.0
 11
1033.7744629849
 21
46.2883667276
 31
0.0
  0
LINE
  5
209
330
1F
100
AcDbEntity
  8
0
  6
Continuous
 62
     7
370
    15
100
AcDbLine
 10
1033.7744629849
 20
94.7883648985
 30
0.0
 11
1325.9135796596
 21
94.7883648985
 31
0.0
  0
LINE
  5
20A
330
1F
100
AcDbEntity
  8
0
  6
Continuous
 62
     7
370
    15
100
AcDbLine
 10
1325.9135796596
 20
94.7883648985
 30
0.0
 11
1325.9135796596
 21
102.7883652785
 31
0.0
  0
LINE
  5
20B
330
1F
100
AcDbEntity
  8
0
  6
Continuous
 62
     7
370
    15
100
AcDbLine
 10
1033.7744629849
 20
102.7883652785
 30
0.0
 11
1325.9135796596
 21
102.7883652785
 31
0.0
  0
ARC
  5
20C
330
1F
100
AcDbEntity
  8
0
  6
Continuous
 62
     7
370
    15
100
AcDbCircle
 10
3619.0107085923
 20
41.0819101355
 30
0.0
 40
5.600870776565261
100
AcDbArc
 50
335.826714938
 51
2.1124604639
  0
LINE
  5
20D
330
1F
100
AcDbEntity
  8
0
  6
Continuous
 62
     7
370
    15
100
AcDbLine
 10
3624.1204454471
 20
38.7883664296
 30
0.0
 11
3614.9689867069
 21
38.7883664296
 31
0.0
  0
LINE
  5
20E
330
1F
100
AcDbEntity
  8
0
  6
Continuous
 62
     7
370
    15
100
AcDbLine
 10
3614.9689867069
 20
158.7883637474
 30
0.0
 11
3624.1204454471
 21
158.7883637474
 31
0.0
  0
ARC
  5
20F
330
1F
100
AcDbEntity
  8
0
  6
Continuous
 62
     7
370
    15
100
AcDbCircle
 10
3618.1090529118
 20
156.3190592032
 30
0.0
 40
6.498792591319053
100
AcDbArc
 50
359.7293974263
 51
22.3314271719
  0
ELLIPSE
  5
210
330
1F
100
AcDbEntity
  8
0
  6
Continuous
 62
     7
370
    15
100
AcDbEllipse
 10
1036.7102434207
 20
-1393.7116349115
 30
0.0
 11
0.0
 21
7.500000000000226
 31
0.0
210
0.0
220
0.0
230
1.0
 40
0.3914371618
 41
1.570796326794897
 42
3.141592653589793
  0
LINE
  5
211
330
1F
100
AcDbEntity
  8
0
  6
Continuous
 62
     7
370
    15
100
AcDbLine
 10
1033.7744629849
 20
-1393.7115824594
 30
0.0
 11
3614.3154813815
 21
-1393.7115824594
 31
0.0
  0
LWPOLYLINE
  5
212
330
1F
100
AcDbEntity
  8
0
  6
Continuous
 62
     7
370
    15
100
AcDbPolyline
 90
        9
 70
   128
 43
0.0
 10
3614.9689867069
 20
-1401.2116349115
 10
3614.8416711856
 20
-1401.0675108804
 10
3614.7188856174
 20
-1400.6407416238
 10
3614.6058752109
 20
-1399.9476588144
 10
3614.5069315006
 20
-1399.0149653329
 10
3614.4256307651
 20
-1397.8784239664
 10
3614.365072446
 20
-1396.5817845239
 10
3614.3278791477
 20
-1395.1747572794
 10
3614.3154813815
 20
-1393.7115824594
  0
LINE
  5
213
330
1F
100
AcDbEntity
  8
0
  6
Continuous
 62
     7
370
    15
100
AcDbLine
 10
1036.7102450599
 20
-1401.2116349115
 30
0.0
 11
3614.9689867069
 21
-1401.2116349115
 31
0.0
  0
ARC
  5
214
330
1F
100
AcDbEntity
  8
0
  6
Continuous
 62
     7
370
    15
100
AcDbCircle
 10
3619.0112779179
 20
-1398.9181972595
 30
0.0
 40
5.600307947311634
100
AcDbArc
 50
335.8253196228
 51
2.1143688388
  0
LINE
  5
215
330
1F
100
AcDbEntity
  8
0
  6
Continuous
 62
     7
370
    15
100
AcDbLine
 10
3624.1204454471
 20
-1401.2116349115
 30
0.0
 11
3614.9689867069
 21
-1401.2116349115
 31
0.0
  0
LINE
  5
216
330
1F
100
AcDbEntity
  8
0
  6
Continuous
 62
     7
370
    15
100
AcDbLine
 10
3614.3154813815
 20
-1393.7115824594
 30
0.0
 11
3614.3154813815
 21
-1288.7116825952
 31
0.0
  0
LWPOLYLINE
  5
217
330
1F
100
AcDbEntity
  8
0
  6
Continuous
 62
     7
370
    15
100
AcDbPolyline
 90
        9
 70
   128
 43
0.0
 10
3614.3154813815
 20
-1288.7116825952
 10
3614.3278791477
 20
-1287.2485077753
 10
3614.365072446
 20
-1285.8414805307
 10
3614.4256307651
 20
-1284.5448410883
 10
3614.5069315006
 20
-1283.4082997217
 10
3614.6058752109
 20
-1282.4756062402
 10
3614.7188856174
 20
-1281.7825234308
 10
3614.8416711856
 20
-1281.3557541742
 10
3614.9689867069
 20
-1281.2116301431
  0
LINE
  5
218
330
1F
100
AcDbEntity
  8
0
  6
Continuous
 62
     7
370
    15
100
AcDbLine
 10
3614.9689867069
 20
-1281.2116301431
 30
0.0
 11
3624.1204454471
 21
-1281.2116301431
 31
0.0
  0
ARC
  5
219
330
1F
100
AcDbEntity
  8
0
  6
Continuous
 62
     7
370
    15
100
AcDbCircle
 10
3618.1096176614
 20
-1283.6808253351
 30
0.0
 40
6.498228648333811
100
AcDbArc
 50
359.7278842095
 51
22.3324273289
  0
ELLIPSE
  5
21A
330
1F
100
AcDbEntity
  8
0
  6
Continuous
 62
     7
370
    15
100
AcDbEllipse
 10
1036.7102434207
 20
-1288.7116349115
 30
0.0
 11
0.0
 21
7.5
 31
0.0
210
0.0
220
0.0
230
1.0
 40
0.3914371618
 41
0.0
 42
1.570796326794897
  0
LINE
  5
21B
330
1F
100
AcDbEntity
  8
0
  6
Continuous
 62
     7
370
    15
100
AcDbLine
 10
1036.7102450599
 20
-1281.2116301431
 30
0.0
 11
3614.9689867069
 21
-1281.2116301431
 31
0.0
  0
LINE
  5
21C
330
1F
100
AcDbEntity
  8
0
  6
Continuous
 62
     7
370
    15
100
AcDbLine
 10
1033.7744629849
 20
-1288.7116825952
 30
0.0
 11
3614.3154813815
 21
-1288.7116825952
 31
0.0
  0
LINE
  5
21D
330
1F
100
AcDbEntity
  8
0
  6
Continuous
 62
     7
370
    15
100
AcDbLine
 10
1033.7744629849
 20
-1288.7116825952
 30
0.0
 11
1033.7744629849
 21
-1337.2116244211
 31
0.0
  0
LINE
  5
21E
330
1F
100
AcDbEntity
  8
0
  6
Continuous
 62
     7
370
    15
100
AcDbLine
 10
1033.7744629849
 20
-1345.2116406335
 30
0.0
 11
1033.7744629849
 21
-1393.7115824594
 31
0.0
  0
LINE
  5
21F
330
1F
100
AcDbEntity
  8
0
  6
Continuous
 62
     7
370
    15
100
AcDbLine
 10
1033.7744629849
 20
-1345.2116406335
 30
0.0
 11
1325.9135796596
 21
-1345.2116406335
 31
0.0
  0
LINE
  5
220
330
1F
100
AcDbEntity
  8
0
  6
Continuous
 62
     7
370
    15
100
AcDbLine
 10
1325.9135796596
 20
-1345.2116406335
 30
0.0
 11
1325.9135796596
 21
-1337.2116244211
 31
0.0
  0
LINE
  5
221
330
1F
100
AcDbEntity
  8
0
  6
Continuous
 62
     7
370
    15
100
AcDbLine
 10
1033.7744629849
 20
-1337.2116244211
 30
0.0
 11
1325.9135796596
 21
-1337.2116244211
 31
0.0
  0
ARC
  5
222
330
1F
100
AcDbEntity
  8
0
  6
Continuous
 62
     7
370
    15
100
AcDbCircle
 10
3619.0112779179
 20
1481.0817979721
 30
0.0
 40
5.600307947311634
100
AcDbArc
 50
335.8253196228
 51
2.1143688388
  0
LINE
  5
223
330
1F
100
AcDbEntity
  8
0
  6
Continuous
 62
     7
370
    15
100
AcDbLine
 10
3624.1204454471
 20
1478.7883603201
 30
0.0
 11
3614.9689867069
 21
1478.7883603201
 31
0.0
  0
LWPOLYLINE
  5
224
330
1F
100
AcDbEntity
  8
0
  6
Continuous
 62
     7
370
    15
100
AcDbPolyline
 90
        9
 70
   128
 43
0.0
 10
3614.9689867069
 20
1478.7883603201
 10
3614.8416711856
 20
1478.9324843512
 10
3614.7188856174
 20
1479.3592536078
 10
3614.6058752109
 20
1480.0523364172
 10
3614.5069315006
 20
1480.9850298987
 10
3614.4256307651
 20
1482.1215712653
 10
3614.365072446
 20
1483.4182107077
 10
3614.3278791477
 20
1484.8252379523
 10
3614.3154813815
 20
1486.2884127722
  0
LINE
  5
225
330
1F
100
AcDbEntity
  8
0
  6
Continuous
 62
     7
370
    15
100
AcDbLine
 10
3614.3154813815
 20
1486.2884127722
 30
0.0
 11
3614.3154813815
 21
1591.2883126364
 31
0.0
  0
LWPOLYLINE
  5
226
330
1F
100
AcDbEntity
  8
0
  6
Continuous
 62
     7
370
    15
100
AcDbPolyline
 90
        9
 70
   128
 43
0.0
 10
3614.3154813815
 20
1591.2883126364
 10
3614.3278791477
 20
1592.7514874564
 10
3614.365072446
 20
1594.1585147009
 10
3614.4256307651
 20
1595.4551541434
 10
3614.5069315006
 20
1596.59169551
 10
3614.6058752109
 20
1597.5243889914
 10
3614.7188856174
 20
1598.2174718008
 10
3614.8416711856
 20
1598.6442410574
 10
3614.9689867069
 20
1598.7883650885
  0
LINE
  5
227
330
1F
100
AcDbEntity
  8
0
  6
Continuous
 62
     7
370
    15
100
AcDbLine
 10
3614.9689867069
 20
1598.7883650885
 30
0.0
 11
3624.1204454471
 21
1598.7883650885
 31
0.0
  0
ARC
  5
228
330
1F
100
AcDbEntity
  8
0
  6
Continuous
 62
     7
370
    15
100
AcDbCircle
 10
3618.1096176614
 20
1596.3191698965
 30
0.0
 40
6.498228648333812
100
AcDbArc
 50
359.7278842095
 51
22.3324273289
  0
ELLIPSE
  5
229
330
1F
100
AcDbEntity
  8
0
  6
Continuous
 62
     7
370
    15
100
AcDbEllipse
 10
1036.7102434207
 20
1486.2883650885
 30
0.0
 11
0.0
 21
7.5
 31
0.0
210
0.0
220
0.0
230
1.0
 40
0.3914371618
 41
1.570796326794897
 42
3.141592653589793
  0
LINE
  5
22A
330
1F
100
AcDbEntity
  8
0
  6
Continuous
 62
     7
370
    15
100
AcDbLine
 10
1033.7744629849
 20
1486.2884127722
 30
0.0
 11
3614.3154813815
 21
1486.2884127722
 31
0.0
  0
LINE
  5
22B
330
1F
100
AcDbEntity
  8
0
  6
Continuous
 62
     7
370
    15
100
AcDbLine
 10
1036.7102450599
 20
1478.7883603201
 30
0.0
 11
3614.9689867069
 21
1478.7883603201
 31
0.0
  0
ELLIPSE
  5
22C
330
1F
100
AcDbEntity
  8
0
  6
Continuous
 62
     7
370
    15
100
AcDbEllipse
 10
1036.7102434207
 20
1591.2883650885
 30
0.0
 11
0.0
 21
7.5
 31
0.0
210
0.0
220
0.0
230
1.0
 40
0.3914371618
 41
0.0
 42
1.570796326794897
  0
LINE
  5
22D
330
1F
100
AcDbEntity
  8
0
  6
Continuous
 62
     7
370
    15
100
AcDbLine
 10
1036.7102450599
 20
1598.7883650885
 30
0.0
 11
3614.9689867069
 21
1598.7883650885
 31
0.0
  0
LINE
  5
22E
330
1F
100
AcDbEntity
  8
0
  6
Continuous
 62
     7
370
    15
100
AcDbLine
 10
1033.7744629849
 20
1591.2883126364
 30
0.0
 11
3614.3154813815
 21
1591.2883126364
 31
0.0
  0
LINE
  5
22F
330
1F
100
AcDbEntity
  8
0
  6
Continuous
 62
     7
370
    15
100
AcDbLine
 10
1033.7744629849
 20
1591.2883126364
 30
0.0
 11
1033.7744629849
 21
1542.7883708105
 31
0.0
  0
LINE
  5
230
330
1F
100
AcDbEntity
  8
0
  6
Continuous
 62
     7
370
    15
100
AcDbLine
 10
1033.7744629849
 20
1534.7883545981
 30
0.0
 11
1033.7744629849
 21
1486.2884127722
 31
0.0
  0
LINE
  5
231
330
1F
100
AcDbEntity
  8
0
  6
Continuous
 62
     7
370
    15
100
AcDbLine
 10
1033.7744629849
 20
1534.7883545981
 30
0.0
 11
1325.9135796596
 21
1534.7883545981
 31
0.0
  0
LINE
  5
232
330
1F
100
AcDbEntity
  8
0
  6
Continuous
 62
     7
370
    15
100
AcDbLine
 10
1325.9135796596
 20
1534.7883545981
 30
0.0
 11
1325.9135796596
 21
1542.7883708105
 31
0.0
  0
LINE
  5
233
330
1F
100
AcDbEntity
  8
0
  6
Continuous
 62
     7
370
    15
100
AcDbLine
 10
1033.7744629849
 20
1542.7883708105
 30
0.0
 11
1325.9135796596
 21
1542.7883708105
 31
0.0
  0
ARC
  5
234
330
1F
100
AcDbEntity
  8
0
  6
Continuous
 62
     7
370
    15
100
AcDbCircle
 10
1141.7102434207
 20
1591.2883650885
 30
0.0
 40
8.499999999999906
100
AcDbArc
 50
61.9275130641
 51
90.0
  0
ARC
  5
235
330
1F
100
AcDbEntity
  8
0
  6
Continuous
 62
     7
370
    15
100
AcDbCircle
 10
1036.7102434207
 20
1591.2883650885
 30
0.0
 40
8.5
100
AcDbArc
 50
90.0
 51
180.0
  0
ARC
  5
236
330
1F
100
AcDbEntity
  8
0
  6
Continuous
 62
     7
370
    15
100
AcDbCircle
 10
1036.7102434207
 20
1486.2883650885
 30
0.0
 40
8.500000000000075
100
AcDbArc
 50
180.0
 51
231.2955920984
  0
ARC
  5
237
330
1F
100
AcDbEntity
  8
0
  6
Continuous
 62
     7
370
    15
100
AcDbCircle
 10
1036.7102434207
 20
1486.2883650885
 30
0.0
 40
8.5
100
AcDbArc
 50
245.6842608288
 51
270.0
  0
LINE
  5
238
330
1F
100
AcDbEntity
  8
0
  6
Continuous
 62
     7
370
    15
100
AcDbLine
 10
1036.7102450599
 20
1477.7883135901
 30
0.0
 11
1114.0192854126
 21
1477.7883135901
 31
0.0
  0
LINE
  5
239
330
1F
100
AcDbEntity
  8
0
  6
Continuous
 62
     7
370
    15
100
AcDbLine
 10
1150.2102441062
 20
1534.7883545981
 30
0.0
 11
1150.2102441062
 21
1535.7884013281
 31
0.0
  0
LINE
  5
23A
330
1F
100
AcDbEntity
  8
0
  6
Continuous
 62
     7
370
    15
100
AcDbLine
 10
1150.2102441062
 20
1541.7883240805
 30
0.0
 11
1150.2102441062
 21
1542.7883708105
 31
0.0
  0
ARC
  5
23B
330
1F
100
AcDbEntity
  8
0
  6
Continuous
 62
     7
370
    15
100
AcDbCircle
 10
1184.2102434207
 20
1443.7883650885
 30
0.0
 40
9.000000000000092
100
AcDbArc
 50
207.3387189515
 51
263.8864196921
  0
CIRCLE
  5
23C
330
1F
100
AcDbEntity
  8
0
  6
Continuous
 62
     7
370
    15
100
AcDbCircle
 10
994.2102434207
 20
1633.7883650885
 30
0.0
 40
9.0
  0
LINE
  5
23D
330
1F
100
AcDbEntity
  8
0
  6
Continuous
 62
     7
370
    15
100
AcDbLine
 10
989.2102419306
 20
1418.7884175406
 30
0.0
 11
1033.2102416922
 21
1418.7884175406
 31
0.0
  0
LINE
  5
23E
330
1F
100
AcDbEntity
  8
0
  6
Continuous
 62
     7
370
    15
100
AcDbLine
 10
1073.2102426608
 20
1418.7884175406
 30
0.0
 11
1103.5561696534
 21
1418.7884175406
 31
0.0
  0
ARC
  5
23F
330
1F
100
AcDbEntity
  8
0
  6
Continuous
 62
     7
370
    15
100
AcDbCircle
 10
989.2102434207
 20
1438.7883650885
 30
0.0
 40
20.0
100
AcDbArc
 50
180.0
 51
270.0
  0
LINE
  5
240
330
1F
100
AcDbEntity
  8
0
  6
Continuous
 62
     7
370
    15
100
AcDbLine
 10
969.2102461029
 20
1638.7883269415
 30
0.0
 11
969.2102461029
 21
1438.7883984671
 31
0.0
  0
ARC
  5
241
330
1F
100
AcDbEntity
  8
0
  6
Continuous
 62
     7
370
    15
100
AcDbCircle
 10
989.2102434207
 20
1638.7883650885
 30
0.0
 40
20.0
100
AcDbArc
 50
90.0
 51
180.0
  0
LINE
  5
242
330
1F
100
AcDbEntity
  8
0
  6
Continuous
 62
     7
370
    15
100
AcDbLine
 10
1189.2102449108
 20
1658.788307868
 30
0.0
 11
989.2102419306
 21
1658.788307868
 31
0.0
  0
ARC
  5
243
330
1F
100
AcDbEntity
  8
0
  6
Continuous
 62
     7
370
    15
100
AcDbCircle
 10
1189.2102434207
 20
1638.7883650885
 30
0.0
 40
20.0
100
AcDbArc
 50
0.0
 51
90.0
  0
LINE
  5
244
330
1F
100
AcDbEntity
  8
0
  6
Continuous
 62
     7
370
    15
100
AcDbLine
 10
1209.2102407385
 20
1534.7883545981
 30
0.0
 11
1209.2102407385
 21
1535.7884013281
 31
0.0
  0
LINE
  5
245
330
1F
100
AcDbEntity
  8
0
  6
Continuous
 62
     7
370
    15
100
AcDbLine
 10
1209.2102407385
 20
1541.7883240805
 30
0.0
 11
1209.2102407385
 21
1542.7883708105
 31
0.0
  0
LINE
  5
246
330
1F
100
AcDbEntity
  8
0
  6
Continuous
 62
     7
370
    15
100
AcDbLine
 10
1209.2102407385
 20
1598.7883650885
 30
0.0
 11
1209.2102407385
 21
1638.7883269415
 31
0.0
  0
CIRCLE
  5
247
330
1F
100
AcDbEntity
  8
0
  6
Continuous
 62
     7
370
    15
100
AcDbCircle
 10
1184.2102434207
 20
1633.7883650885
 30
0.0
 40
9.0
  0
CIRCLE
  5
248
330
1F
100
AcDbEntity
  8
0
  6
Continuous
 62
     7
370
    15
100
AcDbCircle
 10
994.2102434207
 20
1443.7883650885
 30
0.0
 40
9.000000000000227
  0
LINE
  5
249
330
1F
100
AcDbEntity
  8
0
  6
Continuous
 62
     7
370
    15
100
AcDbLine
 10
1028.2102427353
 20
1591.2883126364
 30
0.0
 11
1028.2102427353
 21
1541.7883240805
 31
0.0
  0
LINE
  5
24A
330
1F
100
AcDbEntity
  8
0
  6
Continuous
 62
     7
370
    15
100
AcDbLine
 10
1028.2102427353
 20
1535.7884013281
 30
0.0
 11
1028.2102427353
 21
1486.2884127722
 31
0.0
  0
LINE
  5
24B
330
1F
100
AcDbEntity
  8
0
  6
Continuous
 62
     7
370
    15
100
AcDbLine
 10
1141.7102417816
 20
1599.7884118185
 30
0.0
 11
1036.7102450599
 21
1599.7884118185
 31
0.0
  0
LINE
  5
24C
330
1F
100
AcDbEntity
  8
0
  6
Continuous
 62
     7
370
    15
100
AcDbLine
 10
1114.0192854126
 20
-1280.2115834131
 30
0.0
 11
1036.7102450599
 21
-1280.2115834131
 31
0.0
  0
ARC
  5
24D
330
1F
100
AcDbEntity
  8
0
  6
Continuous
 62
     7
370
    15
100
AcDbCircle
 10
1036.7102434207
 20
-1288.7116349115
 30
0.0
 40
8.5
100
AcDbArc
 50
90.0
 51
114.3157391712
  0
ARC
  5
24E
330
1F
100
AcDbEntity
  8
0
  6
Continuous
 62
     7
370
    15
100
AcDbCircle
 10
1036.7102434207
 20
-1288.7116349115
 30
0.0
 40
8.500000000000076
100
AcDbArc
 50
128.7044079016
 51
180.0
  0
LINE
  5
24F
330
1F
100
AcDbEntity
  8
0
  6
Continuous
 62
     7
370
    15
100
AcDbLine
 10
1028.2102427353
 20
-1288.7116825952
 30
0.0
 11
1028.2102427353
 21
-1338.2116711511
 31
0.0
  0
LINE
  5
250
330
1F
100
AcDbEntity
  8
0
  6
Continuous
 62
     7
370
    15
100
AcDbLine
 10
1028.2102427353
 20
-1344.2115939035
 30
0.0
 11
1028.2102427353
 21
-1393.7115824594
 31
0.0
  0
ARC
  5
251
330
1F
100
AcDbEntity
  8
0
  6
Continuous
 62
     7
370
    15
100
AcDbCircle
 10
1036.7102434207
 20
-1393.7116349115
 30
0.0
 40
8.5
100
AcDbArc
 50
180.0
 51
270.0
  0
LINE
  5
252
330
1F
100
AcDbEntity
  8
0
  6
Continuous
 62
     7
370
    15
100
AcDbLine
 10
1036.7102450599
 20
-1402.2116816415
 30
0.0
 11
1141.7102417816
 21
-1402.2116816415
 31
0.0
  0
ARC
  5
253
330
1F
100
AcDbEntity
  8
0
  6
Continuous
 62
     7
370
    15
100
AcDbCircle
 10
1141.7102434207
 20
-1393.7116349115
 30
0.0
 40
8.5
100
AcDbArc
 50
270.0
 51
298.0724869358
  0
LINE
  5
254
330
1F
100
AcDbEntity
  8
0
  6
Continuous
 62
     7
370
    15
100
AcDbLine
 10
1150.2102441062
 20
-1345.2116406335
 30
0.0
 11
1150.2102441062
 21
-1344.2115939035
 31
0.0
  0
LINE
  5
255
330
1F
100
AcDbEntity
  8
0
  6
Continuous
 62
     7
370
    15
100
AcDbLine
 10
1150.2102441062
 20
-1338.2116711511
 30
0.0
 11
1150.2102441062
 21
-1337.2116244211
 31
0.0
  0
CIRCLE
  5
256
330
1F
100
AcDbEntity
  8
0
  6
Continuous
 62
     7
370
    15
100
AcDbCircle
 10
1184.2102434207
 20
-1436.2116349115
 30
0.0
 40
9.0
  0
CIRCLE
  5
257
330
1F
100
AcDbEntity
  8
0
  6
Continuous
 62
     7
370
    15
100
AcDbCircle
 10
994.2102434207
 20
-1246.2116349115
 30
0.0
 40
8.999999999999773
  0
ARC
  5
258
330
1F
100
AcDbEntity
  8
0
  6
Continuous
 62
     7
370
    15
100
AcDbCircle
 10
1189.2102434207
 20
-1441.2116349115
 30
0.0
 40
20.0
100
AcDbArc
 50
270.0
 51
0.0
  0
LINE
  5
259
330
1F
100
AcDbEntity
  8
0
  6
Continuous
 62
     7
370
    15
100
AcDbLine
 10
989.2102419306
 20
-1461.211577691
 30
0.0
 11
1189.2102449108
 21
-1461.211577691
 31
0.0
  0
ARC
  5
25A
330
1F
100
AcDbEntity
  8
0
  6
Continuous
 62
     7
370
    15
100
AcDbCircle
 10
989.2102434207
 20
-1441.2116349115
 30
0.0
 40
20.0
100
AcDbArc
 50
180.0
 51
270.0
  0
LINE
  5
25B
330
1F
100
AcDbEntity
  8
0
  6
Continuous
 62
     7
370
    15
100
AcDbLine
 10
969.2102461029
 20
-1241.2116682901
 30
0.0
 11
969.2102461029
 21
-1441.2115967645
 31
0.0
  0
ARC
  5
25C
330
1F
100
AcDbEntity
  8
0
  6
Continuous
 62
     7
370
    15
100
AcDbCircle
 10
989.2102434207
 20
-1241.2116349115
 30
0.0
 40
20.0
100
AcDbArc
 50
90.0
 51
180.0
  0
LINE
  5
25D
330
1F
100
AcDbEntity
  8
0
  6
Continuous
 62
     7
370
    15
100
AcDbLine
 10
1103.5561696534
 20
-1221.2116873636
 30
0.0
 11
1073.2102426608
 21
-1221.2116873636
 31
0.0
  0
LINE
  5
25E
330
1F
100
AcDbEntity
  8
0
  6
Continuous
 62
     7
370
    15
100
AcDbLine
 10
1033.2102416922
 20
-1221.2116873636
 30
0.0
 11
989.2102419306
 21
-1221.2116873636
 31
0.0
  0
LINE
  5
25F
330
1F
100
AcDbEntity
  8
0
  6
Continuous
 62
     7
370
    15
100
AcDbLine
 10
1209.2102407385
 20
-1441.2115967645
 30
0.0
 11
1209.2102407385
 21
-1401.2116349115
 31
0.0
  0
LINE
  5
260
330
1F
100
AcDbEntity
  8
0
  6
Continuous
 62
     7
370
    15
100
AcDbLine
 10
1209.2102407385
 20
-1345.2116406335
 30
0.0
 11
1209.2102407385
 21
-1344.2115939035
 31
0.0
  0
LINE
  5
261
330
1F
100
AcDbEntity
  8
0
  6
Continuous
 62
     7
370
    15
100
AcDbLine
 10
1209.2102407385
 20
-1338.2116711511
 30
0.0
 11
1209.2102407385
 21
-1337.2116244211
 31
0.0
  0
ARC
  5
262
330
1F
100
AcDbEntity
  8
0
  6
Continuous
 62
     7
370
    15
100
AcDbCircle
 10
1184.2102434207
 20
-1246.2116349115
 30
0.0
 40
9.000000000000009
100
AcDbArc
 50
96.1135803079
 51
152.6612810485
  0
CIRCLE
  5
263
330
1F
100
AcDbEntity
  8
0
  6
Continuous
 62
     7
370
    15
100
AcDbCircle
 10
994.2102434207
 20
-1436.2116349115
 30
0.0
 40
9.0
  0
LINE
  5
264
330
1F
100
AcDbEntity
  8
0
  6
Continuous
 62
     7
370
    15
100
AcDbLine
 10
1114.0192854126
 20
159.788365774
 30
0.0
 11
1036.7102450599
 21
159.788365774
 31
0.0
  0
LINE
  5
265
330
1F
100
AcDbEntity
  8
0
  6
Continuous
 62
     7
370
    15
100
AcDbLine
 10
1150.2102441062
 20
94.7883648985
 30
0.0
 11
1150.2102441062
 21
95.7883650624
 31
0.0
  0
LINE
  5
266
330
1F
100
AcDbEntity
  8
0
  6
Continuous
 62
     7
370
    15
100
AcDbLine
 10
1150.2102441062
 20
101.7883651146
 30
0.0
 11
1150.2102441062
 21
102.7883652785
 31
0.0
  0
ARC
  5
267
330
1F
100
AcDbEntity
  8
0
  6
Continuous
 62
     7
370
    15
100
AcDbCircle
 10
1184.2102434207
 20
3.7883650885
 30
0.0
 40
8.999999999999988
100
AcDbArc
 50
207.3387189515
 51
263.8864196921
  0
CIRCLE
  5
268
330
1F
100
AcDbEntity
  8
0
  6
Continuous
 62
     7
370
    15
100
AcDbCircle
 10
994.2102434207
 20
193.7883650885
 30
0.0
 40
9.0
  0
LINE
  5
269
330
1F
100
AcDbEntity
  8
0
  6
Continuous
 62
     7
370
    15
100
AcDbLine
 10
989.2102419306
 20
-21.2116322293
 30
0.0
 11
1033.2102416922
 21
-21.2116322293
 31
0.0
  0
LINE
  5
26A
330
1F
100
AcDbEntity
  8
0
  6
Continuous
 62
     7
370
    15
100
AcDbLine
 10
1073.2102426608
 20
-21.2116322293
 30
0.0
 11
1103.5561696534
 21
-21.2116322293
 31
0.0
  0
ARC
  5
26B
330
1F
100
AcDbEntity
  8
0
  6
Continuous
 62
     7
370
    15
100
AcDbCircle
 10
989.2102434207
 20
-1.2116349115
 30
0.0
 40
20.0
100
AcDbArc
 50
180.0
 51
270.0
  0
LINE
  5
26C
330
1F
100
AcDbEntity
  8
0
  6
Continuous
 62
     7
370
    15
100
AcDbLine
 10
969.2102461029
 20
198.7883665786
 30
0.0
 11
969.2102461029
 21
-1.2116364016
 31
0.0
  0
ARC
  5
26D
330
1F
100
AcDbEntity
  8
0
  6
Continuous
 62
     7
370
    15
100
AcDbCircle
 10
989.2102434207
 20
198.7883650885
 30
0.0
 40
20.0
100
AcDbArc
 50
90.0
 51
180.0
  0
LINE
  5
26E
330
1F
100
AcDbEntity
  8
0
  6
Continuous
 62
     7
370
    15
100
AcDbLine
 10
1103.5561696534
 20
218.7883624063
 30
0.0
 11
1073.2102426608
 21
218.7883624063
 31
0.0
  0
LINE
  5
26F
330
1F
100
AcDbEntity
  8
0
  6
Continuous
 62
     7
370
    15
100
AcDbLine
 10
1033.2102416922
 20
218.7883624063
 30
0.0
 11
989.2102419306
 21
218.7883624063
 31
0.0
  0
LINE
  5
270
330
1F
100
AcDbEntity
  8
0
  6
Continuous
 62
     7
370
    15
100
AcDbLine
 10
1209.2102407385
 20
94.7883648985
 30
0.0
 11
1209.2102407385
 21
95.7883650624
 31
0.0
  0
LINE
  5
271
330
1F
100
AcDbEntity
  8
0
  6
Continuous
 62
     7
370
    15
100
AcDbLine
 10
1209.2102407385
 20
101.7883651146
 30
0.0
 11
1209.2102407385
 21
102.7883652785
 31
0.0
  0
CIRCLE
  5
272
330
1F
100
AcDbEntity
  8
0
  6
Continuous
 62
     7
370
    15
100
AcDbCircle
 10
994.2102434207
 20
3.7883650885
 30
0.0
 40
8.999999999999995
  0
LINE
  5
273
330
1F
100
AcDbEntity
  8
0
  6
Continuous
 62
     7
370
    15
100
AcDbLine
 10
1036.7102450599
 20
37.788364403
 30
0.0
 11
1114.0192854126
 21
37.788364403
 31
0.0
  0
ARC
  5
274
330
1F
100
AcDbEntity
  8
0
  6
Continuous
 62
     7
370
    15
100
AcDbCircle
 10
1036.7102434207
 20
46.2883650885
 30
0.0
 40
8.500000000000023
100
AcDbArc
 50
180.0
 51
231.2955920984
  0
ARC
  5
275
330
1F
100
AcDbEntity
  8
0
  6
Continuous
 62
     7
370
    15
100
AcDbCircle
 10
1036.7102434207
 20
46.2883650885
 30
0.0
 40
8.500000000000007
100
AcDbArc
 50
245.6842608288
 51
270.0
  0
ARC
  5
276
330
1F
100
AcDbEntity
  8
0
  6
Continuous
 62
     7
370
    15
100
AcDbCircle
 10
1184.2102434207
 20
193.7883650885
 30
0.0
 40
8.999999999999966
100
AcDbArc
 50
96.1135803079
 51
152.6612810485
  0
ARC
  5
277
330
1F
100
AcDbEntity
  8
0
  6
Continuous
 62
     7
370
    15
100
AcDbCircle
 10
1036.7102434207
 20
151.2883650885
 30
0.0
 40
8.5
100
AcDbArc
 50
90.0
 51
114.3157391712
  0
ARC
  5
278
330
1F
100
AcDbEntity
  8
0
  6
Continuous
 62
     7
370
    15
100
AcDbCircle
 10
1036.7102434207
 20
151.2883650885
 30
0.0
 40
8.5
100
AcDbArc
 50
128.7044079016
 51
180.0
  0
LINE
  5
279
330
1F
100
AcDbEntity
  8
0
  6
Continuous
 62
     7
370
    15
100
AcDbLine
 10
1028.2102427353
 20
151.2883634494
 30
0.0
 11
1028.2102427353
 21
101.7883651146
 31
0.0
  0
LINE
  5
27A
330
1F
100
AcDbEntity
  8
0
  6
Continuous
 62
     7
370
    15
100
AcDbLine
 10
1028.2102427353
 20
95.7883650624
 30
0.0
 11
1028.2102427353
 21
46.2883667276
 31
0.0
  0
LINE
  5
27B
330
1F
100
AcDbEntity
  8
0
  6
Continuous
 62
     7
370
    15
100
AcDbLine
 10
1323.4854056407
 20
1541.7883240805
 30
0.0
 11
1323.4854056407
 21
1535.7884013281
 31
0.0
  0
LINE
  5
27C
330
1F
100
AcDbEntity
  8
0
  6
Continuous
 62
     7
370
    15
100
AcDbLine
 10
1323.4854056407
 20
1535.7884013281
 30
0.0
 11
1318.0686547328
 21
1535.7884013281
 31
0.0
  0
LINE
  5
27D
330
1F
100
AcDbEntity
  8
0
  6
Continuous
 62
     7
370
    15
100
AcDbLine
 10
1318.0686547328
 20
1535.7884013281
 30
0.0
 11
1318.0686547328
 21
1541.7883240805
 31
0.0
  0
LINE
  5
27E
330
1F
100
AcDbEntity
  8
0
  6
Continuous
 62
     7
370
    15
100
AcDbLine
 10
1318.0686547328
 20
1541.7883240805
 30
0.0
 11
1323.4854056407
 21
1541.7883240805
 31
0.0
  0
LINE
  5
27F
330
1F
100
AcDbEntity
  8
0
  6
Continuous
 62
     7
370
    15
100
AcDbLine
 10
1023.7744613458
 20
1541.7883240805
 30
0.0
 11
1023.7744613458
 21
1535.7884013281
 31
0.0
  0
LINE
  5
280
330
1F
100
AcDbEntity
  8
0
  6
Continuous
 62
     7
370
    15
100
AcDbLine
 10
1318.0686547328
 20
1535.7884013281
 30
0.0
 11
1023.7744613458
 21
1535.7884013281
 31
0.0
  0
LINE
  5
281
330
1F
100
AcDbEntity
  8
0
  6
Continuous
 62
     7
370
    15
100
AcDbLine
 10
1318.0686547328
 20
1541.7883240805
 30
0.0
 11
1023.7744613458
 21
1541.7883240805
 31
0.0
  0
LINE
  5
282
330
1F
100
AcDbEntity
  8
0
  6
Continuous
 62
     7
370
    15
100
AcDbLine
 10
1325.9135796596
 20
1535.7884013281
 30
0.0
 11
1323.4854056407
 21
1535.7884013281
 31
0.0
  0
LINE
  5
283
330
1F
100
AcDbEntity
  8
0
  6
Continuous
 62
     7
370
    15
100
AcDbLine
 10
1325.9135796596
 20
1541.7883240805
 30
0.0
 11
1323.4854056407
 21
1541.7883240805
 31
0.0
  0
LINE
  5
284
330
1F
100
AcDbEntity
  8
0
  6
Continuous
 62
     7
370
    15
100
AcDbLine
 10
1019.2102431227
 20
1535.7884013281
 30
0.0
 11
1019.2102431227
 21
1541.7883240805
 31
0.0
  0
LINE
  5
285
330
1F
100
AcDbEntity
  8
0
  6
Continuous
 62
     7
370
    15
100
AcDbLine
 10
1023.7744613458
 20
1535.7884013281
 30
0.0
 11
1019.2102431227
 21
1535.7884013281
 31
0.0
  0
LINE
  5
286
330
1F
100
AcDbEntity
  8
0
  6
Continuous
 62
     7
370
    15
100
AcDbLine
 10
1019.2102431227
 20
1541.7883240805
 30
0.0
 11
1023.7744613458
 21
1541.7883240805
 31
0.0
  0
LINE
  5
287
330
1F
100
AcDbEntity
  8
0
  6
Continuous
 62
     7
370
    15
100
AcDbLine
 10
1323.4854056407
 20
101.7883651146
 30
0.0
 11
1323.4854056407
 21
95.7883650624
 31
0.0
  0
LINE
  5
288
330
1F
100
AcDbEntity
  8
0
  6
Continuous
 62
     7
370
    15
100
AcDbLine
 10
1318.0686547328
 20
95.7883650624
 30
0.0
 11
1318.0686547328
 21
101.7883651146
 31
0.0
  0
LINE
  5
289
330
1F
100
AcDbEntity
  8
0
  6
Continuous
 62
     7
370
    15
100
AcDbLine
 10
1318.0686547328
 20
101.7883651146
 30
0.0
 11
1323.4854056407
 21
101.7883651146
 31
0.0
  0
LINE
  5
28A
330
1F
100
AcDbEntity
  8
0
  6
Continuous
 62
     7
370
    15
100
AcDbLine
 10
1323.4854056407
 20
95.7883650624
 30
0.0
 11
1318.0686547328
 21
95.7883650624
 31
0.0
  0
LINE
  5
28B
330
1F
100
AcDbEntity
  8
0
  6
Continuous
 62
     7
370
    15
100
AcDbLine
 10
1023.7744613458
 20
101.7883651146
 30
0.0
 11
1023.7744613458
 21
95.7883650624
 31
0.0
  0
LINE
  5
28C
330
1F
100
AcDbEntity
  8
0
  6
Continuous
 62
     7
370
    15
100
AcDbLine
 10
1318.0686547328
 20
101.7883651146
 30
0.0
 11
1023.7744613458
 21
101.7883651146
 31
0.0
  0
LINE
  5
28D
330
1F
100
AcDbEntity
  8
0
  6
Continuous
 62
     7
370
    15
100
AcDbLine
 10
1318.0686547328
 20
95.7883650624
 30
0.0
 11
1023.7744613458
 21
95.7883650624
 31
0.0
  0
LINE
  5
28E
330
1F
100
AcDbEntity
  8
0
  6
Continuous
 62
     7
370
    15
100
AcDbLine
 10
1325.9135796596
 20
101.7883651146
 30
0.0
 11
1323.4854056407
 21
101.7883651146
 31
0.0
  0
LINE
  5
28F
330
1F
100
AcDbEntity
  8
0
  6
Continuous
 62
     7
370
    15
100
AcDbLine
 10
1325.9135796596
 20
95.7883650624
 30
0.0
 11
1323.4854056407
 21
95.7883650624
 31
0.0
  0
LINE
  5
290
330
1F
100
AcDbEntity
  8
0
  6
Continuous
 62
     7
370
    15
100
AcDbLine
 10
1019.2102431227
 20
95.7883650624
 30
0.0
 11
1019.2102431227
 21
101.7883651146
 31
0.0
  0
LINE
  5
291
330
1F
100
AcDbEntity
  8
0
  6
Continuous
 62
     7
370
    15
100
AcDbLine
 10
1019.2102431227
 20
101.7883651146
 30
0.0
 11
1023.7744613458
 21
101.7883651146
 31
0.0
  0
LINE
  5
292
330
1F
100
AcDbEntity
  8
0
  6
Continuous
 62
     7
370
    15
100
AcDbLine
 10
1023.7744613458
 20
95.7883650624
 30
0.0
 11
1019.2102431227
 21
95.7883650624
 31
0.0
  0
LINE
  5
293
330
1F
100
AcDbEntity
  8
0
  6
Continuous
 62
     7
370
    15
100
AcDbLine
 10
1323.4854056407
 20
-1338.2116711511
 30
0.0
 11
1323.4854056407
 21
-1344.2115939035
 31
0.0
  0
LINE
  5
294
330
1F
100
AcDbEntity
  8
0
  6
Continuous
 62
     7
370
    15
100
AcDbLine
 10
1318.0686547328
 20
-1344.2115939035
 30
0.0
 11
1318.0686547328
 21
-1338.2116711511
 31
0.0
  0
LINE
  5
295
330
1F
100
AcDbEntity
  8
0
  6
Continuous
 62
     7
370
    15
100
AcDbLine
 10
1318.0686547328
 20
-1338.2116711511
 30
0.0
 11
1323.4854056407
 21
-1338.2116711511
 31
0.0
  0
LINE
  5
296
330
1F
100
AcDbEntity
  8
0
  6
Continuous
 62
     7
370
    15
100
AcDbLine
 10
1323.4854056407
 20
-1344.2115939035
 30
0.0
 11
1318.0686547328
 21
-1344.2115939035
 31
0.0
  0
LINE
  5
297
330
1F
100
AcDbEntity
  8
0
  6
Continuous
 62
     7
370
    15
100
AcDbLine
 10
1023.7744613458
 20
-1338.2116711511
 30
0.0
 11
1023.7744613458
 21
-1344.2115939035
 31
0.0
  0
LINE
  5
298
330
1F
100
AcDbEntity
  8
0
  6
Continuous
 62
     7
370
    15
100
AcDbLine
 10
1318.0686547328
 20
-1338.2116711511
 30
0.0
 11
1023.7744613458
 21
-1338.2116711511
 31
0.0
  0
LINE
  5
299
330
1F
100
AcDbEntity
  8
0
  6
Continuous
 62
     7
370
    15
100
AcDbLine
 10
1318.0686547328
 20
-1344.2115939035
 30
0.0
 11
1023.7744613458
 21
-1344.2115939035
 31
0.0
  0
LINE
  5
29A
330
1F
100
AcDbEntity
  8
0
  6
Continuous
 62
     7
370
    15
100
AcDbLine
 10
1325.9135796596
 20
-1338.2116711511
 30
0.0
 11
1323.4854056407
 21
-1338.2116711511
 31
0.0
  0
LINE
  5
29B
330
1F
100
AcDbEntity
  8
0
  6
Continuous
 62
     7
370
    15
100
AcDbLine
 10
1325.9135796596
 20
-1344.2115939035
 30
0.0
 11
1323.4854056407
 21
-1344.2115939035
 31
0.0
  0
LINE
  5
29C
330
1F
100
AcDbEntity
  8
0
  6
Continuous
 62
     7
370
    15
100
AcDbLine
 10
1019.2102431227
 20
-1344.2115939035
 30
0.0
 11
1019.2102431227
 21
-1338.2116711511
 31
0.0
  0
LINE
  5
29D
330
1F
100
AcDbEntity
  8
0
  6
Continuous
 62
     7
370
    15
100
AcDbLine
 10
1019.2102431227
 20
-1338.2116711511
 30
0.0
 11
1023.7744613458
 21
-1338.2116711511
 31
0.0
  0
LINE
  5
29E
330
1F
100
AcDbEntity
  8
0
  6
Continuous
 62
     7
370
    15
100
AcDbLine
 10
1023.7744613458
 20
-1344.2115939035
 30
0.0
 11
1019.2102431227
 21
-1344.2115939035
 31
0.0
  0
LINE
  5
29F
330
1F
100
AcDbEntity
  8
0
  6
Continuous
 62
     7
370
    15
100
AcDbLine
 10
3614.5333959628
 20
151.2883634494
 30
0.0
 11
3618.5180856754
 21
151.2883634494
 31
0.0
  0
ARC
  5
2A0
330
1F
100
AcDbEntity
  8
0
  6
Continuous
 62
     7
370
    15
100
AcDbCircle
 10
3629.2073829961
 20
152.5289688098
 30
0.0
 40
14.72633685315673
100
AcDbArc
 50
165.2095893112
 51
184.8325527019
  0
LINE
  5
2A1
330
1F
100
AcDbEntity
  8
0
  6
Continuous
 62
     7
370
    15
100
AcDbLine
 10
3614.9689867069
 20
156.2883661316
 30
0.0
 11
3618.953914838
 21
156.2883661316
 31
0.0
  0
ARC
  5
2A2
330
1F
100
AcDbEntity
  8
0
  6
Continuous
 62
     7
370
    15
100
AcDbCircle
 10
3633.1790615299
 20
152.5294240058
 30
0.0
 40
14.71341035628465
100
AcDbArc
 50
165.1981316593
 51
184.8385873859
  0
LINE
  5
2A3
330
1F
100
AcDbEntity
  8
0
  6
Continuous
 62
     7
370
    15
100
AcDbLine
 10
3614.9689867069
 20
41.2883640454
 30
0.0
 11
3618.953914838
 21
41.2883640454
 31
0.0
  0
ARC
  5
2A4
330
1F
100
AcDbEntity
  8
0
  6
Continuous
 62
     7
370
    15
100
AcDbCircle
 10
3629.2073829961
 20
45.0477613672
 30
0.0
 40
14.72633685315673
100
AcDbArc
 50
175.1674472981
 51
194.7904106888
  0
LINE
  5
2A5
330
1F
100
AcDbEntity
  8
0
  6
Continuous
 62
     7
370
    15
100
AcDbLine
 10
3614.5333959628
 20
46.2883667276
 30
0.0
 11
3618.5180856754
 21
46.2883667276
 31
0.0
  0
ARC
  5
2A6
330
1F
100
AcDbEntity
  8
0
  6
Continuous
 62
     7
370
    15
100
AcDbCircle
 10
3633.1790615299
 20
45.0473061712
 30
0.0
 40
14.71341035628464
100
AcDbArc
 50
175.1614126141
 51
194.8018683407
  0
LINE
  5
2A7
330
1F
100
AcDbEntity
  8
0
  6
Continuous
 62
     7
370
    15
100
AcDbLine
 10
3614.5333959628
 20
46.2883667276
 30
0.0
 11
3614.5333959628
 21
151.2883634494
 31
0.0
  0
LINE
  5
2A8
330
1F
100
AcDbEntity
  8
0
  6
Continuous
 62
     7
370
    15
100
AcDbLine
 10
3618.5180856754
 20
46.2883667276
 30
0.0
 11
3618.5180856754
 21
151.2883634494
 31
0.0
  0
LINE
  5
2A9
330
1F
100
AcDbEntity
  8
0
  6
Continuous
 62
     7
370
    15
100
AcDbLine
 10
3628.1051351596
 20
41.2883640454
 30
0.0
 11
3618.953914838
 21
41.2883640454
 31
0.0
  0
LINE
  5
2AA
330
1F
100
AcDbEntity
  8
0
  6
Continuous
 62
     7
370
    15
100
AcDbLine
 10
3618.953914838
 20
156.2883661316
 30
0.0
 11
3628.1051351596
 21
156.2883661316
 31
0.0
  0
ARC
  5
2AB
330
1F
100
AcDbEntity
  8
0
  6
Continuous
 62
     7
370
    15
100
AcDbCircle
 10
3613.8799884677
 20
152.5294240058
 30
0.0
 40
14.71341035628508
100
AcDbArc
 50
355.1614126141
 51
14.8018683407
  0
LINE
  5
2AC
330
1F
100
AcDbEntity
  8
0
  6
Continuous
 62
     7
370
    15
100
AcDbLine
 10
3628.5409643222
 20
151.2883634494
 30
0.0
 11
3628.5409643222
 21
46.2883667276
 31
0.0
  0
ARC
  5
2AD
330
1F
100
AcDbEntity
  8
0
  6
Continuous
 62
     7
370
    15
100
AcDbCircle
 10
3613.8799884677
 20
45.0473061712
 30
0.0
 40
14.71341035628509
100
AcDbArc
 50
345.1981316593
 51
4.8385873859
  0
LINE
  5
2AE
330
1F
100
AcDbEntity
  8
0
  6
Continuous
 62
     7
370
    15
100
AcDbLine
 10
3628.1051351596
 20
1481.2884175406
 30
0.0
 11
3618.953914838
 21
1481.2884175406
 31
0.0
  0
ARC
  5
2AF
330
1F
100
AcDbEntity
  8
0
  6
Continuous
 62
     7
370
    15
100
AcDbCircle
 10
3633.1779808215
 20
1485.0472636161
 30
0.0
 40
14.7123409735435
100
AcDbArc
 50
175.1607138004
 51
194.8025819262
  0
LINE
  5
2B0
330
1F
100
AcDbEntity
  8
0
  6
Continuous
 62
     7
370
    15
100
AcDbLine
 10
3618.5180856754
 20
1486.2884127722
 30
0.0
 11
3618.5180856754
 21
1591.2883126364
 31
0.0
  0
ARC
  5
2B1
330
1F
100
AcDbEntity
  8
0
  6
Continuous
 62
     7
370
    15
100
AcDbCircle
 10
3633.1779808215
 20
1592.5294617925
 30
0.0
 40
14.7123409735435
100
AcDbArc
 50
165.1974180738
 51
184.8392861996
  0
LINE
  5
2B2
330
1F
100
AcDbEntity
  8
0
  6
Continuous
 62
     7
370
    15
100
AcDbLine
 10
3618.953914838
 20
1596.288307868
 30
0.0
 11
3628.1051351596
 21
1596.288307868
 31
0.0
  0
ARC
  5
2B3
330
1F
100
AcDbEntity
  8
0
  6
Continuous
 62
     7
370
    15
100
AcDbCircle
 10
3613.8810691761
 20
1592.5294617925
 30
0.0
 40
14.71234097354394
100
AcDbArc
 50
355.1607138004
 51
14.8025819262
  0
LINE
  5
2B4
330
1F
100
AcDbEntity
  8
0
  6
Continuous
 62
     7
370
    15
100
AcDbLine
 10
3628.5409643222
 20
1591.2883126364
 30
0.0
 11
3628.5409643222
 21
1486.2884127722
 31
0.0
  0
ARC
  5
2B5
330
1F
100
AcDbEntity
  8
0
  6
Continuous
 62
     7
370
    15
100
AcDbCircle
 10
3613.8810691761
 20
1485.0472636161
 30
0.0
 40
14.71234097354394
100
AcDbArc
 50
345.1974180738
 51
4.8392861996
  0
LINE
  5
2B6
330
1F
100
AcDbEntity
  8
0
  6
Continuous
 62
     7
370
    15
100
AcDbLine
 10
3614.5333959628
 20
1591.2883126364
 30
0.0
 11
3618.5180856754
 21
1591.2883126364
 31
0.0
  0
ARC
  5
2B7
330
1F
100
AcDbEntity
  8
0
  6
Continuous
 62
     7
370
    15
100
AcDbCircle
 10
3622.3221250497
 20
1593.7695798452
 30
0.0
 40
7.772556486899427
100
AcDbArc
 50
161.0917282554
 51
183.9173675408
  0
LINE
  5
2B8
330
1F
100
AcDbEntity
  8
0
  6
Continuous
 62
     7
370
    15
100
AcDbLine
 10
3614.9689867069
 20
1596.288307868
 30
0.0
 11
3618.953914838
 21
1596.288307868
 31
0.0
  0
LINE
  5
2B9
330
1F
100
AcDbEntity
  8
0
  6
Continuous
 62
     7
370
    15
100
AcDbLine
 10
3614.9689867069
 20
1481.2884175406
 30
0.0
 11
3618.953914838
 21
1481.2884175406
 31
0.0
  0
ARC
  5
2BA
330
1F
100
AcDbEntity
  8
0
  6
Continuous
 62
     7
370
    15
100
AcDbCircle
 10
3625.4165391756
 20
1484.2404172056
 30
0.0
 40
10.85659498231783
100
AcDbArc
 50
178.7039912604
 51
195.7778609932
  0
LINE
  5
2BB
330
1F
100
AcDbEntity
  8
0
  6
Continuous
 62
     7
370
    15
100
AcDbLine
 10
3614.5333959628
 20
1486.2884127722
 30
0.0
 11
3618.5180856754
 21
1486.2884127722
 31
0.0
  0
LINE
  5
2BC
330
1F
100
AcDbEntity
  8
0
  6
Continuous
 62
     7
370
    15
100
AcDbLine
 10
3614.5333959628
 20
1486.2884127722
 30
0.0
 11
3614.5333959628
 21
1591.2883126364
 31
0.0
  0
LINE
  5
2BD
330
1F
100
AcDbEntity
  8
0
  6
Continuous
 62
     7
370
    15
100
AcDbLine
 10
3614.9689867069
 20
-1398.711577691
 30
0.0
 11
3618.953914838
 21
-1398.711577691
 31
0.0
  0
ARC
  5
2BE
330
1F
100
AcDbEntity
  8
0
  6
Continuous
 62
     7
370
    15
100
AcDbCircle
 10
3625.4165391756
 20
-1395.759578026
 30
0.0
 40
10.85659498231783
100
AcDbArc
 50
178.7039912604
 51
195.7778609932
  0
LINE
  5
2BF
330
1F
100
AcDbEntity
  8
0
  6
Continuous
 62
     7
370
    15
100
AcDbLine
 10
3614.5333959628
 20
-1393.7115824594
 30
0.0
 11
3618.5180856754
 21
-1393.7115824594
 31
0.0
  0
ARC
  5
2C0
330
1F
100
AcDbEntity
  8
0
  6
Continuous
 62
     7
370
    15
100
AcDbCircle
 10
3633.1779808215
 20
-1394.9527316155
 30
0.0
 40
14.71234097354351
100
AcDbArc
 50
175.1607138004
 51
194.8025819262
  0
LINE
  5
2C1
330
1F
100
AcDbEntity
  8
0
  6
Continuous
 62
     7
370
    15
100
AcDbLine
 10
3628.1051351596
 20
-1398.711577691
 30
0.0
 11
3618.953914838
 21
-1398.711577691
 31
0.0
  0
LINE
  5
2C2
330
1F
100
AcDbEntity
  8
0
  6
Continuous
 62
     7
370
    15
100
AcDbLine
 10
3618.5180856754
 20
-1393.7115824594
 30
0.0
 11
3618.5180856754
 21
-1288.7116825952
 31
0.0
  0
ARC
  5
2C3
330
1F
100
AcDbEntity
  8
0
  6
Continuous
 62
     7
370
    15
100
AcDbCircle
 10
3633.1779808215
 20
-1287.4705334391
 30
0.0
 40
14.7123409735435
100
AcDbArc
 50
165.1974180738
 51
184.8392861996
  0
LINE
  5
2C4
330
1F
100
AcDbEntity
  8
0
  6
Continuous
 62
     7
370
    15
100
AcDbLine
 10
3618.953914838
 20
-1283.7116873636
 30
0.0
 11
3628.1051351596
 21
-1283.7116873636
 31
0.0
  0
ARC
  5
2C5
330
1F
100
AcDbEntity
  8
0
  6
Continuous
 62
     7
370
    15
100
AcDbCircle
 10
3613.8810691761
 20
-1287.4705334391
 30
0.0
 40
14.71234097354394
100
AcDbArc
 50
355.1607138004
 51
14.8025819262
  0
LINE
  5
2C6
330
1F
100
AcDbEntity
  8
0
  6
Continuous
 62
     7
370
    15
100
AcDbLine
 10
3628.5409643222
 20
-1288.7116825952
 30
0.0
 11
3628.5409643222
 21
-1393.7115824594
 31
0.0
  0
ARC
  5
2C7
330
1F
100
AcDbEntity
  8
0
  6
Continuous
 62
     7
370
    15
100
AcDbCircle
 10
3613.8810691761
 20
-1394.9527316155
 30
0.0
 40
14.71234097354396
100
AcDbArc
 50
345.1974180738
 51
4.8392861996
  0
LINE
  5
2C8
330
1F
100
AcDbEntity
  8
0
  6
Continuous
 62
     7
370
    15
100
AcDbLine
 10
3614.5333959628
 20
-1288.7116825952
 30
0.0
 11
3618.5180856754
 21
-1288.7116825952
 31
0.0
  0
ARC
  5
2C9
330
1F
100
AcDbEntity
  8
0
  6
Continuous
 62
     7
370
    15
100
AcDbCircle
 10
3622.3221250497
 20
-1286.2304153864
 30
0.0
 40
7.772556486899433
100
AcDbArc
 50
161.0917282554
 51
183.9173675408
  0
LINE
  5
2CA
330
1F
100
AcDbEntity
  8
0
  6
Continuous
 62
     7
370
    15
100
AcDbLine
 10
3614.9689867069
 20
-1283.7116873636
 30
0.0
 11
3618.953914838
 21
-1283.7116873636
 31
0.0
  0
LINE
  5
2CB
330
1F
100
AcDbEntity
  8
0
  6
Continuous
 62
     7
370
    15
100
AcDbLine
 10
3614.5333959628
 20
-1393.7115824594
 30
0.0
 11
3614.5333959628
 21
-1288.7116825952
 31
0.0
  0
LINE
  5
2CC
330
1F
100
AcDbEntity
  8
0
  6
Continuous
 62
     7
370
    15
100
AcDbLine
 10
1073.2102426608
 20
-1278.711692132
 30
0.0
 11
1073.2102426608
 21
36.2883650885
 31
0.0
  0
LINE
  5
2CD
330
1F
100
AcDbEntity
  8
0
  6
Continuous
 62
     7
370
    15
100
AcDbLine
 10
1033.2102416922
 20
-1278.711692132
 30
0.0
 11
1033.2102416922
 21
36.2883650885
 31
0.0
  0
LINE
  5
2CE
330
1F
100
AcDbEntity
  8
0
  6
Continuous
 62
     7
370
    15
100
AcDbLine
 10
1073.2102426608
 20
36.2883650885
 30
0.0
 11
1033.2102416922
 21
36.2883650885
 31
0.0
  0
LINE
  5
2CF
330
1F
100
AcDbEntity
  8
0
  6
Continuous
 62
     7
370
    15
100
AcDbLine
 10
1073.2102426608
 20
-1278.711692132
 30
0.0
 11
1033.2102416922
 21
-1278.711692132
 31
0.0
  0
LINE
  5
2D0
330
1F
100
AcDbEntity
  8
0
  6
Continuous
 62
     7
370
    15
100
AcDbLine
 10
1073.2102426608
 20
161.2883650885
 30
0.0
 11
1073.2102426608
 21
1476.288422309
 31
0.0
  0
LINE
  5
2D1
330
1F
100
AcDbEntity
  8
0
  6
Continuous
 62
     7
370
    15
100
AcDbLine
 10
1073.2102426608
 20
161.2883650885
 30
0.0
 11
1033.2102416922
 21
161.2883650885
 31
0.0
  0
LINE
  5
2D2
330
1F
100
AcDbEntity
  8
0
  6
Continuous
 62
     7
370
    15
100
AcDbLine
 10
1033.2102416922
 20
161.2883650885
 30
0.0
 11
1033.2102416922
 21
1476.288422309
 31
0.0
  0
LINE
  5
2D3
330
1F
100
AcDbEntity
  8
0
  6
Continuous
 62
     7
370
    15
100
AcDbLine
 10
1073.2102426608
 20
1476.288422309
 30
0.0
 11
1033.2102416922
 21
1476.288422309
 31
0.0
  0
LINE
  5
2D4
330
1F
100
AcDbEntity
  8
0
  6
Continuous
 62
     7
370
    15
100
AcDbLine
 10
3624.4253828098
 20
-1278.711692132
 30
0.0
 11
3624.4253828098
 21
36.2883650885
 31
0.0
  0
LINE
  5
2D5
330
1F
100
AcDbEntity
  8
0
  6
Continuous
 62
     7
370
    15
100
AcDbLine
 10
3624.4253828098
 20
-1278.711692132
 30
0.0
 11
3613.9669134189
 21
-1278.711692132
 31
0.0
  0
LINE
  5
2D6
330
1F
100
AcDbEntity
  8
0
  6
Continuous
 62
     7
370
    15
100
AcDbLine
 10
3613.9669134189
 20
-1278.711692132
 30
0.0
 11
3613.9669134189
 21
36.2883650885
 31
0.0
  0
LINE
  5
2D7
330
1F
100
AcDbEntity
  8
0
  6
Continuous
 62
     7
370
    15
100
AcDbLine
 10
3624.4253828098
 20
36.2883650885
 30
0.0
 11
3613.9669134189
 21
36.2883650885
 31
0.0
  0
LINE
  5
2D8
330
1F
100
AcDbEntity
  8
0
  6
Continuous
 62
     7
370
    15
100
AcDbLine
 10
3574.1190626193
 20
-1278.711692132
 30
0.0
 11
3574.1190626193
 21
36.2883650885
 31
0.0
  0
LINE
  5
2D9
330
1F
100
AcDbEntity
  8
0
  6
Continuous
 62
     7
370
    15
100
AcDbLine
 10
3613.9669134189
 20
36.2883650885
 30
0.0
 11
3574.1190626193
 21
36.2883650885
 31
0.0
  0
LINE
  5
2DA
330
1F
100
AcDbEntity
  8
0
  6
Continuous
 62
     7
370
    15
100
AcDbLine
 10
3613.9669134189
 20
-1278.711692132
 30
0.0
 11
3574.1190626193
 21
-1278.711692132
 31
0.0
  0
LINE
  5
2DB
330
1F
100
AcDbEntity
  8
0
  6
Continuous
 62
     7
370
    15
100
AcDbLine
 10
3544.7299196292
 20
-1278.711692132
 30
0.0
 11
3544.7299196292
 21
36.2883650885
 31
0.0
  0
LINE
  5
2DC
330
1F
100
AcDbEntity
  8
0
  6
Continuous
 62
     7
370
    15
100
AcDbLine
 10
3544.7299196292
 20
-1278.711692132
 30
0.0
 11
3534.2712118198
 21
-1278.711692132
 31
0.0
  0
LINE
  5
2DD
330
1F
100
AcDbEntity
  8
0
  6
Continuous
 62
     7
370
    15
100
AcDbLine
 10
3534.2712118198
 20
-1278.711692132
 30
0.0
 11
3534.2712118198
 21
36.2883650885
 31
0.0
  0
LINE
  5
2DE
330
1F
100
AcDbEntity
  8
0
  6
Continuous
 62
     7
370
    15
100
AcDbLine
 10
3544.7299196292
 20
36.2883650885
 30
0.0
 11
3534.2712118198
 21
36.2883650885
 31
0.0
  0
LINE
  5
2DF
330
1F
100
AcDbEntity
  8
0
  6
Continuous
 62
     7
370
    15
100
AcDbLine
 10
3534.2712118198
 20
-1278.711692132
 30
0.0
 11
3494.4233610202
 21
-1278.711692132
 31
0.0
  0
LINE
  5
2E0
330
1F
100
AcDbEntity
  8
0
  6
Continuous
 62
     7
370
    15
100
AcDbLine
 10
3494.4233610202
 20
-1278.711692132
 30
0.0
 11
3494.4233610202
 21
36.2883650885
 31
0.0
  0
LINE
  5
2E1
330
1F
100
AcDbEntity
  8
0
  6
Continuous
 62
     7
370
    15
100
AcDbLine
 10
3534.2712118198
 20
36.2883650885
 30
0.0
 11
3494.4233610202
 21
36.2883650885
 31
0.0
  0
LINE
  5
2E2
330
1F
100
AcDbEntity
  8
0
  6
Continuous
 62
     7
370
    15
100
AcDbLine
 10
3454.5757486392
 20
-1278.711692132
 30
0.0
 11
3454.5757486392
 21
36.2883650885
 31
0.0
  0
LINE
  5
2E3
330
1F
100
AcDbEntity
  8
0
  6
Continuous
 62
     7
370
    15
100
AcDbLine
 10
3454.5757486392
 20
-1278.711692132
 30
0.0
 11
3414.7278978397
 21
-1278.711692132
 31
0.0
  0
LINE
  5
2E4
330
1F
100
AcDbEntity
  8
0
  6
Continuous
 62
     7
370
    15
100
AcDbLine
 10
3414.7278978397
 20
-1278.711692132
 30
0.0
 11
3414.7278978397
 21
36.2883650885
 31
0.0
  0
LINE
  5
2E5
330
1F
100
AcDbEntity
  8
0
  6
Continuous
 62
     7
370
    15
100
AcDbLine
 10
3454.5757486392
 20
36.2883650885
 30
0.0
 11
3414.7278978397
 21
36.2883650885
 31
0.0
  0
LINE
  5
2E6
330
1F
100
AcDbEntity
  8
0
  6
Continuous
 62
     7
370
    15
100
AcDbLine
 10
3465.0344564487
 20
-1278.711692132
 30
0.0
 11
3465.0344564487
 21
36.2883650885
 31
0.0
  0
LINE
  5
2E7
330
1F
100
AcDbEntity
  8
0
  6
Continuous
 62
     7
370
    15
100
AcDbLine
 10
3465.0344564487
 20
-1278.711692132
 30
0.0
 11
3454.5757486392
 21
-1278.711692132
 31
0.0
  0
LINE
  5
2E8
330
1F
100
AcDbEntity
  8
0
  6
Continuous
 62
     7
370
    15
100
AcDbLine
 10
3465.0344564487
 20
36.2883650885
 30
0.0
 11
3454.5757486392
 21
36.2883650885
 31
0.0
  0
LINE
  5
2E9
330
1F
100
AcDbEntity
  8
0
  6
Continuous
 62
     7
370
    15
100
AcDbLine
 10
3305.643291669
 20
-1278.711692132
 30
0.0
 11
3305.643291669
 21
36.2883650885
 31
0.0
  0
LINE
  5
2EA
330
1F
100
AcDbEntity
  8
0
  6
Continuous
 62
     7
370
    15
100
AcDbLine
 10
3305.643291669
 20
-1278.711692132
 30
0.0
 11
3295.1845838596
 21
-1278.711692132
 31
0.0
  0
LINE
  5
2EB
330
1F
100
AcDbEntity
  8
0
  6
Continuous
 62
     7
370
    15
100
AcDbLine
 10
3295.1845838596
 20
-1278.711692132
 30
0.0
 11
3295.1845838596
 21
36.2883650885
 31
0.0
  0
LINE
  5
2EC
330
1F
100
AcDbEntity
  8
0
  6
Continuous
 62
     7
370
    15
100
AcDbLine
 10
3305.643291669
 20
36.2883650885
 30
0.0
 11
3295.1845838596
 21
36.2883650885
 31
0.0
  0
LINE
  5
2ED
330
1F
100
AcDbEntity
  8
0
  6
Continuous
 62
     7
370
    15
100
AcDbLine
 10
3295.1845838596
 20
-1278.711692132
 30
0.0
 11
3255.33673306
 21
-1278.711692132
 31
0.0
  0
LINE
  5
2EE
330
1F
100
AcDbEntity
  8
0
  6
Continuous
 62
     7
370
    15
100
AcDbLine
 10
3255.33673306
 20
-1278.711692132
 30
0.0
 11
3255.33673306
 21
36.2883650885
 31
0.0
  0
LINE
  5
2EF
330
1F
100
AcDbEntity
  8
0
  6
Continuous
 62
     7
370
    15
100
AcDbLine
 10
3295.1845838596
 20
36.2883650885
 30
0.0
 11
3255.33673306
 21
36.2883650885
 31
0.0
  0
LINE
  5
2F0
330
1F
100
AcDbEntity
  8
0
  6
Continuous
 62
     7
370
    15
100
AcDbLine
 10
3225.9475900699
 20
-1278.711692132
 30
0.0
 11
3225.9475900699
 21
36.2883650885
 31
0.0
  0
LINE
  5
2F1
330
1F
100
AcDbEntity
  8
0
  6
Continuous
 62
     7
370
    15
100
AcDbLine
 10
3225.9475900699
 20
-1278.711692132
 30
0.0
 11
3215.4888822605
 21
-1278.711692132
 31
0.0
  0
LINE
  5
2F2
330
1F
100
AcDbEntity
  8
0
  6
Continuous
 62
     7
370
    15
100
AcDbLine
 10
3215.4888822605
 20
-1278.711692132
 30
0.0
 11
3215.4888822605
 21
36.2883650885
 31
0.0
  0
LINE
  5
2F3
330
1F
100
AcDbEntity
  8
0
  6
Continuous
 62
     7
370
    15
100
AcDbLine
 10
3225.9475900699
 20
36.2883650885
 30
0.0
 11
3215.4888822605
 21
36.2883650885
 31
0.0
  0
LINE
  5
2F4
330
1F
100
AcDbEntity
  8
0
  6
Continuous
 62
     7
370
    15
100
AcDbLine
 10
3215.4888822605
 20
-1278.711692132
 30
0.0
 11
3175.6410314609
 21
-1278.711692132
 31
0.0
  0
LINE
  5
2F5
330
1F
100
AcDbEntity
  8
0
  6
Continuous
 62
     7
370
    15
100
AcDbLine
 10
3175.6410314609
 20
-1278.711692132
 30
0.0
 11
3175.6410314609
 21
36.2883650885
 31
0.0
  0
LINE
  5
2F6
330
1F
100
AcDbEntity
  8
0
  6
Continuous
 62
     7
370
    15
100
AcDbLine
 10
3215.4888822605
 20
36.2883650885
 30
0.0
 11
3175.6410314609
 21
36.2883650885
 31
0.0
  0
LINE
  5
2F7
330
1F
100
AcDbEntity
  8
0
  6
Continuous
 62
     7
370
    15
100
AcDbLine
 10
3146.2521268894
 20
-1278.711692132
 30
0.0
 11
3146.2521268894
 21
36.2883650885
 31
0.0
  0
LINE
  5
2F8
330
1F
100
AcDbEntity
  8
0
  6
Continuous
 62
     7
370
    15
100
AcDbLine
 10
3146.2521268894
 20
-1278.711692132
 30
0.0
 11
3135.7934190799
 21
-1278.711692132
 31
0.0
  0
LINE
  5
2F9
330
1F
100
AcDbEntity
  8
0
  6
Continuous
 62
     7
370
    15
100
AcDbLine
 10
3135.7934190799
 20
-1278.711692132
 30
0.0
 11
3135.7934190799
 21
36.2883650885
 31
0.0
  0
LINE
  5
2FA
330
1F
100
AcDbEntity
  8
0
  6
Continuous
 62
     7
370
    15
100
AcDbLine
 10
3146.2521268894
 20
36.2883650885
 30
0.0
 11
3135.7934190799
 21
36.2883650885
 31
0.0
  0
LINE
  5
2FB
330
1F
100
AcDbEntity
  8
0
  6
Continuous
 62
     7
370
    15
100
AcDbLine
 10
3095.9455682804
 20
-1278.711692132
 30
0.0
 11
3095.9455682804
 21
36.2883650885
 31
0.0
  0
LINE
  5
2FC
330
1F
100
AcDbEntity
  8
0
  6
Continuous
 62
     7
370
    15
100
AcDbLine
 10
3135.7934190799
 20
-1278.711692132
 30
0.0
 11
3095.9455682804
 21
-1278.711692132
 31
0.0
  0
LINE
  5
2FD
330
1F
100
AcDbEntity
  8
0
  6
Continuous
 62
     7
370
    15
100
AcDbLine
 10
3135.7934190799
 20
36.2883650885
 30
0.0
 11
3095.9455682804
 21
36.2883650885
 31
0.0
  0
LINE
  5
2FE
330
1F
100
AcDbEntity
  8
0
  6
Continuous
 62
     7
370
    15
100
AcDbLine
 10
2986.8608429004
 20
-1278.711692132
 30
0.0
 11
2986.8608429004
 21
36.2883650885
 31
0.0
  0
LINE
  5
2FF
330
1F
100
AcDbEntity
  8
0
  6
Continuous
 62
     7
370
    15
100
AcDbLine
 10
2986.8608429004
 20
-1278.711692132
 30
0.0
 11
2976.4022543002
 21
-1278.711692132
 31
0.0
  0
LINE
  5
300
330
1F
100
AcDbEntity
  8
0
  6
Continuous
 62
     7
370
    15
100
AcDbLine
 10
2976.4022543002
 20
-1278.711692132
 30
0.0
 11
2976.4022543002
 21
36.2883650885
 31
0.0
  0
LINE
  5
301
330
1F
100
AcDbEntity
  8
0
  6
Continuous
 62
     7
370
    15
100
AcDbLine
 10
2986.8608429004
 20
36.2883650885
 30
0.0
 11
2976.4022543002
 21
36.2883650885
 31
0.0
  0
LINE
  5
302
330
1F
100
AcDbEntity
  8
0
  6
Continuous
 62
     7
370
    15
100
AcDbLine
 10
2936.5544035007
 20
-1278.711692132
 30
0.0
 11
2936.5544035007
 21
36.2883650885
 31
0.0
  0
LINE
  5
303
330
1F
100
AcDbEntity
  8
0
  6
Continuous
 62
     7
370
    15
100
AcDbLine
 10
2976.4022543002
 20
-1278.711692132
 30
0.0
 11
2936.5544035007
 21
-1278.711692132
 31
0.0
  0
LINE
  5
304
330
1F
100
AcDbEntity
  8
0
  6
Continuous
 62
     7
370
    15
100
AcDbLine
 10
2976.4022543002
 20
36.2883650885
 30
0.0
 11
2936.5544035007
 21
36.2883650885
 31
0.0
  0
LINE
  5
305
330
1F
100
AcDbEntity
  8
0
  6
Continuous
 62
     7
370
    15
100
AcDbLine
 10
2896.7066719104
 20
-1278.711692132
 30
0.0
 11
2896.7066719104
 21
36.2883650885
 31
0.0
  0
LINE
  5
306
330
1F
100
AcDbEntity
  8
0
  6
Continuous
 62
     7
370
    15
100
AcDbLine
 10
2896.7066719104
 20
-1278.711692132
 30
0.0
 11
2856.8588211109
 21
-1278.711692132
 31
0.0
  0
LINE
  5
307
330
1F
100
AcDbEntity
  8
0
  6
Continuous
 62
     7
370
    15
100
AcDbLine
 10
2856.8588211109
 20
-1278.711692132
 30
0.0
 11
2856.8588211109
 21
36.2883650885
 31
0.0
  0
LINE
  5
308
330
1F
100
AcDbEntity
  8
0
  6
Continuous
 62
     7
370
    15
100
AcDbLine
 10
2896.7066719104
 20
36.2883650885
 30
0.0
 11
2856.8588211109
 21
36.2883650885
 31
0.0
  0
LINE
  5
309
330
1F
100
AcDbEntity
  8
0
  6
Continuous
 62
     7
370
    15
100
AcDbLine
 10
2907.1652605106
 20
-1278.711692132
 30
0.0
 11
2907.1652605106
 21
36.2883650885
 31
0.0
  0
LINE
  5
30A
330
1F
100
AcDbEntity
  8
0
  6
Continuous
 62
     7
370
    15
100
AcDbLine
 10
2907.1652605106
 20
-1278.711692132
 30
0.0
 11
2896.7066719104
 21
-1278.711692132
 31
0.0
  0
LINE
  5
30B
330
1F
100
AcDbEntity
  8
0
  6
Continuous
 62
     7
370
    15
100
AcDbLine
 10
2907.1652605106
 20
36.2883650885
 30
0.0
 11
2896.7066719104
 21
36.2883650885
 31
0.0
  0
LINE
  5
30C
330
1F
100
AcDbEntity
  8
0
  6
Continuous
 62
     7
370
    15
100
AcDbLine
 10
2817.0110895206
 20
-1278.711692132
 30
0.0
 11
2817.0110895206
 21
36.2883650885
 31
0.0
  0
LINE
  5
30D
330
1F
100
AcDbEntity
  8
0
  6
Continuous
 62
     7
370
    15
100
AcDbLine
 10
2777.163238721
 20
-1278.711692132
 30
0.0
 11
2777.163238721
 21
36.2883650885
 31
0.0
  0
LINE
  5
30E
330
1F
100
AcDbEntity
  8
0
  6
Continuous
 62
     7
370
    15
100
AcDbLine
 10
2817.0110895206
 20
36.2883650885
 30
0.0
 11
2777.163238721
 21
36.2883650885
 31
0.0
  0
LINE
  5
30F
330
1F
100
AcDbEntity
  8
0
  6
Continuous
 62
     7
370
    15
100
AcDbLine
 10
2817.0110895206
 20
-1278.711692132
 30
0.0
 11
2777.163238721
 21
-1278.711692132
 31
0.0
  0
LINE
  5
310
330
1F
100
AcDbEntity
  8
0
  6
Continuous
 62
     7
370
    15
100
AcDbLine
 10
2827.46979733
 20
-1278.711692132
 30
0.0
 11
2827.46979733
 21
36.2883650885
 31
0.0
  0
LINE
  5
311
330
1F
100
AcDbEntity
  8
0
  6
Continuous
 62
     7
370
    15
100
AcDbLine
 10
2827.46979733
 20
36.2883650885
 30
0.0
 11
2817.0110895206
 21
36.2883650885
 31
0.0
  0
LINE
  5
312
330
1F
100
AcDbEntity
  8
0
  6
Continuous
 62
     7
370
    15
100
AcDbLine
 10
2827.46979733
 20
-1278.711692132
 30
0.0
 11
2817.0110895206
 21
-1278.711692132
 31
0.0
  0
LINE
  5
313
330
1F
100
AcDbEntity
  8
0
  6
Continuous
 62
     7
370
    15
100
AcDbLine
 10
2338.8375951816
 20
-1278.711692132
 30
0.0
 11
2338.8375951816
 21
36.2883650885
 31
0.0
  0
LINE
  5
314
330
1F
100
AcDbEntity
  8
0
  6
Continuous
 62
     7
370
    15
100
AcDbLine
 10
2338.8375951816
 20
-1278.711692132
 30
0.0
 11
2298.9898635913
 21
-1278.711692132
 31
0.0
  0
LINE
  5
315
330
1F
100
AcDbEntity
  8
0
  6
Continuous
 62
     7
370
    15
100
AcDbLine
 10
2298.9898635913
 20
-1278.711692132
 30
0.0
 11
2298.9898635913
 21
36.2883650885
 31
0.0
  0
LINE
  5
316
330
1F
100
AcDbEntity
  8
0
  6
Continuous
 62
     7
370
    15
100
AcDbLine
 10
2338.8375951816
 20
36.2883650885
 30
0.0
 11
2298.9898635913
 21
36.2883650885
 31
0.0
  0
LINE
  5
317
330
1F
100
AcDbEntity
  8
0
  6
Continuous
 62
     7
370
    15
100
AcDbLine
 10
2349.296302991
 20
-1278.711692132
 30
0.0
 11
2349.296302991
 21
36.2883650885
 31
0.0
  0
LINE
  5
318
330
1F
100
AcDbEntity
  8
0
  6
Continuous
 62
     7
370
    15
100
AcDbLine
 10
2349.296302991
 20
36.2883650885
 30
0.0
 11
2338.8375951816
 21
36.2883650885
 31
0.0
  0
LINE
  5
319
330
1F
100
AcDbEntity
  8
0
  6
Continuous
 62
     7
370
    15
100
AcDbLine
 10
2349.296302991
 20
-1278.711692132
 30
0.0
 11
2338.8375951816
 21
-1278.711692132
 31
0.0
  0
LINE
  5
31A
330
1F
100
AcDbEntity
  8
0
  6
Continuous
 62
     7
370
    15
100
AcDbLine
 10
2657.6199247409
 20
-1278.711692132
 30
0.0
 11
2657.6199247409
 21
36.2883650885
 31
0.0
  0
LINE
  5
31B
330
1F
100
AcDbEntity
  8
0
  6
Continuous
 62
     7
370
    15
100
AcDbLine
 10
2657.6199247409
 20
-1278.711692132
 30
0.0
 11
2617.7720739414
 21
-1278.711692132
 31
0.0
  0
LINE
  5
31C
330
1F
100
AcDbEntity
  8
0
  6
Continuous
 62
     7
370
    15
100
AcDbLine
 10
2617.7720739414
 20
-1278.711692132
 30
0.0
 11
2617.7720739414
 21
36.2883650885
 31
0.0
  0
LINE
  5
31D
330
1F
100
AcDbEntity
  8
0
  6
Continuous
 62
     7
370
    15
100
AcDbLine
 10
2657.6199247409
 20
36.2883650885
 30
0.0
 11
2617.7720739414
 21
36.2883650885
 31
0.0
  0
LINE
  5
31E
330
1F
100
AcDbEntity
  8
0
  6
Continuous
 62
     7
370
    15
100
AcDbLine
 10
2668.0786325504
 20
-1278.711692132
 30
0.0
 11
2668.0786325504
 21
36.2883650885
 31
0.0
  0
LINE
  5
31F
330
1F
100
AcDbEntity
  8
0
  6
Continuous
 62
     7
370
    15
100
AcDbLine
 10
2668.0786325504
 20
36.2883650885
 30
0.0
 11
2657.6199247409
 21
36.2883650885
 31
0.0
  0
LINE
  5
320
330
1F
100
AcDbEntity
  8
0
  6
Continuous
 62
     7
370
    15
100
AcDbLine
 10
2668.0786325504
 20
-1278.711692132
 30
0.0
 11
2657.6199247409
 21
-1278.711692132
 31
0.0
  0
LINE
  5
321
330
1F
100
AcDbEntity
  8
0
  6
Continuous
 62
     7
370
    15
100
AcDbLine
 10
3534.2712118198
 20
161.2883650885
 30
0.0
 11
3534.2712118198
 21
1476.288422309
 31
0.0
  0
LINE
  5
322
330
1F
100
AcDbEntity
  8
0
  6
Continuous
 62
     7
370
    15
100
AcDbLine
 10
3494.4233610202
 20
161.2883650885
 30
0.0
 11
3494.4233610202
 21
1476.288422309
 31
0.0
  0
LINE
  5
323
330
1F
100
AcDbEntity
  8
0
  6
Continuous
 62
     7
370
    15
100
AcDbLine
 10
3534.2712118198
 20
1476.288422309
 30
0.0
 11
3494.4233610202
 21
1476.288422309
 31
0.0
  0
LINE
  5
324
330
1F
100
AcDbEntity
  8
0
  6
Continuous
 62
     7
370
    15
100
AcDbLine
 10
3534.2712118198
 20
161.2883650885
 30
0.0
 11
3494.4233610202
 21
161.2883650885
 31
0.0
  0
LINE
  5
325
330
1F
100
AcDbEntity
  8
0
  6
Continuous
 62
     7
370
    15
100
AcDbLine
 10
3544.7299196292
 20
161.2883650885
 30
0.0
 11
3544.7299196292
 21
1476.288422309
 31
0.0
  0
LINE
  5
326
330
1F
100
AcDbEntity
  8
0
  6
Continuous
 62
     7
370
    15
100
AcDbLine
 10
3544.7299196292
 20
1476.288422309
 30
0.0
 11
3534.2712118198
 21
1476.288422309
 31
0.0
  0
LINE
  5
327
330
1F
100
AcDbEntity
  8
0
  6
Continuous
 62
     7
370
    15
100
AcDbLine
 10
3544.7299196292
 20
161.2883650885
 30
0.0
 11
3534.2712118198
 21
161.2883650885
 31
0.0
  0
LINE
  5
328
330
1F
100
AcDbEntity
  8
0
  6
Continuous
 62
     7
370
    15
100
AcDbLine
 10
3225.9475900699
 20
161.2883650885
 30
0.0
 11
3225.9475900699
 21
1476.288422309
 31
0.0
  0
LINE
  5
329
330
1F
100
AcDbEntity
  8
0
  6
Continuous
 62
     7
370
    15
100
AcDbLine
 10
3225.9475900699
 20
161.2883650885
 30
0.0
 11
3215.4888822605
 21
161.2883650885
 31
0.0
  0
LINE
  5
32A
330
1F
100
AcDbEntity
  8
0
  6
Continuous
 62
     7
370
    15
100
AcDbLine
 10
3215.4888822605
 20
161.2883650885
 30
0.0
 11
3215.4888822605
 21
1476.288422309
 31
0.0
  0
LINE
  5
32B
330
1F
100
AcDbEntity
  8
0
  6
Continuous
 62
     7
370
    15
100
AcDbLine
 10
3225.9475900699
 20
1476.288422309
 30
0.0
 11
3215.4888822605
 21
1476.288422309
 31
0.0
  0
LINE
  5
32C
330
1F
100
AcDbEntity
  8
0
  6
Continuous
 62
     7
370
    15
100
AcDbLine
 10
3175.6410314609
 20
161.2883650885
 30
0.0
 11
3175.6410314609
 21
1476.288422309
 31
0.0
  0
LINE
  5
32D
330
1F
100
AcDbEntity
  8
0
  6
Continuous
 62
     7
370
    15
100
AcDbLine
 10
3215.4888822605
 20
161.2883650885
 30
0.0
 11
3175.6410314609
 21
161.2883650885
 31
0.0
  0
LINE
  5
32E
330
1F
100
AcDbEntity
  8
0
  6
Continuous
 62
     7
370
    15
100
AcDbLine
 10
3215.4888822605
 20
1476.288422309
 30
0.0
 11
3175.6410314609
 21
1476.288422309
 31
0.0
  0
LINE
  5
32F
330
1F
100
AcDbEntity
  8
0
  6
Continuous
 62
     7
370
    15
100
AcDbLine
 10
3624.4253828098
 20
161.2883650885
 30
0.0
 11
3624.4253828098
 21
1476.288422309
 31
0.0
  0
LINE
  5
330
330
1F
100
AcDbEntity
  8
0
  6
Continuous
 62
     7
370
    15
100
AcDbLine
 10
3624.4253828098
 20
161.2883650885
 30
0.0
 11
3613.9669134189
 21
161.2883650885
 31
0.0
  0
LINE
  5
331
330
1F
100
AcDbEntity
  8
0
  6
Continuous
 62
     7
370
    15
100
AcDbLine
 10
3613.9669134189
 20
161.2883650885
 30
0.0
 11
3613.9669134189
 21
1476.288422309
 31
0.0
  0
LINE
  5
332
330
1F
100
AcDbEntity
  8
0
  6
Continuous
 62
     7
370
    15
100
AcDbLine
 10
3624.4253828098
 20
1476.288422309
 30
0.0
 11
3613.9669134189
 21
1476.288422309
 31
0.0
  0
LINE
  5
333
330
1F
100
AcDbEntity
  8
0
  6
Continuous
 62
     7
370
    15
100
AcDbLine
 10
3613.9669134189
 20
161.2883650885
 30
0.0
 11
3574.1190626193
 21
161.2883650885
 31
0.0
  0
LINE
  5
334
330
1F
100
AcDbEntity
  8
0
  6
Continuous
 62
     7
370
    15
100
AcDbLine
 10
3574.1190626193
 20
161.2883650885
 30
0.0
 11
3574.1190626193
 21
1476.288422309
 31
0.0
  0
LINE
  5
335
330
1F
100
AcDbEntity
  8
0
  6
Continuous
 62
     7
370
    15
100
AcDbLine
 10
3613.9669134189
 20
1476.288422309
 30
0.0
 11
3574.1190626193
 21
1476.288422309
 31
0.0
  0
LINE
  5
336
330
1F
100
AcDbEntity
  8
0
  6
Continuous
 62
     7
370
    15
100
AcDbLine
 10
2747.7742149402
 20
-1278.711692132
 30
0.0
 11
2747.7742149402
 21
36.2883650885
 31
0.0
  0
LINE
  5
337
330
1F
100
AcDbEntity
  8
0
  6
Continuous
 62
     7
370
    15
100
AcDbLine
 10
2747.7742149402
 20
-1278.711692132
 30
0.0
 11
2737.3155071308
 21
-1278.711692132
 31
0.0
  0
LINE
  5
338
330
1F
100
AcDbEntity
  8
0
  6
Continuous
 62
     7
370
    15
100
AcDbLine
 10
2737.3155071308
 20
-1278.711692132
 30
0.0
 11
2737.3155071308
 21
36.2883650885
 31
0.0
  0
LINE
  5
339
330
1F
100
AcDbEntity
  8
0
  6
Continuous
 62
     7
370
    15
100
AcDbLine
 10
2747.7742149402
 20
36.2883650885
 30
0.0
 11
2737.3155071308
 21
36.2883650885
 31
0.0
  0
LINE
  5
33A
330
1F
100
AcDbEntity
  8
0
  6
Continuous
 62
     7
370
    15
100
AcDbLine
 10
2737.3155071308
 20
-1278.711692132
 30
0.0
 11
2697.4676563312
 21
-1278.711692132
 31
0.0
  0
LINE
  5
33B
330
1F
100
AcDbEntity
  8
0
  6
Continuous
 62
     7
370
    15
100
AcDbLine
 10
2697.4676563312
 20
-1278.711692132
 30
0.0
 11
2697.4676563312
 21
36.2883650885
 31
0.0
  0
LINE
  5
33C
330
1F
100
AcDbEntity
  8
0
  6
Continuous
 62
     7
370
    15
100
AcDbLine
 10
2737.3155071308
 20
36.2883650885
 30
0.0
 11
2697.4676563312
 21
36.2883650885
 31
0.0
  0
LINE
  5
33D
330
1F
100
AcDbEntity
  8
0
  6
Continuous
 62
     7
370
    15
100
AcDbLine
 10
1860.6641604473
 20
-1278.711692132
 30
0.0
 11
1860.6641604473
 21
36.2883650885
 31
0.0
  0
LINE
  5
33E
330
1F
100
AcDbEntity
  8
0
  6
Continuous
 62
     7
370
    15
100
AcDbLine
 10
1820.8163692523
 20
-1278.711692132
 30
0.0
 11
1820.8163692523
 21
36.2883650885
 31
0.0
  0
LINE
  5
33F
330
1F
100
AcDbEntity
  8
0
  6
Continuous
 62
     7
370
    15
100
AcDbLine
 10
1860.6641604473
 20
36.2883650885
 30
0.0
 11
1820.8163692523
 21
36.2883650885
 31
0.0
  0
LINE
  5
340
330
1F
100
AcDbEntity
  8
0
  6
Continuous
 62
     7
370
    15
100
AcDbLine
 10
1860.6641604473
 20
-1278.711692132
 30
0.0
 11
1820.8163692523
 21
-1278.711692132
 31
0.0
  0
LINE
  5
341
330
1F
100
AcDbEntity
  8
0
  6
Continuous
 62
     7
370
    15
100
AcDbLine
 10
1871.1228086521
 20
-1278.711692132
 30
0.0
 11
1871.1228086521
 21
36.2883650885
 31
0.0
  0
LINE
  5
342
330
1F
100
AcDbEntity
  8
0
  6
Continuous
 62
     7
370
    15
100
AcDbLine
 10
1871.1228086521
 20
36.2883650885
 30
0.0
 11
1860.6641604473
 21
36.2883650885
 31
0.0
  0
LINE
  5
343
330
1F
100
AcDbEntity
  8
0
  6
Continuous
 62
     7
370
    15
100
AcDbLine
 10
1871.1228086521
 20
-1278.711692132
 30
0.0
 11
1860.6641604473
 21
-1278.711692132
 31
0.0
  0
LINE
  5
344
330
1F
100
AcDbEntity
  8
0
  6
Continuous
 62
     7
370
    15
100
AcDbLine
 10
1153.8626491
 20
-1278.711692132
 30
0.0
 11
1153.8626491
 21
36.2883650885
 31
0.0
  0
LINE
  5
345
330
1F
100
AcDbEntity
  8
0
  6
Continuous
 62
     7
370
    15
100
AcDbLine
 10
1153.8626491
 20
-1278.711692132
 30
0.0
 11
1143.4039561917
 21
-1278.711692132
 31
0.0
  0
LINE
  5
346
330
1F
100
AcDbEntity
  8
0
  6
Continuous
 62
     7
370
    15
100
AcDbLine
 10
1143.4039561917
 20
-1278.711692132
 30
0.0
 11
1143.4039561917
 21
36.2883650885
 31
0.0
  0
LINE
  5
347
330
1F
100
AcDbEntity
  8
0
  6
Continuous
 62
     7
370
    15
100
AcDbLine
 10
1153.8626491
 20
36.2883650885
 30
0.0
 11
1143.4039561917
 21
36.2883650885
 31
0.0
  0
LINE
  5
348
330
1F
100
AcDbEntity
  8
0
  6
Continuous
 62
     7
370
    15
100
AcDbLine
 10
1143.4039561917
 20
-1278.711692132
 30
0.0
 11
1103.5561696534
 21
-1278.711692132
 31
0.0
  0
LINE
  5
349
330
1F
100
AcDbEntity
  8
0
  6
Continuous
 62
     7
370
    15
100
AcDbLine
 10
1103.5561696534
 20
-1278.711692132
 30
0.0
 11
1103.5561696534
 21
36.2883650885
 31
0.0
  0
LINE
  5
34A
330
1F
100
AcDbEntity
  8
0
  6
Continuous
 62
     7
370
    15
100
AcDbLine
 10
1143.4039561917
 20
36.2883650885
 30
0.0
 11
1103.5561696534
 21
36.2883650885
 31
0.0
  0
LINE
  5
34B
330
1F
100
AcDbEntity
  8
0
  6
Continuous
 62
     7
370
    15
100
AcDbLine
 10
2577.9243423511
 20
-1278.711692132
 30
0.0
 11
2577.9243423511
 21
36.2883650885
 31
0.0
  0
LINE
  5
34C
330
1F
100
AcDbEntity
  8
0
  6
Continuous
 62
     7
370
    15
100
AcDbLine
 10
2577.9243423511
 20
-1278.711692132
 30
0.0
 11
2538.0764915515
 21
-1278.711692132
 31
0.0
  0
LINE
  5
34D
330
1F
100
AcDbEntity
  8
0
  6
Continuous
 62
     7
370
    15
100
AcDbLine
 10
2538.0764915515
 20
-1278.711692132
 30
0.0
 11
2538.0764915515
 21
36.2883650885
 31
0.0
  0
LINE
  5
34E
330
1F
100
AcDbEntity
  8
0
  6
Continuous
 62
     7
370
    15
100
AcDbLine
 10
2577.9243423511
 20
36.2883650885
 30
0.0
 11
2538.0764915515
 21
36.2883650885
 31
0.0
  0
LINE
  5
34F
330
1F
100
AcDbEntity
  8
0
  6
Continuous
 62
     7
370
    15
100
AcDbLine
 10
2588.3830501605
 20
-1278.711692132
 30
0.0
 11
2588.3830501605
 21
36.2883650885
 31
0.0
  0
LINE
  5
350
330
1F
100
AcDbEntity
  8
0
  6
Continuous
 62
     7
370
    15
100
AcDbLine
 10
2588.3830501605
 20
-1278.711692132
 30
0.0
 11
2577.9243423511
 21
-1278.711692132
 31
0.0
  0
LINE
  5
351
330
1F
100
AcDbEntity
  8
0
  6
Continuous
 62
     7
370
    15
100
AcDbLine
 10
2588.3830501605
 20
36.2883650885
 30
0.0
 11
2577.9243423511
 21
36.2883650885
 31
0.0
  0
LINE
  5
352
330
1F
100
AcDbEntity
  8
0
  6
Continuous
 62
     7
370
    15
100
AcDbLine
 10
2498.2287599613
 20
-1278.711692132
 30
0.0
 11
2498.2287599613
 21
36.2883650885
 31
0.0
  0
LINE
  5
353
330
1F
100
AcDbEntity
  8
0
  6
Continuous
 62
     7
370
    15
100
AcDbLine
 10
2498.2287599613
 20
-1278.711692132
 30
0.0
 11
2458.3809091617
 21
-1278.711692132
 31
0.0
  0
LINE
  5
354
330
1F
100
AcDbEntity
  8
0
  6
Continuous
 62
     7
370
    15
100
AcDbLine
 10
2458.3809091617
 20
-1278.711692132
 30
0.0
 11
2458.3809091617
 21
36.2883650885
 31
0.0
  0
LINE
  5
355
330
1F
100
AcDbEntity
  8
0
  6
Continuous
 62
     7
370
    15
100
AcDbLine
 10
2498.2287599613
 20
36.2883650885
 30
0.0
 11
2458.3809091617
 21
36.2883650885
 31
0.0
  0
LINE
  5
356
330
1F
100
AcDbEntity
  8
0
  6
Continuous
 62
     7
370
    15
100
AcDbLine
 10
2508.6874677707
 20
-1278.711692132
 30
0.0
 11
2508.6874677707
 21
36.2883650885
 31
0.0
  0
LINE
  5
357
330
1F
100
AcDbEntity
  8
0
  6
Continuous
 62
     7
370
    15
100
AcDbLine
 10
2508.6874677707
 20
-1278.711692132
 30
0.0
 11
2498.2287599613
 21
-1278.711692132
 31
0.0
  0
LINE
  5
358
330
1F
100
AcDbEntity
  8
0
  6
Continuous
 62
     7
370
    15
100
AcDbLine
 10
2508.6874677707
 20
36.2883650885
 30
0.0
 11
2498.2287599613
 21
36.2883650885
 31
0.0
  0
LINE
  5
359
330
1F
100
AcDbEntity
  8
0
  6
Continuous
 62
     7
370
    15
100
AcDbLine
 10
3146.2521268894
 20
161.2883650885
 30
0.0
 11
3146.2521268894
 21
1476.288422309
 31
0.0
  0
LINE
  5
35A
330
1F
100
AcDbEntity
  8
0
  6
Continuous
 62
     7
370
    15
100
AcDbLine
 10
3135.7934190799
 20
161.2883650885
 30
0.0
 11
3135.7934190799
 21
1476.288422309
 31
0.0
  0
LINE
  5
35B
330
1F
100
AcDbEntity
  8
0
  6
Continuous
 62
     7
370
    15
100
AcDbLine
 10
3146.2521268894
 20
1476.288422309
 30
0.0
 11
3135.7934190799
 21
1476.288422309
 31
0.0
  0
LINE
  5
35C
330
1F
100
AcDbEntity
  8
0
  6
Continuous
 62
     7
370
    15
100
AcDbLine
 10
3146.2521268894
 20
161.2883650885
 30
0.0
 11
3135.7934190799
 21
161.2883650885
 31
0.0
  0
LINE
  5
35D
330
1F
100
AcDbEntity
  8
0
  6
Continuous
 62
     7
370
    15
100
AcDbLine
 10
3095.9455682804
 20
161.2883650885
 30
0.0
 11
3095.9455682804
 21
1476.288422309
 31
0.0
  0
LINE
  5
35E
330
1F
100
AcDbEntity
  8
0
  6
Continuous
 62
     7
370
    15
100
AcDbLine
 10
3135.7934190799
 20
1476.288422309
 30
0.0
 11
3095.9455682804
 21
1476.288422309
 31
0.0
  0
LINE
  5
35F
330
1F
100
AcDbEntity
  8
0
  6
Continuous
 62
     7
370
    15
100
AcDbLine
 10
3135.7934190799
 20
161.2883650885
 30
0.0
 11
3095.9455682804
 21
161.2883650885
 31
0.0
  0
LINE
  5
360
330
1F
100
AcDbEntity
  8
0
  6
Continuous
 62
     7
370
    15
100
AcDbLine
 10
2418.5331775714
 20
-1278.711692132
 30
0.0
 11
2418.5331775714
 21
36.2883650885
 31
0.0
  0
LINE
  5
361
330
1F
100
AcDbEntity
  8
0
  6
Continuous
 62
     7
370
    15
100
AcDbLine
 10
2418.5331775714
 20
-1278.711692132
 30
0.0
 11
2378.6853267719
 21
-1278.711692132
 31
0.0
  0
LINE
  5
362
330
1F
100
AcDbEntity
  8
0
  6
Continuous
 62
     7
370
    15
100
AcDbLine
 10
2378.6853267719
 20
-1278.711692132
 30
0.0
 11
2378.6853267719
 21
36.2883650885
 31
0.0
  0
LINE
  5
363
330
1F
100
AcDbEntity
  8
0
  6
Continuous
 62
     7
370
    15
100
AcDbLine
 10
2418.5331775714
 20
36.2883650885
 30
0.0
 11
2378.6853267719
 21
36.2883650885
 31
0.0
  0
LINE
  5
364
330
1F
100
AcDbEntity
  8
0
  6
Continuous
 62
     7
370
    15
100
AcDbLine
 10
2428.9918853809
 20
-1278.711692132
 30
0.0
 11
2428.9918853809
 21
36.2883650885
 31
0.0
  0
LINE
  5
365
330
1F
100
AcDbEntity
  8
0
  6
Continuous
 62
     7
370
    15
100
AcDbLine
 10
2428.9918853809
 20
-1278.711692132
 30
0.0
 11
2418.5331775714
 21
-1278.711692132
 31
0.0
  0
LINE
  5
366
330
1F
100
AcDbEntity
  8
0
  6
Continuous
 62
     7
370
    15
100
AcDbLine
 10
2428.9918853809
 20
36.2883650885
 30
0.0
 11
2418.5331775714
 21
36.2883650885
 31
0.0
  0
LINE
  5
367
330
1F
100
AcDbEntity
  8
0
  6
Continuous
 62
     7
370
    15
100
AcDbLine
 10
2259.1420127918
 20
-1278.711692132
 30
0.0
 11
2259.1420127918
 21
36.2883650885
 31
0.0
  0
LINE
  5
368
330
1F
100
AcDbEntity
  8
0
  6
Continuous
 62
     7
370
    15
100
AcDbLine
 10
2219.2942812015
 20
-1278.711692132
 30
0.0
 11
2219.2942812015
 21
36.2883650885
 31
0.0
  0
LINE
  5
369
330
1F
100
AcDbEntity
  8
0
  6
Continuous
 62
     7
370
    15
100
AcDbLine
 10
2259.1420127918
 20
-1278.711692132
 30
0.0
 11
2219.2942812015
 21
-1278.711692132
 31
0.0
  0
LINE
  5
36A
330
1F
100
AcDbEntity
  8
0
  6
Continuous
 62
     7
370
    15
100
AcDbLine
 10
2259.1420127918
 20
36.2883650885
 30
0.0
 11
2219.2942812015
 21
36.2883650885
 31
0.0
  0
LINE
  5
36B
330
1F
100
AcDbEntity
  8
0
  6
Continuous
 62
     7
370
    15
100
AcDbLine
 10
2269.6007206012
 20
-1278.711692132
 30
0.0
 11
2269.6007206012
 21
36.2883650885
 31
0.0
  0
LINE
  5
36C
330
1F
100
AcDbEntity
  8
0
  6
Continuous
 62
     7
370
    15
100
AcDbLine
 10
2269.6007206012
 20
-1278.711692132
 30
0.0
 11
2259.1420127918
 21
-1278.711692132
 31
0.0
  0
LINE
  5
36D
330
1F
100
AcDbEntity
  8
0
  6
Continuous
 62
     7
370
    15
100
AcDbLine
 10
2269.6007206012
 20
36.2883650885
 30
0.0
 11
2259.1420127918
 21
36.2883650885
 31
0.0
  0
LINE
  5
36E
330
1F
100
AcDbEntity
  8
0
  6
Continuous
 62
     7
370
    15
100
AcDbLine
 10
2189.9051382114
 20
-1278.711692132
 30
0.0
 11
2189.9051382114
 21
36.2883650885
 31
0.0
  0
LINE
  5
36F
330
1F
100
AcDbEntity
  8
0
  6
Continuous
 62
     7
370
    15
100
AcDbLine
 10
2179.4464304019
 20
-1278.711692132
 30
0.0
 11
2179.4464304019
 21
36.2883650885
 31
0.0
  0
LINE
  5
370
330
1F
100
AcDbEntity
  8
0
  6
Continuous
 62
     7
370
    15
100
AcDbLine
 10
2189.9051382114
 20
-1278.711692132
 30
0.0
 11
2179.4464304019
 21
-1278.711692132
 31
0.0
  0
LINE
  5
371
330
1F
100
AcDbEntity
  8
0
  6
Continuous
 62
     7
370
    15
100
AcDbLine
 10
2189.9051382114
 20
36.2883650885
 30
0.0
 11
2179.4464304019
 21
36.2883650885
 31
0.0
  0
LINE
  5
372
330
1F
100
AcDbEntity
  8
0
  6
Continuous
 62
     7
370
    15
100
AcDbLine
 10
2139.5986988117
 20
-1278.711692132
 30
0.0
 11
2139.5986988117
 21
36.2883650885
 31
0.0
  0
LINE
  5
373
330
1F
100
AcDbEntity
  8
0
  6
Continuous
 62
     7
370
    15
100
AcDbLine
 10
2179.4464304019
 20
-1278.711692132
 30
0.0
 11
2139.5986988117
 21
-1278.711692132
 31
0.0
  0
LINE
  5
374
330
1F
100
AcDbEntity
  8
0
  6
Continuous
 62
     7
370
    15
100
AcDbLine
 10
2179.4464304019
 20
36.2883650885
 30
0.0
 11
2139.5986988117
 21
36.2883650885
 31
0.0
  0
LINE
  5
375
330
1F
100
AcDbEntity
  8
0
  6
Continuous
 62
     7
370
    15
100
AcDbLine
 10
1541.8818308879
 20
-1278.711692132
 30
0.0
 11
1541.8818308879
 21
36.2883650885
 31
0.0
  0
LINE
  5
376
330
1F
100
AcDbEntity
  8
0
  6
Continuous
 62
     7
370
    15
100
AcDbLine
 10
1502.034039693
 20
-1278.711692132
 30
0.0
 11
1502.034039693
 21
36.2883650885
 31
0.0
  0
LINE
  5
377
330
1F
100
AcDbEntity
  8
0
  6
Continuous
 62
     7
370
    15
100
AcDbLine
 10
1541.8818308879
 20
36.2883650885
 30
0.0
 11
1502.034039693
 21
36.2883650885
 31
0.0
  0
LINE
  5
378
330
1F
100
AcDbEntity
  8
0
  6
Continuous
 62
     7
370
    15
100
AcDbLine
 10
1541.8818308879
 20
-1278.711692132
 30
0.0
 11
1502.034039693
 21
-1278.711692132
 31
0.0
  0
LINE
  5
379
330
1F
100
AcDbEntity
  8
0
  6
Continuous
 62
     7
370
    15
100
AcDbLine
 10
1552.3405386974
 20
-1278.711692132
 30
0.0
 11
1552.3405386974
 21
36.2883650885
 31
0.0
  0
LINE
  5
37A
330
1F
100
AcDbEntity
  8
0
  6
Continuous
 62
     7
370
    15
100
AcDbLine
 10
1552.3405386974
 20
36.2883650885
 30
0.0
 11
1541.8818308879
 21
36.2883650885
 31
0.0
  0
LINE
  5
37B
330
1F
100
AcDbEntity
  8
0
  6
Continuous
 62
     7
370
    15
100
AcDbLine
 10
1552.3405386974
 20
-1278.711692132
 30
0.0
 11
1541.8818308879
 21
-1278.711692132
 31
0.0
  0
LINE
  5
37C
330
1F
100
AcDbEntity
  8
0
  6
Continuous
 62
     7
370
    15
100
AcDbLine
 10
1382.4906959106
 20
-1278.711692132
 30
0.0
 11
1382.4906959106
 21
36.2883650885
 31
0.0
  0
LINE
  5
37D
330
1F
100
AcDbEntity
  8
0
  6
Continuous
 62
     7
370
    15
100
AcDbLine
 10
1382.4906959106
 20
-1278.711692132
 30
0.0
 11
1342.6429047157
 21
-1278.711692132
 31
0.0
  0
LINE
  5
37E
330
1F
100
AcDbEntity
  8
0
  6
Continuous
 62
     7
370
    15
100
AcDbLine
 10
1342.6429047157
 20
-1278.711692132
 30
0.0
 11
1342.6429047157
 21
36.2883650885
 31
0.0
  0
LINE
  5
37F
330
1F
100
AcDbEntity
  8
0
  6
Continuous
 62
     7
370
    15
100
AcDbLine
 10
1382.4906959106
 20
36.2883650885
 30
0.0
 11
1342.6429047157
 21
36.2883650885
 31
0.0
  0
LINE
  5
380
330
1F
100
AcDbEntity
  8
0
  6
Continuous
 62
     7
370
    15
100
AcDbLine
 10
1392.9493739177
 20
-1278.711692132
 30
0.0
 11
1392.9493739177
 21
36.2883650885
 31
0.0
  0
LINE
  5
381
330
1F
100
AcDbEntity
  8
0
  6
Continuous
 62
     7
370
    15
100
AcDbLine
 10
1392.9493739177
 20
-1278.711692132
 30
0.0
 11
1382.4906959106
 21
-1278.711692132
 31
0.0
  0
LINE
  5
382
330
1F
100
AcDbEntity
  8
0
  6
Continuous
 62
     7
370
    15
100
AcDbLine
 10
1392.9493739177
 20
36.2883650885
 30
0.0
 11
1382.4906959106
 21
36.2883650885
 31
0.0
  0
LINE
  5
383
330
1F
100
AcDbEntity
  8
0
  6
Continuous
 62
     7
370
    15
100
AcDbLine
 10
2110.2095558215
 20
-1278.711692132
 30
0.0
 11
2110.2095558215
 21
36.2883650885
 31
0.0
  0
LINE
  5
384
330
1F
100
AcDbEntity
  8
0
  6
Continuous
 62
     7
370
    15
100
AcDbLine
 10
2110.2095558215
 20
-1278.711692132
 30
0.0
 11
2099.7508480121
 21
-1278.711692132
 31
0.0
  0
LINE
  5
385
330
1F
100
AcDbEntity
  8
0
  6
Continuous
 62
     7
370
    15
100
AcDbLine
 10
2099.7508480121
 20
-1278.711692132
 30
0.0
 11
2099.7508480121
 21
36.2883650885
 31
0.0
  0
LINE
  5
386
330
1F
100
AcDbEntity
  8
0
  6
Continuous
 62
     7
370
    15
100
AcDbLine
 10
2110.2095558215
 20
36.2883650885
 30
0.0
 11
2099.7508480121
 21
36.2883650885
 31
0.0
  0
LINE
  5
387
330
1F
100
AcDbEntity
  8
0
  6
Continuous
 62
     7
370
    15
100
AcDbLine
 10
2059.9030568172
 20
-1278.711692132
 30
0.0
 11
2059.9030568172
 21
36.2883650885
 31
0.0
  0
LINE
  5
388
330
1F
100
AcDbEntity
  8
0
  6
Continuous
 62
     7
370
    15
100
AcDbLine
 10
2099.7508480121
 20
-1278.711692132
 30
0.0
 11
2059.9030568172
 21
-1278.711692132
 31
0.0
  0
LINE
  5
389
330
1F
100
AcDbEntity
  8
0
  6
Continuous
 62
     7
370
    15
100
AcDbLine
 10
2099.7508480121
 20
36.2883650885
 30
0.0
 11
2059.9030568172
 21
36.2883650885
 31
0.0
  0
LINE
  5
38A
330
1F
100
AcDbEntity
  8
0
  6
Continuous
 62
     7
370
    15
100
AcDbLine
 10
1632.0361210872
 20
-1278.711692132
 30
0.0
 11
1632.0361210872
 21
36.2883650885
 31
0.0
  0
LINE
  5
38B
330
1F
100
AcDbEntity
  8
0
  6
Continuous
 62
     7
370
    15
100
AcDbLine
 10
1621.5774132778
 20
-1278.711692132
 30
0.0
 11
1621.5774132778
 21
36.2883650885
 31
0.0
  0
LINE
  5
38C
330
1F
100
AcDbEntity
  8
0
  6
Continuous
 62
     7
370
    15
100
AcDbLine
 10
1632.0361210872
 20
-1278.711692132
 30
0.0
 11
1621.5774132778
 21
-1278.711692132
 31
0.0
  0
LINE
  5
38D
330
1F
100
AcDbEntity
  8
0
  6
Continuous
 62
     7
370
    15
100
AcDbLine
 10
1632.0361210872
 20
36.2883650885
 30
0.0
 11
1621.5774132778
 21
36.2883650885
 31
0.0
  0
LINE
  5
38E
330
1F
100
AcDbEntity
  8
0
  6
Continuous
 62
     7
370
    15
100
AcDbLine
 10
1581.7296220828
 20
-1278.711692132
 30
0.0
 11
1581.7296220828
 21
36.2883650885
 31
0.0
  0
LINE
  5
38F
330
1F
100
AcDbEntity
  8
0
  6
Continuous
 62
     7
370
    15
100
AcDbLine
 10
1621.5774132778
 20
-1278.711692132
 30
0.0
 11
1581.7296220828
 21
-1278.711692132
 31
0.0
  0
LINE
  5
390
330
1F
100
AcDbEntity
  8
0
  6
Continuous
 62
     7
370
    15
100
AcDbLine
 10
1621.5774132778
 20
36.2883650885
 30
0.0
 11
1581.7296220828
 21
36.2883650885
 31
0.0
  0
LINE
  5
391
330
1F
100
AcDbEntity
  8
0
  6
Continuous
 62
     7
370
    15
100
AcDbLine
 10
1313.2537915279
 20
-1278.711692132
 30
0.0
 11
1313.2537915279
 21
36.2883650885
 31
0.0
  0
LINE
  5
392
330
1F
100
AcDbEntity
  8
0
  6
Continuous
 62
     7
370
    15
100
AcDbLine
 10
1313.2537915279
 20
-1278.711692132
 30
0.0
 11
1302.7951135208
 21
-1278.711692132
 31
0.0
  0
LINE
  5
393
330
1F
100
AcDbEntity
  8
0
  6
Continuous
 62
     7
370
    15
100
AcDbLine
 10
1302.7951135208
 20
-1278.711692132
 30
0.0
 11
1302.7951135208
 21
36.2883650885
 31
0.0
  0
LINE
  5
394
330
1F
100
AcDbEntity
  8
0
  6
Continuous
 62
     7
370
    15
100
AcDbLine
 10
1313.2537915279
 20
36.2883650885
 30
0.0
 11
1302.7951135208
 21
36.2883650885
 31
0.0
  0
LINE
  5
395
330
1F
100
AcDbEntity
  8
0
  6
Continuous
 62
     7
370
    15
100
AcDbLine
 10
1262.9473223258
 20
-1278.711692132
 30
0.0
 11
1262.9473223258
 21
36.2883650885
 31
0.0
  0
LINE
  5
396
330
1F
100
AcDbEntity
  8
0
  6
Continuous
 62
     7
370
    15
100
AcDbLine
 10
1302.7951135208
 20
36.2883650885
 30
0.0
 11
1262.9473223258
 21
36.2883650885
 31
0.0
  0
LINE
  5
397
330
1F
100
AcDbEntity
  8
0
  6
Continuous
 62
     7
370
    15
100
AcDbLine
 10
1302.7951135208
 20
-1278.711692132
 30
0.0
 11
1262.9473223258
 21
-1278.711692132
 31
0.0
  0
LINE
  5
398
330
1F
100
AcDbEntity
  8
0
  6
Continuous
 62
     7
370
    15
100
AcDbLine
 10
3295.1845838596
 20
161.2883650885
 30
0.0
 11
3295.1845838596
 21
1476.288422309
 31
0.0
  0
LINE
  5
399
330
1F
100
AcDbEntity
  8
0
  6
Continuous
 62
     7
370
    15
100
AcDbLine
 10
3295.1845838596
 20
161.2883650885
 30
0.0
 11
3255.33673306
 21
161.2883650885
 31
0.0
  0
LINE
  5
39A
330
1F
100
AcDbEntity
  8
0
  6
Continuous
 62
     7
370
    15
100
AcDbLine
 10
3255.33673306
 20
161.2883650885
 30
0.0
 11
3255.33673306
 21
1476.288422309
 31
0.0
  0
LINE
  5
39B
330
1F
100
AcDbEntity
  8
0
  6
Continuous
 62
     7
370
    15
100
AcDbLine
 10
3295.1845838596
 20
1476.288422309
 30
0.0
 11
3255.33673306
 21
1476.288422309
 31
0.0
  0
LINE
  5
39C
330
1F
100
AcDbEntity
  8
0
  6
Continuous
 62
     7
370
    15
100
AcDbLine
 10
3305.643291669
 20
161.2883650885
 30
0.0
 11
3305.643291669
 21
1476.288422309
 31
0.0
  0
LINE
  5
39D
330
1F
100
AcDbEntity
  8
0
  6
Continuous
 62
     7
370
    15
100
AcDbLine
 10
3305.643291669
 20
161.2883650885
 30
0.0
 11
3295.1845838596
 21
161.2883650885
 31
0.0
  0
LINE
  5
39E
330
1F
100
AcDbEntity
  8
0
  6
Continuous
 62
     7
370
    15
100
AcDbLine
 10
3305.643291669
 20
1476.288422309
 30
0.0
 11
3295.1845838596
 21
1476.288422309
 31
0.0
  0
LINE
  5
39F
330
1F
100
AcDbEntity
  8
0
  6
Continuous
 62
     7
370
    15
100
AcDbLine
 10
3056.0978366901
 20
161.2883650885
 30
0.0
 11
3056.0978366901
 21
1476.288422309
 31
0.0
  0
LINE
  5
3A0
330
1F
100
AcDbEntity
  8
0
  6
Continuous
 62
     7
370
    15
100
AcDbLine
 10
3016.2499858905
 20
161.2883650885
 30
0.0
 11
3016.2499858905
 21
1476.288422309
 31
0.0
  0
LINE
  5
3A1
330
1F
100
AcDbEntity
  8
0
  6
Continuous
 62
     7
370
    15
100
AcDbLine
 10
3056.0978366901
 20
1476.288422309
 30
0.0
 11
3016.2499858905
 21
1476.288422309
 31
0.0
  0
LINE
  5
3A2
330
1F
100
AcDbEntity
  8
0
  6
Continuous
 62
     7
370
    15
100
AcDbLine
 10
3056.0978366901
 20
161.2883650885
 30
0.0
 11
3016.2499858905
 21
161.2883650885
 31
0.0
  0
LINE
  5
3A3
330
1F
100
AcDbEntity
  8
0
  6
Continuous
 62
     7
370
    15
100
AcDbLine
 10
3066.5564252902
 20
161.2883650885
 30
0.0
 11
3066.5564252902
 21
1476.288422309
 31
0.0
  0
LINE
  5
3A4
330
1F
100
AcDbEntity
  8
0
  6
Continuous
 62
     7
370
    15
100
AcDbLine
 10
3066.5564252902
 20
1476.288422309
 30
0.0
 11
3056.0978366901
 21
1476.288422309
 31
0.0
  0
LINE
  5
3A5
330
1F
100
AcDbEntity
  8
0
  6
Continuous
 62
     7
370
    15
100
AcDbLine
 10
3066.5564252902
 20
161.2883650885
 30
0.0
 11
3056.0978366901
 21
161.2883650885
 31
0.0
  0
LINE
  5
3A6
330
1F
100
AcDbEntity
  8
0
  6
Continuous
 62
     7
370
    15
100
AcDbLine
 10
3374.8800470401
 20
-1278.711692132
 30
0.0
 11
3374.8800470401
 21
36.2883650885
 31
0.0
  0
LINE
  5
3A7
330
1F
100
AcDbEntity
  8
0
  6
Continuous
 62
     7
370
    15
100
AcDbLine
 10
3335.0321962406
 20
-1278.711692132
 30
0.0
 11
3335.0321962406
 21
36.2883650885
 31
0.0
  0
LINE
  5
3A8
330
1F
100
AcDbEntity
  8
0
  6
Continuous
 62
     7
370
    15
100
AcDbLine
 10
3374.8800470401
 20
-1278.711692132
 30
0.0
 11
3335.0321962406
 21
-1278.711692132
 31
0.0
  0
LINE
  5
3A9
330
1F
100
AcDbEntity
  8
0
  6
Continuous
 62
     7
370
    15
100
AcDbLine
 10
3374.8800470401
 20
36.2883650885
 30
0.0
 11
3335.0321962406
 21
36.2883650885
 31
0.0
  0
LINE
  5
3AA
330
1F
100
AcDbEntity
  8
0
  6
Continuous
 62
     7
370
    15
100
AcDbLine
 10
3385.3387548496
 20
-1278.711692132
 30
0.0
 11
3385.3387548496
 21
36.2883650885
 31
0.0
  0
LINE
  5
3AB
330
1F
100
AcDbEntity
  8
0
  6
Continuous
 62
     7
370
    15
100
AcDbLine
 10
3385.3387548496
 20
-1278.711692132
 30
0.0
 11
3374.8800470401
 21
-1278.711692132
 31
0.0
  0
LINE
  5
3AC
330
1F
100
AcDbEntity
  8
0
  6
Continuous
 62
     7
370
    15
100
AcDbLine
 10
3385.3387548496
 20
36.2883650885
 30
0.0
 11
3374.8800470401
 21
36.2883650885
 31
0.0
  0
LINE
  5
3AD
330
1F
100
AcDbEntity
  8
0
  6
Continuous
 62
     7
370
    15
100
AcDbLine
 10
1940.3597428371
 20
-1278.711692132
 30
0.0
 11
1940.3597428371
 21
36.2883650885
 31
0.0
  0
LINE
  5
3AE
330
1F
100
AcDbEntity
  8
0
  6
Continuous
 62
     7
370
    15
100
AcDbLine
 10
1900.5119516422
 20
-1278.711692132
 30
0.0
 11
1900.5119516422
 21
36.2883650885
 31
0.0
  0
LINE
  5
3AF
330
1F
100
AcDbEntity
  8
0
  6
Continuous
 62
     7
370
    15
100
AcDbLine
 10
1940.3597428371
 20
36.2883650885
 30
0.0
 11
1900.5119516422
 21
36.2883650885
 31
0.0
  0
LINE
  5
3B0
330
1F
100
AcDbEntity
  8
0
  6
Continuous
 62
     7
370
    15
100
AcDbLine
 10
1940.3597428371
 20
-1278.711692132
 30
0.0
 11
1900.5119516422
 21
-1278.711692132
 31
0.0
  0
LINE
  5
3B1
330
1F
100
AcDbEntity
  8
0
  6
Continuous
 62
     7
370
    15
100
AcDbLine
 10
1950.8183910419
 20
-1278.711692132
 30
0.0
 11
1950.8183910419
 21
36.2883650885
 31
0.0
  0
LINE
  5
3B2
330
1F
100
AcDbEntity
  8
0
  6
Continuous
 62
     7
370
    15
100
AcDbLine
 10
1950.8183910419
 20
36.2883650885
 30
0.0
 11
1940.3597428371
 21
36.2883650885
 31
0.0
  0
LINE
  5
3B3
330
1F
100
AcDbEntity
  8
0
  6
Continuous
 62
     7
370
    15
100
AcDbLine
 10
1950.8183910419
 20
-1278.711692132
 30
0.0
 11
1940.3597428371
 21
-1278.711692132
 31
0.0
  0
LINE
  5
3B4
330
1F
100
AcDbEntity
  8
0
  6
Continuous
 62
     7
370
    15
100
AcDbLine
 10
1701.2729956676
 20
-1278.711692132
 30
0.0
 11
1701.2729956676
 21
36.2883650885
 31
0.0
  0
LINE
  5
3B5
330
1F
100
AcDbEntity
  8
0
  6
Continuous
 62
     7
370
    15
100
AcDbLine
 10
1701.2729956676
 20
-1278.711692132
 30
0.0
 11
1661.4252044727
 21
-1278.711692132
 31
0.0
  0
LINE
  5
3B6
330
1F
100
AcDbEntity
  8
0
  6
Continuous
 62
     7
370
    15
100
AcDbLine
 10
1661.4252044727
 20
-1278.711692132
 30
0.0
 11
1661.4252044727
 21
36.2883650885
 31
0.0
  0
LINE
  5
3B7
330
1F
100
AcDbEntity
  8
0
  6
Continuous
 62
     7
370
    15
100
AcDbLine
 10
1701.2729956676
 20
36.2883650885
 30
0.0
 11
1661.4252044727
 21
36.2883650885
 31
0.0
  0
LINE
  5
3B8
330
1F
100
AcDbEntity
  8
0
  6
Continuous
 62
     7
370
    15
100
AcDbLine
 10
1711.731703477
 20
-1278.711692132
 30
0.0
 11
1711.731703477
 21
36.2883650885
 31
0.0
  0
LINE
  5
3B9
330
1F
100
AcDbEntity
  8
0
  6
Continuous
 62
     7
370
    15
100
AcDbLine
 10
1711.731703477
 20
36.2883650885
 30
0.0
 11
1701.2729956676
 21
36.2883650885
 31
0.0
  0
LINE
  5
3BA
330
1F
100
AcDbEntity
  8
0
  6
Continuous
 62
     7
370
    15
100
AcDbLine
 10
1711.731703477
 20
-1278.711692132
 30
0.0
 11
1701.2729956676
 21
-1278.711692132
 31
0.0
  0
LINE
  5
3BB
330
1F
100
AcDbEntity
  8
0
  6
Continuous
 62
     7
370
    15
100
AcDbLine
 10
3066.5564252902
 20
-1278.711692132
 30
0.0
 11
3066.5564252902
 21
36.2883650885
 31
0.0
  0
LINE
  5
3BC
330
1F
100
AcDbEntity
  8
0
  6
Continuous
 62
     7
370
    15
100
AcDbLine
 10
3066.5564252902
 20
-1278.711692132
 30
0.0
 11
3056.0978366901
 21
-1278.711692132
 31
0.0
  0
LINE
  5
3BD
330
1F
100
AcDbEntity
  8
0
  6
Continuous
 62
     7
370
    15
100
AcDbLine
 10
3056.0978366901
 20
-1278.711692132
 30
0.0
 11
3056.0978366901
 21
36.2883650885
 31
0.0
  0
LINE
  5
3BE
330
1F
100
AcDbEntity
  8
0
  6
Continuous
 62
     7
370
    15
100
AcDbLine
 10
3066.5564252902
 20
36.2883650885
 30
0.0
 11
3056.0978366901
 21
36.2883650885
 31
0.0
  0
LINE
  5
3BF
330
1F
100
AcDbEntity
  8
0
  6
Continuous
 62
     7
370
    15
100
AcDbLine
 10
3056.0978366901
 20
-1278.711692132
 30
0.0
 11
3016.2499858905
 21
-1278.711692132
 31
0.0
  0
LINE
  5
3C0
330
1F
100
AcDbEntity
  8
0
  6
Continuous
 62
     7
370
    15
100
AcDbLine
 10
3016.2499858905
 20
-1278.711692132
 30
0.0
 11
3016.2499858905
 21
36.2883650885
 31
0.0
  0
LINE
  5
3C1
330
1F
100
AcDbEntity
  8
0
  6
Continuous
 62
     7
370
    15
100
AcDbLine
 10
3056.0978366901
 20
36.2883650885
 30
0.0
 11
3016.2499858905
 21
36.2883650885
 31
0.0
  0
LINE
  5
3C2
330
1F
100
AcDbEntity
  8
0
  6
Continuous
 62
     7
370
    15
100
AcDbLine
 10
2020.0552656223
 20
-1278.711692132
 30
0.0
 11
2020.0552656223
 21
36.2883650885
 31
0.0
  0
LINE
  5
3C3
330
1F
100
AcDbEntity
  8
0
  6
Continuous
 62
     7
370
    15
100
AcDbLine
 10
2020.0552656223
 20
-1278.711692132
 30
0.0
 11
1980.2074744274
 21
-1278.711692132
 31
0.0
  0
LINE
  5
3C4
330
1F
100
AcDbEntity
  8
0
  6
Continuous
 62
     7
370
    15
100
AcDbLine
 10
1980.2074744274
 20
-1278.711692132
 30
0.0
 11
1980.2074744274
 21
36.2883650885
 31
0.0
  0
LINE
  5
3C5
330
1F
100
AcDbEntity
  8
0
  6
Continuous
 62
     7
370
    15
100
AcDbLine
 10
2020.0552656223
 20
36.2883650885
 30
0.0
 11
1980.2074744274
 21
36.2883650885
 31
0.0
  0
LINE
  5
3C6
330
1F
100
AcDbEntity
  8
0
  6
Continuous
 62
     7
370
    15
100
AcDbLine
 10
2030.5139734317
 20
-1278.711692132
 30
0.0
 11
2030.5139734317
 21
36.2883650885
 31
0.0
  0
LINE
  5
3C7
330
1F
100
AcDbEntity
  8
0
  6
Continuous
 62
     7
370
    15
100
AcDbLine
 10
2030.5139734317
 20
-1278.711692132
 30
0.0
 11
2020.0552656223
 21
-1278.711692132
 31
0.0
  0
LINE
  5
3C8
330
1F
100
AcDbEntity
  8
0
  6
Continuous
 62
     7
370
    15
100
AcDbLine
 10
2030.5139734317
 20
36.2883650885
 30
0.0
 11
2020.0552656223
 21
36.2883650885
 31
0.0
  0
LINE
  5
3C9
330
1F
100
AcDbEntity
  8
0
  6
Continuous
 62
     7
370
    15
100
AcDbLine
 10
1223.0995311309
 20
-1278.711692132
 30
0.0
 11
1223.0995311309
 21
36.2883650885
 31
0.0
  0
LINE
  5
3CA
330
1F
100
AcDbEntity
  8
0
  6
Continuous
 62
     7
370
    15
100
AcDbLine
 10
1183.2517473866
 20
-1278.711692132
 30
0.0
 11
1183.2517473866
 21
36.2883650885
 31
0.0
  0
LINE
  5
3CB
330
1F
100
AcDbEntity
  8
0
  6
Continuous
 62
     7
370
    15
100
AcDbLine
 10
1223.0995311309
 20
36.2883650885
 30
0.0
 11
1183.2517473866
 21
36.2883650885
 31
0.0
  0
LINE
  5
3CC
330
1F
100
AcDbEntity
  8
0
  6
Continuous
 62
     7
370
    15
100
AcDbLine
 10
1223.0995311309
 20
-1278.711692132
 30
0.0
 11
1183.2517473866
 21
-1278.711692132
 31
0.0
  0
LINE
  5
3CD
330
1F
100
AcDbEntity
  8
0
  6
Continuous
 62
     7
370
    15
100
AcDbLine
 10
1233.5582240392
 20
-1278.711692132
 30
0.0
 11
1233.5582240392
 21
36.2883650885
 31
0.0
  0
LINE
  5
3CE
330
1F
100
AcDbEntity
  8
0
  6
Continuous
 62
     7
370
    15
100
AcDbLine
 10
1233.5582240392
 20
36.2883650885
 30
0.0
 11
1223.0995311309
 21
36.2883650885
 31
0.0
  0
LINE
  5
3CF
330
1F
100
AcDbEntity
  8
0
  6
Continuous
 62
     7
370
    15
100
AcDbLine
 10
1233.5582240392
 20
-1278.711692132
 30
0.0
 11
1223.0995311309
 21
-1278.711692132
 31
0.0
  0
LINE
  5
3D0
330
1F
100
AcDbEntity
  8
0
  6
Continuous
 62
     7
370
    15
100
AcDbLine
 10
1472.6449563075
 20
-1278.711692132
 30
0.0
 11
1472.6449563075
 21
36.2883650885
 31
0.0
  0
LINE
  5
3D1
330
1F
100
AcDbEntity
  8
0
  6
Continuous
 62
     7
370
    15
100
AcDbLine
 10
1462.1862484981
 20
-1278.711692132
 30
0.0
 11
1462.1862484981
 21
36.2883650885
 31
0.0
  0
LINE
  5
3D2
330
1F
100
AcDbEntity
  8
0
  6
Continuous
 62
     7
370
    15
100
AcDbLine
 10
1472.6449563075
 20
-1278.711692132
 30
0.0
 11
1462.1862484981
 21
-1278.711692132
 31
0.0
  0
LINE
  5
3D3
330
1F
100
AcDbEntity
  8
0
  6
Continuous
 62
     7
370
    15
100
AcDbLine
 10
1472.6449563075
 20
36.2883650885
 30
0.0
 11
1462.1862484981
 21
36.2883650885
 31
0.0
  0
LINE
  5
3D4
330
1F
100
AcDbEntity
  8
0
  6
Continuous
 62
     7
370
    15
100
AcDbLine
 10
1422.3384871055
 20
-1278.711692132
 30
0.0
 11
1422.3384871055
 21
36.2883650885
 31
0.0
  0
LINE
  5
3D5
330
1F
100
AcDbEntity
  8
0
  6
Continuous
 62
     7
370
    15
100
AcDbLine
 10
1462.1862484981
 20
-1278.711692132
 30
0.0
 11
1422.3384871055
 21
-1278.711692132
 31
0.0
  0
LINE
  5
3D6
330
1F
100
AcDbEntity
  8
0
  6
Continuous
 62
     7
370
    15
100
AcDbLine
 10
1462.1862484981
 20
36.2883650885
 30
0.0
 11
1422.3384871055
 21
36.2883650885
 31
0.0
  0
LINE
  5
3D7
330
1F
100
AcDbEntity
  8
0
  6
Continuous
 62
     7
370
    15
100
AcDbLine
 10
3374.8800470401
 20
161.2883650885
 30
0.0
 11
3374.8800470401
 21
1476.288422309
 31
0.0
  0
LINE
  5
3D8
330
1F
100
AcDbEntity
  8
0
  6
Continuous
 62
     7
370
    15
100
AcDbLine
 10
3374.8800470401
 20
161.2883650885
 30
0.0
 11
3335.0321962406
 21
161.2883650885
 31
0.0
  0
LINE
  5
3D9
330
1F
100
AcDbEntity
  8
0
  6
Continuous
 62
     7
370
    15
100
AcDbLine
 10
3335.0321962406
 20
161.2883650885
 30
0.0
 11
3335.0321962406
 21
1476.288422309
 31
0.0
  0
LINE
  5
3DA
330
1F
100
AcDbEntity
  8
0
  6
Continuous
 62
     7
370
    15
100
AcDbLine
 10
3374.8800470401
 20
1476.288422309
 30
0.0
 11
3335.0321962406
 21
1476.288422309
 31
0.0
  0
LINE
  5
3DB
330
1F
100
AcDbEntity
  8
0
  6
Continuous
 62
     7
370
    15
100
AcDbLine
 10
3385.3387548496
 20
161.2883650885
 30
0.0
 11
3385.3387548496
 21
1476.288422309
 31
0.0
  0
LINE
  5
3DC
330
1F
100
AcDbEntity
  8
0
  6
Continuous
 62
     7
370
    15
100
AcDbLine
 10
3385.3387548496
 20
161.2883650885
 30
0.0
 11
3374.8800470401
 21
161.2883650885
 31
0.0
  0
LINE
  5
3DD
330
1F
100
AcDbEntity
  8
0
  6
Continuous
 62
     7
370
    15
100
AcDbLine
 10
3385.3387548496
 20
1476.288422309
 30
0.0
 11
3374.8800470401
 21
1476.288422309
 31
0.0
  0
LINE
  5
3DE
330
1F
100
AcDbEntity
  8
0
  6
Continuous
 62
     7
370
    15
100
AcDbLine
 10
1791.4272262622
 20
-1278.711692132
 30
0.0
 11
1791.4272262622
 21
36.2883650885
 31
0.0
  0
LINE
  5
3DF
330
1F
100
AcDbEntity
  8
0
  6
Continuous
 62
     7
370
    15
100
AcDbLine
 10
1791.4272262622
 20
-1278.711692132
 30
0.0
 11
1780.9685780574
 21
-1278.711692132
 31
0.0
  0
LINE
  5
3E0
330
1F
100
AcDbEntity
  8
0
  6
Continuous
 62
     7
370
    15
100
AcDbLine
 10
1780.9685780574
 20
-1278.711692132
 30
0.0
 11
1780.9685780574
 21
36.2883650885
 31
0.0
  0
LINE
  5
3E1
330
1F
100
AcDbEntity
  8
0
  6
Continuous
 62
     7
370
    15
100
AcDbLine
 10
1791.4272262622
 20
36.2883650885
 30
0.0
 11
1780.9685780574
 21
36.2883650885
 31
0.0
  0
LINE
  5
3E2
330
1F
100
AcDbEntity
  8
0
  6
Continuous
 62
     7
370
    15
100
AcDbLine
 10
1780.9685780574
 20
-1278.711692132
 30
0.0
 11
1741.1207868625
 21
-1278.711692132
 31
0.0
  0
LINE
  5
3E3
330
1F
100
AcDbEntity
  8
0
  6
Continuous
 62
     7
370
    15
100
AcDbLine
 10
1741.1207868625
 20
-1278.711692132
 30
0.0
 11
1741.1207868625
 21
36.2883650885
 31
0.0
  0
LINE
  5
3E4
330
1F
100
AcDbEntity
  8
0
  6
Continuous
 62
     7
370
    15
100
AcDbLine
 10
1780.9685780574
 20
36.2883650885
 30
0.0
 11
1741.1207868625
 21
36.2883650885
 31
0.0
  0
LINE
  5
3E5
330
1F
100
AcDbEntity
  8
0
  6
Continuous
 62
     7
370
    15
100
AcDbLine
 10
3465.0344564487
 20
161.2883650885
 30
0.0
 11
3465.0344564487
 21
1476.288422309
 31
0.0
  0
LINE
  5
3E6
330
1F
100
AcDbEntity
  8
0
  6
Continuous
 62
     7
370
    15
100
AcDbLine
 10
3454.5757486392
 20
161.2883650885
 30
0.0
 11
3454.5757486392
 21
1476.288422309
 31
0.0
  0
LINE
  5
3E7
330
1F
100
AcDbEntity
  8
0
  6
Continuous
 62
     7
370
    15
100
AcDbLine
 10
3465.0344564487
 20
1476.288422309
 30
0.0
 11
3454.5757486392
 21
1476.288422309
 31
0.0
  0
LINE
  5
3E8
330
1F
100
AcDbEntity
  8
0
  6
Continuous
 62
     7
370
    15
100
AcDbLine
 10
3465.0344564487
 20
161.2883650885
 30
0.0
 11
3454.5757486392
 21
161.2883650885
 31
0.0
  0
LINE
  5
3E9
330
1F
100
AcDbEntity
  8
0
  6
Continuous
 62
     7
370
    15
100
AcDbLine
 10
3414.7278978397
 20
161.2883650885
 30
0.0
 11
3414.7278978397
 21
1476.288422309
 31
0.0
  0
LINE
  5
3EA
330
1F
100
AcDbEntity
  8
0
  6
Continuous
 62
     7
370
    15
100
AcDbLine
 10
3454.5757486392
 20
1476.288422309
 30
0.0
 11
3414.7278978397
 21
1476.288422309
 31
0.0
  0
LINE
  5
3EB
330
1F
100
AcDbEntity
  8
0
  6
Continuous
 62
     7
370
    15
100
AcDbLine
 10
3454.5757486392
 20
161.2883650885
 30
0.0
 11
3414.7278978397
 21
161.2883650885
 31
0.0
  0
LINE
  5
3EC
330
1F
100
AcDbEntity
  8
0
  6
Continuous
 62
     7
370
    15
100
AcDbLine
 10
2428.9918853809
 20
161.2883650885
 30
0.0
 11
2428.9918853809
 21
1476.288422309
 31
0.0
  0
LINE
  5
3ED
330
1F
100
AcDbEntity
  8
0
  6
Continuous
 62
     7
370
    15
100
AcDbLine
 10
2428.9918853809
 20
161.2883650885
 30
0.0
 11
2418.5331775714
 21
161.2883650885
 31
0.0
  0
LINE
  5
3EE
330
1F
100
AcDbEntity
  8
0
  6
Continuous
 62
     7
370
    15
100
AcDbLine
 10
2418.5331775714
 20
161.2883650885
 30
0.0
 11
2418.5331775714
 21
1476.288422309
 31
0.0
  0
LINE
  5
3EF
330
1F
100
AcDbEntity
  8
0
  6
Continuous
 62
     7
370
    15
100
AcDbLine
 10
2428.9918853809
 20
1476.288422309
 30
0.0
 11
2418.5331775714
 21
1476.288422309
 31
0.0
  0
LINE
  5
3F0
330
1F
100
AcDbEntity
  8
0
  6
Continuous
 62
     7
370
    15
100
AcDbLine
 10
2378.6853267719
 20
161.2883650885
 30
0.0
 11
2378.6853267719
 21
1476.288422309
 31
0.0
  0
LINE
  5
3F1
330
1F
100
AcDbEntity
  8
0
  6
Continuous
 62
     7
370
    15
100
AcDbLine
 10
2418.5331775714
 20
161.2883650885
 30
0.0
 11
2378.6853267719
 21
161.2883650885
 31
0.0
  0
LINE
  5
3F2
330
1F
100
AcDbEntity
  8
0
  6
Continuous
 62
     7
370
    15
100
AcDbLine
 10
2418.5331775714
 20
1476.288422309
 30
0.0
 11
2378.6853267719
 21
1476.288422309
 31
0.0
  0
LINE
  5
3F3
330
1F
100
AcDbEntity
  8
0
  6
Continuous
 62
     7
370
    15
100
AcDbLine
 10
2110.2095558215
 20
161.2883650885
 30
0.0
 11
2110.2095558215
 21
1476.288422309
 31
0.0
  0
LINE
  5
3F4
330
1F
100
AcDbEntity
  8
0
  6
Continuous
 62
     7
370
    15
100
AcDbLine
 10
2099.7508480121
 20
161.2883650885
 30
0.0
 11
2099.7508480121
 21
1476.288422309
 31
0.0
  0
LINE
  5
3F5
330
1F
100
AcDbEntity
  8
0
  6
Continuous
 62
     7
370
    15
100
AcDbLine
 10
2110.2095558215
 20
1476.288422309
 30
0.0
 11
2099.7508480121
 21
1476.288422309
 31
0.0
  0
LINE
  5
3F6
330
1F
100
AcDbEntity
  8
0
  6
Continuous
 62
     7
370
    15
100
AcDbLine
 10
2110.2095558215
 20
161.2883650885
 30
0.0
 11
2099.7508480121
 21
161.2883650885
 31
0.0
  0
LINE
  5
3F7
330
1F
100
AcDbEntity
  8
0
  6
Continuous
 62
     7
370
    15
100
AcDbLine
 10
2059.9030568172
 20
161.2883650885
 30
0.0
 11
2059.9030568172
 21
1476.288422309
 31
0.0
  0
LINE
  5
3F8
330
1F
100
AcDbEntity
  8
0
  6
Continuous
 62
     7
370
    15
100
AcDbLine
 10
2099.7508480121
 20
1476.288422309
 30
0.0
 11
2059.9030568172
 21
1476.288422309
 31
0.0
  0
LINE
  5
3F9
330
1F
100
AcDbEntity
  8
0
  6
Continuous
 62
     7
370
    15
100
AcDbLine
 10
2099.7508480121
 20
161.2883650885
 30
0.0
 11
2059.9030568172
 21
161.2883650885
 31
0.0
  0
LINE
  5
3FA
330
1F
100
AcDbEntity
  8
0
  6
Continuous
 62
     7
370
    15
100
AcDbLine
 10
2020.0552656223
 20
161.2883650885
 30
0.0
 11
2020.0552656223
 21
1476.288422309
 31
0.0
  0
LINE
  5
3FB
330
1F
100
AcDbEntity
  8
0
  6
Continuous
 62
     7
370
    15
100
AcDbLine
 10
1980.2074744274
 20
161.2883650885
 30
0.0
 11
1980.2074744274
 21
1476.288422309
 31
0.0
  0
LINE
  5
3FC
330
1F
100
AcDbEntity
  8
0
  6
Continuous
 62
     7
370
    15
100
AcDbLine
 10
2020.0552656223
 20
1476.288422309
 30
0.0
 11
1980.2074744274
 21
1476.288422309
 31
0.0
  0
LINE
  5
3FD
330
1F
100
AcDbEntity
  8
0
  6
Continuous
 62
     7
370
    15
100
AcDbLine
 10
2020.0552656223
 20
161.2883650885
 30
0.0
 11
1980.2074744274
 21
161.2883650885
 31
0.0
  0
LINE
  5
3FE
330
1F
100
AcDbEntity
  8
0
  6
Continuous
 62
     7
370
    15
100
AcDbLine
 10
2030.5139734317
 20
161.2883650885
 30
0.0
 11
2030.5139734317
 21
1476.288422309
 31
0.0
  0
LINE
  5
3FF
330
1F
100
AcDbEntity
  8
0
  6
Continuous
 62
     7
370
    15
100
AcDbLine
 10
2030.5139734317
 20
1476.288422309
 30
0.0
 11
2020.0552656223
 21
1476.288422309
 31
0.0
  0
LINE
  5
400
330
1F
100
AcDbEntity
  8
0
  6
Continuous
 62
     7
370
    15
100
AcDbLine
 10
2030.5139734317
 20
161.2883650885
 30
0.0
 11
2020.0552656223
 21
161.2883650885
 31
0.0
  0
LINE
  5
401
330
1F
100
AcDbEntity
  8
0
  6
Continuous
 62
     7
370
    15
100
AcDbLine
 10
1860.6641604473
 20
161.2883650885
 30
0.0
 11
1860.6641604473
 21
1476.288422309
 31
0.0
  0
LINE
  5
402
330
1F
100
AcDbEntity
  8
0
  6
Continuous
 62
     7
370
    15
100
AcDbLine
 10
1860.6641604473
 20
161.2883650885
 30
0.0
 11
1820.8163692523
 21
161.2883650885
 31
0.0
  0
LINE
  5
403
330
1F
100
AcDbEntity
  8
0
  6
Continuous
 62
     7
370
    15
100
AcDbLine
 10
1820.8163692523
 20
161.2883650885
 30
0.0
 11
1820.8163692523
 21
1476.288422309
 31
0.0
  0
LINE
  5
404
330
1F
100
AcDbEntity
  8
0
  6
Continuous
 62
     7
370
    15
100
AcDbLine
 10
1860.6641604473
 20
1476.288422309
 30
0.0
 11
1820.8163692523
 21
1476.288422309
 31
0.0
  0
LINE
  5
405
330
1F
100
AcDbEntity
  8
0
  6
Continuous
 62
     7
370
    15
100
AcDbLine
 10
1871.1228086521
 20
161.2883650885
 30
0.0
 11
1871.1228086521
 21
1476.288422309
 31
0.0
  0
LINE
  5
406
330
1F
100
AcDbEntity
  8
0
  6
Continuous
 62
     7
370
    15
100
AcDbLine
 10
1871.1228086521
 20
161.2883650885
 30
0.0
 11
1860.6641604473
 21
161.2883650885
 31
0.0
  0
LINE
  5
407
330
1F
100
AcDbEntity
  8
0
  6
Continuous
 62
     7
370
    15
100
AcDbLine
 10
1871.1228086521
 20
1476.288422309
 30
0.0
 11
1860.6641604473
 21
1476.288422309
 31
0.0
  0
LINE
  5
408
330
1F
100
AcDbEntity
  8
0
  6
Continuous
 62
     7
370
    15
100
AcDbLine
 10
1153.8626491
 20
161.2883650885
 30
0.0
 11
1153.8626491
 21
1476.288422309
 31
0.0
  0
LINE
  5
409
330
1F
100
AcDbEntity
  8
0
  6
Continuous
 62
     7
370
    15
100
AcDbLine
 10
1153.8626491
 20
161.2883650885
 30
0.0
 11
1143.4039561917
 21
161.2883650885
 31
0.0
  0
LINE
  5
40A
330
1F
100
AcDbEntity
  8
0
  6
Continuous
 62
     7
370
    15
100
AcDbLine
 10
1143.4039561917
 20
161.2883650885
 30
0.0
 11
1143.4039561917
 21
1476.288422309
 31
0.0
  0
LINE
  5
40B
330
1F
100
AcDbEntity
  8
0
  6
Continuous
 62
     7
370
    15
100
AcDbLine
 10
1153.8626491
 20
1476.288422309
 30
0.0
 11
1143.4039561917
 21
1476.288422309
 31
0.0
  0
LINE
  5
40C
330
1F
100
AcDbEntity
  8
0
  6
Continuous
 62
     7
370
    15
100
AcDbLine
 10
1103.5561696534
 20
161.2883650885
 30
0.0
 11
1103.5561696534
 21
1476.288422309
 31
0.0
  0
LINE
  5
40D
330
1F
100
AcDbEntity
  8
0
  6
Continuous
 62
     7
370
    15
100
AcDbLine
 10
1143.4039561917
 20
1476.288422309
 30
0.0
 11
1103.5561696534
 21
1476.288422309
 31
0.0
  0
LINE
  5
40E
330
1F
100
AcDbEntity
  8
0
  6
Continuous
 62
     7
370
    15
100
AcDbLine
 10
1143.4039561917
 20
161.2883650885
 30
0.0
 11
1103.5561696534
 21
161.2883650885
 31
0.0
  0
LINE
  5
40F
330
1F
100
AcDbEntity
  8
0
  6
Continuous
 62
     7
370
    15
100
AcDbLine
 10
2189.9051382114
 20
161.2883650885
 30
0.0
 11
2189.9051382114
 21
1476.288422309
 31
0.0
  0
LINE
  5
410
330
1F
100
AcDbEntity
  8
0
  6
Continuous
 62
     7
370
    15
100
AcDbLine
 10
2179.4464304019
 20
161.2883650885
 30
0.0
 11
2179.4464304019
 21
1476.288422309
 31
0.0
  0
LINE
  5
411
330
1F
100
AcDbEntity
  8
0
  6
Continuous
 62
     7
370
    15
100
AcDbLine
 10
2189.9051382114
 20
161.2883650885
 30
0.0
 11
2179.4464304019
 21
161.2883650885
 31
0.0
  0
LINE
  5
412
330
1F
100
AcDbEntity
  8
0
  6
Continuous
 62
     7
370
    15
100
AcDbLine
 10
2189.9051382114
 20
1476.288422309
 30
0.0
 11
2179.4464304019
 21
1476.288422309
 31
0.0
  0
LINE
  5
413
330
1F
100
AcDbEntity
  8
0
  6
Continuous
 62
     7
370
    15
100
AcDbLine
 10
2139.5986988117
 20
161.2883650885
 30
0.0
 11
2139.5986988117
 21
1476.288422309
 31
0.0
  0
LINE
  5
414
330
1F
100
AcDbEntity
  8
0
  6
Continuous
 62
     7
370
    15
100
AcDbLine
 10
2179.4464304019
 20
161.2883650885
 30
0.0
 11
2139.5986988117
 21
161.2883650885
 31
0.0
  0
LINE
  5
415
330
1F
100
AcDbEntity
  8
0
  6
Continuous
 62
     7
370
    15
100
AcDbLine
 10
2179.4464304019
 20
1476.288422309
 30
0.0
 11
2139.5986988117
 21
1476.288422309
 31
0.0
  0
LINE
  5
416
330
1F
100
AcDbEntity
  8
0
  6
Continuous
 62
     7
370
    15
100
AcDbLine
 10
1711.731703477
 20
161.2883650885
 30
0.0
 11
1711.731703477
 21
1476.288422309
 31
0.0
  0
LINE
  5
417
330
1F
100
AcDbEntity
  8
0
  6
Continuous
 62
     7
370
    15
100
AcDbLine
 10
1711.731703477
 20
161.2883650885
 30
0.0
 11
1701.2729956676
 21
161.2883650885
 31
0.0
  0
LINE
  5
418
330
1F
100
AcDbEntity
  8
0
  6
Continuous
 62
     7
370
    15
100
AcDbLine
 10
1701.2729956676
 20
161.2883650885
 30
0.0
 11
1701.2729956676
 21
1476.288422309
 31
0.0
  0
LINE
  5
419
330
1F
100
AcDbEntity
  8
0
  6
Continuous
 62
     7
370
    15
100
AcDbLine
 10
1711.731703477
 20
1476.288422309
 30
0.0
 11
1701.2729956676
 21
1476.288422309
 31
0.0
  0
LINE
  5
41A
330
1F
100
AcDbEntity
  8
0
  6
Continuous
 62
     7
370
    15
100
AcDbLine
 10
1701.2729956676
 20
161.2883650885
 30
0.0
 11
1661.4252044727
 21
161.2883650885
 31
0.0
  0
LINE
  5
41B
330
1F
100
AcDbEntity
  8
0
  6
Continuous
 62
     7
370
    15
100
AcDbLine
 10
1661.4252044727
 20
161.2883650885
 30
0.0
 11
1661.4252044727
 21
1476.288422309
 31
0.0
  0
LINE
  5
41C
330
1F
100
AcDbEntity
  8
0
  6
Continuous
 62
     7
370
    15
100
AcDbLine
 10
1701.2729956676
 20
1476.288422309
 30
0.0
 11
1661.4252044727
 21
1476.288422309
 31
0.0
  0
LINE
  5
41D
330
1F
100
AcDbEntity
  8
0
  6
Continuous
 62
     7
370
    15
100
AcDbLine
 10
2338.8375951816
 20
161.2883650885
 30
0.0
 11
2338.8375951816
 21
1476.288422309
 31
0.0
  0
LINE
  5
41E
330
1F
100
AcDbEntity
  8
0
  6
Continuous
 62
     7
370
    15
100
AcDbLine
 10
2338.8375951816
 20
161.2883650885
 30
0.0
 11
2298.9898635913
 21
161.2883650885
 31
0.0
  0
LINE
  5
41F
330
1F
100
AcDbEntity
  8
0
  6
Continuous
 62
     7
370
    15
100
AcDbLine
 10
2298.9898635913
 20
161.2883650885
 30
0.0
 11
2298.9898635913
 21
1476.288422309
 31
0.0
  0
LINE
  5
420
330
1F
100
AcDbEntity
  8
0
  6
Continuous
 62
     7
370
    15
100
AcDbLine
 10
2338.8375951816
 20
1476.288422309
 30
0.0
 11
2298.9898635913
 21
1476.288422309
 31
0.0
  0
LINE
  5
421
330
1F
100
AcDbEntity
  8
0
  6
Continuous
 62
     7
370
    15
100
AcDbLine
 10
2349.296302991
 20
161.2883650885
 30
0.0
 11
2349.296302991
 21
1476.288422309
 31
0.0
  0
LINE
  5
422
330
1F
100
AcDbEntity
  8
0
  6
Continuous
 62
     7
370
    15
100
AcDbLine
 10
2349.296302991
 20
161.2883650885
 30
0.0
 11
2338.8375951816
 21
161.2883650885
 31
0.0
  0
LINE
  5
423
330
1F
100
AcDbEntity
  8
0
  6
Continuous
 62
     7
370
    15
100
AcDbLine
 10
2349.296302991
 20
1476.288422309
 30
0.0
 11
2338.8375951816
 21
1476.288422309
 31
0.0
  0
LINE
  5
424
330
1F
100
AcDbEntity
  8
0
  6
Continuous
 62
     7
370
    15
100
AcDbLine
 10
2269.6007206012
 20
161.2883650885
 30
0.0
 11
2269.6007206012
 21
1476.288422309
 31
0.0
  0
LINE
  5
425
330
1F
100
AcDbEntity
  8
0
  6
Continuous
 62
     7
370
    15
100
AcDbLine
 10
2269.6007206012
 20
161.2883650885
 30
0.0
 11
2259.1420127918
 21
161.2883650885
 31
0.0
  0
LINE
  5
426
330
1F
100
AcDbEntity
  8
0
  6
Continuous
 62
     7
370
    15
100
AcDbLine
 10
2259.1420127918
 20
161.2883650885
 30
0.0
 11
2259.1420127918
 21
1476.288422309
 31
0.0
  0
LINE
  5
427
330
1F
100
AcDbEntity
  8
0
  6
Continuous
 62
     7
370
    15
100
AcDbLine
 10
2269.6007206012
 20
1476.288422309
 30
0.0
 11
2259.1420127918
 21
1476.288422309
 31
0.0
  0
LINE
  5
428
330
1F
100
AcDbEntity
  8
0
  6
Continuous
 62
     7
370
    15
100
AcDbLine
 10
2219.2942812015
 20
161.2883650885
 30
0.0
 11
2219.2942812015
 21
1476.288422309
 31
0.0
  0
LINE
  5
429
330
1F
100
AcDbEntity
  8
0
  6
Continuous
 62
     7
370
    15
100
AcDbLine
 10
2259.1420127918
 20
1476.288422309
 30
0.0
 11
2219.2942812015
 21
1476.288422309
 31
0.0
  0
LINE
  5
42A
330
1F
100
AcDbEntity
  8
0
  6
Continuous
 62
     7
370
    15
100
AcDbLine
 10
2259.1420127918
 20
161.2883650885
 30
0.0
 11
2219.2942812015
 21
161.2883650885
 31
0.0
  0
LINE
  5
42B
330
1F
100
AcDbEntity
  8
0
  6
Continuous
 62
     7
370
    15
100
AcDbLine
 10
1632.0361210872
 20
161.2883650885
 30
0.0
 11
1632.0361210872
 21
1476.288422309
 31
0.0
  0
LINE
  5
42C
330
1F
100
AcDbEntity
  8
0
  6
Continuous
 62
     7
370
    15
100
AcDbLine
 10
1621.5774132778
 20
161.2883650885
 30
0.0
 11
1621.5774132778
 21
1476.288422309
 31
0.0
  0
LINE
  5
42D
330
1F
100
AcDbEntity
  8
0
  6
Continuous
 62
     7
370
    15
100
AcDbLine
 10
1632.0361210872
 20
161.2883650885
 30
0.0
 11
1621.5774132778
 21
161.2883650885
 31
0.0
  0
LINE
  5
42E
330
1F
100
AcDbEntity
  8
0
  6
Continuous
 62
     7
370
    15
100
AcDbLine
 10
1632.0361210872
 20
1476.288422309
 30
0.0
 11
1621.5774132778
 21
1476.288422309
 31
0.0
  0
LINE
  5
42F
330
1F
100
AcDbEntity
  8
0
  6
Continuous
 62
     7
370
    15
100
AcDbLine
 10
1581.7296220828
 20
161.2883650885
 30
0.0
 11
1581.7296220828
 21
1476.288422309
 31
0.0
  0
LINE
  5
430
330
1F
100
AcDbEntity
  8
0
  6
Continuous
 62
     7
370
    15
100
AcDbLine
 10
1621.5774132778
 20
161.2883650885
 30
0.0
 11
1581.7296220828
 21
161.2883650885
 31
0.0
  0
LINE
  5
431
330
1F
100
AcDbEntity
  8
0
  6
Continuous
 62
     7
370
    15
100
AcDbLine
 10
1621.5774132778
 20
1476.288422309
 30
0.0
 11
1581.7296220828
 21
1476.288422309
 31
0.0
  0
LINE
  5
432
330
1F
100
AcDbEntity
  8
0
  6
Continuous
 62
     7
370
    15
100
AcDbLine
 10
1950.8183910419
 20
161.2883650885
 30
0.0
 11
1950.8183910419
 21
1476.288422309
 31
0.0
  0
LINE
  5
433
330
1F
100
AcDbEntity
  8
0
  6
Continuous
 62
     7
370
    15
100
AcDbLine
 10
1950.8183910419
 20
161.2883650885
 30
0.0
 11
1940.3597428371
 21
161.2883650885
 31
0.0
  0
LINE
  5
434
330
1F
100
AcDbEntity
  8
0
  6
Continuous
 62
     7
370
    15
100
AcDbLine
 10
1940.3597428371
 20
161.2883650885
 30
0.0
 11
1940.3597428371
 21
1476.288422309
 31
0.0
  0
LINE
  5
435
330
1F
100
AcDbEntity
  8
0
  6
Continuous
 62
     7
370
    15
100
AcDbLine
 10
1950.8183910419
 20
1476.288422309
 30
0.0
 11
1940.3597428371
 21
1476.288422309
 31
0.0
  0
LINE
  5
436
330
1F
100
AcDbEntity
  8
0
  6
Continuous
 62
     7
370
    15
100
AcDbLine
 10
1940.3597428371
 20
161.2883650885
 30
0.0
 11
1900.5119516422
 21
161.2883650885
 31
0.0
  0
LINE
  5
437
330
1F
100
AcDbEntity
  8
0
  6
Continuous
 62
     7
370
    15
100
AcDbLine
 10
1900.5119516422
 20
161.2883650885
 30
0.0
 11
1900.5119516422
 21
1476.288422309
 31
0.0
  0
LINE
  5
438
330
1F
100
AcDbEntity
  8
0
  6
Continuous
 62
     7
370
    15
100
AcDbLine
 10
1940.3597428371
 20
1476.288422309
 30
0.0
 11
1900.5119516422
 21
1476.288422309
 31
0.0
  0
LINE
  5
439
330
1F
100
AcDbEntity
  8
0
  6
Continuous
 62
     7
370
    15
100
AcDbLine
 10
2976.4022543002
 20
161.2883650885
 30
0.0
 11
2976.4022543002
 21
1476.288422309
 31
0.0
  0
LINE
  5
43A
330
1F
100
AcDbEntity
  8
0
  6
Continuous
 62
     7
370
    15
100
AcDbLine
 10
2976.4022543002
 20
161.2883650885
 30
0.0
 11
2936.5544035007
 21
161.2883650885
 31
0.0
  0
LINE
  5
43B
330
1F
100
AcDbEntity
  8
0
  6
Continuous
 62
     7
370
    15
100
AcDbLine
 10
2936.5544035007
 20
161.2883650885
 30
0.0
 11
2936.5544035007
 21
1476.288422309
 31
0.0
  0
LINE
  5
43C
330
1F
100
AcDbEntity
  8
0
  6
Continuous
 62
     7
370
    15
100
AcDbLine
 10
2976.4022543002
 20
1476.288422309
 30
0.0
 11
2936.5544035007
 21
1476.288422309
 31
0.0
  0
LINE
  5
43D
330
1F
100
AcDbEntity
  8
0
  6
Continuous
 62
     7
370
    15
100
AcDbLine
 10
2986.8608429004
 20
161.2883650885
 30
0.0
 11
2986.8608429004
 21
1476.288422309
 31
0.0
  0
LINE
  5
43E
330
1F
100
AcDbEntity
  8
0
  6
Continuous
 62
     7
370
    15
100
AcDbLine
 10
2986.8608429004
 20
161.2883650885
 30
0.0
 11
2976.4022543002
 21
161.2883650885
 31
0.0
  0
LINE
  5
43F
330
1F
100
AcDbEntity
  8
0
  6
Continuous
 62
     7
370
    15
100
AcDbLine
 10
2986.8608429004
 20
1476.288422309
 30
0.0
 11
2976.4022543002
 21
1476.288422309
 31
0.0
  0
LINE
  5
440
330
1F
100
AcDbEntity
  8
0
  6
Continuous
 62
     7
370
    15
100
AcDbLine
 10
1392.9493739177
 20
161.2883650885
 30
0.0
 11
1392.9493739177
 21
1476.288422309
 31
0.0
  0
LINE
  5
441
330
1F
100
AcDbEntity
  8
0
  6
Continuous
 62
     7
370
    15
100
AcDbLine
 10
1382.4906959106
 20
161.2883650885
 30
0.0
 11
1382.4906959106
 21
1476.288422309
 31
0.0
  0
LINE
  5
442
330
1F
100
AcDbEntity
  8
0
  6
Continuous
 62
     7
370
    15
100
AcDbLine
 10
1392.9493739177
 20
1476.288422309
 30
0.0
 11
1382.4906959106
 21
1476.288422309
 31
0.0
  0
LINE
  5
443
330
1F
100
AcDbEntity
  8
0
  6
Continuous
 62
     7
370
    15
100
AcDbLine
 10
1392.9493739177
 20
161.2883650885
 30
0.0
 11
1382.4906959106
 21
161.2883650885
 31
0.0
  0
LINE
  5
444
330
1F
100
AcDbEntity
  8
0
  6
Continuous
 62
     7
370
    15
100
AcDbLine
 10
1342.6429047157
 20
161.2883650885
 30
0.0
 11
1342.6429047157
 21
1476.288422309
 31
0.0
  0
LINE
  5
445
330
1F
100
AcDbEntity
  8
0
  6
Continuous
 62
     7
370
    15
100
AcDbLine
 10
1382.4906959106
 20
1476.288422309
 30
0.0
 11
1342.6429047157
 21
1476.288422309
 31
0.0
  0
LINE
  5
446
330
1F
100
AcDbEntity
  8
0
  6
Continuous
 62
     7
370
    15
100
AcDbLine
 10
1382.4906959106
 20
161.2883650885
 30
0.0
 11
1342.6429047157
 21
161.2883650885
 31
0.0
  0
LINE
  5
447
330
1F
100
AcDbEntity
  8
0
  6
Continuous
 62
     7
370
    15
100
AcDbLine
 10
1313.2537915279
 20
161.2883650885
 30
0.0
 11
1313.2537915279
 21
1476.288422309
 31
0.0
  0
LINE
  5
448
330
1F
100
AcDbEntity
  8
0
  6
Continuous
 62
     7
370
    15
100
AcDbLine
 10
1313.2537915279
 20
161.2883650885
 30
0.0
 11
1302.7951135208
 21
161.2883650885
 31
0.0
  0
LINE
  5
449
330
1F
100
AcDbEntity
  8
0
  6
Continuous
 62
     7
370
    15
100
AcDbLine
 10
1302.7951135208
 20
161.2883650885
 30
0.0
 11
1302.7951135208
 21
1476.288422309
 31
0.0
  0
LINE
  5
44A
330
1F
100
AcDbEntity
  8
0
  6
Continuous
 62
     7
370
    15
100
AcDbLine
 10
1313.2537915279
 20
1476.288422309
 30
0.0
 11
1302.7951135208
 21
1476.288422309
 31
0.0
  0
LINE
  5
44B
330
1F
100
AcDbEntity
  8
0
  6
Continuous
 62
     7
370
    15
100
AcDbLine
 10
1262.9473223258
 20
161.2883650885
 30
0.0
 11
1262.9473223258
 21
1476.288422309
 31
0.0
  0
LINE
  5
44C
330
1F
100
AcDbEntity
  8
0
  6
Continuous
 62
     7
370
    15
100
AcDbLine
 10
1302.7951135208
 20
1476.288422309
 30
0.0
 11
1262.9473223258
 21
1476.288422309
 31
0.0
  0
LINE
  5
44D
330
1F
100
AcDbEntity
  8
0
  6
Continuous
 62
     7
370
    15
100
AcDbLine
 10
1302.7951135208
 20
161.2883650885
 30
0.0
 11
1262.9473223258
 21
161.2883650885
 31
0.0
  0
LINE
  5
44E
330
1F
100
AcDbEntity
  8
0
  6
Continuous
 62
     7
370
    15
100
AcDbLine
 10
1233.5582240392
 20
161.2883650885
 30
0.0
 11
1233.5582240392
 21
1476.288422309
 31
0.0
  0
LINE
  5
44F
330
1F
100
AcDbEntity
  8
0
  6
Continuous
 62
     7
370
    15
100
AcDbLine
 10
1223.0995311309
 20
161.2883650885
 30
0.0
 11
1223.0995311309
 21
1476.288422309
 31
0.0
  0
LINE
  5
450
330
1F
100
AcDbEntity
  8
0
  6
Continuous
 62
     7
370
    15
100
AcDbLine
 10
1233.5582240392
 20
1476.288422309
 30
0.0
 11
1223.0995311309
 21
1476.288422309
 31
0.0
  0
LINE
  5
451
330
1F
100
AcDbEntity
  8
0
  6
Continuous
 62
     7
370
    15
100
AcDbLine
 10
1233.5582240392
 20
161.2883650885
 30
0.0
 11
1223.0995311309
 21
161.2883650885
 31
0.0
  0
LINE
  5
452
330
1F
100
AcDbEntity
  8
0
  6
Continuous
 62
     7
370
    15
100
AcDbLine
 10
1183.2517473866
 20
161.2883650885
 30
0.0
 11
1183.2517473866
 21
1476.288422309
 31
0.0
  0
LINE
  5
453
330
1F
100
AcDbEntity
  8
0
  6
Continuous
 62
     7
370
    15
100
AcDbLine
 10
1223.0995311309
 20
1476.288422309
 30
0.0
 11
1183.2517473866
 21
1476.288422309
 31
0.0
  0
LINE
  5
454
330
1F
100
AcDbEntity
  8
0
  6
Continuous
 62
     7
370
    15
100
AcDbLine
 10
1223.0995311309
 20
161.2883650885
 30
0.0
 11
1183.2517473866
 21
161.2883650885
 31
0.0
  0
LINE
  5
455
330
1F
100
AcDbEntity
  8
0
  6
Continuous
 62
     7
370
    15
100
AcDbLine
 10
1472.6449563075
 20
161.2883650885
 30
0.0
 11
1472.6449563075
 21
1476.288422309
 31
0.0
  0
LINE
  5
456
330
1F
100
AcDbEntity
  8
0
  6
Continuous
 62
     7
370
    15
100
AcDbLine
 10
1472.6449563075
 20
161.2883650885
 30
0.0
 11
1462.1862484981
 21
161.2883650885
 31
0.0
  0
LINE
  5
457
330
1F
100
AcDbEntity
  8
0
  6
Continuous
 62
     7
370
    15
100
AcDbLine
 10
1462.1862484981
 20
161.2883650885
 30
0.0
 11
1462.1862484981
 21
1476.288422309
 31
0.0
  0
LINE
  5
458
330
1F
100
AcDbEntity
  8
0
  6
Continuous
 62
     7
370
    15
100
AcDbLine
 10
1472.6449563075
 20
1476.288422309
 30
0.0
 11
1462.1862484981
 21
1476.288422309
 31
0.0
  0
LINE
  5
459
330
1F
100
AcDbEntity
  8
0
  6
Continuous
 62
     7
370
    15
100
AcDbLine
 10
1422.3384871055
 20
161.2883650885
 30
0.0
 11
1422.3384871055
 21
1476.288422309
 31
0.0
  0
LINE
  5
45A
330
1F
100
AcDbEntity
  8
0
  6
Continuous
 62
     7
370
    15
100
AcDbLine
 10
1462.1862484981
 20
161.2883650885
 30
0.0
 11
1422.3384871055
 21
161.2883650885
 31
0.0
  0
LINE
  5
45B
330
1F
100
AcDbEntity
  8
0
  6
Continuous
 62
     7
370
    15
100
AcDbLine
 10
1462.1862484981
 20
1476.288422309
 30
0.0
 11
1422.3384871055
 21
1476.288422309
 31
0.0
  0
LINE
  5
45C
330
1F
100
AcDbEntity
  8
0
  6
Continuous
 62
     7
370
    15
100
AcDbLine
 10
2907.1652605106
 20
161.2883650885
 30
0.0
 11
2907.1652605106
 21
1476.288422309
 31
0.0
  0
LINE
  5
45D
330
1F
100
AcDbEntity
  8
0
  6
Continuous
 62
     7
370
    15
100
AcDbLine
 10
2896.7066719104
 20
161.2883650885
 30
0.0
 11
2896.7066719104
 21
1476.288422309
 31
0.0
  0
LINE
  5
45E
330
1F
100
AcDbEntity
  8
0
  6
Continuous
 62
     7
370
    15
100
AcDbLine
 10
2907.1652605106
 20
1476.288422309
 30
0.0
 11
2896.7066719104
 21
1476.288422309
 31
0.0
  0
LINE
  5
45F
330
1F
100
AcDbEntity
  8
0
  6
Continuous
 62
     7
370
    15
100
AcDbLine
 10
2907.1652605106
 20
161.2883650885
 30
0.0
 11
2896.7066719104
 21
161.2883650885
 31
0.0
  0
LINE
  5
460
330
1F
100
AcDbEntity
  8
0
  6
Continuous
 62
     7
370
    15
100
AcDbLine
 10
2856.8588211109
 20
161.2883650885
 30
0.0
 11
2856.8588211109
 21
1476.288422309
 31
0.0
  0
LINE
  5
461
330
1F
100
AcDbEntity
  8
0
  6
Continuous
 62
     7
370
    15
100
AcDbLine
 10
2896.7066719104
 20
1476.288422309
 30
0.0
 11
2856.8588211109
 21
1476.288422309
 31
0.0
  0
LINE
  5
462
330
1F
100
AcDbEntity
  8
0
  6
Continuous
 62
     7
370
    15
100
AcDbLine
 10
2896.7066719104
 20
161.2883650885
 30
0.0
 11
2856.8588211109
 21
161.2883650885
 31
0.0
  0
LINE
  5
463
330
1F
100
AcDbEntity
  8
0
  6
Continuous
 62
     7
370
    15
100
AcDbLine
 10
2827.46979733
 20
161.2883650885
 30
0.0
 11
2827.46979733
 21
1476.288422309
 31
0.0
  0
LINE
  5
464
330
1F
100
AcDbEntity
  8
0
  6
Continuous
 62
     7
370
    15
100
AcDbLine
 10
2817.0110895206
 20
161.2883650885
 30
0.0
 11
2817.0110895206
 21
1476.288422309
 31
0.0
  0
LINE
  5
465
330
1F
100
AcDbEntity
  8
0
  6
Continuous
 62
     7
370
    15
100
AcDbLine
 10
2827.46979733
 20
161.2883650885
 30
0.0
 11
2817.0110895206
 21
161.2883650885
 31
0.0
  0
LINE
  5
466
330
1F
100
AcDbEntity
  8
0
  6
Continuous
 62
     7
370
    15
100
AcDbLine
 10
2827.46979733
 20
1476.288422309
 30
0.0
 11
2817.0110895206
 21
1476.288422309
 31
0.0
  0
LINE
  5
467
330
1F
100
AcDbEntity
  8
0
  6
Continuous
 62
     7
370
    15
100
AcDbLine
 10
2777.163238721
 20
161.2883650885
 30
0.0
 11
2777.163238721
 21
1476.288422309
 31
0.0
  0
LINE
  5
468
330
1F
100
AcDbEntity
  8
0
  6
Continuous
 62
     7
370
    15
100
AcDbLine
 10
2817.0110895206
 20
161.2883650885
 30
0.0
 11
2777.163238721
 21
161.2883650885
 31
0.0
  0
LINE
  5
469
330
1F
100
AcDbEntity
  8
0
  6
Continuous
 62
     7
370
    15
100
AcDbLine
 10
2817.0110895206
 20
1476.288422309
 30
0.0
 11
2777.163238721
 21
1476.288422309
 31
0.0
  0
LINE
  5
46A
330
1F
100
AcDbEntity
  8
0
  6
Continuous
 62
     7
370
    15
100
AcDbLine
 10
2737.3155071308
 20
161.2883650885
 30
0.0
 11
2737.3155071308
 21
1476.288422309
 31
0.0
  0
LINE
  5
46B
330
1F
100
AcDbEntity
  8
0
  6
Continuous
 62
     7
370
    15
100
AcDbLine
 10
2737.3155071308
 20
161.2883650885
 30
0.0
 11
2697.4676563312
 21
161.2883650885
 31
0.0
  0
LINE
  5
46C
330
1F
100
AcDbEntity
  8
0
  6
Continuous
 62
     7
370
    15
100
AcDbLine
 10
2697.4676563312
 20
161.2883650885
 30
0.0
 11
2697.4676563312
 21
1476.288422309
 31
0.0
  0
LINE
  5
46D
330
1F
100
AcDbEntity
  8
0
  6
Continuous
 62
     7
370
    15
100
AcDbLine
 10
2737.3155071308
 20
1476.288422309
 30
0.0
 11
2697.4676563312
 21
1476.288422309
 31
0.0
  0
LINE
  5
46E
330
1F
100
AcDbEntity
  8
0
  6
Continuous
 62
     7
370
    15
100
AcDbLine
 10
2747.7742149402
 20
161.2883650885
 30
0.0
 11
2747.7742149402
 21
1476.288422309
 31
0.0
  0
LINE
  5
46F
330
1F
100
AcDbEntity
  8
0
  6
Continuous
 62
     7
370
    15
100
AcDbLine
 10
2747.7742149402
 20
161.2883650885
 30
0.0
 11
2737.3155071308
 21
161.2883650885
 31
0.0
  0
LINE
  5
470
330
1F
100
AcDbEntity
  8
0
  6
Continuous
 62
     7
370
    15
100
AcDbLine
 10
2747.7742149402
 20
1476.288422309
 30
0.0
 11
2737.3155071308
 21
1476.288422309
 31
0.0
  0
LINE
  5
471
330
1F
100
AcDbEntity
  8
0
  6
Continuous
 62
     7
370
    15
100
AcDbLine
 10
2668.0786325504
 20
161.2883650885
 30
0.0
 11
2668.0786325504
 21
1476.288422309
 31
0.0
  0
LINE
  5
472
330
1F
100
AcDbEntity
  8
0
  6
Continuous
 62
     7
370
    15
100
AcDbLine
 10
2657.6199247409
 20
161.2883650885
 30
0.0
 11
2657.6199247409
 21
1476.288422309
 31
0.0
  0
LINE
  5
473
330
1F
100
AcDbEntity
  8
0
  6
Continuous
 62
     7
370
    15
100
AcDbLine
 10
2668.0786325504
 20
1476.288422309
 30
0.0
 11
2657.6199247409
 21
1476.288422309
 31
0.0
  0
LINE
  5
474
330
1F
100
AcDbEntity
  8
0
  6
Continuous
 62
     7
370
    15
100
AcDbLine
 10
2668.0786325504
 20
161.2883650885
 30
0.0
 11
2657.6199247409
 21
161.2883650885
 31
0.0
  0
LINE
  5
475
330
1F
100
AcDbEntity
  8
0
  6
Continuous
 62
     7
370
    15
100
AcDbLine
 10
2617.7720739414
 20
161.2883650885
 30
0.0
 11
2617.7720739414
 21
1476.288422309
 31
0.0
  0
LINE
  5
476
330
1F
100
AcDbEntity
  8
0
  6
Continuous
 62
     7
370
    15
100
AcDbLine
 10
2657.6199247409
 20
1476.288422309
 30
0.0
 11
2617.7720739414
 21
1476.288422309
 31
0.0
  0
LINE
  5
477
330
1F
100
AcDbEntity
  8
0
  6
Continuous
 62
     7
370
    15
100
AcDbLine
 10
2657.6199247409
 20
161.2883650885
 30
0.0
 11
2617.7720739414
 21
161.2883650885
 31
0.0
  0
LINE
  5
478
330
1F
100
AcDbEntity
  8
0
  6
Continuous
 62
     7
370
    15
100
AcDbLine
 10
1780.9685780574
 20
161.2883650885
 30
0.0
 11
1780.9685780574
 21
1476.288422309
 31
0.0
  0
LINE
  5
479
330
1F
100
AcDbEntity
  8
0
  6
Continuous
 62
     7
370
    15
100
AcDbLine
 10
1780.9685780574
 20
161.2883650885
 30
0.0
 11
1741.1207868625
 21
161.2883650885
 31
0.0
  0
LINE
  5
47A
330
1F
100
AcDbEntity
  8
0
  6
Continuous
 62
     7
370
    15
100
AcDbLine
 10
1741.1207868625
 20
161.2883650885
 30
0.0
 11
1741.1207868625
 21
1476.288422309
 31
0.0
  0
LINE
  5
47B
330
1F
100
AcDbEntity
  8
0
  6
Continuous
 62
     7
370
    15
100
AcDbLine
 10
1780.9685780574
 20
1476.288422309
 30
0.0
 11
1741.1207868625
 21
1476.288422309
 31
0.0
  0
LINE
  5
47C
330
1F
100
AcDbEntity
  8
0
  6
Continuous
 62
     7
370
    15
100
AcDbLine
 10
1791.4272262622
 20
161.2883650885
 30
0.0
 11
1791.4272262622
 21
1476.288422309
 31
0.0
  0
LINE
  5
47D
330
1F
100
AcDbEntity
  8
0
  6
Continuous
 62
     7
370
    15
100
AcDbLine
 10
1791.4272262622
 20
161.2883650885
 30
0.0
 11
1780.9685780574
 21
161.2883650885
 31
0.0
  0
LINE
  5
47E
330
1F
100
AcDbEntity
  8
0
  6
Continuous
 62
     7
370
    15
100
AcDbLine
 10
1791.4272262622
 20
1476.288422309
 30
0.0
 11
1780.9685780574
 21
1476.288422309
 31
0.0
  0
LINE
  5
47F
330
1F
100
AcDbEntity
  8
0
  6
Continuous
 62
     7
370
    15
100
AcDbLine
 10
2577.9243423511
 20
161.2883650885
 30
0.0
 11
2577.9243423511
 21
1476.288422309
 31
0.0
  0
LINE
  5
480
330
1F
100
AcDbEntity
  8
0
  6
Continuous
 62
     7
370
    15
100
AcDbLine
 10
2538.0764915515
 20
161.2883650885
 30
0.0
 11
2538.0764915515
 21
1476.288422309
 31
0.0
  0
LINE
  5
481
330
1F
100
AcDbEntity
  8
0
  6
Continuous
 62
     7
370
    15
100
AcDbLine
 10
2577.9243423511
 20
161.2883650885
 30
0.0
 11
2538.0764915515
 21
161.2883650885
 31
0.0
  0
LINE
  5
482
330
1F
100
AcDbEntity
  8
0
  6
Continuous
 62
     7
370
    15
100
AcDbLine
 10
2577.9243423511
 20
1476.288422309
 30
0.0
 11
2538.0764915515
 21
1476.288422309
 31
0.0
  0
LINE
  5
483
330
1F
100
AcDbEntity
  8
0
  6
Continuous
 62
     7
370
    15
100
AcDbLine
 10
2588.3830501605
 20
161.2883650885
 30
0.0
 11
2588.3830501605
 21
1476.288422309
 31
0.0
  0
LINE
  5
484
330
1F
100
AcDbEntity
  8
0
  6
Continuous
 62
     7
370
    15
100
AcDbLine
 10
2588.3830501605
 20
161.2883650885
 30
0.0
 11
2577.9243423511
 21
161.2883650885
 31
0.0
  0
LINE
  5
485
330
1F
100
AcDbEntity
  8
0
  6
Continuous
 62
     7
370
    15
100
AcDbLine
 10
2588.3830501605
 20
1476.288422309
 30
0.0
 11
2577.9243423511
 21
1476.288422309
 31
0.0
  0
LINE
  5
486
330
1F
100
AcDbEntity
  8
0
  6
Continuous
 62
     7
370
    15
100
AcDbLine
 10
2508.6874677707
 20
161.2883650885
 30
0.0
 11
2508.6874677707
 21
1476.288422309
 31
0.0
  0
LINE
  5
487
330
1F
100
AcDbEntity
  8
0
  6
Continuous
 62
     7
370
    15
100
AcDbLine
 10
2508.6874677707
 20
161.2883650885
 30
0.0
 11
2498.2287599613
 21
161.2883650885
 31
0.0
  0
LINE
  5
488
330
1F
100
AcDbEntity
  8
0
  6
Continuous
 62
     7
370
    15
100
AcDbLine
 10
2498.2287599613
 20
161.2883650885
 30
0.0
 11
2498.2287599613
 21
1476.288422309
 31
0.0
  0
LINE
  5
489
330
1F
100
AcDbEntity
  8
0
  6
Continuous
 62
     7
370
    15
100
AcDbLine
 10
2508.6874677707
 20
1476.288422309
 30
0.0
 11
2498.2287599613
 21
1476.288422309
 31
0.0
  0
LINE
  5
48A
330
1F
100
AcDbEntity
  8
0
  6
Continuous
 62
     7
370
    15
100
AcDbLine
 10
2498.2287599613
 20
161.2883650885
 30
0.0
 11
2458.3809091617
 21
161.2883650885
 31
0.0
  0
LINE
  5
48B
330
1F
100
AcDbEntity
  8
0
  6
Continuous
 62
     7
370
    15
100
AcDbLine
 10
2458.3809091617
 20
161.2883650885
 30
0.0
 11
2458.3809091617
 21
1476.288422309
 31
0.0
  0
LINE
  5
48C
330
1F
100
AcDbEntity
  8
0
  6
Continuous
 62
     7
370
    15
100
AcDbLine
 10
2498.2287599613
 20
1476.288422309
 30
0.0
 11
2458.3809091617
 21
1476.288422309
 31
0.0
  0
LINE
  5
48D
330
1F
100
AcDbEntity
  8
0
  6
Continuous
 62
     7
370
    15
100
AcDbLine
 10
1552.3405386974
 20
161.2883650885
 30
0.0
 11
1552.3405386974
 21
1476.288422309
 31
0.0
  0
LINE
  5
48E
330
1F
100
AcDbEntity
  8
0
  6
Continuous
 62
     7
370
    15
100
AcDbLine
 10
1541.8818308879
 20
161.2883650885
 30
0.0
 11
1541.8818308879
 21
1476.288422309
 31
0.0
  0
LINE
  5
48F
330
1F
100
AcDbEntity
  8
0
  6
Continuous
 62
     7
370
    15
100
AcDbLine
 10
1552.3405386974
 20
161.2883650885
 30
0.0
 11
1541.8818308879
 21
161.2883650885
 31
0.0
  0
LINE
  5
490
330
1F
100
AcDbEntity
  8
0
  6
Continuous
 62
     7
370
    15
100
AcDbLine
 10
1552.3405386974
 20
1476.288422309
 30
0.0
 11
1541.8818308879
 21
1476.288422309
 31
0.0
  0
LINE
  5
491
330
1F
100
AcDbEntity
  8
0
  6
Continuous
 62
     7
370
    15
100
AcDbLine
 10
1502.034039693
 20
161.2883650885
 30
0.0
 11
1502.034039693
 21
1476.288422309
 31
0.0
  0
LINE
  5
492
330
1F
100
AcDbEntity
  8
0
  6
Continuous
 62
     7
370
    15
100
AcDbLine
 10
1541.8818308879
 20
161.2883650885
 30
0.0
 11
1502.034039693
 21
161.2883650885
 31
0.0
  0
LINE
  5
493
330
1F
100
AcDbEntity
  8
0
  6
Continuous
 62
     7
370
    15
100
AcDbLine
 10
1541.8818308879
 20
1476.288422309
 30
0.0
 11
1502.034039693
 21
1476.288422309
 31
0.0
  0
LINE
  5
494
330
1F
100
AcDbEntity
  8
0
  6
Continuous
 62
     8
370
    15
100
AcDbLine
 10
1579.759599166
 20
1353.2883965598
 30
0.0
 11
1581.7296220828
 21
1353.2883965598
 31
0.0
  0
LINE
  5
495
330
1F
100
AcDbEntity
  8
0
  6
Continuous
 62
     8
370
    15
100
AcDbLine
 10
1579.759599166
 20
1424.2883765326
 30
0.0
 11
1581.7296220828
 21
1424.2883765326
 31
0.0
  0
LINE
  5
496
330
1F
100
AcDbEntity
  8
0
  6
Continuous
 62
     8
370
    15
100
AcDbLine
 10
1579.759599166
 20
-86.7116308584
 30
0.0
 11
1581.7296220828
 21
-86.7116308584
 31
0.0
  0
LINE
  5
497
330
1F
100
AcDbEntity
  8
0
  6
Continuous
 62
     8
370
    15
100
AcDbLine
 10
1579.759599166
 20
-15.7116359844
 30
0.0
 11
1581.7296220828
 21
-15.7116359844
 31
0.0
  0
LINE
  5
498
330
1F
100
AcDbEntity
  8
0
  6
Continuous
 62
     8
370
    15
100
AcDbLine
 10
1579.759599166
 20
-1226.7116463556
 30
0.0
 11
1581.7296220828
 21
-1226.7116463556
 31
0.0
  0
LINE
  5
499
330
1F
100
AcDbEntity
  8
0
  6
Continuous
 62
     8
370
    15
100
AcDbLine
 10
1579.759599166
 20
-1155.7116663827
 30
0.0
 11
1581.7296220828
 21
-1155.7116663827
 31
0.0
  0
LINE
  5
49A
330
1F
100
AcDbEntity
  8
0
  6
Continuous
 62
     8
370
    15
100
AcDbLine
 10
1579.759599166
 20
213.2883661614
 30
0.0
 11
1581.7296220828
 21
213.2883661614
 31
0.0
  0
LINE
  5
49B
330
1F
100
AcDbEntity
  8
0
  6
Continuous
 62
     8
370
    15
100
AcDbLine
 10
1579.759599166
 20
284.2883610354
 30
0.0
 11
1581.7296220828
 21
284.2883610354
 31
0.0
  0
LINE
  5
49C
330
1F
100
AcDbEntity
  8
0
  6
Continuous
 62
     8
370
    15
100
AcDbLine
 10
1154.3352394272
 20
-11.2644961848
 30
0.0
 11
1154.3352394272
 21
-11.2116343155
 31
0.0
  0
LINE
  5
49D
330
1F
100
AcDbEntity
  8
0
  6
Continuous
 62
     8
370
    15
100
AcDbLine
 10
1154.3352394272
 20
-91.1587781086
 30
0.0
 11
1154.3352394272
 21
-91.2116325273
 31
0.0
  0
LINE
  5
49E
330
1F
100
AcDbEntity
  8
0
  6
Continuous
 62
     8
370
    15
100
AcDbLine
 10
1154.3352394272
 20
-1151.2644446268
 30
0.0
 11
1154.3352394272
 21
-1151.2116349115
 31
0.0
  0
LINE
  5
49F
330
1F
100
AcDbEntity
  8
0
  6
Continuous
 62
     8
370
    15
100
AcDbLine
 10
1154.3352394272
 20
-1231.1587489023
 30
0.0
 11
1154.3352394272
 21
-1231.2116778268
 31
0.0
  0
LINE
  5
4A0
330
1F
100
AcDbEntity
  8
0
  6
Continuous
 62
     8
370
    15
100
AcDbLine
 10
1154.3352394272
 20
1428.7354790793
 30
0.0
 11
1154.3352394272
 21
1428.7884080038
 31
0.0
  0
LINE
  5
4A1
330
1F
100
AcDbEntity
  8
0
  6
Continuous
 62
     8
370
    15
100
AcDbLine
 10
1154.3352394272
 20
1348.8411748038
 30
0.0
 11
1154.3352394272
 21
1348.7883650885
 31
0.0
  0
LINE
  5
4A2
330
1F
100
AcDbEntity
  8
0
  6
Continuous
 62
     8
370
    15
100
AcDbLine
 10
1154.3352394272
 20
288.7355082856
 30
0.0
 11
1154.3352394272
 21
288.7883627043
 31
0.0
  0
LINE
  5
4A3
330
1F
100
AcDbEntity
  8
0
  6
Continuous
 62
     8
370
    15
100
AcDbLine
 10
1154.3352394272
 20
208.8412263618
 30
0.0
 11
1154.3352394272
 21
208.7883644925
 31
0.0
  0
LINE
  5
4A4
330
1F
100
AcDbEntity
  8
0
  6
Continuous
 62
     8
370
    15
100
AcDbLine
 10
1029.2102447618
 20
1486.2884127722
 30
0.0
 11
1033.7744629849
 21
1486.2884127722
 31
0.0
  0
LINE
  5
4A5
330
1F
100
AcDbEntity
  8
0
  6
Continuous
 62
     8
370
    15
100
AcDbLine
 10
1029.2102447618
 20
1591.2883126364
 30
0.0
 11
1033.7744629849
 21
1591.2883126364
 31
0.0
  0
LINE
  5
4A6
330
1F
100
AcDbEntity
  8
0
  6
Continuous
 62
     8
370
    15
100
AcDbLine
 10
1029.2102447618
 20
-1288.7116825952
 30
0.0
 11
1033.7744629849
 21
-1288.7116825952
 31
0.0
  0
LINE
  5
4A7
330
1F
100
AcDbEntity
  8
0
  6
Continuous
 62
     8
370
    15
100
AcDbLine
 10
1029.2102447618
 20
-1393.7115824594
 30
0.0
 11
1033.7744629849
 21
-1393.7115824594
 31
0.0
  0
LINE
  5
4A8
330
1F
100
AcDbEntity
  8
0
  6
Continuous
 62
     8
370
    15
100
AcDbLine
 10
1029.2102447618
 20
46.2883667276
 30
0.0
 11
1033.7744629849
 21
46.2883667276
 31
0.0
  0
LINE
  5
4A9
330
1F
100
AcDbEntity
  8
0
  6
Continuous
 62
     8
370
    15
100
AcDbLine
 10
1029.2102447618
 20
151.2883634494
 30
0.0
 11
1033.7744629849
 21
151.2883634494
 31
0.0
  0
INSERT
  5
4B5
330
1F
100
AcDbEntity
  8
THICK_LINE
100
AcDbBlockReference
  2
SW_CENTERMARKSYMBOL_0
 10
994.2102434207
 20
193.7883650885
 30
0.0
  0
INSERT
  5
4C1
330
1F
100
AcDbEntity
  8
THICK_LINE
100
AcDbBlockReference
  2
SW_CENTERMARKSYMBOL_1
 10
1184.2102434207
 20
193.7883650885
 30
0.0
  0
INSERT
  5
4CD
330
1F
100
AcDbEntity
  8
THICK_LINE
100
AcDbBlockReference
  2
SW_CENTERMARKSYMBOL_2
 10
1184.2102434207
 20
3.7883650885
 30
0.0
  0
INSERT
  5
4D9
330
1F
100
AcDbEntity
  8
THICK_LINE
100
AcDbBlockReference
  2
SW_CENTERMARKSYMBOL_3
 10
994.2102434207
 20
3.7883650885
 30
0.0
  0
INSERT
  5
4E1
330
1F
100
AcDbEntity
  8
THICK_LINE
100
AcDbBlockReference
  2
SW_CENTERMARKSYMBOL_4
 10
1189.2102434207
 20
198.7883650885
 30
0.0
  0
INSERT
  5
4E9
330
1F
100
AcDbEntity
  8
THICK_LINE
100
AcDbBlockReference
  2
SW_CENTERMARKSYMBOL_5
 10
1189.2102434207
 20
-1.2116349115
 30
0.0
  0
INSERT
  5
4F1
330
1F
100
AcDbEntity
  8
THICK_LINE
100
AcDbBlockReference
  2
SW_CENTERMARKSYMBOL_6
 10
989.2102434207
 20
-1.2116349115
 30
0.0
  0
INSERT
  5
4F9
330
1F
100
AcDbEntity
  8
THICK_LINE
100
AcDbBlockReference
  2
SW_CENTERMARKSYMBOL_7
 10
989.2102434207
 20
198.7883650885
 30
0.0
  0
INSERT
  5
501
330
1F
100
AcDbEntity
  8
THICK_LINE
100
AcDbBlockReference
  2
SW_CENTERMARKSYMBOL_8
 10
1141.7102434207
 20
46.2883650885
 30
0.0
  0
INSERT
  5
509
330
1F
100
AcDbEntity
  8
THICK_LINE
100
AcDbBlockReference
  2
SW_CENTERMARKSYMBOL_9
 10
1141.7102434207
 20
151.2883650885
 30
0.0
  0
INSERT
  5
511
330
1F
100
AcDbEntity
  8
THICK_LINE
100
AcDbBlockReference
  2
SW_CENTERMARKSYMBOL_10
 10
1036.7102434207
 20
151.2883650885
 30
0.0
  0
INSERT
  5
519
330
1F
100
AcDbEntity
  8
THICK_LINE
100
AcDbBlockReference
  2
SW_CENTERMARKSYMBOL_11
 10
1036.7102434207
 20
46.2883650885
 30
0.0
  0
INSERT
  5
521
330
1F
100
AcDbEntity
  8
THICK_LINE
100
AcDbBlockReference
  2
SW_CENTERMARKSYMBOL_12
 10
1650.9457909263
 20
288.1767070826
 30
0.0
  0
INSERT
  5
529
330
1F
100
AcDbEntity
  8
THICK_LINE
100
AcDbBlockReference
  2
SW_CENTERMARKSYMBOL_13
 10
1204.0242276314
 20
237.7883650885
 30
0.0
  0
INSERT
  5
531
330
1F
100
AcDbEntity
  8
THICK_LINE
100
AcDbBlockReference
  2
SW_CENTERMARKSYMBOL_14
 10
1204.0242276314
 20
259.7883650885
 30
0.0
  0
INSERT
  5
53D
330
1F
100
AcDbEntity
  8
THICK_LINE
100
AcDbBlockReference
  2
SW_CENTERMARKSYMBOL_15
 10
1284.0242276314
 20
248.7883650885
 30
0.0
  0
INSERT
  5
549
330
1F
100
AcDbEntity
  8
THICK_LINE
100
AcDbBlockReference
  2
SW_CENTERMARKSYMBOL_16
 10
1584.0242276314
 20
248.7883650885
 30
0.0
  0
INSERT
  5
551
330
1F
100
AcDbEntity
  8
THICK_LINE
100
AcDbBlockReference
  2
SW_CENTERMARKSYMBOL_17
 10
1650.9457909263
 20
1349.4000230944
 30
0.0
  0
INSERT
  5
559
330
1F
100
AcDbEntity
  8
THICK_LINE
100
AcDbBlockReference
  2
SW_CENTERMARKSYMBOL_18
 10
1204.0242276314
 20
1399.7883650885
 30
0.0
  0
INSERT
  5
561
330
1F
100
AcDbEntity
  8
THICK_LINE
100
AcDbBlockReference
  2
SW_CENTERMARKSYMBOL_19
 10
1204.0242276314
 20
1377.7883650885
 30
0.0
  0
INSERT
  5
56D
330
1F
100
AcDbEntity
  8
THICK_LINE
100
AcDbBlockReference
  2
SW_CENTERMARKSYMBOL_20
 10
1284.0242276314
 20
1388.7883650885
 30
0.0
  0
INSERT
  5
579
330
1F
100
AcDbEntity
  8
THICK_LINE
100
AcDbBlockReference
  2
SW_CENTERMARKSYMBOL_21
 10
1584.0242276314
 20
1388.7883650885
 30
0.0
  0
INSERT
  5
585
330
1F
100
AcDbEntity
  8
THICK_LINE
100
AcDbBlockReference
  2
SW_CENTERMARKSYMBOL_22
 10
994.2102434207
 20
1633.7883650885
 30
0.0
  0
INSERT
  5
591
330
1F
100
AcDbEntity
  8
THICK_LINE
100
AcDbBlockReference
  2
SW_CENTERMARKSYMBOL_23
 10
1184.2102434207
 20
1633.7883650885
 30
0.0
  0
INSERT
  5
59D
330
1F
100
AcDbEntity
  8
THICK_LINE
100
AcDbBlockReference
  2
SW_CENTERMARKSYMBOL_24
 10
1184.2102434207
 20
1443.7883650885
 30
0.0
  0
INSERT
  5
5A9
330
1F
100
AcDbEntity
  8
THICK_LINE
100
AcDbBlockReference
  2
SW_CENTERMARKSYMBOL_25
 10
994.2102434207
 20
1443.7883650885
 30
0.0
  0
INSERT
  5
5B1
330
1F
100
AcDbEntity
  8
THICK_LINE
100
AcDbBlockReference
  2
SW_CENTERMARKSYMBOL_26
 10
1189.2102434207
 20
1638.7883650885
 30
0.0
  0
INSERT
  5
5B9
330
1F
100
AcDbEntity
  8
THICK_LINE
100
AcDbBlockReference
  2
SW_CENTERMARKSYMBOL_27
 10
1189.2102434207
 20
1438.7883650885
 30
0.0
  0
INSERT
  5
5C1
330
1F
100
AcDbEntity
  8
THICK_LINE
100
AcDbBlockReference
  2
SW_CENTERMARKSYMBOL_28
 10
989.2102434207
 20
1438.7883650885
 30
0.0
  0
INSERT
  5
5C9
330
1F
100
AcDbEntity
  8
THICK_LINE
100
AcDbBlockReference
  2
SW_CENTERMARKSYMBOL_29
 10
989.2102434207
 20
1638.7883650885
 30
0.0
  0
INSERT
  5
5D1
330
1F
100
AcDbEntity
  8
THICK_LINE
100
AcDbBlockReference
  2
SW_CENTERMARKSYMBOL_30
 10
1141.7102434207
 20
1486.2883650885
 30
0.0
  0
INSERT
  5
5D9
330
1F
100
AcDbEntity
  8
THICK_LINE
100
AcDbBlockReference
  2
SW_CENTERMARKSYMBOL_31
 10
1141.7102434207
 20
1591.2883650885
 30
0.0
  0
INSERT
  5
5E1
330
1F
100
AcDbEntity
  8
THICK_LINE
100
AcDbBlockReference
  2
SW_CENTERMARKSYMBOL_32
 10
1036.7102434207
 20
1591.2883650885
 30
0.0
  0
INSERT
  5
5E9
330
1F
100
AcDbEntity
  8
THICK_LINE
100
AcDbBlockReference
  2
SW_CENTERMARKSYMBOL_33
 10
1036.7102434207
 20
1486.2883650885
 30
0.0
  0
INSERT
  5
5F1
330
1F
100
AcDbEntity
  8
THICK_LINE
100
AcDbBlockReference
  2
SW_CENTERMARKSYMBOL_34
 10
1036.7102434207
 20
-1393.7116349115
 30
0.0
  0
INSERT
  5
5F9
330
1F
100
AcDbEntity
  8
THICK_LINE
100
AcDbBlockReference
  2
SW_CENTERMARKSYMBOL_35
 10
1141.7102434207
 20
-1393.7116349115
 30
0.0
  0
INSERT
  5
601
330
1F
100
AcDbEntity
  8
THICK_LINE
100
AcDbBlockReference
  2
SW_CENTERMARKSYMBOL_36
 10
1141.7102434207
 20
-1288.7116349115
 30
0.0
  0
INSERT
  5
609
330
1F
100
AcDbEntity
  8
THICK_LINE
100
AcDbBlockReference
  2
SW_CENTERMARKSYMBOL_37
 10
1036.7102434207
 20
-1288.7116349115
 30
0.0
  0
INSERT
  5
615
330
1F
100
AcDbEntity
  8
THICK_LINE
100
AcDbBlockReference
  2
SW_CENTERMARKSYMBOL_38
 10
994.2102434207
 20
-1246.2116349115
 30
0.0
  0
INSERT
  5
621
330
1F
100
AcDbEntity
  8
THICK_LINE
100
AcDbBlockReference
  2
SW_CENTERMARKSYMBOL_39
 10
1184.2102434207
 20
-1246.2116349115
 30
0.0
  0
INSERT
  5
62D
330
1F
100
AcDbEntity
  8
THICK_LINE
100
AcDbBlockReference
  2
SW_CENTERMARKSYMBOL_40
 10
1184.2102434207
 20
-1436.2116349115
 30
0.0
  0
INSERT
  5
639
330
1F
100
AcDbEntity
  8
THICK_LINE
100
AcDbBlockReference
  2
SW_CENTERMARKSYMBOL_41
 10
994.2102434207
 20
-1436.2116349115
 30
0.0
  0
INSERT
  5
641
330
1F
100
AcDbEntity
  8
THICK_LINE
100
AcDbBlockReference
  2
SW_CENTERMARKSYMBOL_42
 10
1189.2102434207
 20
-1241.2116349115
 30
0.0
  0
INSERT
  5
649
330
1F
100
AcDbEntity
  8
THICK_LINE
100
AcDbBlockReference
  2
SW_CENTERMARKSYMBOL_43
 10
1189.2102434207
 20
-1441.2116349115
 30
0.0
  0
INSERT
  5
651
330
1F
100
AcDbEntity
  8
THICK_LINE
100
AcDbBlockReference
  2
SW_CENTERMARKSYMBOL_44
 10
989.2102434207
 20
-1441.2116349115
 30
0.0
  0
INSERT
  5
659
330
1F
100
AcDbEntity
  8
THICK_LINE
100
AcDbBlockReference
  2
SW_CENTERMARKSYMBOL_45
 10
989.2102434207
 20
-1241.2116349115
 30
0.0
  0
INSERT
  5
661
330
1F
100
AcDbEntity
  8
THICK_LINE
100
AcDbBlockReference
  2
SW_CENTERMARKSYMBOL_46
 10
1650.9457909263
 20
-1151.8232929174
 30
0.0
  0
INSERT
  5
669
330
1F
100
AcDbEntity
  8
THICK_LINE
100
AcDbBlockReference
  2
SW_CENTERMARKSYMBOL_47
 10
1204.0242276314
 20
-1202.2116349115
 30
0.0
  0
INSERT
  5
671
330
1F
100
AcDbEntity
  8
THICK_LINE
100
AcDbBlockReference
  2
SW_CENTERMARKSYMBOL_48
 10
1204.0242276314
 20
-1180.2116349115
 30
0.0
  0
INSERT
  5
67D
330
1F
100
AcDbEntity
  8
THICK_LINE
100
AcDbBlockReference
  2
SW_CENTERMARKSYMBOL_49
 10
1284.0242276314
 20
-1191.2116349115
 30
0.0
  0
INSERT
  5
689
330
1F
100
AcDbEntity
  8
THICK_LINE
100
AcDbBlockReference
  2
SW_CENTERMARKSYMBOL_50
 10
1584.0242276314
 20
-1191.2116349115
 30
0.0
  0
INSERT
  5
691
330
1F
100
AcDbEntity
  8
THICK_LINE
100
AcDbBlockReference
  2
SW_CENTERMARKSYMBOL_51
 10
1650.9457909263
 20
-90.5999769056
 30
0.0
  0
INSERT
  5
699
330
1F
100
AcDbEntity
  8
THICK_LINE
100
AcDbBlockReference
  2
SW_CENTERMARKSYMBOL_52
 10
1204.0242276314
 20
-40.2116349115
 30
0.0
  0
INSERT
  5
6A1
330
1F
100
AcDbEntity
  8
THICK_LINE
100
AcDbBlockReference
  2
SW_CENTERMARKSYMBOL_53
 10
1204.0242276314
 20
-62.2116349115
 30
0.0
  0
INSERT
  5
6AD
330
1F
100
AcDbEntity
  8
THICK_LINE
100
AcDbBlockReference
  2
SW_CENTERMARKSYMBOL_54
 10
1284.0242276314
 20
-51.2116349115
 30
0.0
  0
INSERT
  5
6B9
330
1F
100
AcDbEntity
  8
THICK_LINE
100
AcDbBlockReference
  2
SW_CENTERMARKSYMBOL_55
 10
1584.0242276314
 20
-51.2116349115
 30
0.0
  0
ENDSEC
  0
SECTION
  2
OBJECTS
  0
DICTIONARY
  5
C
330
0
100
AcDbDictionary
281
     1
  3
ACAD_GROUP
350
D
  3
ACAD_LAYOUT
350
1A
  3
ACAD_MLINESTYLE
350
17
  3
ACAD_PLOTSETTINGS
350
19
  3
ACAD_PLOTSTYLENAME
350
E
  3
ACAD_SCALELIST
350
47
  0
DICTIONARY
  5
D
102
{ACAD_REACTORS
330
C
102
}
330
C
100
AcDbDictionary
281
     1
  0
DICTIONARY
  5
1A
102
{ACAD_REACTORS
330
C
102
}
330
C
100
AcDbDictionary
281
     1
  3
Layout1
350
1E
  3
Layout2
350
26
  3
Model
350
22
  0
DICTIONARY
  5
17
102
{ACAD_REACTORS
330
C
102
}
330
C
100
AcDbDictionary
281
     1
  3
Standard
350
18
  0
DICTIONARY
  5
19
102
{ACAD_REACTORS
330
C
102
}
330
C
100
AcDbDictionary
281
     1
  0
ACDBDICTIONARYWDFLT
  5
E
102
{ACAD_REACTORS
330
C
102
}
330
C
100
AcDbDictionary
281
     1
  3
Normal
350
F
100
AcDbDictionaryWithDefault
340
F
  0
DICTIONARY
  5
47
102
{ACAD_REACTORS
330
C
102
}
330
C
100
AcDbDictionary
281
     1
  3
A0
350
48
  3
A1
350
49
  3
A2
350
4A
  3
A3
350
4B
  3
A4
350
4C
  3
A5
350
4D
  3
A6
350
4E
  3
A7
350
4F
  3
A8
350
50
  3
A9
350
51
  3
B0
350
52
  3
B1
350
53
  3
B2
350
54
  3
B3
350
55
  3
B4
350
56
  3
B5
350
57
  3
B6
350
58
  3
B7
350
59
  3
B8
350
5A
  3
B9
350
5B
  3
C0
350
5C
  3
C1
350
5D
  3
C2
350
5E
  3
C3
350
5F
  3
C4
350
60
  3
C5
350
61
  3
C6
350
62
  3
C7
350
63
  3
C8
350
64
  3
C9
350
65
  3
D0
350
66
  3
D1
350
67
  3
D2
350
68
  0
LAYOUT
  5
1E
102
{ACAD_REACTORS
330
1A
102
}
330
1A
100
AcDbPlotSettings
  1

  2
none_device
  4

  6

 40
0.0
 41
0.0
 42
0.0
 43
0.0
 44
0.0
 45
0.0
 46
0.0
 47
0.0
 48
0.0
 49
0.0
140
0.0
141
0.0
142
1.0
143
1.0
 70
   688
 72
     1
 73
     0
 74
     5
  7

 75
    16
147
1.0
148
0.0
149
0.0
100
AcDbLayout
  1
Layout1
 70
     1
 71
     1
 10
0.0
 20
0.0
 11
420.0
 21
297.0
 12
0.0
 22
0.0
 32
0.0
 14
1.0000000000E+20
 24
1.0000000000E+20
 34
1.0000000000E+20
 15
-1.0000000000E+20
 25
-1.0000000000E+20
 35
-1.0000000000E+20
146
0.0
 13
0.0
 23
0.0
 33
0.0
 16
1.0
 26
0.0
 36
0.0
 17
0.0
 27
1.0
 37
0.0
 76
     0
330
1B
  0
LAYOUT
  5
26
102
{ACAD_REACTORS
330
1A
102
}
330
1A
100
AcDbPlotSettings
  1

  2
none_device
  4

  6

 40
0.0
 41
0.0
 42
0.0
 43
0.0
 44
0.0
 45
0.0
 46
0.0
 47
0.0
 48
0.0
 49
0.0
140
0.0
141
0.0
142
1.0
143
1.0
 70
   688
 72
     1
 73
     0
 74
     5
  7

 75
    16
147
1.0
148
0.0
149
0.0
100
AcDbLayout
  1
Layout2
 70
     1
 71
     2
 10
0.0
 20
0.0
 11
0.0
 21
0.0
 12
0.0
 22
0.0
 32
0.0
 14
0.0
 24
0.0
 34
0.0
 15
0.0
 25
0.0
 35
0.0
146
0.0
 13
0.0
 23
0.0
 33
0.0
 16
1.0
 26
0.0
 36
0.0
 17
0.0
 27
1.0
 37
0.0
 76
     0
330
23
  0
LAYOUT
  5
22
102
{ACAD_REACTORS
330
1A
102
}
330
1A
100
AcDbPlotSettings
  1

  2
none_device
  4
Letter_(8.50_x_11.00_Inches)
  6

 40
6.35
 41
6.35
 42
6.35000508
 43
6.35000508
 44
215.9
 45
279.4
 46
0.0
 47
0.0
 48
0.0
 49
0.0
140
0.0
141
0.0
142
1.0
143
1.0
 70
  1712
 72
     1
 73
     0
 74
     0
  7

 75
     0
147
1.0
148
0.0
149
0.0
100
AcDbLayout
  1
Model
 70
     1
 71
     0
 10
0.0
 20
0.0
 11
420.0
 21
297.0
 12
0.0
 22
0.0
 32
0.0
 14
0.0
 24
0.0
 34
0.0
 15
420.0
 25
297.0
 35
0.0
146
0.0
 13
0.0
 23
0.0
 33
0.0
 16
1.0
 26
0.0
 36
0.0
 17
0.0
 27
1.0
 37
0.0
 76
     0
330
1F
331
29
  0
MLINESTYLE
  5
18
102
{ACAD_REACTORS
330
17
102
}
330
17
100
AcDbMlineStyle
  2
Standard
 70
     0
  3

 62
   256
 51
90.0
 52
90.0
 71
     2
 49
0.5
 62
   256
  6
BYLAYER
 49
-0.5
 62
   256
  6
BYLAYER
  0
ACDBPLACEHOLDER
  5
F
102
{ACAD_REACTORS
330
E
102
}
330
E
  0
SCALE
  5
48
102
{ACAD_REACTORS
330
47
102
}
330
47
100
AcDbScale
 70
     0
300
1:1
140
1.0
141
1.0
290
     1
  0
SCALE
  5
49
102
{ACAD_REACTORS
330
47
102
}
330
47
100
AcDbScale
 70
     0
300
1:2
140
1.0
141
2.0
290
     0
  0
SCALE
  5
4A
102
{ACAD_REACTORS
330
47
102
}
330
47
100
AcDbScale
 70
     0
300
1:4
140
1.0
141
4.0
290
     0
  0
SCALE
  5
4B
102
{ACAD_REACTORS
330
47
102
}
330
47
100
AcDbScale
 70
     0
300
1:5
140
1.0
141
5.0
290
     0
  0
SCALE
  5
4C
102
{ACAD_REACTORS
330
47
102
}
330
47
100
AcDbScale
 70
     0
300
1:8
140
1.0
141
8.0
290
     0
  0
SCALE
  5
4D
102
{ACAD_REACTORS
330
47
102
}
330
47
100
AcDbScale
 70
     0
300
1:10
140
1.0
141
10.0
290
     0
  0
SCALE
  5
4E
102
{ACAD_REACTORS
330
47
102
}
330
47
100
AcDbScale
 70
     0
300
1:16
140
1.0
141
16.0
290
     0
  0
SCALE
  5
4F
102
{ACAD_REACTORS
330
47
102
}
330
47
100
AcDbScale
 70
     0
300
1:20
140
1.0
141
20.0
290
     0
  0
SCALE
  5
50
102
{ACAD_REACTORS
330
47
102
}
330
47
100
AcDbScale
 70
     0
300
1:30
140
1.0
141
30.0
290
     0
  0
SCALE
  5
51
102
{ACAD_REACTORS
330
47
102
}
330
47
100
AcDbScale
 70
     0
300
1:40
140
1.0
141
40.0
290
     0
  0
SCALE
  5
52
102
{ACAD_REACTORS
330
47
102
}
330
47
100
AcDbScale
 70
     0
300
1:50
140
1.0
141
50.0
290
     0
  0
SCALE
  5
53
102
{ACAD_REACTORS
330
47
102
}
330
47
100
AcDbScale
 70
     0
300
1:100
140
1.0
141
100.0
290
     0
  0
SCALE
  5
54
102
{ACAD_REACTORS
330
47
102
}
330
47
100
AcDbScale
 70
     0
300
2:1
140
2.0
141
1.0
290
     0
  0
SCALE
  5
55
102
{ACAD_REACTORS
330
47
102
}
330
47
100
AcDbScale
 70
     0
300
4:1
140
4.0
141
1.0
290
     0
  0
SCALE
  5
56
102
{ACAD_REACTORS
330
47
102
}
330
47
100
AcDbScale
 70
     0
300
8:1
140
8.0
141
1.0
290
     0
  0
SCALE
  5
57
102
{ACAD_REACTORS
330
47
102
}
330
47
100
AcDbScale
 70
     0
300
10:1
140
10.0
141
1.0
290
     0
  0
SCALE
  5
58
102
{ACAD_REACTORS
330
47
102
}
330
47
100
AcDbScale
 70
     0
300
100:1
140
100.0
141
1.0
290
     0
  0
SCALE
  5
59
102
{ACAD_REACTORS
330
47
102
}
330
47
100
AcDbScale
 70
     0
300
1/128" = 1'-0"
140
0.0078125
141
12.0
290
     0
  0
SCALE
  5
5A
102
{ACAD_REACTORS
330
47
102
}
330
47
100
AcDbScale
 70
     0
300
1/64" = 1'-0"
140
0.015625
141
12.0
290
     0
  0
SCALE
  5
5B
102
{ACAD_REACTORS
330
47
102
}
330
47
100
AcDbScale
 70
     0
300
1/32" = 1'-0"
140
0.03125
141
12.0
290
     0
  0
SCALE
  5
5C
102
{ACAD_REACTORS
330
47
102
}
330
47
100
AcDbScale
 70
     0
300
1/16" = 1'-0"
140
0.0625
141
12.0
290
     0
  0
SCALE
  5
5D
102
{ACAD_REACTORS
330
47
102
}
330
47
100
AcDbScale
 70
     0
300
3/32" = 1'-0"
140
0.09375
141
12.0
290
     0
  0
SCALE
  5
5E
102
{ACAD_REACTORS
330
47
102
}
330
47
100
AcDbScale
 70
     0
300
1/8" = 1'-0"
140
0.125
141
12.0
290
     0
  0
SCALE
  5
5F
102
{ACAD_REACTORS
330
47
102
}
330
47
100
AcDbScale
 70
     0
300
3/16" = 1'-0"
140
0.1875
141
12.0
290
     0
  0
SCALE
  5
60
102
{ACAD_REACTORS
330
47
102
}
330
47
100
AcDbScale
 70
     0
300
1/4" = 1'-0"
140
0.25
141
12.0
290
     0
  0
SCALE
  5
61
102
{ACAD_REACTORS
330
47
102
}
330
47
100
AcDbScale
 70
     0
300
3/8" = 1'-0"
140
0.375
141
12.0
290
     0
  0
SCALE
  5
62
102
{ACAD_REACTORS
330
47
102
}
330
47
100
AcDbScale
 70
     0
300
1/2" = 1'-0"
140
0.5
141
12.0
290
     0
  0
SCALE
  5
63
102
{ACAD_REACTORS
330
47
102
}
330
47
100
AcDbScale
 70
     0
300
3/4" = 1'-0"
140
0.75
141
12.0
290
     0
  0
SCALE
  5
64
102
{ACAD_REACTORS
330
47
102
}
330
47
100
AcDbScale
 70
     0
300
1" = 1'-0"
140
1.0
141
12.0
290
     0
  0
SCALE
  5
65
102
{ACAD_REACTORS
330
47
102
}
330
47
100
AcDbScale
 70
     0
300
1-1/2" = 1'-0"
140
1.5
141
12.0
290
     0
  0
SCALE
  5
66
102
{ACAD_REACTORS
330
47
102
}
330
47
100
AcDbScale
 70
     0
300
3" = 1'-0"
140
3.0
141
12.0
290
     0
  0
SCALE
  5
67
102
{ACAD_REACTORS
330
47
102
}
330
47
100
AcDbScale
 70
     0
300
6" = 1'-0"
140
6.0
141
12.0
290
     0
  0
SCALE
  5
68
102
{ACAD_REACTORS
330
47
102
}
330
47
100
AcDbScale
 70
     0
300
1'-0" = 1'-0"
140
12.0
141
12.0
290
     0
  0
ENDSEC
  0
EOF
