  0
SECTION
  2
HEADER
  9
$ACADVER
  1
AC1015
  9
$ACADMAINTVER
 70
     6
  9
$DWGCODEPAGE
  3
ANSI_1251
  9
$INSBASE
 10
0.0
 20
0.0
 30
0.0
  9
$EXTMIN
 10
5795.2112476034
 20
-4987.9037508612
 30
0.0
  9
$EXTMAX
 10
12358.0260220205
 20
547.3214436754
 30
0.0
  9
$LIMMIN
 10
0.0
 20
0.0
  9
$LIMMAX
 10
420.0
 20
297.0
  9
$ORTHOMODE
 70
     0
  9
$REGENMODE
 70
     1
  9
$FILLMODE
 70
     1
  9
$QTEXTMODE
 70
     0
  9
$MIRRTEXT
 70
     1
  9
$LTSCALE
 40
1.0
  9
$ATTMODE
 70
     1
  9
$TEXTSIZE
 40
3.0
  9
$TRACEWID
 40
1.0
  9
$TEXTSTYLE
  7
Standard
  9
$CLAYER
  8
0
  9
$CELTYPE
  6
ByLayer
  9
$CECOLOR
 62
   256
  9
$CELTSCALE
 40
1.0
  9
$DISPSILH
 70
     0
  9
$DIMSCALE
 40
1.0
  9
$DIMASZ
 40
3.0
  9
$DIMEXO
 40
0.0
  9
$DIMDLI
 40
3.75
  9
$DIMRND
 40
0.0
  9
$DIMDLE
 40
0.0
  9
$DIMEXE
 40
2.0
  9
$DIMTP
 40
0.0
  9
$DIMTM
 40
0.0
  9
$DIMTXT
 40
3.0
  9
$DIMCEN
 40
2.5
  9
$DIMTSZ
 40
0.0
  9
$DIMTOL
 70
     0
  9
$DIMLIM
 70
     0
  9
$DIMTIH
 70
     1
  9
$DIMTOH
 70
     1
  9
$DIMSE1
 70
     0
  9
$DIMSE2
 70
     0
  9
$DIMTAD
 70
     1
  9
$DIMZIN
 70
     0
  9
$DIMBLK
  1

  9
$DIMASO
 70
     1
  9
$DIMSHO
 70
     1
  9
$DIMPOST
  1

  9
$DIMAPOST
  1

  9
$DIMALT
 70
     0
  9
$DIMALTD
 70
     3
  9
$DIMALTF
 40
0.0393700787
  9
$DIMLFAC
 40
1.0
  9
$DIMTOFL
 70
     1
  9
$DIMTVP
 40
0.0
  9
$DIMTIX
 70
     0
  9
$DIMSOXD
 70
     0
  9
$DIMSAH
 70
     0
  9
$DIMBLK1
  1

  9
$DIMBLK2
  1

  9
$DIMSTYLE
  2
ISO-25
  9
$DIMCLRD
 70
     0
  9
$DIMCLRE
 70
     0
  9
$DIMCLRT
 70
     0
  9
$DIMTFAC
 40
1.0
  9
$DIMGAP
 40
2.0
  9
$DIMJUST
 70
     0
  9
$DIMSD1
 70
     0
  9
$DIMSD2
 70
     0
  9
$DIMTOLJ
 70
     0
  9
$DIMTZIN
 70
     0
  9
$DIMALTZ
 70
     0
  9
$DIMALTTZ
 70
     0
  9
$DIMUPT
 70
     0
  9
$DIMDEC
 70
     2
  9
$DIMTDEC
 70
     2
  9
$DIMALTU
 70
     2
  9
$DIMALTTD
 70
     3
  9
$DIMTXSTY
  7
Standard
  9
$DIMAUNIT
 70
     0
  9
$DIMADEC
 70
     2
  9
$DIMALTRND
 40
0.0
  9
$DIMAZIN
 70
     0
  9
$DIMDSEP
 70
    44
  9
$DIMATFIT
 70
     3
  9
$DIMFRAC
 70
     0
  9
$DIMLDRBLK
  1

  9
$DIMLUNIT
 70
     2
  9
$DIMLWD
 70
    -2
  9
$DIMLWE
 70
    -2
  9
$DIMTMOVE
 70
     0
  9
$LUNITS
 70
     2
  9
$LUPREC
 70
     2
  9
$SKETCHINC
 40
1.0
  9
$FILLETRAD
 40
10.0
  9
$AUNITS
 70
     1
  9
$AUPREC
 70
     2
  9
$MENU
  1
.
  9
$ELEVATION
 40
0.0
  9
$PELEVATION
 40
0.0
  9
$THICKNESS
 40
0.0
  9
$LIMCHECK
 70
     0
  9
$CHAMFERA
 40
0.0
  9
$CHAMFERB
 40
0.0
  9
$CHAMFERC
 40
0.0
  9
$CHAMFERD
 40
0.0
  9
$SKPOLY
 70
     0
  9
$TDCREATE
 40
2459310.484367188
  9
$TDUCREATE
 40
2459310.359367188
  9
$TDUPDATE
 40
2459310.484410845
  9
$TDUUPDATE
 40
2459310.359410845
  9
$TDINDWG
 40
0.0000000116
  9
$TDUSRTIMER
 40
0.0000000116
  9
$USRTIMER
 70
     1
  9
$ANGBASE
 50
0.0
  9
$ANGDIR
 70
     0
  9
$PDMODE
 70
     0
  9
$PDSIZE
 40
-1.0
  9
$PLINEWID
 40
0.0
  9
$SPLFRAME
 70
     0
  9
$SPLINETYPE
 70
     6
  9
$SPLINESEGS
 70
     8
  9
$HANDSEED
  5
28F
  9
$SURFTAB1
 70
     6
  9
$SURFTAB2
 70
     6
  9
$SURFTYPE
 70
     6
  9
$SURFU
 70
     6
  9
$SURFV
 70
     6
  9
$UCSBASE
  2

  9
$UCSNAME
  2

  9
$UCSORG
 10
0.0
 20
0.0
 30
0.0
  9
$UCSXDIR
 10
1.0
 20
0.0
 30
0.0
  9
$UCSYDIR
 10
0.0
 20
1.0
 30
0.0
  9
$UCSORTHOREF
  2

  9
$UCSORTHOVIEW
 70
     0
  9
$UCSORGTOP
 10
0.0
 20
0.0
 30
0.0
  9
$UCSORGBOTTOM
 10
0.0
 20
0.0
 30
0.0
  9
$UCSORGLEFT
 10
0.0
 20
0.0
 30
0.0
  9
$UCSORGRIGHT
 10
0.0
 20
0.0
 30
0.0
  9
$UCSORGFRONT
 10
0.0
 20
0.0
 30
0.0
  9
$UCSORGBACK
 10
0.0
 20
0.0
 30
0.0
  9
$PUCSBASE
  2

  9
$PUCSNAME
  2

  9
$PUCSORG
 10
0.0
 20
0.0
 30
0.0
  9
$PUCSXDIR
 10
1.0
 20
0.0
 30
0.0
  9
$PUCSYDIR
 10
0.0
 20
1.0
 30
0.0
  9
$PUCSORTHOREF
  2

  9
$PUCSORTHOVIEW
 70
     0
  9
$PUCSORGTOP
 10
0.0
 20
0.0
 30
0.0
  9
$PUCSORGBOTTOM
 10
0.0
 20
0.0
 30
0.0
  9
$PUCSORGLEFT
 10
0.0
 20
0.0
 30
0.0
  9
$PUCSORGRIGHT
 10
0.0
 20
0.0
 30
0.0
  9
$PUCSORGFRONT
 10
0.0
 20
0.0
 30
0.0
  9
$PUCSORGBACK
 10
0.0
 20
0.0
 30
0.0
  9
$USERI1
 70
     0
  9
$USERI2
 70
     0
  9
$USERI3
 70
     0
  9
$USERI4
 70
     0
  9
$USERI5
 70
     0
  9
$USERR1
 40
0.0
  9
$USERR2
 40
0.0
  9
$USERR3
 40
0.0
  9
$USERR4
 40
0.0
  9
$USERR5
 40
0.0
  9
$WORLDVIEW
 70
     1
  9
$SHADEDGE
 70
     3
  9
$SHADEDIF
 70
    70
  9
$TILEMODE
 70
     1
  9
$MAXACTVP
 70
    64
  9
$PINSBASE
 10
0.0
 20
0.0
 30
0.0
  9
$PLIMCHECK
 70
     0
  9
$PEXTMIN
 10
1.0000000000E+20
 20
1.0000000000E+20
 30
1.0000000000E+20
  9
$PEXTMAX
 10
-1.0000000000E+20
 20
-1.0000000000E+20
 30
-1.0000000000E+20
  9
$PLIMMIN
 10
0.0
 20
0.0
  9
$PLIMMAX
 10
420.0
 20
297.0
  9
$UNITMODE
 70
     0
  9
$VISRETAIN
 70
     1
  9
$PLINEGEN
 70
     0
  9
$PSLTSCALE
 70
     1
  9
$TREEDEPTH
 70
  3020
  9
$CMLSTYLE
  2
Standard
  9
$CMLJUST
 70
     0
  9
$CMLSCALE
 40
20.0
  9
$PROXYGRAPHICS
 70
     1
  9
$MEASUREMENT
 70
     1
  9
$CELWEIGHT
370
    -1
  9
$ENDCAPS
280
     0
  9
$JOINSTYLE
280
     0
  9
$LWDISPLAY
290
     1
  9
$INSUNITS
 70
     4
  9
$HYPERLINKBASE
  1

  9
$STYLESHEET
  1

  9
$XEDIT
290
     1
  9
$CEPSNTYPE
380
     0
  9
$PSTYLEMODE
290
     1
  9
$FINGERPRINTGUID
  2
{0DCD4EE5-3772-4F4B-8E67-851426F36F84}
  9
$VERSIONGUID
  2
{FAEB1C32-E019-11D5-929B-00C0DF256EC4}
  9
$EXTNAMES
290
     1
  9
$PSVPSCALE
 40
0.0
  9
$OLESTARTUP
290
     0
  0
ENDSEC
  0
SECTION
  2
CLASSES
  0
CLASS
  1
ACDBDICTIONARYWDFLT
  2
AcDbDictionaryWithDefault
  3
ObjectDBX Classes
 90
        0
280
     0
281
     0
  0
CLASS
  1
VISUALSTYLE
  2
AcDbVisualStyle
  3
ObjectDBX Classes
 90
     4095
280
     0
281
     0
  0
CLASS
  1
MATERIAL
  2
AcDbMaterial
  3
ObjectDBX Classes
 90
     1153
280
     0
281
     0
  0
CLASS
  1
SCALE
  2
AcDbScale
  3
ObjectDBX Classes
 90
     1153
280
     0
281
     0
  0
CLASS
  1
SUN
  2
AcDbSun
  3
SCENEOE
 90
     1153
280
     0
281
     0
  0
CLASS
  1
ACDBPLACEHOLDER
  2
AcDbPlaceHolder
  3
ObjectDBX Classes
 90
        0
280
     0
281
     0
  0
CLASS
  1
LAYOUT
  2
AcDbLayout
  3
ObjectDBX Classes
 90
        0
280
     0
281
     0
  0
ENDSEC
  0
SECTION
  2
TABLES
  0
TABLE
  2
VPORT
  5
8
330
0
100
AcDbSymbolTable
 70
     1
  0
VPORT
  5
29
330
8
100
AcDbSymbolTableRecord
100
AcDbViewportTableRecord
  2
*Active
 70
     0
 10
0.0
 20
0.0
 11
1.0
 21
1.0
 12
9076.6186348119
 22
-2220.2911535929
 13
0.0
 23
0.0
 14
10.0
 24
10.0
 15
10.0
 25
10.0
 16
0.0
 26
0.0
 36
1.0
 17
0.0
 27
0.0
 37
0.0
 40
5645.9296984274
 41
1.1856454875
 42
50.0
 43
0.0
 44
0.0
 50
0.0
 51
0.0
 71
     0
 72
   100
 73
     1
 74
     3
 75
     0
 76
     0
 77
     0
 78
     0
281
     0
 65
     1
110
0.0
120
0.0
130
0.0
111
1.0
121
0.0
131
0.0
112
0.0
122
1.0
132
0.0
 79
     0
146
0.0
  0
ENDTAB
  0
TABLE
  2
LTYPE
  5
5
330
0
100
AcDbSymbolTable
 70
     6
  0
LTYPE
  5
14
330
5
100
AcDbSymbolTableRecord
100
AcDbLinetypeTableRecord
  2
ByBlock
 70
     0
  3

 72
    65
 73
     0
 40
0.0
  0
LTYPE
  5
15
330
5
100
AcDbSymbolTableRecord
100
AcDbLinetypeTableRecord
  2
ByLayer
 70
     0
  3

 72
    65
 73
     0
 40
0.0
  0
LTYPE
  5
16
330
5
100
AcDbSymbolTableRecord
100
AcDbLinetypeTableRecord
  2
Continuous
 70
     0
  3
Solid line
 72
    65
 73
     0
 40
0.0
  0
LTYPE
  5
6A
330
5
100
AcDbSymbolTableRecord
100
AcDbLinetypeTableRecord
  2
HIDDEN
 70
     0
  3
Hidden __ __ __ __ __ __ __ __ __ __ __ __ __ __
 72
    65
 73
     2
 40
1.905
 49
1.27
 74
     0
 49
-0.635
 74
     0
  0
LTYPE
  5
6B
330
5
100
AcDbSymbolTableRecord
100
AcDbLinetypeTableRecord
  2
PHANTOM
 70
     0
  3
Phantom ______  __  __  ______  __  __  ______
 72
    65
 73
     6
 40
12.7
 49
6.35
 74
     0
 49
-1.27
 74
     0
 49
1.27
 74
     0
 49
-1.27
 74
     0
 49
1.27
 74
     0
 49
-1.27
 74
     0
  0
LTYPE
  5
6C
330
5
100
AcDbSymbolTableRecord
100
AcDbLinetypeTableRecord
  2
CENTER
 70
     0
  3
Center ____ _ ____ _ ____ _ ____ _ ____ _ ____
 72
    65
 73
     4
 40
10.16
 49
6.35
 74
     0
 49
-1.27
 74
     0
 49
1.27
 74
     0
 49
-1.27
 74
     0
  0
LTYPE
  5
6D
330
5
100
AcDbSymbolTableRecord
100
AcDbLinetypeTableRecord
  2
CENTERX2
 70
     0
  3
Center (2x) ________  __  ________  __  _____
 72
    65
 73
     4
 40
20.32
 49
12.7
 74
     0
 49
-2.54
 74
     0
 49
2.54
 74
     0
 49
-2.54
 74
     0
  0
LTYPE
  5
6E
330
5
100
AcDbSymbolTableRecord
100
AcDbLinetypeTableRecord
  2
DOT2
 70
     0
  3
Dot (.5x) ........................................
 72
    65
 73
     2
 40
0.635
 49
0.0
 74
     0
 49
-0.635
 74
     0
  0
ENDTAB
  0
TABLE
  2
LAYER
  5
2
330
0
100
AcDbSymbolTable
 70
     1
  0
LAYER
  5
10
330
2
100
AcDbSymbolTableRecord
100
AcDbLayerTableRecord
  2
0
 70
     0
 62
     7
  6
Continuous
370
    -3
390
F
  0
ENDTAB
  0
TABLE
  2
STYLE
  5
3
330
0
100
AcDbSymbolTable
 70
     1
  0
STYLE
  5
11
330
3
100
AcDbSymbolTableRecord
100
AcDbTextStyleTableRecord
  2
Standard
 70
     0
 40
0.0
 41
1.0
 50
0.0
 71
     0
 42
3.0
  3
txt
  4

  0
ENDTAB
  0
TABLE
  2
VIEW
  5
6
330
0
100
AcDbSymbolTable
 70
     0
  0
ENDTAB
  0
TABLE
  2
UCS
  5
7
330
0
100
AcDbSymbolTable
 70
     0
  0
ENDTAB
  0
TABLE
  2
APPID
  5
9
330
0
100
AcDbSymbolTable
 70
     1
  0
APPID
  5
12
330
9
100
AcDbSymbolTableRecord
100
AcDbRegAppTableRecord
  2
ACAD
 70
     0
  0
ENDTAB
  0
TABLE
  2
DIMSTYLE
  5
A
330
0
100
AcDbSymbolTable
 70
     1
100
AcDbDimStyleTable
  0
DIMSTYLE
105
27
330
A
100
AcDbSymbolTableRecord
100
AcDbDimStyleTableRecord
  2
ISO-25
 70
     0
 41
2.5
 42
0.625
 43
3.75
 44
1.25
 73
     0
 74
     0
 77
     1
 78
     8
140
2.5
141
2.5
143
0.0393700787
147
0.625
171
     3
172
     1
178
     0
271
     2
272
     2
274
     3
278
    44
283
     0
284
     8
340
11
  0
ENDTAB
  0
TABLE
  2
BLOCK_RECORD
  5
1
330
0
100
AcDbSymbolTable
 70
     1
  0
BLOCK_RECORD
  5
1F
330
1
100
AcDbSymbolTableRecord
100
AcDbBlockTableRecord
  2
*Model_Space
340
22
  0
BLOCK_RECORD
  5
1B
330
1
100
AcDbSymbolTableRecord
100
AcDbBlockTableRecord
  2
*Paper_Space
340
1E
  0
BLOCK_RECORD
  5
23
330
1
100
AcDbSymbolTableRecord
100
AcDbBlockTableRecord
  2
*Paper_Space0
340
26
  0
ENDTAB
  0
ENDSEC
  0
SECTION
  2
BLOCKS
  0
BLOCK
  5
20
330
1F
100
AcDbEntity
  8
0
100
AcDbBlockBegin
  2
*Model_Space
 70
     0
 10
0.0
 20
0.0
 30
0.0
  3
*Model_Space
  1
*Model_Space
  0
ENDBLK
  5
21
330
1F
100
AcDbEntity
  8
0
100
AcDbBlockEnd
  0
BLOCK
  5
1C
330
1B
100
AcDbEntity
 67
     1
  8
0
100
AcDbBlockBegin
  2
*Paper_Space
 70
     0
 10
0.0
 20
0.0
 30
0.0
  3
*Paper_Space
  1
*Paper_Space
  0
ENDBLK
  5
1D
330
1B
100
AcDbEntity
 67
     1
  8
0
100
AcDbBlockEnd
  0
BLOCK
  5
24
330
23
100
AcDbEntity
  8
0
100
AcDbBlockBegin
  2
*Paper_Space0
 70
     0
 10
0.0
 20
0.0
 30
0.0
  3
*Paper_Space0
  1
*Paper_Space0
  0
ENDBLK
  5
25
330
23
100
AcDbEntity
  8
0
100
AcDbBlockEnd
  0
ENDSEC
  0
SECTION
  2
ENTITIES
  0
SPLINE
  5
76
330
1F
100
AcDbEntity
  8
0
  6
Continuous
 62
     7
370
    15
100
AcDbSpline
210
0.0
220
0.0
230
1.0
 70
     8
 71
     3
 72
    41
 73
    37
 74
     0
 42
0.000000001
 43
0.00000001
 40
0.0
 40
0.0
 40
0.0
 40
0.0
 40
0.0331324726079445
 40
0.0747257972782884
 40
0.1141192847519508
 40
0.150813678271557
 40
0.1843081972388334
 40
0.2145226826366081
 40
0.2364773984980722
 40
0.245997345813918
 40
0.2533191929920821
 40
0.2611610650099473
 40
0.2739874980337834
 40
0.2954823683008351
 40
0.327047171271402
 40
0.3628937447280493
 40
0.3992311530499096
 40
0.4356140776848205
 40
0.472003112839547
 40
0.5083933218653908
 40
0.5447838623552973
 40
0.5811746544297208
 40
0.6175658247716144
 40
0.65395766477224
 40
0.690350605103617
 40
0.7267443844844771
 40
0.7593373567813178
 40
0.7770068186357378
 40
0.7891947570988536
 40
0.7977894398339201
 40
0.8108254544063456
 40
0.83312714538666
 40
0.8753462857777898
 40
0.9416494569649203
 40
0.9901782779556675
 40
1.0
 40
1.0
 40
1.0
 40
1.0
 10
8794.894991225228
 20
-2014.117736227186
 30
0.0
 10
8795.000388673472
 20
-2014.323689184359
 30
0.0
 10
8795.238098319967
 20
-2014.788188140074
 30
0.0
 10
8795.531552593688
 20
-2015.359487045149
 30
0.0
 10
8795.786327694103
 20
-2015.853752388298
 30
0.0
 10
8795.975490223775
 20
-2016.218302459444
 30
0.0
 10
8796.112582313237
 20
-2016.480517735083
 30
0.0
 10
8796.216129233046
 20
-2016.673825737117
 30
0.0
 10
8796.30533041987
 20
-2016.839104526544
 30
0.0
 10
8796.455083069613
 20
-2017.095681092142
 30
0.0
 10
8796.610173648007
 20
-2017.342398656508
 30
0.0
 10
8796.825023194999
 20
-2017.65748925207
 30
0.0
 10
8797.19278689043
 20
-2018.138600420341
 30
0.0
 10
8797.84336912079
 20
-2018.842789791028
 30
0.0
 10
8798.854364767867
 20
-2019.660671365631
 30
0.0
 10
8800.191482403592
 20
-2020.383967561049
 30
0.0
 10
8801.71232821425
 20
-2020.851879502544
 30
0.0
 10
8803.303643501484
 20
-2021.010930251361
 30
0.0
 10
8804.895791809013
 20
-2020.852168787681
 30
0.0
 10
8806.425238425072
 20
-2020.381713045983
 30
0.0
 10
8807.831496832896
 20
-2019.618127468086
 30
0.0
 10
8809.05902405073
 20
-2018.591564010228
 30
0.0
 10
8810.059342228598
 20
-2017.342544737842
 30
0.0
 10
8810.792969318287
 20
-2015.920429908131
 30
0.0
 10
8811.230863424847
 20
-2014.381267909066
 30
0.0
 10
8811.351655524995
 20
-2012.842096339099
 30
0.0
 10
8811.211513911665
 20
-2011.581246152726
 30
0.0
 10
8810.990546183542
 20
-2010.705534280806
 30
0.0
 10
8810.815806742872
 20
-2010.192547585334
 30
0.0
 10
8810.67019659311
 20
-2009.827882748444
 30
0.0
 10
8810.559617289588
 20
-2009.5800605757
 30
0.0
 10
8810.467860798819
 20
-2009.384860509108
 30
0.0
 10
8810.323372692837
 20
-2009.085893442265
 30
0.0
 10
8810.059444451512
 20
-2008.550945422536
 30
0.0
 10
8809.791120307667
 20
-2008.010325963329
 30
0.0
 10
8809.621592790963
 20
-2007.670733380251
 30
0.0
 10
8809.593057458449
 20
-2007.6135722334
 30
0.0
  0
SPLINE
  5
77
330
1F
100
AcDbEntity
  8
0
  6
Continuous
 62
     7
370
    15
100
AcDbSpline
210
0.0
220
0.0
230
1.0
 70
     8
 71
     3
 72
    13
 73
     9
 74
     0
 42
0.000000001
 43
0.00000001
 40
0.0
 40
0.0
 40
0.0
 40
0.0
 40
0.1869917124312059
 40
0.4209257226738355
 40
0.6352975959944919
 40
0.8241553334333495
 40
0.9797684052355808
 40
1.0
 40
1.0
 40
1.0
 40
1.0
 10
8795.275088808652
 20
-2014.75464459459
 30
0.0
 10
8795.354892349465
 20
-2014.914759616858
 30
0.0
 10
8795.534533268583
 20
-2015.275184849525
 30
0.0
 10
8795.738822604384
 20
-2015.687113604818
 30
0.0
 10
8795.901287363085
 20
-2016.016702820535
 30
0.0
 10
8795.99019105472
 20
-2016.198141353865
 30
0.0
 10
8796.034874709745
 20
-2016.291977142683
 30
0.0
 10
8796.027262490103
 20
-2016.275616311756
 30
0.0
 10
8796.026386675409
 20
-2016.273733936205
 30
0.0
  0
SPLINE
  5
78
330
1F
100
AcDbEntity
  8
0
  6
Continuous
 62
     7
370
    15
100
AcDbSpline
210
0.0
220
0.0
230
1.0
 70
     8
 71
     3
 72
    10
 73
     6
 74
     0
 42
0.000000001
 43
0.00000001
 40
0.0
 40
0.0
 40
0.0
 40
0.0
 40
0.5045231015641354
 40
0.9762484411562358
 40
1.0
 40
1.0
 40
1.0
 40
1.0
 10
8794.11109730172
 20
-2016.908882894122
 30
0.0
 10
8794.139306667881
 20
-2016.966323581258
 30
0.0
 10
8794.193891581159
 20
-2017.077470882743
 30
0.0
 10
8794.231312387878
 20
-2017.156452588792
 30
0.0
 10
8794.22159079545
 20
-2017.135630491882
 30
0.0
 10
8794.221124773772
 20
-2017.134632347949
 30
0.0
  0
SPLINE
  5
79
330
1F
100
AcDbEntity
  8
0
  6
Continuous
 62
     7
370
    15
100
AcDbSpline
210
0.0
220
0.0
230
1.0
 70
     8
 71
     3
 72
    15
 73
    11
 74
     0
 42
0.000000001
 43
0.00000001
 40
0.0
 40
0.0
 40
0.0
 40
0.0
 40
0.0138765925915182
 40
0.1780381820317131
 40
0.2955885947511616
 40
0.3797317817132493
 40
0.4777568516917968
 40
0.6383096456330073
 40
0.9123493286907245
 40
1.0
 40
1.0
 40
1.0
 40
1.0
 10
8795.563313629578
 20
-2016.463669394617
 30
0.0
 10
8795.563076015053
 20
-2016.463158915001
 30
0.0
 10
8795.560027395017
 20
-2016.456609406387
 30
0.0
 10
8795.52534503364
 20
-2016.38139303853
 30
0.0
 10
8795.442826119955
 20
-2016.189896766464
 30
0.0
 10
8795.34331224762
 20
-2015.937751043889
 30
0.0
 10
8795.222775562806
 20
-2015.602269024899
 30
0.0
 10
8795.057405484424
 20
-2015.040406834148
 30
0.0
 10
8794.913293394198
 20
-2014.472161114203
 30
0.0
 10
8794.889840808799
 20
-2014.068186213076
 30
0.0
 10
8794.884157398028
 20
-2013.970288464772
 30
0.0
  0
SPLINE
  5
7A
330
1F
100
AcDbEntity
  8
0
  6
Continuous
 62
     7
370
    15
100
AcDbSpline
210
0.0
220
0.0
230
1.0
 70
     8
 71
     3
 72
    12
 73
     8
 74
     0
 42
0.000000001
 43
0.00000001
 40
0.0
 40
0.0
 40
0.0
 40
0.0
 40
0.3456021819620842
 40
0.6035711448493268
 40
0.7403376522820551
 40
0.8651319450935735
 40
1.0
 40
1.0
 40
1.0
 40
1.0
 10
8809.224693655022
 20
-2006.874423731594
 30
0.0
 10
8809.45651194082
 20
-2007.108194325312
 30
0.0
 10
8809.8613671051
 20
-2007.516459065079
 30
0.0
 10
8810.275079553769
 20
-2008.085566455629
 30
0.0
 10
8810.514716782925
 20
-2008.454392385147
 30
0.0
 10
8810.6410830038
 20
-2008.666580092944
 30
0.0
 10
8810.665431078769
 20
-2008.71044772783
 30
0.0
 10
8810.678077415601
 20
-2008.733232481346
 30
0.0
  0
SPLINE
  5
82
330
1F
100
AcDbEntity
  8
0
  6
Continuous
 62
     7
370
    15
100
AcDbSpline
210
0.0
220
0.0
230
1.0
 70
     8
 71
     3
 72
    39
 73
    35
 74
     0
 42
0.000000001
 43
0.00000001
 40
0.0
 40
0.0
 40
0.0
 40
0.0
 40
0.0318818156853577
 40
0.0746486237797836
 40
0.1152279065370484
 40
0.1531646002726821
 40
0.1880993328138038
 40
0.2206887282025203
 40
0.2398094051554424
 40
0.2503081227867348
 40
0.2590255779074162
 40
0.269535713428716
 40
0.2872667384433299
 40
0.3134734615327776
 40
0.3482616978688444
 40
0.3852607049148012
 40
0.4225150150309125
 40
0.4597994274469767
 40
0.4970888488246724
 40
0.5343794176908985
 40
0.5716704916988326
 40
0.608962172820959
 40
0.6462549125950386
 40
0.6835494592449961
 40
0.7208465420897712
 40
0.7581396608556668
 40
0.7801811773142561
 40
0.796155667833689
 40
0.8080671347334281
 40
0.821185532010396
 40
0.8425081320168685
 40
0.8860254053593594
 40
0.9541706620893837
 40
1.0
 40
1.0
 40
1.0
 40
1.0
 10
9136.143551989107
 20
-1805.368484040371
 30
0.0
 10
9136.243192521355
 20
-1805.562256740467
 30
0.0
 10
9136.476492552898
 20
-1806.015959425754
 30
0.0
 10
9136.768455373513
 20
-1806.580784093339
 30
0.0
 10
9137.029286948262
 20
-1807.082872982973
 30
0.0
 10
9137.225555845143
 20
-1807.45736145061
 30
0.0
 10
9137.375907173355
 20
-1807.740552670886
 30
0.0
 10
9137.488896917055
 20
-1807.947944776738
 30
0.0
 10
9137.617252618633
 20
-1808.175954207119
 30
0.0
 10
9137.791736251264
 20
-1808.461030200577
 30
0.0
 10
9137.99183481997
 20
-1808.760648020262
 30
0.0
 10
9138.288973952822
 20
-1809.163285039083
 30
0.0
 10
9138.78846560363
 20
-1809.745746357657
 30
0.0
 10
9139.61114073738
 20
-1810.504834463453
 30
0.0
 10
9140.779960580923
 20
-1811.275332520785
 30
0.0
 10
9142.221371646041
 20
-1811.869897043337
 30
0.0
 10
9143.787006493254
 20
-1812.176074998312
 30
0.0
 10
9145.38650597377
 20
-1812.166814826679
 30
0.0
 10
9146.95315089037
 20
-1811.841415484891
 30
0.0
 10
9148.424630890351
 20
-1811.212646994922
 30
0.0
 10
9149.742768163691
 20
-1810.305336793241
 30
0.0
 10
9150.855494439951
 20
-1809.155293237484
 30
0.0
 10
9151.718885476246
 20
-1807.807981008888
 30
0.0
 10
9152.298776189153
 20
-1806.316425168212
 30
0.0
 10
9152.572498046999
 20
-1804.740548876479
 30
0.0
 10
9152.534568601948
 20
-1803.35873690715
 30
0.0
 10
9152.338791126092
 20
-1802.311800728175
 30
0.0
 10
9152.143196219178
 20
-1801.645899755208
 30
0.0
 10
9151.971736065354
 20
-1801.184721214091
 30
0.0
 10
9151.843847706494
 20
-1800.883690330909
 30
0.0
 10
9151.732505049988
 20
-1800.639704645058
 30
0.0
 10
9151.578301347741
 20
-1800.315458643108
 30
0.0
 10
9151.331133487516
 20
-1799.807946457477
 30
0.0
 10
9151.062935823427
 20
-1799.265161777989
 30
0.0
 10
9150.955093181712
 20
-1799.046907327799
 30
0.0
  0
SPLINE
  5
83
330
1F
100
AcDbEntity
  8
0
  6
Continuous
 62
     7
370
    15
100
AcDbSpline
210
0.0
220
0.0
230
1.0
 70
     8
 71
     3
 72
    13
 73
     9
 74
     0
 42
0.000000001
 43
0.00000001
 40
0.0
 40
0.0
 40
0.0
 40
0.0
 40
0.114334919086181
 40
0.376749868450183
 40
0.6165222944896207
 40
0.8266210657821564
 40
0.9983034885312718
 40
0.9999999999999999
 40
0.9999999999999999
 40
0.9999999999999999
 40
0.9999999999999999
 10
9136.61013603396
 20
-1806.133864068403
 30
0.0
 10
9136.652679491324
 20
-1806.219761778076
 30
0.0
 10
9136.79286625224
 20
-1806.502806984895
 30
0.0
 10
9136.96254487588
 20
-1806.847913754364
 30
0.0
 10
9137.121971961362
 20
-1807.174806680559
 30
0.0
 10
9137.202273700052
 20
-1807.340496352996
 30
0.0
 10
9137.242897379825
 20
-1807.428369539403
 30
0.0
 10
9137.232458509086
 20
-1807.405304851821
 30
0.0
 10
9137.232356364819
 20
-1807.40507916404
 30
0.0
  0
SPLINE
  5
84
330
1F
100
AcDbEntity
  8
0
  6
Continuous
 62
     7
370
    15
100
AcDbSpline
210
0.0
220
0.0
230
1.0
 70
     8
 71
     3
 72
    10
 73
     6
 74
     0
 42
0.000000001
 43
0.00000001
 40
0.0
 40
0.0
 40
0.0
 40
0.0
 40
0.0202304707066334
 40
0.5989657220306754
 40
1.0
 40
1.0
 40
1.0
 40
1.0
 10
9135.310358374838
 20
-1808.022984149587
 30
0.0
 10
9135.311903887472
 20
-1808.026148977002
 30
0.0
 10
9135.357662046257
 20
-1808.119850362667
 30
0.0
 10
9135.401608156342
 20
-1808.21208010734
 30
0.0
 10
9135.412109381554
 20
-1808.234239496832
 30
0.0
 10
9135.416407689621
 20
-1808.243309665377
 30
0.0
  0
SPLINE
  5
85
330
1F
100
AcDbEntity
  8
0
  6
Continuous
 62
     7
370
    15
100
AcDbSpline
210
0.0
220
0.0
230
1.0
 70
     8
 71
     3
 72
    13
 73
     9
 74
     0
 42
0.000000001
 43
0.00000001
 40
0.0
 40
0.0
 40
0.0
 40
0.0
 40
0.0940033502224551
 40
0.2377903103889267
 40
0.3495136405124006
 40
0.4884467758374622
 40
0.724314039655758
 40
1.0
 40
1.0
 40
1.0
 40
1.0
 10
9136.723165447407
 20
-1807.4893678298
 30
0.0
 10
9136.714387668018
 20
-1807.469470263089
 30
0.0
 10
9136.692183449966
 20
-1807.419137497786
 30
0.0
 10
9136.611758242645
 20
-1807.222703188262
 30
0.0
 10
9136.501313232851
 20
-1806.923466361771
 30
0.0
 10
9136.36294620468
 20
-1806.493707044261
 30
0.0
 10
9136.200430798417
 20
-1805.88238137256
 30
0.0
 10
9136.139076898535
 20
-1805.383482395285
 30
0.0
 10
9136.106012091173
 20
-1805.114616054173
 30
0.0
  0
SPLINE
  5
86
330
1F
100
AcDbEntity
  8
0
  6
Continuous
 62
     7
370
    15
100
AcDbSpline
210
0.0
220
0.0
230
1.0
 70
     8
 71
     3
 72
    13
 73
     9
 74
     0
 42
0.000000001
 43
0.00000001
 40
0.0
 40
0.0
 40
0.0
 40
0.0
 40
0.0856251122311326
 40
0.3456038009995207
 40
0.5548487783623186
 40
0.6912272893683906
 40
0.8522207154756435
 40
1.0
 40
1.0
 40
1.0
 40
1.0
 10
9150.497078283955
 20
-1798.12103799857
 30
0.0
 10
9150.562750894473
 20
-1798.177286640537
 30
0.0
 10
9150.82782154051
 20
-1798.404319854954
 30
0.0
 10
9151.17534531498
 20
-1798.839476170019
 30
0.0
 10
9151.530001675621
 20
-1799.314569089701
 30
0.0
 10
9151.751017163004
 20
-1799.657915557431
 30
0.0
 10
9151.863004999404
 20
-1799.846280646685
 30
0.0
 10
9151.882051113233
 20
-1799.880444232714
 30
0.0
 10
9151.891166624346
 20
-1799.896794998591
 30
0.0
  0
LWPOLYLINE
  5
8F
330
1F
100
AcDbEntity
  8
0
  6
Continuous
 62
     7
370
    15
100
AcDbPolyline
 90
        3
 70
   128
 43
0.0
 10
8112.168699769
 20
-2432.129683061
 10
8111.5365225461
 20
-2430.4689532079
 10
8111.3199422485
 20
-2429.3565677496
  0
LWPOLYLINE
  5
90
330
1F
100
AcDbEntity
  8
0
  6
Continuous
 62
     7
370
    15
100
AcDbPolyline
 90
        3
 70
   128
 43
0.0
 10
8125.5829926924
 20
-2422.1063703569
 10
8126.3736622443
 20
-2422.9611878545
 10
8127.3373099943
 20
-2424.4541897634
  0
SPLINE
  5
AB
330
1F
100
AcDbEntity
  8
0
  6
Continuous
 62
     7
370
    15
100
AcDbSpline
210
0.0
220
0.0
230
1.0
 70
     8
 71
     3
 72
    10
 73
     6
 74
     0
 42
0.000000001
 43
0.00000001
 40
0.0
 40
0.0
 40
0.0
 40
0.0
 40
0.3353423703381786
 40
0.9454492245791515
 40
1.0
 40
1.0
 40
1.0
 40
1.0
 10
8105.556872020024
 20
-2376.676987339142
 30
0.0
 10
8105.210274516809
 20
-2376.561642378366
 30
0.0
 10
8104.23309307587
 20
-2376.236443974077
 30
0.0
 10
8103.149686795859
 20
-2376.027260081604
 30
0.0
 10
8102.424136949482
 20
-2376.001433088574
 30
0.0
 10
8102.364588536947
 20
-2375.999313376961
 30
0.0
  0
SPLINE
  5
AC
330
1F
100
AcDbEntity
  8
0
  6
Continuous
 62
     7
370
    15
100
AcDbSpline
210
0.0
220
0.0
230
1.0
 70
     8
 71
     3
 72
    10
 73
     6
 74
     0
 42
0.000000001
 43
0.00000001
 40
0.0
 40
0.0
 40
0.0
 40
0.0
 40
0.3082157670394099
 40
0.7798355945264529
 40
1.0
 40
1.0
 40
1.0
 40
1.0
 10
8088.073430005904
 20
-2383.193964141665
 30
0.0
 10
8087.866034809577
 20
-2383.53794209319
 30
0.0
 10
8087.341291517623
 20
-2384.408261781597
 30
0.0
 10
8086.816454777812
 20
-2385.609824204419
 30
0.0
 10
8086.582136527914
 20
-2386.478530988398
 30
0.0
 10
8086.507563365181
 20
-2386.755002037481
 30
0.0
  0
SPLINE
  5
AF
330
1F
100
AcDbEntity
  8
0
  6
Continuous
 62
     7
370
    15
100
AcDbSpline
210
0.0
220
0.0
230
1.0
 70
     8
 71
     3
 72
     9
 73
     5
 74
     0
 42
0.000000001
 43
0.00000001
 40
0.0
 40
0.0
 40
0.0
 40
0.0
 40
0.1043778264484311
 40
1.0
 40
1.0
 40
1.0
 40
1.0
 10
8118.994815417956
 20
-2401.203870567143
 30
0.0
 10
8119.016170499865
 20
-2401.131247341717
 30
0.0
 10
8119.220764546671
 20
-2400.435474801731
 30
0.0
 10
8119.287944397486
 20
-2399.710892160598
 30
0.0
 10
8119.34811216149
 20
-2399.061939880628
 30
0.0
  0
SPLINE
  5
B1
330
1F
100
AcDbEntity
  8
0
  6
Continuous
 62
     7
370
    15
100
AcDbSpline
210
0.0
220
0.0
230
1.0
 70
     8
 71
     3
 72
    15
 73
    11
 74
     0
 42
0.000000001
 43
0.00000001
 40
0.0
 40
0.0
 40
0.0
 40
0.0
 40
0.1758033759288779
 40
0.2483606312077297
 40
0.3688147792266683
 40
0.4946079397257498
 40
0.6302273245887164
 40
0.7725826570678394
 40
0.9204796237544572
 40
0.9999999999999999
 40
0.9999999999999999
 40
0.9999999999999999
 40
0.9999999999999999
 10
8111.095301208941
 20
-2411.204198106701
 30
0.0
 10
8111.737398025579
 20
-2410.849140109687
 30
0.0
 10
8112.644499893415
 20
-2410.347543210379
 30
0.0
 10
8113.873368292547
 20
-2409.423249157151
 30
0.0
 10
8114.873926496449
 20
-2408.548215350497
 30
0.0
 10
8115.956787653708
 20
-2407.381475858314
 30
0.0
 10
8116.964686649327
 20
-2406.033239411895
 30
0.0
 10
8117.845625227094
 20
-2404.496357315914
 30
0.0
 10
8118.479284464298
 20
-2403.08951550607
 30
0.0
 10
8118.722119762821
 20
-2402.177574751984
 30
0.0
 10
8118.807031291798
 20
-2401.858699019186
 30
0.0
  0
SPLINE
  5
B2
330
1F
100
AcDbEntity
  8
0
  6
Continuous
 62
     7
370
    15
100
AcDbSpline
210
0.0
220
0.0
230
1.0
 70
     8
 71
     3
 72
    14
 73
    10
 74
     0
 42
0.000000001
 43
0.00000001
 40
0.0
 40
0.0
 40
0.0
 40
0.0
 40
0.0676542371784894
 40
0.243514127538448
 40
0.4149967939614702
 40
0.5748567770434325
 40
0.6999799763468046
 40
0.8116757388019085
 40
1.0
 40
1.0
 40
1.0
 40
1.0
 10
8100.035595052731
 20
-2412.161042950639
 30
0.0
 10
8100.278430891608
 20
-2412.242061964173
 30
0.0
 10
8101.152492294199
 20
-2412.533681162281
 30
0.0
 10
8102.717333565493
 20
-2412.763898513734
 30
0.0
 10
8104.639123755403
 20
-2412.852950227963
 30
0.0
 10
8106.369576755361
 20
-2412.702895670494
 30
0.0
 10
8107.847836458429
 20
-2412.412629579342
 30
0.0
 10
8109.403797925127
 20
-2411.971653499634
 30
0.0
 10
8110.442992753368
 20
-2411.500158301916
 30
0.0
 10
8111.095301208941
 20
-2411.204198106701
 30
0.0
  0
SPLINE
  5
C7
330
1F
100
AcDbEntity
  8
0
  6
Continuous
 62
     7
370
    15
100
AcDbSpline
210
0.0
220
0.0
230
1.0
 70
     8
 71
     3
 72
    33
 73
    29
 74
     0
 42
0.000000001
 43
0.00000001
 40
0.0
 40
0.0
 40
0.0
 40
0.0
 40
0.0413649343845843
 40
0.0888838592252844
 40
0.1103670259363239
 40
0.1258550526879024
 40
0.1395334865391512
 40
0.1577520701311021
 40
0.1858860969677221
 40
0.226340016776358
 40
0.2753471708516943
 40
0.3261032307158591
 40
0.3770735921244159
 40
0.4280742436272125
 40
0.479080701310752
 40
0.5300887651481723
 40
0.5810979989690828
 40
0.6321089622810434
 40
0.6831229950530839
 40
0.7341420977782572
 40
0.7851655255956815
 40
0.8276938155966184
 40
0.8516644153759305
 40
0.8704027063222757
 40
0.8862800147044241
 40
0.9086991008549952
 40
0.9534113026275977
 40
1.0
 40
1.0
 40
1.0
 40
1.0
 10
9478.87572925144
 20
-1599.542779153055
 30
0.0
 10
9478.923306659484
 20
-1599.631263513745
 30
0.0
 10
9479.025539715129
 20
-1599.821396329771
 30
0.0
 10
9479.139463727126
 20
-1600.027496501504
 30
0.0
 10
9479.31317791106
 20
-1600.322357530804
 30
0.0
 10
9479.507770654573
 20
-1600.625740031562
 30
0.0
 10
9479.759790750639
 20
-1600.981218254943
 30
0.0
 10
9480.136125149313
 20
-1601.451764327499
 30
0.0
 10
9480.755592040463
 20
-1602.099444649272
 30
0.0
 10
9481.711660411413
 20
-1602.863953274582
 30
0.0
 10
9482.996977131677
 20
-1603.566535443426
 30
0.0
 10
9484.499757756546
 20
-1604.040722621574
 30
0.0
 10
9486.087560262817
 20
-1604.211642443922
 30
0.0
 10
9487.680526733355
 20
-1604.065159446623
 30
0.0
 10
9489.213510048645
 20
-1603.606522192381
 30
0.0
 10
9490.625639897384
 20
-1602.85379953598
 30
0.0
 10
9491.861092734891
 20
-1601.836712191202
 30
0.0
 10
9492.871066572889
 20
-1600.595410233914
 30
0.0
 10
9493.615687837439
 20
-1599.178943502119
 30
0.0
 10
9494.065474717836
 20
-1597.643279771943
 30
0.0
 10
9494.195322125046
 20
-1596.138469263879
 30
0.0
 10
9494.077289264571
 20
-1594.920305406088
 30
0.0
 10
9493.883325639146
 20
-1594.07140885816
 30
0.0
 10
9493.712856373244
 20
-1593.531605665678
 30
0.0
 10
9493.562653979801
 20
-1593.13544122899
 30
0.0
 10
9493.427421442011
 20
-1592.81905189287
 30
0.0
 10
9493.32561962262
 20
-1592.59627613563
 30
0.0
 10
9493.225564265424
 20
-1592.387088011881
 30
0.0
 10
9493.17450837441
 20
-1592.280344241748
 30
0.0
  0
SPLINE
  5
CD
330
1F
100
AcDbEntity
  8
0
  6
Continuous
 62
     7
370
    15
100
AcDbSpline
210
0.0
220
0.0
230
1.0
 70
     8
 71
     3
 72
     9
 73
     5
 74
     0
 42
0.000000001
 43
0.00000001
 40
0.0
 40
0.0
 40
0.0
 40
0.0
 40
0.0765044656331469
 40
1.0
 40
1.0
 40
1.0
 40
1.0
 10
8461.748290760572
 20
-2195.364788584342
 30
0.0
 10
8461.76376439528
 20
-2195.313135597806
 30
0.0
 10
8461.966022323388
 20
-2194.6379725716
 30
0.0
 10
8462.034983911624
 20
-2193.933577699115
 30
0.0
 10
8462.0986696304
 20
-2193.283072179943
 30
0.0
  0
SPLINE
  5
CF
330
1F
100
AcDbEntity
  8
0
  6
Continuous
 62
     7
370
    15
100
AcDbSpline
210
0.0
220
0.0
230
1.0
 70
     8
 71
     3
 72
    15
 73
    11
 74
     0
 42
0.000000001
 43
0.00000001
 40
0.0
 40
0.0
 40
0.0
 40
0.0
 40
0.1900123503250288
 40
0.2684484560247432
 40
0.3986718593939524
 40
0.5346903614303388
 40
0.6813590480018702
 40
0.835341895422271
 40
0.9953488370488489
 40
1.0
 40
1.0
 40
1.0
 40
1.0
 10
8453.753461981352
 20
-2205.376953261634
 30
0.0
 10
8454.398254969836
 20
-2205.027370868761
 30
0.0
 10
8455.309215135945
 20
-2204.533482690125
 30
0.0
 10
8456.545141539273
 20
-2203.619115749927
 30
0.0
 10
8457.552700418059
 20
-2202.751824084908
 30
0.0
 10
8458.643987116786
 20
-2201.592571756639
 30
0.0
 10
8459.66523604945
 20
-2200.251624927122
 30
0.0
 10
8460.546674907653
 20
-2198.715457205462
 30
0.0
 10
8461.089863098658
 20
-2197.606467677983
 30
0.0
 10
8461.26736639785
 20
-2196.999523409744
 30
0.0
 10
8461.272380404122
 20
-2196.982378813667
 30
0.0
  0
SPLINE
  5
D0
330
1F
100
AcDbEntity
  8
0
  6
Continuous
 62
     7
370
    15
100
AcDbSpline
210
0.0
220
0.0
230
1.0
 70
     8
 71
     3
 72
    12
 73
     8
 74
     0
 42
0.000000001
 43
0.00000001
 40
0.0
 40
0.0
 40
0.0
 40
0.0
 40
0.1412401795269005
 40
0.3760720843997831
 40
0.5597317355789729
 40
0.7237885178083356
 40
1.0
 40
1.0
 40
1.0
 40
1.0
 10
8446.237827146399
 20
-2206.871039070386
 30
0.0
 10
8446.60184216426
 20
-2206.896478398045
 30
0.0
 10
8447.571083969096
 20
-2206.964214229383
 30
0.0
 10
8449.018089896359
 20
-2206.828490929391
 30
0.0
 10
8450.498750733765
 20
-2206.557154021412
 30
0.0
 10
8452.0574078313
 20
-2206.128773428166
 30
0.0
 10
8453.09961289088
 20
-2205.666788896934
 30
0.0
 10
8453.75346198135
 20
-2205.376953261634
 30
0.0
  0
SPLINE
  5
D4
330
1F
100
AcDbEntity
  8
0
  6
Continuous
 62
     7
370
    15
100
AcDbSpline
210
0.0
220
0.0
230
1.0
 70
     8
 71
     3
 72
    42
 73
    38
 74
     0
 42
0.000000001
 43
0.00000001
 40
0.0
 40
0.0
 40
0.0
 40
0.0
 40
0.0328042381674602
 40
0.0732561377272868
 40
0.1114951041616487
 40
0.1469839977130962
 40
0.179112222805603
 40
0.2073522868194855
 40
0.232747808433256
 40
0.241161012989374
 40
0.2470248813698242
 40
0.2524669940667146
 40
0.2607408445117982
 40
0.2773701226729571
 40
0.3039778932246836
 40
0.3384207076454258
 40
0.3738680261342676
 40
0.4093848667564596
 40
0.4449083286245188
 40
0.4804328210061176
 40
0.5159575391794203
 40
0.5514823438923993
 40
0.5870072446025617
 40
0.6225323094923304
 40
0.6580576559115473
 40
0.6935834218006169
 40
0.7291088833476556
 40
0.7588556281710229
 40
0.7770612488270624
 40
0.783522559255974
 40
0.7907567623581421
 40
0.8062678569785262
 40
0.8343547091457103
 40
0.8818563689173792
 40
0.9325940102210348
 40
0.9795555968715717
 40
1.0
 40
1.0
 40
1.0
 40
1.0
 10
8453.200180600314
 20
-2221.912798928099
 30
0.0
 10
8453.306173082086
 20
-2222.120872740802
 30
0.0
 10
8453.542868103115
 20
-2222.585528673461
 30
0.0
 10
8453.83296422011
 20
-2223.153754768914
 30
0.0
 10
8454.081437928133
 20
-2223.639459547271
 30
0.0
 10
8454.26319293397
 20
-2223.993281418524
 30
0.0
 10
8454.38827191221
 20
-2224.235890162513
 30
0.0
 10
8454.482996121922
 20
-2224.416375324395
 30
0.0
 10
8454.537017732751
 20
-2224.520566008357
 30
0.0
 10
8454.657695936065
 20
-2224.737685781073
 30
0.0
 10
8454.770603530427
 20
-2224.929074875725
 30
0.0
 10
8454.912691475864
 20
-2225.155252100006
 30
0.0
 10
8455.161700784862
 20
-2225.521358571295
 30
0.0
 10
8455.63597156216
 20
-2226.124678352265
 30
0.0
 10
8456.459113726722
 20
-2226.94494137821
 30
0.0
 10
8457.644035283622
 20
-2227.777997603677
 30
0.0
 10
8459.090990259692
 20
-2228.418795139574
 30
0.0
 10
8460.651972342292
 20
-2228.764816379522
 30
0.0
 10
8462.251712987956
 20
-2228.795414273422
 30
0.0
 10
8463.826050579817
 20
-2228.50909374631
 30
0.0
 10
8465.312715319847
 20
-2227.917134059591
 30
0.0
 10
8466.652993674816
 20
-2227.042914386093
 30
0.0
 10
8467.793953104281
 20
-2225.920932339262
 30
0.0
 10
8468.690574061076
 20
-2224.595562451932
 30
0.0
 10
8469.307334501542
 20
-2223.118865515398
 30
0.0
 10
8469.62031954109
 20
-2221.550209316381
 30
0.0
 10
8469.615816473575
 20
-2220.034718188747
 30
0.0
 10
8469.388191583981
 20
-2218.811766939361
 30
0.0
 10
8469.12975992891
 20
-2218.033790576864
 30
0.0
 10
8468.969881917876
 20
-2217.640423384736
 30
0.0
 10
8468.862553073355
 20
-2217.39807520618
 30
0.0
 10
8468.791370167699
 20
-2217.249923451872
 30
0.0
 10
8468.707639683025
 20
-2217.076503015962
 30
0.0
 10
8468.558789470684
 20
-2216.776172566854
 30
0.0
 10
8468.296690685811
 20
-2216.250574900827
 30
0.0
 10
8468.0280690739
 20
-2215.713915033386
 30
0.0
 10
8467.823677523083
 20
-2215.306809151143
 30
0.0
 10
8467.761685061067
 20
-2215.183332931895
 30
0.0
  0
SPLINE
  5
D5
330
1F
100
AcDbEntity
  8
0
  6
Continuous
 62
     7
370
    15
100
AcDbSpline
210
0.0
220
0.0
230
1.0
 70
     8
 71
     3
 72
    14
 73
    10
 74
     0
 42
0.000000001
 43
0.00000001
 40
0.0
 40
0.0
 40
0.0
 40
0.0
 40
0.0219192727508289
 40
0.2436795995528954
 40
0.4522648870249569
 40
0.6439643276738943
 40
0.8138437955802611
 40
0.9553572185919265
 40
1.0
 40
1.0
 40
1.0
 40
1.0
 10
8453.469217463502
 20
-2222.375234097406
 30
0.0
 10
8453.481510679845
 20
-2222.399712222877
 30
0.0
 10
8453.61817607334
 20
-2222.671838943524
 30
0.0
 10
8453.81622328134
 20
-2223.067179557109
 30
0.0
 10
8454.054189964589
 20
-2223.542862912943
 30
0.0
 10
8454.218128668326
 20
-2223.871952847342
 30
0.0
 10
8454.316207620863
 20
-2224.069665310682
 30
0.0
 10
8454.366515586498
 20
-2224.17252245774
 30
0.0
 10
8454.364254403215
 20
-2224.1677930501
 30
0.0
 10
8454.36371214081
 20
-2224.166658874034
 30
0.0
  0
SPLINE
  5
D6
330
1F
100
AcDbEntity
  8
0
  6
Continuous
 62
     7
370
    15
100
AcDbSpline
210
0.0
220
0.0
230
1.0
 70
     8
 71
     3
 72
    10
 73
     6
 74
     0
 42
0.000000001
 43
0.00000001
 40
0.0
 40
0.0
 40
0.0
 40
0.0
 40
0.4624544674074673
 40
0.8984907344791516
 40
1.0
 40
1.0
 40
1.0
 40
1.0
 10
8452.434621873632
 20
-2224.777399560732
 30
0.0
 10
8452.465667073466
 20
-2224.839899726913
 30
0.0
 10
8452.525983983265
 20
-2224.961329671209
 30
0.0
 10
8452.569161736283
 20
-2225.049802454026
 30
0.0
 10
8452.56449161139
 20
-2225.040068287686
 30
0.0
 10
8452.563609712244
 20
-2225.038230102797
 30
0.0
  0
SPLINE
  5
D7
330
1F
100
AcDbEntity
  8
0
  6
Continuous
 62
     7
370
    15
100
AcDbSpline
210
0.0
220
0.0
230
1.0
 70
     8
 71
     3
 72
    14
 73
    10
 74
     0
 42
0.000000001
 43
0.00000001
 40
0.0
 40
0.0
 40
0.0
 40
0.0
 40
0.1655692887155679
 40
0.2730254793670638
 40
0.3415158515079851
 40
0.413011758911039
 40
0.5235684245658836
 40
0.7468567988360323
 40
1.0
 40
1.0
 40
1.0
 40
1.0
 10
8453.91271168285
 20
-2224.382430223921
 30
0.0
 10
8453.904795585859
 20
-2224.365909678928
 30
0.0
 10
8453.891741859574
 20
-2224.338667128387
 30
0.0
 10
8453.82312383464
 20
-2224.188374640986
 30
0.0
 10
8453.74077532388
 20
-2223.994951326956
 30
0.0
 10
8453.646707925473
 20
-2223.758451739886
 30
0.0
 10
8453.499052370873
 20
-2223.343306853427
 30
0.0
 10
8453.311205695836
 20
-2222.71766112977
 30
0.0
 10
8453.238703379597
 20
-2222.192064879667
 30
0.0
 10
8453.200180600314
 20
-2221.912798928099
 30
0.0
  0
SPLINE
  5
D8
330
1F
100
AcDbEntity
  8
0
  6
Continuous
 62
     7
370
    15
100
AcDbSpline
210
0.0
220
0.0
230
1.0
 70
     8
 71
     3
 72
    12
 73
     8
 74
     0
 42
0.000000001
 43
0.00000001
 40
0.0
 40
0.0
 40
0.0
 40
0.0
 40
0.2344672074119525
 40
0.5401507153081249
 40
0.8189623265117173
 40
0.9161209208841631
 40
1.0
 40
1.0
 40
1.0
 40
1.0
 10
8467.461789985498
 20
-2214.659715734095
 30
0.0
 10
8467.61913106245
 20
-2214.795601882258
 30
0.0
 10
8467.981603478964
 20
-2215.108647791496
 30
0.0
 10
8468.423370296205
 20
-2215.680183415762
 30
0.0
 10
8468.765257735626
 20
-2216.179747097292
 30
0.0
 10
8468.941077547064
 20
-2216.474799040165
 30
0.0
 10
8468.976630266137
 20
-2216.537810985031
 30
0.0
 10
8468.99310269024
 20
-2216.567005924443
 30
0.0
  0
SPLINE
  5
E1
330
1F
100
AcDbEntity
  8
0
  6
Continuous
 62
     7
370
    15
100
AcDbSpline
210
0.0
220
0.0
230
1.0
 70
     8
 71
     3
 72
     9
 73
     5
 74
     0
 42
0.000000001
 43
0.00000001
 40
0.0
 40
0.0
 40
0.0
 40
0.0
 40
0.032508615014785
 40
1.0
 40
1.0
 40
1.0
 40
1.0
 10
8804.349586634951
 20
-1989.282030864908
 30
0.0
 10
8804.3560480771
 20
-1989.26109907355
 30
0.0
 10
8804.554808994717
 20
-1988.617214634048
 30
0.0
 10
8804.626480478339
 20
-1987.943703964261
 30
0.0
 10
8804.695822021293
 20
-1987.292088193547
 30
0.0
  0
SPLINE
  5
E2
330
1F
100
AcDbEntity
  8
0
  6
Continuous
 62
     7
370
    15
100
AcDbSpline
210
0.0
220
0.0
230
1.0
 70
     8
 71
     3
 72
    11
 73
     7
 74
     0
 42
0.000000001
 43
0.00000001
 40
0.0
 40
0.0
 40
0.0
 40
0.0
 40
0.2038855971636778
 40
0.4628317322326768
 40
0.7319502581213359
 40
1.0
 40
1.0
 40
1.0
 40
1.0
 10
8801.275018054077
 20
-1995.35386411681
 30
0.0
 10
8801.569380415036
 20
-1994.990776996656
 30
0.0
 10
8802.23759947181
 20
-1994.166548884862
 30
0.0
 10
8803.090514519314
 20
-1992.718289405088
 30
0.0
 10
8803.857190038289
 20
-1991.05922784872
 30
0.0
 10
8804.185672292428
 20
-1989.873643554977
 30
0.0
 10
8804.349586634951
 20
-1989.282030864908
 30
0.0
  0
SPLINE
  5
E3
330
1F
100
AcDbEntity
  8
0
  6
Continuous
 62
     7
370
    15
100
AcDbSpline
210
0.0
220
0.0
230
1.0
 70
     8
 71
     3
 72
    12
 73
     8
 74
     0
 42
0.000000001
 43
0.00000001
 40
0.0
 40
0.0
 40
0.0
 40
0.0
 40
0.3391866275855852
 40
0.4792225619833378
 40
0.7117313729811926
 40
0.9546214955347118
 40
1.0
 40
1.0
 40
1.0
 40
1.0
 10
8796.208167489182
 20
-1999.298945210788
 30
0.0
 10
8796.856784243935
 20
-1998.95727646464
 30
0.0
 10
8797.773187656328
 20
-1998.47454702143
 30
0.0
 10
8799.021612427769
 20
-1997.576639787022
 30
0.0
 10
8800.030581845744
 20
-1996.714399865126
 30
0.0
 10
8800.83863068945
 20
-1995.925870644096
 30
0.0
 10
8801.215666109745
 20
-1995.431661281249
 30
0.0
 10
8801.275018054077
 20
-1995.35386411681
 30
0.0
  0
CIRCLE
  5
E9
330
1F
100
AcDbEntity
  8
0
  6
Continuous
 62
     7
370
    15
100
AcDbCircle
 10
9807.3468699318
 20
-1332.4303975936
 30
0.0
 40
10.00000000000019
  0
CIRCLE
  5
EA
330
1F
100
AcDbEntity
  8
0
  6
Continuous
 62
     7
370
    15
100
AcDbCircle
 10
9450.4523686116
 20
-1513.057956198
 30
0.0
 40
9.999999999999963
  0
CIRCLE
  5
EB
330
1F
100
AcDbEntity
  8
0
  6
Continuous
 62
     7
370
    15
100
AcDbCircle
 10
9093.5578672914
 20
-1693.6855148025
 30
0.0
 40
10.00000000000041
  0
CIRCLE
  5
EC
330
1F
100
AcDbEntity
  8
0
  6
Continuous
 62
     7
370
    15
100
AcDbCircle
 10
8736.6633659712
 20
-1874.3130734069
 30
0.0
 40
9.999999999999526
  0
CIRCLE
  5
ED
330
1F
100
AcDbEntity
  8
0
  6
Continuous
 62
     7
370
    15
100
AcDbCircle
 10
8379.768864651
 20
-2054.9406320114
 30
0.0
 40
10.00000000000019
  0
CIRCLE
  5
EE
330
1F
100
AcDbEntity
  8
0
  6
Continuous
 62
     7
370
    15
100
AcDbCircle
 10
8022.8743633308
 20
-2235.5681906158
 30
0.0
 40
10.00000000000073
  0
LWPOLYLINE
  5
F5
330
1F
100
AcDbEntity
  8
0
  6
Continuous
 62
     7
370
    15
100
AcDbPolyline
 90
       14
 70
   128
 43
0.0
 10
8787.8611406135
 20
-2004.6996648593
 10
8788.9174689536
 20
-2006.7821834245
 10
8790.008027949
 20
-2008.9300699116
 10
8791.0076214902
 20
-2010.8964367186
 10
8791.9005224879
 20
-2012.6503460443
 10
8792.6726824985
 20
-2014.1642027841
 10
8793.3119527546
 20
-2015.414188697
 10
8793.8082753077
 20
-2016.3806371492
 10
8794.1538412748
 20
-2017.0483425394
 10
8794.3432136992
 20
-2017.4067995353
 10
8794.3734130928
 20
-2017.4503683595
 10
8794.243964314
 20
-2017.1783635226
 10
8793.9569040432
 20
-2016.5950646083
 10
8793.5167487384
 20
-2015.7096489409
  0
LWPOLYLINE
  5
104
330
1F
100
AcDbEntity
  8
0
  6
Continuous
 62
     7
370
    15
100
AcDbPolyline
 90
       14
 70
   128
 43
0.0
 10
9129.0826520795
 20
-1795.9209696702
 10
9129.8977858881
 20
-1797.5263474838
 10
9131.0064189511
 20
-1799.7071198221
 10
9132.0278247046
 20
-1801.7130279437
 10
9132.9459328773
 20
-1803.512511925
 10
9133.7462984286
 20
-1805.077259613
 10
9134.41632882
 20
-1806.3826520749
 10
9134.9454821387
 20
-1807.4081509389
 10
9135.3254329594
 20
-1808.1376215349
 10
9135.5502033319
 20
-1808.5595867487
 10
9135.6162568351
 20
-1808.6674075974
 10
9135.5225542172
 20
-1808.4593876833
 10
9135.2705697468
 20
-1807.9387998844
 10
9134.8642680178
 20
-1807.1138348608
  0
LWPOLYLINE
  5
105
330
1F
100
AcDbEntity
  8
0
  6
Continuous
 62
     7
370
    15
100
AcDbPolyline
 90
        5
 70
   128
 43
0.0
 10
9151.3730540318
 20
-1798.7648570755
 10
9151.7793557609
 20
-1799.5898220992
 10
9152.0313402312
 20
-1800.110409898
 10
9152.1250428491
 20
-1800.3184298121
 10
9152.0901652141
 20
-1800.2666361795
  0
LWPOLYLINE
  5
10D
330
1F
100
AcDbEntity
  8
0
  6
Continuous
 62
     7
370
    15
100
AcDbPolyline
 90
       14
 70
   128
 43
0.0
 10
8105.4663444345
 20
-2422.2275473715
 10
8105.8597243838
 20
-2423.0044370608
 10
8106.9122888024
 20
-2425.082864022
 10
8107.8666646665
 20
-2426.9669504258
 10
8108.7078363185
 20
-2428.6270530286
 10
8109.4225691975
 20
-2430.0370526321
 10
8109.9996180651
 20
-2431.1747650301
 10
8110.4299039319
 20
-2432.0222900424
 10
8110.7066569022
 20
-2432.5662931477
 10
8110.8255226874
 20
-2432.7982152817
 10
8110.7846311145
 20
-2432.7144075011
 10
8110.5846255506
 20
-2432.3161883944
 10
8110.2286527799
 20
-2431.6098233355
 10
8109.7223134945
 20
-2430.606425908
  0
CIRCLE
  5
110
330
1F
100
AcDbEntity
  8
0
  6
Continuous
 62
     7
370
    15
100
AcDbCircle
 10
9807.3468699318
 20
-1332.4303975936
 30
0.0
 40
5.000000000000474
  0
CIRCLE
  5
111
330
1F
100
AcDbEntity
  8
0
  6
Continuous
 62
     7
370
    15
100
AcDbCircle
 10
8379.768864651
 20
-2054.9406320114
 30
0.0
 40
5.000000000000513
  0
LWPOLYLINE
  5
113
330
1F
100
AcDbEntity
  8
0
  6
Continuous
 62
     7
370
    15
100
AcDbPolyline
 90
        9
 70
   128
 43
0.0
 10
9131.310394375
 20
-1800.1130411328
 10
9131.6228576068
 20
-1800.7486263972
 10
9131.7680675628
 20
-1801.0541939052
 10
9131.7420818904
 20
-1801.0214477043
 10
9131.545606083
 20
-1800.6512768319
 10
9131.1839743267
 20
-1799.9537311783
 10
9130.6670046808
 20
-1798.9477486391
 10
9130.0087325237
 20
-1797.6606409643
 10
9129.2270295019
 20
-1796.1273522622
  0
LWPOLYLINE
  5
116
330
1F
100
AcDbEntity
  8
0
  6
Continuous
 62
     7
370
    15
100
AcDbPolyline
 90
        9
 70
   128
 43
0.0
 10
8790.0050353868
 20
-2008.7860128222
 10
8790.3453456724
 20
-2009.4713332234
 10
8790.519530174
 20
-2009.8287326263
 10
8790.5228598995
 20
-2009.8485078773
 10
8790.355244449
 20
-2009.5301220916
 10
8790.0212344693
 20
-2008.8822192294
 10
8789.5298981069
 20
-2007.9223894178
 10
8788.8945748139
 20
-2006.6766913912
 10
8788.1325131905
 20
-2005.1789450137
  0
LWPOLYLINE
  5
117
330
1F
100
AcDbEntity
  8
0
  6
Continuous
 62
     7
370
    15
100
AcDbPolyline
 90
        3
 70
   128
 43
0.0
 10
8788.1325131905
 20
-2005.1789450137
 10
8787.9001668438
 20
-2004.710249116
 10
8787.8136702163
 20
-2004.5369595882
  0
LWPOLYLINE
  5
119
330
1F
100
AcDbEntity
  8
0
  6
Continuous
 62
     7
370
    15
100
AcDbPolyline
 90
        9
 70
   128
 43
0.0
 10
8448.2314086172
 20
-2216.4640298886
 10
8448.5991792643
 20
-2217.1983425422
 10
8448.8020571279
 20
-2217.6070399503
 10
8448.8345342102
 20
-2217.6790262529
 10
8448.6957287803
 20
-2217.4123470703
 10
8448.3894093123
 20
-2216.8142425632
 10
8447.923892174
 20
-2215.9009508668
 10
8447.3118158427
 20
-2214.6972672369
 10
8446.6802471076
 20
-2213.453507674
  0
LWPOLYLINE
  5
11A
330
1F
100
AcDbEntity
  8
0
  6
Continuous
 62
     7
370
    15
100
AcDbPolyline
 90
        4
 70
   128
 43
0.0
 10
8444.0143857224
 20
-2208.1650433105
 10
8443.9731691551
 20
-2208.0834965211
 10
8443.2065655111
 20
-2206.5674823889
 10
8443.1076613299
 20
-2206.3719876204
  0
LWPOLYLINE
  5
11C
330
1F
100
AcDbEntity
  8
0
  6
Continuous
 62
     7
370
    15
100
AcDbPolyline
 90
        9
 70
   128
 43
0.0
 10
8106.3011697073
 20
-2423.8495380428
 10
8106.6959648205
 20
-2424.6320132773
 10
8106.927201139
 20
-2425.0913793411
 10
8106.9886007522
 20
-2425.2151647541
 10
8106.8784967018
 20
-2425.0000088257
 10
8106.5998782388
 20
-2424.4517528947
 10
8106.1603096673
 20
-2423.5852817411
 10
8105.5717249785
 20
-2422.4241194744
 10
8104.8501038511
 20
-2420.9997908697
  0
CIRCLE
  5
11E
330
1F
100
AcDbEntity
  8
0
  6
Continuous
 62
     7
370
    15
100
AcDbCircle
 10
9807.3468699318
 20
-1332.4303975936
 30
0.0
 40
8.249999999995861
  0
SPLINE
  5
11F
330
1F
100
AcDbEntity
  8
0
  6
Continuous
 62
     7
370
    15
100
AcDbSpline
210
0.0
220
0.0
230
1.0
 70
    24
 71
     3
 72
    16
 73
    12
 74
     0
 42
0.000000001
 43
0.00000001
 40
0.0
 40
0.0
 40
0.0
 40
0.0
 40
0.2500000000000902
 40
0.2500000000000902
 40
0.5000000000001803
 40
0.5000000000001803
 40
0.6250000000001742
 40
0.6250000000001742
 40
0.7500000000001681
 40
0.7500000000001681
 40
1.0
 40
1.0
 40
1.0
 40
1.0
 10
9798.061301553902
 20
-1329.250530735975
 30
0.0
 10
9798.21551557818
 20
-1330.036849517622
 30
0.0
 10
9798.370853869203
 20
-1330.828900800342
 30
0.0
 10
9798.684769897705
 20
-1332.429520914047
 30
0.0
 10
9798.84337171757
 20
-1333.238212538249
 30
0.0
 10
9799.084262361048
 20
-1334.466484987357
 30
0.0
 10
9799.164937358375
 20
-1334.877837105986
 30
0.0
 10
9799.324520961438
 20
-1335.691534724736
 30
0.0
 10
9799.403777739717
 20
-1336.095655514833
 30
0.0
 10
9799.640137019118
 20
-1337.300823082956
 30
0.0
 10
9799.795833962948
 20
-1338.094703093244
 30
0.0
 10
9799.950240263523
 20
-1338.882002268645
 30
0.0
  0
SPLINE
  5
120
330
1F
100
AcDbEntity
  8
0
  6
Continuous
 62
     7
370
    15
100
AcDbSpline
210
0.0
220
0.0
230
1.0
 70
    24
 71
     3
 72
    14
 73
    10
 74
     0
 42
0.000000001
 43
0.00000001
 40
0.0
 40
0.0
 40
0.0
 40
0.0
 40
0.25
 40
0.25
 40
0.5
 40
0.5
 40
0.75
 40
0.75
 40
1.0
 40
1.0
 40
1.0
 40
1.0
 10
9805.45793122221
 20
-1322.798926060918
 30
0.0
 10
9804.853774465766
 20
-1323.325893170147
 30
0.0
 10
9804.24488842968
 20
-1323.85698532606
 30
0.0
 10
9803.013429434563
 20
-1324.931107861089
 30
0.0
 10
9802.390753696998
 20
-1325.474227887325
 30
0.0
 10
9801.12847907911
 20
-1326.575228909568
 30
0.0
 10
9800.505803341552
 20
-1327.118348935803
 30
0.0
 10
9799.274344346442
 20
-1328.192471470833
 30
0.0
 10
9798.665458310346
 20
-1328.723563626746
 30
0.0
 10
9798.061301553902
 20
-1329.250530735975
 30
0.0
  0
SPLINE
  5
121
330
1F
100
AcDbEntity
  8
0
  6
Continuous
 62
     7
370
    15
100
AcDbSpline
210
0.0
220
0.0
230
1.0
 70
    24
 71
     3
 72
    16
 73
    12
 74
     0
 42
0.000000001
 43
0.00000001
 40
0.0
 40
0.0
 40
0.0
 40
0.0
 40
0.2499999999997349
 40
0.2499999999997349
 40
0.4999999999994698
 40
0.4999999999994698
 40
0.6249999999995997
 40
0.6249999999995997
 40
0.7499999999997295
 40
0.7499999999997295
 40
1.0
 40
1.0
 40
1.0
 40
1.0
 10
9814.74349960014
 20
-1325.978792918531
 30
0.0
 10
9813.98542054762
 20
-1325.71918679035
 30
0.0
 10
9813.221814870176
 20
-1325.457688055198
 30
0.0
 10
9811.678679175646
 20
-1324.929237253684
 30
0.0
 10
9810.899030775327
 20
-1324.662244646676
 30
0.0
 10
9809.714870309896
 20
-1324.256725838902
 30
0.0
 10
9809.318291426596
 20
-1324.120916376724
 30
0.0
 10
9808.53381681623
 20
-1323.852271021629
 30
0.0
 10
9808.144209556665
 20
-1323.718849009993
 30
0.0
 10
9806.982324187156
 20
-1323.320958366311
 30
0.0
 10
9806.216955458778
 20
-1323.058855869815
 30
0.0
 10
9805.45793122221
 20
-1322.798926060918
 30
0.0
  0
SPLINE
  5
122
330
1F
100
AcDbEntity
  8
0
  6
Continuous
 62
     7
370
    15
100
AcDbSpline
210
0.0
220
0.0
230
1.0
 70
    24
 71
     3
 72
    16
 73
    12
 74
     0
 42
0.000000001
 43
0.00000001
 40
0.0
 40
0.0
 40
0.0
 40
0.0
 40
0.2500000000000902
 40
0.2500000000000902
 40
0.5000000000001803
 40
0.5000000000001803
 40
0.6250000000001742
 40
0.6250000000001742
 40
0.7500000000001681
 40
0.7500000000001681
 40
1.0
 40
1.0
 40
1.0
 40
1.0
 10
9816.632438309758
 20
-1335.610264451201
 30
0.0
 10
9816.478224285485
 20
-1334.823945669555
 30
0.0
 10
9816.32288599446
 20
-1334.031894386834
 30
0.0
 10
9816.008969965955
 20
-1332.43127427313
 30
0.0
 10
9815.850368146086
 20
-1331.622582648926
 30
0.0
 10
9815.609477502618
 20
-1330.394310199819
 30
0.0
 10
9815.528802505287
 20
-1329.98295808119
 30
0.0
 10
9815.369218902222
 20
-1329.16926046244
 30
0.0
 10
9815.289962123947
 20
-1328.765139672344
 30
0.0
 10
9815.053602844544
 20
-1327.559972104221
 30
0.0
 10
9814.897905900716
 20
-1326.766092093932
 30
0.0
 10
9814.74349960014
 20
-1325.978792918531
 30
0.0
  0
SPLINE
  5
123
330
1F
100
AcDbEntity
  8
0
  6
Continuous
 62
     7
370
    15
100
AcDbSpline
210
0.0
220
0.0
230
1.0
 70
    24
 71
     3
 72
    14
 73
    10
 74
     0
 42
0.000000001
 43
0.00000001
 40
0.0
 40
0.0
 40
0.0
 40
0.0
 40
0.25
 40
0.25
 40
0.5
 40
0.5
 40
0.75
 40
0.75
 40
1.0
 40
1.0
 40
1.0
 40
1.0
 10
9809.23580864145
 20
-1342.061869126258
 30
0.0
 10
9809.839965397896
 20
-1341.534902017029
 30
0.0
 10
9810.448851433988
 20
-1341.003809861116
 30
0.0
 10
9811.680310429096
 20
-1339.929687326086
 30
0.0
 10
9812.302986166664
 20
-1339.386567299851
 30
0.0
 10
9813.56526078455
 20
-1338.285566277608
 30
0.0
 10
9814.18793652211
 20
-1337.742446251372
 30
0.0
 10
9815.419395517223
 20
-1336.668323716343
 30
0.0
 10
9816.028281553316
 20
-1336.13723156043
 30
0.0
 10
9816.632438309758
 20
-1335.610264451201
 30
0.0
  0
SPLINE
  5
124
330
1F
100
AcDbEntity
  8
0
  6
Continuous
 62
     7
370
    15
100
AcDbSpline
210
0.0
220
0.0
230
1.0
 70
    24
 71
     3
 72
    16
 73
    12
 74
     0
 42
0.000000001
 43
0.00000001
 40
0.0
 40
0.0
 40
0.0
 40
0.0
 40
0.2499999999997455
 40
0.2499999999997455
 40
0.4999999999994911
 40
0.4999999999994911
 40
0.6249999999996156
 40
0.6249999999996156
 40
0.7499999999997402
 40
0.7499999999997402
 40
1.0
 40
1.0
 40
1.0
 40
1.0
 10
9799.950240263523
 20
-1338.882002268645
 30
0.0
 10
9800.708319316038
 20
-1339.141608396826
 30
0.0
 10
9801.471924993488
 20
-1339.403107131978
 30
0.0
 10
9803.01506068801
 20
-1339.931557933492
 30
0.0
 10
9803.79470908834
 20
-1340.1985505405
 30
0.0
 10
9804.97886955377
 20
-1340.604069348275
 30
0.0
 10
9805.37544843707
 20
-1340.739878810453
 30
0.0
 10
9806.159923047433
 20
-1341.008524165547
 30
0.0
 10
9806.549530306993
 20
-1341.141946177183
 30
0.0
 10
9807.711415676506
 20
-1341.539836820866
 30
0.0
 10
9808.476784404884
 20
-1341.801939317361
 30
0.0
 10
9809.23580864145
 20
-1342.061869126258
 30
0.0
  0
CIRCLE
  5
125
330
1F
100
AcDbEntity
  8
0
  6
Continuous
 62
     7
370
    15
100
AcDbCircle
 10
9450.4523686116
 20
-1513.057956198
 30
0.0
 40
8.249999999995177
  0
SPLINE
  5
126
330
1F
100
AcDbEntity
  8
0
  6
Continuous
 62
     7
370
    15
100
AcDbSpline
210
0.0
220
0.0
230
1.0
 70
    24
 71
     3
 72
    16
 73
    12
 74
     0
 42
0.000000001
 43
0.00000001
 40
0.0
 40
0.0
 40
0.0
 40
0.0
 40
0.2500000000000955
 40
0.2500000000000955
 40
0.5000000000001911
 40
0.5000000000001911
 40
0.6250000000001876
 40
0.6250000000001876
 40
0.7500000000001842
 40
0.7500000000001842
 40
1.0
 40
1.0
 40
1.0
 40
1.0
 10
9441.166800233701
 20
-1509.878089340425
 30
0.0
 10
9441.32101425798
 20
-1510.664408122072
 30
0.0
 10
9441.476352548998
 20
-1511.456459404792
 30
0.0
 10
9441.790268577506
 20
-1513.057079518496
 30
0.0
 10
9441.948870397375
 20
-1513.8657711427
 30
0.0
 10
9442.189761040845
 20
-1515.094043591807
 30
0.0
 10
9442.270436038174
 20
-1515.505395710436
 30
0.0
 10
9442.430019641239
 20
-1516.319093329186
 30
0.0
 10
9442.509276419516
 20
-1516.723214119282
 30
0.0
 10
9442.745635698915
 20
-1517.928381687405
 30
0.0
 10
9442.901332642747
 20
-1518.722261697694
 30
0.0
 10
9443.05573894332
 20
-1519.509560873095
 30
0.0
  0
SPLINE
  5
127
330
1F
100
AcDbEntity
  8
0
  6
Continuous
 62
     7
370
    15
100
AcDbSpline
210
0.0
220
0.0
230
1.0
 70
    24
 71
     3
 72
    14
 73
    10
 74
     0
 42
0.000000001
 43
0.00000001
 40
0.0
 40
0.0
 40
0.0
 40
0.0
 40
0.25
 40
0.25
 40
0.5
 40
0.5
 40
0.75
 40
0.75
 40
1.0
 40
1.0
 40
1.0
 40
1.0
 10
9448.56342990201
 20
-1503.426484665368
 30
0.0
 10
9447.959273145563
 20
-1503.953451774596
 30
0.0
 10
9447.350387109473
 20
-1504.48454393051
 30
0.0
 10
9446.11892811436
 20
-1505.558666465539
 30
0.0
 10
9445.496252376797
 20
-1506.101786491775
 30
0.0
 10
9444.233977758911
 20
-1507.202787514018
 30
0.0
 10
9443.611302021349
 20
-1507.745907540253
 30
0.0
 10
9442.379843026238
 20
-1508.820030075283
 30
0.0
 10
9441.770956990145
 20
-1509.351122231196
 30
0.0
 10
9441.166800233701
 20
-1509.878089340425
 30
0.0
  0
SPLINE
  5
128
330
1F
100
AcDbEntity
  8
0
  6
Continuous
 62
     7
370
    15
100
AcDbSpline
210
0.0
220
0.0
230
1.0
 70
    24
 71
     3
 72
    16
 73
    12
 74
     0
 42
0.000000001
 43
0.00000001
 40
0.0
 40
0.0
 40
0.0
 40
0.0
 40
0.2499999999997401
 40
0.2499999999997401
 40
0.4999999999994802
 40
0.4999999999994802
 40
0.6249999999996128
 40
0.6249999999996128
 40
0.7499999999997454
 40
0.7499999999997454
 40
1.0
 40
1.0
 40
1.0
 40
1.0
 10
9457.848998279936
 20
-1506.606351522981
 30
0.0
 10
9457.090919227423
 20
-1506.3467453948
 30
0.0
 10
9456.327313549973
 20
-1506.085246659648
 30
0.0
 10
9454.784177855441
 20
-1505.556795858133
 30
0.0
 10
9454.00452945512
 20
-1505.289803251125
 30
0.0
 10
9452.82036898969
 20
-1504.884284443352
 30
0.0
 10
9452.423790106395
 20
-1504.748474981174
 30
0.0
 10
9451.639315496028
 20
-1504.479829626079
 30
0.0
 10
9451.249708236468
 20
-1504.346407614443
 30
0.0
 10
9450.087822866955
 20
-1503.94851697076
 30
0.0
 10
9449.322454138577
 20
-1503.686414474265
 30
0.0
 10
9448.56342990201
 20
-1503.426484665368
 30
0.0
  0
SPLINE
  5
129
330
1F
100
AcDbEntity
  8
0
  6
Continuous
 62
     7
370
    15
100
AcDbSpline
210
0.0
220
0.0
230
1.0
 70
    24
 71
     3
 72
    16
 73
    12
 74
     0
 42
0.000000001
 43
0.00000001
 40
0.0
 40
0.0
 40
0.0
 40
0.0
 40
0.2500000000000955
 40
0.2500000000000955
 40
0.5000000000001911
 40
0.5000000000001911
 40
0.6250000000001876
 40
0.6250000000001876
 40
0.7500000000001842
 40
0.7500000000001842
 40
1.0
 40
1.0
 40
1.0
 40
1.0
 10
9459.737936989557
 20
-1516.237823055651
 30
0.0
 10
9459.583722965283
 20
-1515.451504274004
 30
0.0
 10
9459.428384674256
 20
-1514.659452991284
 30
0.0
 10
9459.114468645752
 20
-1513.058832877579
 30
0.0
 10
9458.955866825887
 20
-1512.250141253377
 30
0.0
 10
9458.714976182413
 20
-1511.021868804269
 30
0.0
 10
9458.634301185086
 20
-1510.610516685639
 30
0.0
 10
9458.474717582021
 20
-1509.79681906689
 30
0.0
 10
9458.395460803744
 20
-1509.392698276794
 30
0.0
 10
9458.159101524343
 20
-1508.187530708671
 30
0.0
 10
9458.003404580515
 20
-1507.393650698382
 30
0.0
 10
9457.848998279936
 20
-1506.606351522981
 30
0.0
  0
SPLINE
  5
12A
330
1F
100
AcDbEntity
  8
0
  6
Continuous
 62
     7
370
    15
100
AcDbSpline
210
0.0
220
0.0
230
1.0
 70
    24
 71
     3
 72
    14
 73
    10
 74
     0
 42
0.000000001
 43
0.00000001
 40
0.0
 40
0.0
 40
0.0
 40
0.0
 40
0.25
 40
0.25
 40
0.5
 40
0.5
 40
0.75
 40
0.75
 40
1.0
 40
1.0
 40
1.0
 40
1.0
 10
9452.341307321249
 20
-1522.689427730708
 30
0.0
 10
9452.945464077693
 20
-1522.162460621478
 30
0.0
 10
9453.554350113787
 20
-1521.631368465567
 30
0.0
 10
9454.785809108893
 20
-1520.557245930536
 30
0.0
 10
9455.408484846463
 20
-1520.014125904301
 30
0.0
 10
9456.670759464347
 20
-1518.913124882058
 30
0.0
 10
9457.293435201907
 20
-1518.370004855822
 30
0.0
 10
9458.52489419702
 20
-1517.295882320793
 30
0.0
 10
9459.133780233113
 20
-1516.764790164879
 30
0.0
 10
9459.737936989557
 20
-1516.237823055651
 30
0.0
  0
SPLINE
  5
12B
330
1F
100
AcDbEntity
  8
0
  6
Continuous
 62
     7
370
    15
100
AcDbSpline
210
0.0
220
0.0
230
1.0
 70
    24
 71
     3
 72
    16
 73
    12
 74
     0
 42
0.000000001
 43
0.00000001
 40
0.0
 40
0.0
 40
0.0
 40
0.0
 40
0.2499999999997509
 40
0.2499999999997509
 40
0.4999999999995017
 40
0.4999999999995017
 40
0.624999999999629
 40
0.624999999999629
 40
0.7499999999997562
 40
0.7499999999997562
 40
1.0
 40
1.0
 40
1.0
 40
1.0
 10
9443.05573894332
 20
-1519.509560873095
 30
0.0
 10
9443.813817995835
 20
-1519.769167001275
 30
0.0
 10
9444.577423673285
 20
-1520.030665736428
 30
0.0
 10
9446.120559367811
 20
-1520.559116537941
 30
0.0
 10
9446.900207768138
 20
-1520.82610914495
 30
0.0
 10
9448.084368233564
 20
-1521.231627952724
 30
0.0
 10
9448.480947116865
 20
-1521.367437414903
 30
0.0
 10
9449.265421727236
 20
-1521.636082769997
 30
0.0
 10
9449.655028986794
 20
-1521.769504781633
 30
0.0
 10
9450.816914356303
 20
-1522.167395425315
 30
0.0
 10
9451.582283084686
 20
-1522.429497921811
 30
0.0
 10
9452.341307321249
 20
-1522.689427730708
 30
0.0
  0
CIRCLE
  5
12C
330
1F
100
AcDbEntity
  8
0
  6
Continuous
 62
     7
370
    15
100
AcDbCircle
 10
9093.5578672914
 20
-1693.6855148025
 30
0.0
 40
8.249999999996886
  0
SPLINE
  5
12D
330
1F
100
AcDbEntity
  8
0
  6
Continuous
 62
     7
370
    15
100
AcDbSpline
210
0.0
220
0.0
230
1.0
 70
    24
 71
     3
 72
    16
 73
    12
 74
     0
 42
0.000000001
 43
0.00000001
 40
0.0
 40
0.0
 40
0.0
 40
0.0
 40
0.2499999999999934
 40
0.2499999999999934
 40
0.4999999999999869
 40
0.4999999999999869
 40
0.6249999999999836
 40
0.6249999999999836
 40
0.7499999999999803
 40
0.7499999999999803
 40
1.0
 40
1.0
 40
1.0
 40
1.0
 10
9084.272298913496
 20
-1690.505647944874
 30
0.0
 10
9084.426512937773
 20
-1691.291966726522
 30
0.0
 10
9084.581851228799
 20
-1692.084018009241
 30
0.0
 10
9084.895767257298
 20
-1693.684638122946
 30
0.0
 10
9085.05436907717
 20
-1694.493329747149
 30
0.0
 10
9085.29525972064
 20
-1695.721602196257
 30
0.0
 10
9085.375934717968
 20
-1696.132954314886
 30
0.0
 10
9085.535518321032
 20
-1696.946651933636
 30
0.0
 10
9085.614775099311
 20
-1697.350772723731
 30
0.0
 10
9085.851134378709
 20
-1698.555940291855
 30
0.0
 10
9086.006831322538
 20
-1699.349820302144
 30
0.0
 10
9086.161237623117
 20
-1700.137119477545
 30
0.0
  0
SPLINE
  5
12E
330
1F
100
AcDbEntity
  8
0
  6
Continuous
 62
     7
370
    15
100
AcDbSpline
210
0.0
220
0.0
230
1.0
 70
    24
 71
     3
 72
    14
 73
    10
 74
     0
 42
0.000000001
 43
0.00000001
 40
0.0
 40
0.0
 40
0.0
 40
0.0
 40
0.25
 40
0.25
 40
0.5
 40
0.5
 40
0.75
 40
0.75
 40
1.0
 40
1.0
 40
1.0
 40
1.0
 10
9091.668928581805
 20
-1684.054043269817
 30
0.0
 10
9091.06477182536
 20
-1684.581010379045
 30
0.0
 10
9090.455885789268
 20
-1685.112102534959
 30
0.0
 10
9089.224426794157
 20
-1686.186225069989
 30
0.0
 10
9088.601751056596
 20
-1686.729345096224
 30
0.0
 10
9087.339476438707
 20
-1687.830346118467
 30
0.0
 10
9086.716800701146
 20
-1688.373466144702
 30
0.0
 10
9085.485341706035
 20
-1689.447588679733
 30
0.0
 10
9084.876455669943
 20
-1689.978680835646
 30
0.0
 10
9084.272298913496
 20
-1690.505647944874
 30
0.0
  0
SPLINE
  5
12F
330
1F
100
AcDbEntity
  8
0
  6
Continuous
 62
     7
370
    15
100
AcDbSpline
210
0.0
220
0.0
230
1.0
 70
    24
 71
     3
 72
    16
 73
    12
 74
     0
 42
0.000000001
 43
0.00000001
 40
0.0
 40
0.0
 40
0.0
 40
0.0
 40
0.2499999999999919
 40
0.2499999999999919
 40
0.4999999999999838
 40
0.4999999999999838
 40
0.6249999999999905
 40
0.6249999999999905
 40
0.7499999999999972
 40
0.7499999999999972
 40
1.0
 40
1.0
 40
1.0
 40
1.0
 10
9100.954496959734
 20
-1687.23391012743
 30
0.0
 10
9100.196417907217
 20
-1686.97430399925
 30
0.0
 10
9099.432812229772
 20
-1686.712805264097
 30
0.0
 10
9097.889676535237
 20
-1686.184354462583
 30
0.0
 10
9097.110028134919
 20
-1685.917361855575
 30
0.0
 10
9095.925867669488
 20
-1685.511843047801
 30
0.0
 10
9095.529288786192
 20
-1685.376033585624
 30
0.0
 10
9094.744814175823
 20
-1685.107388230528
 30
0.0
 10
9094.355206916262
 20
-1684.973966218892
 30
0.0
 10
9093.193321546752
 20
-1684.57607557521
 30
0.0
 10
9092.427952818369
 20
-1684.313973078715
 30
0.0
 10
9091.668928581805
 20
-1684.054043269817
 30
0.0
  0
SPLINE
  5
130
330
1F
100
AcDbEntity
  8
0
  6
Continuous
 62
     7
370
    15
100
AcDbSpline
210
0.0
220
0.0
230
1.0
 70
    24
 71
     3
 72
    16
 73
    12
 74
     0
 42
0.000000001
 43
0.00000001
 40
0.0
 40
0.0
 40
0.0
 40
0.0
 40
0.2499999999999934
 40
0.2499999999999934
 40
0.4999999999999869
 40
0.4999999999999869
 40
0.6249999999999836
 40
0.6249999999999836
 40
0.7499999999999803
 40
0.7499999999999803
 40
1.0
 40
1.0
 40
1.0
 40
1.0
 10
9102.843435669352
 20
-1696.8653816601
 30
0.0
 10
9102.68922164508
 20
-1696.079062878454
 30
0.0
 10
9102.53388335405
 20
-1695.287011595734
 30
0.0
 10
9102.219967325549
 20
-1693.686391482029
 30
0.0
 10
9102.06136550568
 20
-1692.877699857826
 30
0.0
 10
9101.820474862212
 20
-1691.649427408719
 30
0.0
 10
9101.739799864883
 20
-1691.238075290089
 30
0.0
 10
9101.580216261818
 20
-1690.424377671339
 30
0.0
 10
9101.500959483536
 20
-1690.020256881243
 30
0.0
 10
9101.264600204138
 20
-1688.81508931312
 30
0.0
 10
9101.10890326031
 20
-1688.021209302831
 30
0.0
 10
9100.954496959734
 20
-1687.23391012743
 30
0.0
  0
SPLINE
  5
131
330
1F
100
AcDbEntity
  8
0
  6
Continuous
 62
     7
370
    15
100
AcDbSpline
210
0.0
220
0.0
230
1.0
 70
    24
 71
     3
 72
    14
 73
    10
 74
     0
 42
0.000000001
 43
0.00000001
 40
0.0
 40
0.0
 40
0.0
 40
0.0
 40
0.25
 40
0.25
 40
0.5
 40
0.5
 40
0.75
 40
0.75
 40
1.0
 40
1.0
 40
1.0
 40
1.0
 10
9095.446806001044
 20
-1703.316986335158
 30
0.0
 10
9096.050962757488
 20
-1702.790019225929
 30
0.0
 10
9096.659848793584
 20
-1702.258927070016
 30
0.0
 10
9097.891307788695
 20
-1701.184804534986
 30
0.0
 10
9098.513983526258
 20
-1700.641684508751
 30
0.0
 10
9099.77625814414
 20
-1699.540683486507
 30
0.0
 10
9100.398933881705
 20
-1698.997563460272
 30
0.0
 10
9101.630392876816
 20
-1697.923440925242
 30
0.0
 10
9102.23927891291
 20
-1697.392348769329
 30
0.0
 10
9102.843435669352
 20
-1696.8653816601
 30
0.0
  0
SPLINE
  5
132
330
1F
100
AcDbEntity
  8
0
  6
Continuous
 62
     7
370
    15
100
AcDbSpline
210
0.0
220
0.0
230
1.0
 70
    24
 71
     3
 72
    16
 73
    12
 74
     0
 42
0.000000001
 43
0.00000001
 40
0.0
 40
0.0
 40
0.0
 40
0.0
 40
0.2500000000000027
 40
0.2500000000000027
 40
0.5000000000000053
 40
0.5000000000000053
 40
0.6250000000000067
 40
0.6250000000000067
 40
0.750000000000008
 40
0.750000000000008
 40
1.0
 40
1.0
 40
1.0
 40
1.0
 10
9086.161237623117
 20
-1700.137119477545
 30
0.0
 10
9086.919316675634
 20
-1700.396725605725
 30
0.0
 10
9087.68292235308
 20
-1700.658224340877
 30
0.0
 10
9089.226058047609
 20
-1701.186675142391
 30
0.0
 10
9090.00570644793
 20
-1701.4536677494
 30
0.0
 10
9091.189866913362
 20
-1701.859186557173
 30
0.0
 10
9091.586445796664
 20
-1701.994996019352
 30
0.0
 10
9092.37092040703
 20
-1702.263641374447
 30
0.0
 10
9092.760527666587
 20
-1702.397063386082
 30
0.0
 10
9093.922413036094
 20
-1702.794954029765
 30
0.0
 10
9094.687781764482
 20
-1703.05705652626
 30
0.0
 10
9095.446806001044
 20
-1703.316986335158
 30
0.0
  0
CIRCLE
  5
133
330
1F
100
AcDbEntity
  8
0
  6
Continuous
 62
     7
370
    15
100
AcDbCircle
 10
8736.6633659712
 20
-1874.3130734069
 30
0.0
 40
8.250000000000998
  0
SPLINE
  5
134
330
1F
100
AcDbEntity
  8
0
  6
Continuous
 62
     7
370
    15
100
AcDbSpline
210
0.0
220
0.0
230
1.0
 70
    24
 71
     3
 72
    16
 73
    12
 74
     0
 42
0.000000001
 43
0.00000001
 40
0.0
 40
0.0
 40
0.0
 40
0.0
 40
0.2499999999999937
 40
0.2499999999999937
 40
0.4999999999999873
 40
0.4999999999999873
 40
0.6249999999999516
 40
0.6249999999999516
 40
0.7499999999999157
 40
0.7499999999999157
 40
1.0
 40
1.0
 40
1.0
 40
1.0
 10
8727.377797593295
 20
-1871.133206549325
 30
0.0
 10
8727.532011617574
 20
-1871.919525330971
 30
0.0
 10
8727.687349908596
 20
-1872.711576613691
 30
0.0
 10
8728.001265937099
 20
-1874.312196727396
 30
0.0
 10
8728.159867756971
 20
-1875.120888351599
 30
0.0
 10
8728.40075840044
 20
-1876.349160800707
 30
0.0
 10
8728.481433397767
 20
-1876.760512919336
 30
0.0
 10
8728.641017000831
 20
-1877.574210538085
 30
0.0
 10
8728.720273779109
 20
-1877.978331328181
 30
0.0
 10
8728.956633058508
 20
-1879.183498896304
 30
0.0
 10
8729.112330002337
 20
-1879.977378906593
 30
0.0
 10
8729.266736302914
 20
-1880.764678081995
 30
0.0
  0
SPLINE
  5
135
330
1F
100
AcDbEntity
  8
0
  6
Continuous
 62
     7
370
    15
100
AcDbSpline
210
0.0
220
0.0
230
1.0
 70
    24
 71
     3
 72
    14
 73
    10
 74
     0
 42
0.000000001
 43
0.00000001
 40
0.0
 40
0.0
 40
0.0
 40
0.0
 40
0.25
 40
0.25
 40
0.5
 40
0.5
 40
0.75
 40
0.75
 40
1.0
 40
1.0
 40
1.0
 40
1.0
 10
8734.774427261604
 20
-1864.681601874267
 30
0.0
 10
8734.17027050516
 20
-1865.208568983496
 30
0.0
 10
8733.561384469069
 20
-1865.739661139409
 30
0.0
 10
8732.329925473954
 20
-1866.813783674438
 30
0.0
 10
8731.707249736393
 20
-1867.356903700674
 30
0.0
 10
8730.444975118504
 20
-1868.457904722917
 30
0.0
 10
8729.822299380943
 20
-1869.001024749153
 30
0.0
 10
8728.590840385834
 20
-1870.075147284182
 30
0.0
 10
8727.981954349738
 20
-1870.606239440096
 30
0.0
 10
8727.377797593295
 20
-1871.133206549325
 30
0.0
  0
SPLINE
  5
136
330
1F
100
AcDbEntity
  8
0
  6
Continuous
 62
     7
370
    15
100
AcDbSpline
210
0.0
220
0.0
230
1.0
 70
    24
 71
     3
 72
    16
 73
    12
 74
     0
 42
0.000000001
 43
0.00000001
 40
0.0
 40
0.0
 40
0.0
 40
0.0
 40
0.2500000000000027
 40
0.2500000000000027
 40
0.5000000000000053
 40
0.5000000000000053
 40
0.6250000000000067
 40
0.6250000000000067
 40
0.750000000000008
 40
0.750000000000008
 40
1.0
 40
1.0
 40
1.0
 40
1.0
 10
8744.05999563953
 20
-1867.86146873188
 30
0.0
 10
8743.301916587016
 20
-1867.601862603699
 30
0.0
 10
8742.538310909566
 20
-1867.340363868547
 30
0.0
 10
8740.995175215035
 20
-1866.811913067033
 30
0.0
 10
8740.215526814718
 20
-1866.544920460025
 30
0.0
 10
8739.031366349282
 20
-1866.139401652251
 30
0.0
 10
8738.634787465988
 20
-1866.003592190074
 30
0.0
 10
8737.850312855624
 20
-1865.734946834978
 30
0.0
 10
8737.460705596062
 20
-1865.601524823343
 30
0.0
 10
8736.298820226548
 20
-1865.20363417966
 30
0.0
 10
8735.533451498168
 20
-1864.941531683164
 30
0.0
 10
8734.774427261604
 20
-1864.681601874267
 30
0.0
  0
SPLINE
  5
137
330
1F
100
AcDbEntity
  8
0
  6
Continuous
 62
     7
370
    15
100
AcDbSpline
210
0.0
220
0.0
230
1.0
 70
    24
 71
     3
 72
    16
 73
    12
 74
     0
 42
0.000000001
 43
0.00000001
 40
0.0
 40
0.0
 40
0.0
 40
0.0
 40
0.2499999999999937
 40
0.2499999999999937
 40
0.4999999999999873
 40
0.4999999999999873
 40
0.6249999999999516
 40
0.6249999999999516
 40
0.7499999999999157
 40
0.7499999999999157
 40
1.0
 40
1.0
 40
1.0
 40
1.0
 10
8745.948934349151
 20
-1877.49294026455
 30
0.0
 10
8745.794720324875
 20
-1876.706621482904
 30
0.0
 10
8745.639382033849
 20
-1875.914570200184
 30
0.0
 10
8745.325466005346
 20
-1874.313950086479
 30
0.0
 10
8745.16686418548
 20
-1873.505258462277
 30
0.0
 10
8744.925973542011
 20
-1872.276986013169
 30
0.0
 10
8744.84529854468
 20
-1871.865633894539
 30
0.0
 10
8744.685714941616
 20
-1871.051936275789
 30
0.0
 10
8744.606458163335
 20
-1870.647815485693
 30
0.0
 10
8744.370098883934
 20
-1869.442647917571
 30
0.0
 10
8744.214401940111
 20
-1868.648767907282
 30
0.0
 10
8744.05999563953
 20
-1867.86146873188
 30
0.0
  0
SPLINE
  5
138
330
1F
100
AcDbEntity
  8
0
  6
Continuous
 62
     7
370
    15
100
AcDbSpline
210
0.0
220
0.0
230
1.0
 70
    24
 71
     3
 72
    14
 73
    10
 74
     0
 42
0.000000001
 43
0.00000001
 40
0.0
 40
0.0
 40
0.0
 40
0.0
 40
0.25
 40
0.25
 40
0.5
 40
0.5
 40
0.75
 40
0.75
 40
1.0
 40
1.0
 40
1.0
 40
1.0
 10
8738.552304680843
 20
-1883.944544939608
 30
0.0
 10
8739.156461437287
 20
-1883.417577830378
 30
0.0
 10
8739.76534747338
 20
-1882.886485674466
 30
0.0
 10
8740.996806468489
 20
-1881.812363139436
 30
0.0
 10
8741.619482206057
 20
-1881.2692431132
 30
0.0
 10
8742.881756823941
 20
-1880.168242090957
 30
0.0
 10
8743.504432561505
 20
-1879.625122064722
 30
0.0
 10
8744.735891556615
 20
-1878.550999529692
 30
0.0
 10
8745.344777592707
 20
-1878.019907373779
 30
0.0
 10
8745.948934349151
 20
-1877.49294026455
 30
0.0
  0
SPLINE
  5
139
330
1F
100
AcDbEntity
  8
0
  6
Continuous
 62
     7
370
    15
100
AcDbSpline
210
0.0
220
0.0
230
1.0
 70
    24
 71
     3
 72
    16
 73
    12
 74
     0
 42
0.000000001
 43
0.00000001
 40
0.0
 40
0.0
 40
0.0
 40
0.0
 40
0.2499999999999919
 40
0.2499999999999919
 40
0.4999999999999838
 40
0.4999999999999838
 40
0.6249999999999905
 40
0.6249999999999905
 40
0.7499999999999972
 40
0.7499999999999972
 40
1.0
 40
1.0
 40
1.0
 40
1.0
 10
8729.266736302914
 20
-1880.764678081995
 30
0.0
 10
8730.024815355433
 20
-1881.024284210175
 30
0.0
 10
8730.788421032878
 20
-1881.285782945328
 30
0.0
 10
8732.331556727406
 20
-1881.814233746841
 30
0.0
 10
8733.111205127727
 20
-1882.08122635385
 30
0.0
 10
8734.29536559316
 20
-1882.486745161624
 30
0.0
 10
8734.691944476463
 20
-1882.622554623802
 30
0.0
 10
8735.476419086825
 20
-1882.891199978897
 30
0.0
 10
8735.866026346388
 20
-1883.024621990533
 30
0.0
 10
8737.027911715895
 20
-1883.422512634215
 30
0.0
 10
8737.793280444283
 20
-1883.684615130711
 30
0.0
 10
8738.552304680843
 20
-1883.944544939608
 30
0.0
  0
CIRCLE
  5
13A
330
1F
100
AcDbEntity
  8
0
  6
Continuous
 62
     7
370
    15
100
AcDbCircle
 10
8379.768864651
 20
-2054.9406320114
 30
0.0
 40
8.249999999996543
  0
SPLINE
  5
13B
330
1F
100
AcDbEntity
  8
0
  6
Continuous
 62
     7
370
    15
100
AcDbSpline
210
0.0
220
0.0
230
1.0
 70
    24
 71
     3
 72
    16
 73
    12
 74
     0
 42
0.000000001
 43
0.00000001
 40
0.0
 40
0.0
 40
0.0
 40
0.0
 40
0.2500000000000141
 40
0.2500000000000141
 40
0.5000000000000282
 40
0.5000000000000282
 40
0.6250000000000493
 40
0.6250000000000493
 40
0.7500000000000703
 40
0.7500000000000703
 40
1.0
 40
1.0
 40
1.0
 40
1.0
 10
8370.48329627309
 20
-2051.760765153774
 30
0.0
 10
8370.637510297367
 20
-2052.54708393542
 30
0.0
 10
8370.792848588391
 20
-2053.339135218141
 30
0.0
 10
8371.106764616894
 20
-2054.939755331845
 30
0.0
 10
8371.265366436764
 20
-2055.748446956049
 30
0.0
 10
8371.506257080233
 20
-2056.976719405157
 30
0.0
 10
8371.586932077562
 20
-2057.388071523786
 30
0.0
 10
8371.746515680625
 20
-2058.201769142535
 30
0.0
 10
8371.82577245891
 20
-2058.605889932632
 30
0.0
 10
8372.062131738307
 20
-2059.811057500754
 30
0.0
 10
8372.217828682134
 20
-2060.604937511044
 30
0.0
 10
8372.372234982711
 20
-2061.392236686444
 30
0.0
  0
SPLINE
  5
13C
330
1F
100
AcDbEntity
  8
0
  6
Continuous
 62
     7
370
    15
100
AcDbSpline
210
0.0
220
0.0
230
1.0
 70
    24
 71
     3
 72
    14
 73
    10
 74
     0
 42
0.000000001
 43
0.00000001
 40
0.0
 40
0.0
 40
0.0
 40
0.0
 40
0.25
 40
0.25
 40
0.5
 40
0.5
 40
0.75
 40
0.75
 40
1.0
 40
1.0
 40
1.0
 40
1.0
 10
8377.8799259414
 20
-2045.309160478717
 30
0.0
 10
8377.275769184957
 20
-2045.836127587946
 30
0.0
 10
8376.666883148864
 20
-2046.36721974386
 30
0.0
 10
8375.435424153751
 20
-2047.441342278888
 30
0.0
 10
8374.812748416189
 20
-2047.984462305123
 30
0.0
 10
8373.550473798301
 20
-2049.085463327367
 30
0.0
 10
8372.92779806074
 20
-2049.628583353603
 30
0.0
 10
8371.69633906563
 20
-2050.702705888633
 30
0.0
 10
8371.087453029535
 20
-2051.233798044545
 30
0.0
 10
8370.48329627309
 20
-2051.760765153774
 30
0.0
  0
SPLINE
  5
13D
330
1F
100
AcDbEntity
  8
0
  6
Continuous
 62
     7
370
    15
100
AcDbSpline
210
0.0
220
0.0
230
1.0
 70
    24
 71
     3
 72
    16
 73
    12
 74
     0
 42
0.000000001
 43
0.00000001
 40
0.0
 40
0.0
 40
0.0
 40
0.0
 40
0.2499999999997725
 40
0.2499999999997725
 40
0.4999999999995449
 40
0.4999999999995449
 40
0.6249999999996614
 40
0.6249999999996614
 40
0.7499999999997778
 40
0.7499999999997778
 40
1.0
 40
1.0
 40
1.0
 40
1.0
 10
8387.165494319328
 20
-2048.48902733633
 30
0.0
 10
8386.407415266813
 20
-2048.229421208149
 30
0.0
 10
8385.643809589366
 20
-2047.967922472997
 30
0.0
 10
8384.100673894834
 20
-2047.439471671483
 30
0.0
 10
8383.321025494515
 20
-2047.172479064475
 30
0.0
 10
8382.136865029084
 20
-2046.766960256701
 30
0.0
 10
8381.740286145785
 20
-2046.631150794523
 30
0.0
 10
8380.95581153542
 20
-2046.362505439428
 30
0.0
 10
8380.566204275858
 20
-2046.229083427793
 30
0.0
 10
8379.404318906347
 20
-2045.83119278411
 30
0.0
 10
8378.638950177965
 20
-2045.569090287614
 30
0.0
 10
8377.8799259414
 20
-2045.309160478717
 30
0.0
  0
SPLINE
  5
13E
330
1F
100
AcDbEntity
  8
0
  6
Continuous
 62
     7
370
    15
100
AcDbSpline
210
0.0
220
0.0
230
1.0
 70
    24
 71
     3
 72
    16
 73
    12
 74
     0
 42
0.000000001
 43
0.00000001
 40
0.0
 40
0.0
 40
0.0
 40
0.0
 40
0.2500000000000141
 40
0.2500000000000141
 40
0.5000000000000282
 40
0.5000000000000282
 40
0.6250000000000493
 40
0.6250000000000493
 40
0.7500000000000703
 40
0.7500000000000703
 40
1.0
 40
1.0
 40
1.0
 40
1.0
 10
8389.054433028947
 20
-2058.120498869
 30
0.0
 10
8388.900219004672
 20
-2057.334180087354
 30
0.0
 10
8388.744880713646
 20
-2056.542128804634
 30
0.0
 10
8388.430964685143
 20
-2054.941508690928
 30
0.0
 10
8388.27236286528
 20
-2054.132817066726
 30
0.0
 10
8388.031472221805
 20
-2052.904544617617
 30
0.0
 10
8387.950797224477
 20
-2052.493192498989
 30
0.0
 10
8387.791213621413
 20
-2051.679494880239
 30
0.0
 10
8387.711956843135
 20
-2051.275374090143
 30
0.0
 10
8387.475597563734
 20
-2050.07020652202
 30
0.0
 10
8387.319900619905
 20
-2049.276326511731
 30
0.0
 10
8387.165494319328
 20
-2048.48902733633
 30
0.0
  0
SPLINE
  5
13F
330
1F
100
AcDbEntity
  8
0
  6
Continuous
 62
     7
370
    15
100
AcDbSpline
210
0.0
220
0.0
230
1.0
 70
    24
 71
     3
 72
    14
 73
    10
 74
     0
 42
0.000000001
 43
0.00000001
 40
0.0
 40
0.0
 40
0.0
 40
0.0
 40
0.25
 40
0.25
 40
0.5
 40
0.5
 40
0.75
 40
0.75
 40
1.0
 40
1.0
 40
1.0
 40
1.0
 10
8381.657803360638
 20
-2064.572103544057
 30
0.0
 10
8382.261960117086
 20
-2064.045136434828
 30
0.0
 10
8382.870846153177
 20
-2063.514044278916
 30
0.0
 10
8384.102305148286
 20
-2062.439921743885
 30
0.0
 10
8384.72498088585
 20
-2061.896801717651
 30
0.0
 10
8385.987255503738
 20
-2060.795800695407
 30
0.0
 10
8386.609931241299
 20
-2060.252680669171
 30
0.0
 10
8387.84139023641
 20
-2059.178558134142
 30
0.0
 10
8388.450276272504
 20
-2058.647465978229
 30
0.0
 10
8389.054433028947
 20
-2058.120498869
 30
0.0
  0
SPLINE
  5
140
330
1F
100
AcDbEntity
  8
0
  6
Continuous
 62
     7
370
    15
100
AcDbSpline
210
0.0
220
0.0
230
1.0
 70
    24
 71
     3
 72
    16
 73
    12
 74
     0
 42
0.000000001
 43
0.00000001
 40
0.0
 40
0.0
 40
0.0
 40
0.0
 40
0.2499999999997293
 40
0.2499999999997293
 40
0.4999999999994587
 40
0.4999999999994587
 40
0.6249999999995967
 40
0.6249999999995967
 40
0.7499999999997347
 40
0.7499999999997347
 40
1.0
 40
1.0
 40
1.0
 40
1.0
 10
8372.372234982711
 20
-2061.392236686444
 30
0.0
 10
8373.13031403523
 20
-2061.651842814625
 30
0.0
 10
8373.893919712677
 20
-2061.913341549777
 30
0.0
 10
8375.437055407201
 20
-2062.441792351291
 30
0.0
 10
8376.216703807528
 20
-2062.708784958299
 30
0.0
 10
8377.400864272957
 20
-2063.114303766073
 30
0.0
 10
8377.797443156256
 20
-2063.250113228251
 30
0.0
 10
8378.58191776662
 20
-2063.518758583346
 30
0.0
 10
8378.971525026182
 20
-2063.652180594982
 30
0.0
 10
8380.13341039569
 20
-2064.050071238665
 30
0.0
 10
8380.898779124074
 20
-2064.312173735159
 30
0.0
 10
8381.657803360638
 20
-2064.572103544057
 30
0.0
  0
CIRCLE
  5
141
330
1F
100
AcDbEntity
  8
0
  6
Continuous
 62
     7
370
    15
100
AcDbCircle
 10
8022.8743633308
 20
-2235.5681906158
 30
0.0
 40
8.24999999999946
  0
SPLINE
  5
142
330
1F
100
AcDbEntity
  8
0
  6
Continuous
 62
     7
370
    15
100
AcDbSpline
210
0.0
220
0.0
230
1.0
 70
    24
 71
     3
 72
    16
 73
    12
 74
     0
 42
0.000000001
 43
0.00000001
 40
0.0
 40
0.0
 40
0.0
 40
0.0
 40
0.2500000000000793
 40
0.2500000000000793
 40
0.5000000000001587
 40
0.5000000000001587
 40
0.6250000000001471
 40
0.6250000000001471
 40
0.7500000000001356
 40
0.7500000000001356
 40
1.0
 40
1.0
 40
1.0
 40
1.0
 10
8013.58879495289
 20
-2232.388323758224
 30
0.0
 10
8013.743008977165
 20
-2233.17464253987
 30
0.0
 10
8013.89834726819
 20
-2233.966693822591
 30
0.0
 10
8014.212263296692
 20
-2235.567313936294
 30
0.0
 10
8014.370865116563
 20
-2236.376005560497
 30
0.0
 10
8014.611755760031
 20
-2237.604278009606
 30
0.0
 10
8014.692430757359
 20
-2238.015630128235
 30
0.0
 10
8014.852014360424
 20
-2238.829327746984
 30
0.0
 10
8014.931271138703
 20
-2239.23344853708
 30
0.0
 10
8015.167630418106
 20
-2240.438616105204
 30
0.0
 10
8015.323327361935
 20
-2241.232496115493
 30
0.0
 10
8015.477733662509
 20
-2242.019795290894
 30
0.0
  0
SPLINE
  5
143
330
1F
100
AcDbEntity
  8
0
  6
Continuous
 62
     7
370
    15
100
AcDbSpline
210
0.0
220
0.0
230
1.0
 70
    24
 71
     3
 72
    14
 73
    10
 74
     0
 42
0.000000001
 43
0.00000001
 40
0.0
 40
0.0
 40
0.0
 40
0.0
 40
0.25
 40
0.25
 40
0.5
 40
0.5
 40
0.75
 40
0.75
 40
1.0
 40
1.0
 40
1.0
 40
1.0
 10
8020.985424621198
 20
-2225.936719083167
 30
0.0
 10
8020.381267864751
 20
-2226.463686192396
 30
0.0
 10
8019.77238182866
 20
-2226.994778348309
 30
0.0
 10
8018.540922833548
 20
-2228.068900883338
 30
0.0
 10
8017.918247095986
 20
-2228.612020909574
 30
0.0
 10
8016.655972478102
 20
-2229.713021931816
 30
0.0
 10
8016.033296740538
 20
-2230.256141958052
 30
0.0
 10
8014.801837745427
 20
-2231.330264493082
 30
0.0
 10
8014.192951709333
 20
-2231.861356648995
 30
0.0
 10
8013.58879495289
 20
-2232.388323758224
 30
0.0
  0
SPLINE
  5
144
330
1F
100
AcDbEntity
  8
0
  6
Continuous
 62
     7
370
    15
100
AcDbSpline
210
0.0
220
0.0
230
1.0
 70
    24
 71
     3
 72
    16
 73
    12
 74
     0
 42
0.000000001
 43
0.00000001
 40
0.0
 40
0.0
 40
0.0
 40
0.0
 40
0.2499999999997293
 40
0.2499999999997293
 40
0.4999999999994587
 40
0.4999999999994587
 40
0.6249999999995967
 40
0.6249999999995967
 40
0.7499999999997347
 40
0.7499999999997347
 40
1.0
 40
1.0
 40
1.0
 40
1.0
 10
8030.270992999126
 20
-2229.116585940779
 30
0.0
 10
8029.51291394661
 20
-2228.8569798126
 30
0.0
 10
8028.749308269164
 20
-2228.595481077446
 30
0.0
 10
8027.206172574633
 20
-2228.067030275932
 30
0.0
 10
8026.426524174313
 20
-2227.800037668926
 30
0.0
 10
8025.24236370888
 20
-2227.39451886115
 30
0.0
 10
8024.845784825581
 20
-2227.258709398972
 30
0.0
 10
8024.061310215215
 20
-2226.990064043878
 30
0.0
 10
8023.671702955653
 20
-2226.856642032241
 30
0.0
 10
8022.509817586144
 20
-2226.458751388559
 30
0.0
 10
8021.744448857763
 20
-2226.196648892064
 30
0.0
 10
8020.985424621198
 20
-2225.936719083167
 30
0.0
  0
SPLINE
  5
145
330
1F
100
AcDbEntity
  8
0
  6
Continuous
 62
     7
370
    15
100
AcDbSpline
210
0.0
220
0.0
230
1.0
 70
    24
 71
     3
 72
    16
 73
    12
 74
     0
 42
0.000000001
 43
0.00000001
 40
0.0
 40
0.0
 40
0.0
 40
0.0
 40
0.2500000000000793
 40
0.2500000000000793
 40
0.5000000000001587
 40
0.5000000000001587
 40
0.6250000000001471
 40
0.6250000000001471
 40
0.7500000000001356
 40
0.7500000000001356
 40
1.0
 40
1.0
 40
1.0
 40
1.0
 10
8032.159931708746
 20
-2238.74805747345
 30
0.0
 10
8032.005717684468
 20
-2237.961738691803
 30
0.0
 10
8031.850379393447
 20
-2237.169687409083
 30
0.0
 10
8031.536463364939
 20
-2235.569067295377
 30
0.0
 10
8031.377861545075
 20
-2234.760375671175
 30
0.0
 10
8031.136970901603
 20
-2233.532103222067
 30
0.0
 10
8031.056295904273
 20
-2233.120751103438
 30
0.0
 10
8030.896712301209
 20
-2232.307053484689
 30
0.0
 10
8030.817455522931
 20
-2231.902932694592
 30
0.0
 10
8030.58109624353
 20
-2230.697765126471
 30
0.0
 10
8030.425399299704
 20
-2229.90388511618
 30
0.0
 10
8030.270992999126
 20
-2229.116585940779
 30
0.0
  0
SPLINE
  5
146
330
1F
100
AcDbEntity
  8
0
  6
Continuous
 62
     7
370
    15
100
AcDbSpline
210
0.0
220
0.0
230
1.0
 70
    24
 71
     3
 72
    14
 73
    10
 74
     0
 42
0.000000001
 43
0.00000001
 40
0.0
 40
0.0
 40
0.0
 40
0.0
 40
0.25
 40
0.25
 40
0.5
 40
0.5
 40
0.75
 40
0.75
 40
1.0
 40
1.0
 40
1.0
 40
1.0
 10
8024.763302040437
 20
-2245.199662148507
 30
0.0
 10
8025.367458796883
 20
-2244.672695039277
 30
0.0
 10
8025.976344832977
 20
-2244.141602883365
 30
0.0
 10
8027.207803828086
 20
-2243.067480348335
 30
0.0
 10
8027.83047956565
 20
-2242.5243603221
 30
0.0
 10
8029.092754183537
 20
-2241.423359299857
 30
0.0
 10
8029.715429921097
 20
-2240.880239273622
 30
0.0
 10
8030.946888916208
 20
-2239.806116738592
 30
0.0
 10
8031.555774952302
 20
-2239.275024582679
 30
0.0
 10
8032.159931708746
 20
-2238.74805747345
 30
0.0
  0
SPLINE
  5
147
330
1F
100
AcDbEntity
  8
0
  6
Continuous
 62
     7
370
    15
100
AcDbSpline
210
0.0
220
0.0
230
1.0
 70
    24
 71
     3
 72
    16
 73
    12
 74
     0
 42
0.000000001
 43
0.00000001
 40
0.0
 40
0.0
 40
0.0
 40
0.0
 40
0.2499999999997725
 40
0.2499999999997725
 40
0.4999999999995449
 40
0.4999999999995449
 40
0.6249999999996614
 40
0.6249999999996614
 40
0.7499999999997778
 40
0.7499999999997778
 40
1.0
 40
1.0
 40
1.0
 40
1.0
 10
8015.477733662509
 20
-2242.019795290894
 30
0.0
 10
8016.235812715027
 20
-2242.279401419075
 30
0.0
 10
8016.999418392475
 20
-2242.540900154228
 30
0.0
 10
8018.542554087002
 20
-2243.06935095574
 30
0.0
 10
8019.322202487326
 20
-2243.33634356275
 30
0.0
 10
8020.506362952759
 20
-2243.741862370523
 30
0.0
 10
8020.902941836054
 20
-2243.877671832701
 30
0.0
 10
8021.687416446419
 20
-2244.146317187797
 30
0.0
 10
8022.077023705982
 20
-2244.279739199432
 30
0.0
 10
8023.238909075493
 20
-2244.677629843115
 30
0.0
 10
8024.004277803872
 20
-2244.939732339609
 30
0.0
 10
8024.763302040437
 20
-2245.199662148507
 30
0.0
  0
CIRCLE
  5
148
330
1F
100
AcDbEntity
  8
0
  6
Continuous
 62
     7
370
    15
100
AcDbCircle
 10
9450.4523686116
 20
-1513.057956198
 30
0.0
 40
4.999999999996822
  0
LWPOLYLINE
  5
14D
330
1F
100
AcDbEntity
  8
0
  6
Continuous
 62
     7
370
    15
100
AcDbPolyline
 90
        3
 70
   128
 43
0.0
 10
9139.0085374055
 20
-1773.1908427616
 10
9138.3265081085
 20
-1772.447745971
 10
9137.9403103224
 20
-1772.0933007642
  0
LWPOLYLINE
  5
14E
330
1F
100
AcDbEntity
  8
0
  6
Continuous
 62
     7
370
    15
100
AcDbPolyline
 90
        3
 70
   128
 43
0.0
 10
9123.0711681724
 20
-1779.6187090716
 10
9123.0766200196
 20
-1779.6837003933
 10
9123.160100654
 20
-1780.3490502003
  0
CIRCLE
  5
157
330
1F
100
AcDbEntity
  8
0
  6
Continuous
 62
     7
370
    15
100
AcDbCircle
 10
8736.6633659712
 20
-1874.3130734069
 30
0.0
 40
4.999999999996822
  0
LWPOLYLINE
  5
158
330
1F
100
AcDbEntity
  8
0
  6
Continuous
 62
     7
370
    15
100
AcDbPolyline
 90
      101
 70
   128
 43
0.0
 10
7598.371504647
 20
-2748.1137974478
 10
7595.6070589617
 20
-2752.9736047582
 10
7592.539366493
 20
-2757.648507992
 10
7589.1805340218
 20
-2762.1200574418
 10
7585.5438173252
 20
-2766.3706059449
 10
7581.6435688625
 20
-2770.3833785282
 10
7577.4951811328
 20
-2774.1425386116
 10
7573.1150259269
 20
-2777.6332505077
 10
7568.5203897166
 20
-2780.8417379712
 10
7563.7294054317
 20
-2783.7553385681
 10
7558.7609808986
 20
-2786.3625536479
 10
7553.6347242188
 20
-2788.6530937238
 10
7548.3708663857
 20
-2790.6179190805
 10
7542.9901814413
 20
-2792.24927545
 10
7537.5139044907
 20
-2793.540724614
 10
7531.9636478973
 20
-2794.4871698126
 10
7526.3613159882
 20
-2795.0848758592
 10
7520.729018608
 20
-2795.3314838809
 10
7515.0889838612
 20
-2795.2260206285
 10
7509.4634703883
 20
-2794.7689023174
 10
7503.874679521
 20
-2793.9619329847
 10
7498.3446676635
 20
-2792.8082973696
 10
7492.8952592462
 20
-2791.3125483449
 10
7487.5479605945
 20
-2789.4805889487
 10
7482.3238750533
 20
-2787.3196490877
 10
7477.2436197016
 20
-2784.8382570043
 10
7472.3272439862
 20
-2782.0462056195
 10
7467.594150596
 20
-2778.9545138844
 10
7463.0630188883
 20
-2775.575383294
 10
7458.7517311699
 20
-2771.9221497329
 10
7454.6773021237
 20
-2768.0092308449
 10
7450.8558116598
 20
-2763.8520691332
 10
7447.3023414552
 20
-2759.4670710159
 10
7444.0309154333
 20
-2754.8715420773
 10
7441.0544444181
 20
-2750.0836187705
 10
7438.3846751807
 20
-2745.1221968415
 10
7436.0321440809
 20
-2740.006856756
 10
7434.0061354839
 20
-2734.7577864243
 10
7432.3146451201
 20
-2729.3957015289
 10
7430.9643485293
 20
-2723.9417637692
 10
7429.9605747152
 20
-2718.417497346
 10
7429.3072851144
 20
-2712.8447040148
 10
7429.0070579626
 20
-2707.2453770451
 10
7429.0610781191
 20
-2701.6416144224
 10
7429.4691323911
 20
-2696.0555316376
 10
7430.2296103748
 20
-2690.5091744073
 10
7431.339510811
 20
-2685.0244316697
 10
7432.7944534298
 20
-2679.6229491987
 10
7434.5886962373
 20
-2674.3260441778
 10
7436.7151581769
 20
-2669.1546210713
 10
7439.1654470748
 20
-2664.1290891235
 10
7441.9298927601
 20
-2659.2692818131
 10
7444.9975852288
 20
-2654.5943785794
 10
7448.3564177
 20
-2650.1228291295
 10
7451.9931343966
 20
-2645.8722806264
 10
7455.8933828592
 20
-2641.8595080431
 10
7460.041770589
 20
-2638.1003479597
 10
7464.4219257949
 20
-2634.6096360636
 10
7469.0165620052
 20
-2631.4011486001
 10
7473.8075462901
 20
-2628.4875480032
 10
7478.7759708232
 20
-2625.8803329234
 10
7483.902227503
 20
-2623.5897928476
 10
7489.1660853361
 20
-2621.6249674909
 10
7494.5467702805
 20
-2619.9936111214
 10
7500.0230472311
 20
-2618.7021619574
 10
7505.5733038245
 20
-2617.7557167587
 10
7511.1756357336
 20
-2617.1580107122
 10
7516.8079331138
 20
-2616.9114026905
 10
7522.4479678606
 20
-2617.0168659428
 10
7528.0734813335
 20
-2617.4739842539
 10
7533.6622722008
 20
-2618.2809535866
 10
7539.1922840583
 20
-2619.4345892017
 10
7544.6416924756
 20
-2620.9303382264
 10
7549.9889911272
 20
-2622.7622976226
 10
7555.2130766684
 20
-2624.9232374836
 10
7560.2933320202
 20
-2627.404629567
 10
7565.2097077356
 20
-2630.1966809518
 10
7569.9428011258
 20
-2633.2883726869
 10
7574.4739328335
 20
-2636.6675032773
 10
7578.7852205519
 20
-2640.3207368385
 10
7582.8596495981
 20
-2644.2336557265
 10
7586.681140062
 20
-2648.3908174381
 10
7590.2346102666
 20
-2652.7758155554
 10
7593.5060362885
 20
-2657.371344494
 10
7596.4825073037
 20
-2662.1592678008
 10
7599.152276541
 20
-2667.1206897298
 10
7601.5048076409
 20
-2672.2360298153
 10
7603.5308162379
 20
-2677.485100147
 10
7605.2223066017
 20
-2682.8471850424
 10
7606.5726031925
 20
-2688.3011228021
 10
7607.5763770066
 20
-2693.8253892254
 10
7608.2296666074
 20
-2699.3981825565
 10
7608.5298937592
 20
-2704.9975095262
 10
7608.4758736026
 20
-2710.6012721489
 10
7608.0678193306
 20
-2716.1873549338
 10
7607.307341347
 20
-2721.733712164
 10
7606.1974409108
 20
-2727.2184549016
 10
7604.742498292
 20
-2732.6199373726
 10
7602.9482554845
 20
-2737.9168423935
 10
7600.8217935449
 20
-2743.0882655
 10
7598.371504647
 20
-2748.1137974478
  0
LWPOLYLINE
  5
159
330
1F
100
AcDbEntity
  8
0
  6
Continuous
 62
     7
370
    15
100
AcDbPolyline
 90
      101
 70
   128
 43
0.0
 10
8244.1027290929
 20
-3199.0611838986
 10
8238.8423451083
 20
-3197.1669169226
 10
8233.7123848876
 20
-3194.9422898839
 10
8228.73309404
 20
-3192.3960823692
 10
8223.9241235518
 20
-3189.5383430964
 10
8219.3044522323
 20
-3186.3803502566
 10
8214.8923118139
 20
-3182.934567005
 10
8210.7051149989
 20
-3179.2145922738
 10
8206.7593867403
 20
-3175.2351071037
 10
8203.0706990249
 20
-3171.0118167047
 10
8199.6536094179
 20
-3166.5613884746
 10
8196.5216036109
 20
-3161.9013862203
 10
8193.6870421998
 20
-3157.0502008418
 10
8191.1611119037
 20
-3152.0269777515
 10
8188.9537814153
 20
-3146.851541316
 10
8187.0737620598
 20
-3141.5443166186
 10
8185.5284734145
 20
-3136.1262488504
 10
8184.3240140278
 20
-3130.6187206497
 10
8183.4651373507
 20
-3125.043467714
 10
8182.955232977
 20
-3119.4224930198
 10
8182.7963132662
 20
-3113.777979986
 10
8182.989005402
 20
-3108.132204927
 10
8183.5325489164
 20
-3102.5074491375
 10
8184.4247986916
 20
-3096.925910959
 10
8185.6622334253
 20
-3091.4096181727
 10
8187.239969528
 20
-3085.980341066
 10
8189.1517803959
 20
-3080.6595065154
 10
8191.3901209852
 20
-3075.4681134238
 10
8193.946157588
 20
-3070.4266498482
 10
8196.8098026957
 20
-3065.555012142
 10
8199.9697548093
 20
-3060.8724264336
 10
8203.4135430414
 20
-3056.3973727495
 10
8207.1275763331
 20
-3052.1475120822
 10
8211.097197092
 20
-3048.1396166902
 10
8215.3067390383
 20
-3044.3895039055
 10
8219.7395890332
 20
-3040.91197371
 10
8224.378252643
 20
-3037.7207503267
 10
8229.2044231815
 20
-3034.8284280563
 10
8234.1990539585
 20
-3032.2464215735
 10
8239.3424334482
 20
-3029.9849208783
 10
8244.6142630814
 20
-3028.0528510806
 10
8249.9937373552
 20
-3026.4578371773
 10
8255.4596259423
 20
-3025.2061739597
 10
8260.9903574773
 20
-3024.3028011705
 10
8266.5641046899
 20
-3023.7512840096
 10
8272.158870546
 20
-3023.553799063
 10
8277.752575061
 20
-3023.7111257138
 10
8283.3231424385
 20
-3024.2226430655
 10
8288.8485881941
 20
-3025.0863323928
 10
8294.3071059178
 20
-3026.2987851085
 10
8299.6771533338
 20
-3027.8552162156
 10
8304.9375373183
 20
-3029.7494831917
 10
8310.067497539
 20
-3031.9741102303
 10
8315.0467883866
 20
-3034.520317745
 10
8319.8557588749
 20
-3037.3780570179
 10
8324.4754301943
 20
-3040.5360498576
 10
8328.8875706128
 20
-3043.9818331092
 10
8333.0747674277
 20
-3047.7018078404
 10
8337.0204956863
 20
-3051.6812930105
 10
8340.7091834017
 20
-3055.9045834095
 10
8344.1262730087
 20
-3060.3550116396
 10
8347.2582788158
 20
-3065.0150138939
 10
8350.0928402268
 20
-3069.8661992724
 10
8352.618770523
 20
-3074.8894223627
 10
8354.8261010113
 20
-3080.0648587982
 10
8356.7061203669
 20
-3085.3720834956
 10
8358.2514090121
 20
-3090.7901512638
 10
8359.4558683988
 20
-3096.2976794646
 10
8360.3147450759
 20
-3101.8729324002
 10
8360.8246494497
 20
-3107.4939070944
 10
8360.9835691604
 20
-3113.1384201282
 10
8360.7908770247
 20
-3118.7841951872
 10
8360.2473335102
 20
-3124.4089509767
 10
8359.355083735
 20
-3129.9904891552
 10
8358.1176490013
 20
-3135.5067819415
 10
8356.5399128987
 20
-3140.9360590482
 10
8354.6281020307
 20
-3146.2568935989
 10
8352.3897614414
 20
-3151.4482866904
 10
8349.8337248386
 20
-3156.489750266
 10
8346.9700797309
 20
-3161.3613879723
 10
8343.8101276174
 20
-3166.0439736806
 10
8340.3663393853
 20
-3170.5190273647
 10
8336.6523060935
 20
-3174.768888032
 10
8332.6826853347
 20
-3178.776783424
 10
8328.4731433883
 20
-3182.5268962087
 10
8324.0402933934
 20
-3186.0044264042
 10
8319.4016297837
 20
-3189.1956497875
 10
8314.5754592452
 20
-3192.0879720579
 10
8309.5808284682
 20
-3194.6699785407
 10
8304.4374489785
 20
-3196.931479236
 10
8299.1656193452
 20
-3198.8635490336
 10
8293.7861450714
 20
-3200.4585629369
 10
8288.3202564844
 20
-3201.7102261545
 10
8282.7895249493
 20
-3202.6135989437
 10
8277.2157777368
 20
-3203.1651161047
 10
8271.6210118806
 20
-3203.3626010512
 10
8266.0273073657
 20
-3203.2052744004
 10
8260.4567399881
 20
-3202.6937570487
 10
8254.9312942325
 20
-3201.8300677214
 10
8249.4727765089
 20
-3200.6176150058
 10
8244.1027290929
 20
-3199.0611838986
  0
CIRCLE
  5
15A
330
1F
100
AcDbEntity
  8
0
  6
Continuous
 62
     7
370
    15
100
AcDbCircle
 10
8022.8743633308
 20
-2235.5681906158
 30
0.0
 40
4.999999999997644
  0
SPLINE
  5
161
330
1F
100
AcDbEntity
  8
0
  6
Continuous
 62
     7
370
    15
100
AcDbSpline
210
0.0
220
0.0
230
1.0
 70
    11
 71
     3
 72
   102
 73
    98
 74
     0
 42
0.000000001
 43
0.00000001
 40
0.0
 40
0.0
 40
0.0
 40
0.0
 40
0.031249999999982
 40
0.031249999999982
 40
0.0468749999999737
 40
0.0468749999999737
 40
0.0624999999999655
 40
0.0624999999999655
 40
0.0937499999999533
 40
0.0937499999999533
 40
0.1093749999999469
 40
0.1093749999999469
 40
0.1249999999999405
 40
0.1249999999999405
 40
0.1562499999999137
 40
0.1562499999999137
 40
0.1718749999999004
 40
0.1718749999999004
 40
0.187499999999887
 40
0.187499999999887
 40
0.2031249999998736
 40
0.2031249999998736
 40
0.2187499999998602
 40
0.2187499999998602
 40
0.2499999999998775
 40
0.2499999999998775
 40
0.2812499999998948
 40
0.2812499999998948
 40
0.2968749999999327
 40
0.2968749999999327
 40
0.3124999999999706
 40
0.3124999999999706
 40
0.3437499999999887
 40
0.3437499999999887
 40
0.3593749999999986
 40
0.3593749999999986
 40
0.3750000000000084
 40
0.3750000000000084
 40
0.4062500000000233
 40
0.4062500000000233
 40
0.4218750000000273
 40
0.4218750000000273
 40
0.4375000000000312
 40
0.4375000000000312
 40
0.4531250000000352
 40
0.4531250000000352
 40
0.4687500000000391
 40
0.4687500000000391
 40
0.5000000000000017
 40
0.5000000000000017
 40
0.5312499999999641
 40
0.5312499999999641
 40
0.546874999999953
 40
0.546874999999953
 40
0.5624999999999419
 40
0.5624999999999419
 40
0.5937499999999333
 40
0.5937499999999333
 40
0.6093749999999256
 40
0.6093749999999256
 40
0.624999999999918
 40
0.624999999999918
 40
0.6562499999999195
 40
0.6562499999999195
 40
0.6718749999999206
 40
0.6718749999999206
 40
0.6874999999999217
 40
0.6874999999999217
 40
0.7031249999999227
 40
0.7031249999999227
 40
0.7187499999999238
 40
0.7187499999999238
 40
0.7499999999999344
 40
0.7499999999999344
 40
0.781249999999945
 40
0.781249999999945
 40
0.7968749999999248
 40
0.7968749999999248
 40
0.8124999999999045
 40
0.8124999999999045
 40
0.8437499999999192
 40
0.8437499999999192
 40
0.8593749999999268
 40
0.8593749999999268
 40
0.8749999999999344
 40
0.8749999999999344
 40
0.9062499999999458
 40
0.9062499999999458
 40
0.9218749999999548
 40
0.9218749999999548
 40
0.9374999999999639
 40
0.9374999999999639
 40
0.953124999999973
 40
0.953124999999973
 40
0.9687499999999821
 40
0.9687499999999821
 40
1.0
 40
1.0
 40
1.0
 40
1.0
 10
8036.257907130329
 20
-2228.79465716817
 30
0.0
 10
8036.705998149217
 20
-2229.680021627328
 30
0.0
 10
8037.059464550652
 20
-2230.594318060031
 30
0.0
 10
8037.453784157764
 20
-2232.007345975092
 30
0.0
 10
8037.562408018425
 20
-2232.48533834483
 30
0.0
 10
8037.733018968888
 20
-2233.455612215122
 30
0.0
 10
8037.794805853162
 20
-2233.949030076529
 30
0.0
 10
8037.905754763497
 20
-2235.418473362435
 30
0.0
 10
8037.883575924879
 20
-2236.39417593219
 30
0.0
 10
8037.707520267854
 20
-2237.852295230417
 30
0.0
 10
8037.624356980768
 20
-2238.33959108563
 30
0.0
 10
8037.410586354753
 20
-2239.301981375401
 30
0.0
 10
8037.280844417156
 20
-2239.774314469334
 30
0.0
 10
8036.825032161204
 20
-2241.165648952677
 30
0.0
 10
8036.433026282482
 20
-2242.059234538847
 30
0.0
 10
8035.708762234924
 20
-2243.347711991354
 30
0.0
 10
8035.445006239376
 20
-2243.766910003098
 30
0.0
 10
8034.883173217803
 20
-2244.569776466331
 30
0.0
 10
8034.583866831198
 20
-2244.955720638696
 30
0.0
 10
8033.948869912952
 20
-2245.697035373149
 30
0.0
 10
8033.613179804851
 20
-2246.052406193807
 30
0.0
 10
8032.904749743883
 20
-2246.732074525695
 30
0.0
 10
8032.530111957158
 20
-2247.057791928404
 30
0.0
 10
8031.363846416672
 20
-2247.974090678375
 30
0.0
 10
8030.532687227965
 20
-2248.5039815733
 30
0.0
 10
8028.761958713955
 20
-2249.400068044921
 30
0.0
 10
8027.847673193028
 20
-2249.753486979999
 30
0.0
 10
8026.434675450572
 20
-2250.147740972109
 30
0.0
 10
8025.956695396832
 20
-2250.256343898067
 30
0.0
 10
8024.986449799293
 20
-2250.426915613531
 30
0.0
 10
8024.493057722024
 20
-2250.488682767468
 30
0.0
 10
8023.023697469638
 20
-2250.599582089381
 30
0.0
 10
8022.048047962066
 20
-2250.577382649454
 30
0.0
 10
8020.589986744847
 20
-2250.401305064971
 30
0.0
 10
8020.10269963905
 20
-2250.318133907093
 30
0.0
 10
8019.140365310326
 20
-2250.104359488635
 30
0.0
 10
8018.668053143761
 20
-2249.974616846082
 30
0.0
 10
8017.276762255718
 20
-2249.518800304055
 30
0.0
 10
8016.38317981549
 20
-2249.126788308038
 30
0.0
 10
8015.094682586906
 20
-2248.402493332577
 30
0.0
 10
8014.675484408243
 20
-2248.138729742995
 30
0.0
 10
8013.872613944061
 20
-2247.576878200764
 30
0.0
 10
8013.48666739675
 20
-2247.277561441711
 30
0.0
 10
8012.745349649896
 20
-2246.642543054696
 30
0.0
 10
8012.389978194809
 20
-2246.306841853694
 30
0.0
 10
8011.710312128837
 20
-2245.598391154614
 30
0.0
 10
8011.384597664275
 20
-2245.223743385019
 30
0.0
 10
8010.468328671188
 20
-2244.057475710964
 30
0.0
 10
8009.938456974419
 20
-2243.226316564297
 30
0.0
 10
8009.042415819707
 20
-2241.45561741827
 30
0.0
 10
8008.689010441026
 20
-2240.54133875126
 30
0.0
 10
8008.294773334271
 20
-2239.128340230515
 30
0.0
 10
8008.18617543194
 20
-2238.650358127697
 30
0.0
 10
8008.01561386792
 20
-2237.680105557997
 30
0.0
 10
8007.953851315126
 20
-2237.186704609389
 30
0.0
 10
8007.842968618887
 20
-2235.717316217168
 30
0.0
 10
8007.865183406199
 20
-2234.741649860221
 30
0.0
 10
8008.04128416128
 20
-2233.283584466454
 30
0.0
 10
8008.12446162022
 20
-2232.796304415115
 30
0.0
 10
8008.338254020768
 20
-2231.833959810376
 30
0.0
 10
8008.46800489612
 20
-2231.361648786647
 30
0.0
 10
8008.923838966383
 20
-2229.970378543532
 30
0.0
 10
8009.315852797529
 20
-2229.076833186167
 30
0.0
 10
8010.040120456592
 20
-2227.7884128468
 30
0.0
 10
8010.3038739898
 20
-2227.3692368658
 30
0.0
 10
8010.865700128692
 20
-2226.566410071645
 30
0.0
 10
8011.165001683786
 20
-2226.180484556094
 30
0.0
 10
8011.799986372381
 20
-2225.439204969311
 30
0.0
 10
8012.135669081692
 20
-2225.083850638933
 30
0.0
 10
8012.844081840532
 20
-2224.404213181552
 30
0.0
 10
8013.218709720992
 20
-2224.078510223086
 30
0.0
 10
8014.384939496578
 20
-2223.16225285987
 30
0.0
 10
8015.216070965424
 20
-2222.632383702689
 30
0.0
 10
8016.986736388969
 20
-2221.736329156087
 30
0.0
 10
8017.90098832382
 20
-2221.382919505297
 30
0.0
 10
8019.313932729611
 20
-2220.988669780296
 30
0.0
 10
8019.791894504364
 20
-2220.880066643724
 30
0.0
 10
8020.762102470925
 20
-2220.709491011027
 30
0.0
 10
8021.255476684209
 20
-2220.64771987257
 30
0.0
 10
8022.724785430054
 20
-2220.5368037486
 30
0.0
 10
8023.700400841253
 20
-2220.558985673513
 30
0.0
 10
8025.158411275882
 20
-2220.735026161581
 30
0.0
 10
8025.645679704471
 20
-2220.818182589423
 30
0.0
 10
8026.607988602957
 20
-2221.031926530818
 30
0.0
 10
8027.080288573114
 20
-2221.161652562587
 30
0.0
 10
8028.47154454855
 20
-2221.617414805517
 30
0.0
 10
8029.365105906603
 20
-2222.00938475979
 30
0.0
 10
8030.653575895533
 20
-2222.733604890938
 30
0.0
 10
8031.072772371617
 20
-2222.99734564503
 30
0.0
 10
8031.875638571316
 20
-2223.55914826746
 30
0.0
 10
8032.261583919121
 20
-2223.858439441955
 30
0.0
 10
8033.002901462604
 20
-2224.493404015612
 30
0.0
 10
8033.358273911938
 20
-2224.829076990083
 30
0.0
 10
8034.037944621175
 20
-2225.537468043998
 30
0.0
 10
8034.363662413933
 20
-2225.912083456607
 30
0.0
 10
8035.279959949582
 20
-2227.078269055577
 30
0.0
 10
8035.809816111439
 20
-2227.909292709011
 30
0.0
 10
8036.257907130328
 20
-2228.79465716817
 30
0.0
  0
SPLINE
  5
162
330
1F
100
AcDbEntity
  8
0
  6
Continuous
 62
     7
370
    15
100
AcDbSpline
210
0.0
220
0.0
230
1.0
 70
    11
 71
     3
 72
   102
 73
    98
 74
     0
 42
0.000000001
 43
0.00000001
 40
0.0
 40
0.0
 40
0.0
 40
0.0
 40
0.0312500000000356
 40
0.0312500000000356
 40
0.0468750000000611
 40
0.0468750000000611
 40
0.0625000000000865
 40
0.0625000000000865
 40
0.0937500000001416
 40
0.0937500000001416
 40
0.1093750000001695
 40
0.1093750000001695
 40
0.1250000000001973
 40
0.1250000000001973
 40
0.1562500000002524
 40
0.1562500000002524
 40
0.1718750000002799
 40
0.1718750000002799
 40
0.1875000000003074
 40
0.1875000000003074
 40
0.203125000000335
 40
0.203125000000335
 40
0.2187500000003625
 40
0.2187500000003625
 40
0.2500000000004176
 40
0.2500000000004176
 40
0.2812500000004726
 40
0.2812500000004726
 40
0.296875000000473
 40
0.296875000000473
 40
0.3125000000004733
 40
0.3125000000004733
 40
0.3437500000004174
 40
0.3437500000004174
 40
0.3593750000003886
 40
0.3593750000003886
 40
0.3750000000003598
 40
0.3750000000003598
 40
0.4062500000003016
 40
0.4062500000003016
 40
0.4218750000002725
 40
0.4218750000002725
 40
0.4375000000002434
 40
0.4375000000002434
 40
0.4531250000002143
 40
0.4531250000002143
 40
0.4687500000001852
 40
0.4687500000001852
 40
0.5000000000001037
 40
0.5000000000001037
 40
0.5312500000000221
 40
0.5312500000000221
 40
0.5468749999999889
 40
0.5468749999999889
 40
0.5624999999999558
 40
0.5624999999999558
 40
0.593749999999904
 40
0.593749999999904
 40
0.6093749999998745
 40
0.6093749999998745
 40
0.6249999999998452
 40
0.6249999999998452
 40
0.6562499999998036
 40
0.6562499999998036
 40
0.671874999999783
 40
0.671874999999783
 40
0.6874999999997624
 40
0.6874999999997624
 40
0.7031249999997418
 40
0.7031249999997418
 40
0.7187499999997212
 40
0.7187499999997212
 40
0.7499999999996713
 40
0.7499999999996713
 40
0.7812499999996213
 40
0.7812499999996213
 40
0.7968749999996253
 40
0.7968749999996253
 40
0.8124999999996294
 40
0.8124999999996294
 40
0.8437499999996938
 40
0.8437499999996938
 40
0.8593749999997262
 40
0.8593749999997262
 40
0.8749999999997587
 40
0.8749999999997587
 40
0.9062499999998243
 40
0.9062499999998243
 40
0.9218749999998536
 40
0.9218749999998536
 40
0.937499999999883
 40
0.937499999999883
 40
0.9531249999999123
 40
0.9531249999999123
 40
0.9687499999999417
 40
0.9687499999999417
 40
1.0
 40
1.0
 40
1.0
 40
1.0
 10
8393.152408450529
 20
-2048.16709856372
 30
0.0
 10
8393.600499469418
 20
-2049.052463022878
 30
0.0
 10
8393.953965870862
 20
-2049.966759455581
 30
0.0
 10
8394.348285477963
 20
-2051.379787370643
 30
0.0
 10
8394.456909338629
 20
-2051.857779740379
 30
0.0
 10
8394.627520289096
 20
-2052.82805361067
 30
0.0
 10
8394.689307173365
 20
-2053.32147147208
 30
0.0
 10
8394.800256083694
 20
-2054.790914757984
 30
0.0
 10
8394.778077245086
 20
-2055.76661732774
 30
0.0
 10
8394.60202158806
 20
-2057.224736625968
 30
0.0
 10
8394.518858300977
 20
-2057.71203248118
 30
0.0
 10
8394.305087674955
 20
-2058.67442277095
 30
0.0
 10
8394.175345737356
 20
-2059.146755864882
 30
0.0
 10
8393.719533481397
 20
-2060.538090348226
 30
0.0
 10
8393.327527602682
 20
-2061.431675934398
 30
0.0
 10
8392.603263555124
 20
-2062.720153386902
 30
0.0
 10
8392.339507559576
 20
-2063.139351398647
 30
0.0
 10
8391.777674538003
 20
-2063.942217861881
 30
0.0
 10
8391.478368151404
 20
-2064.328162034245
 30
0.0
 10
8390.843371233153
 20
-2065.0694767687
 30
0.0
 10
8390.507681125051
 20
-2065.424847589356
 30
0.0
 10
8389.799251064082
 20
-2066.104515921244
 30
0.0
 10
8389.424613277355
 20
-2066.430233323951
 30
0.0
 10
8388.258347736879
 20
-2067.346532073925
 30
0.0
 10
8387.427188548168
 20
-2067.876422968849
 30
0.0
 10
8385.656460034159
 20
-2068.77250944047
 30
0.0
 10
8384.742174513236
 20
-2069.125928375548
 30
0.0
 10
8383.329176770783
 20
-2069.520182367661
 30
0.0
 10
8382.851196717036
 20
-2069.628785293616
 30
0.0
 10
8381.880951119496
 20
-2069.799357009081
 30
0.0
 10
8381.387559042225
 20
-2069.861124163018
 30
0.0
 10
8379.91819878984
 20
-2069.972023484931
 30
0.0
 10
8378.94254928227
 20
-2069.949824045003
 30
0.0
 10
8377.484488065049
 20
-2069.77374646052
 30
0.0
 10
8376.997200959253
 20
-2069.690575302643
 30
0.0
 10
8376.034866630524
 20
-2069.476800884186
 30
0.0
 10
8375.562554463959
 20
-2069.347058241631
 30
0.0
 10
8374.171263575918
 20
-2068.891241699606
 30
0.0
 10
8373.277681135694
 20
-2068.499229703589
 30
0.0
 10
8371.989183907106
 20
-2067.774934728129
 30
0.0
 10
8371.569985728447
 20
-2067.511171138544
 30
0.0
 10
8370.767115264262
 20
-2066.949319596315
 30
0.0
 10
8370.381168716951
 20
-2066.65000283726
 30
0.0
 10
8369.639850970094
 20
-2066.014984450245
 30
0.0
 10
8369.28447951501
 20
-2065.679283249244
 30
0.0
 10
8368.604813449037
 20
-2064.970832550164
 30
0.0
 10
8368.279098984474
 20
-2064.596184780569
 30
0.0
 10
8367.362829991389
 20
-2063.429917106514
 30
0.0
 10
8366.832958294617
 20
-2062.59875795985
 30
0.0
 10
8365.93691713991
 20
-2060.828058813822
 30
0.0
 10
8365.583511761228
 20
-2059.913780146812
 30
0.0
 10
8365.189274654478
 20
-2058.500781626066
 30
0.0
 10
8365.08067675214
 20
-2058.022799523249
 30
0.0
 10
8364.910115188122
 20
-2057.052546953548
 30
0.0
 10
8364.848352635328
 20
-2056.55914600494
 30
0.0
 10
8364.737469939088
 20
-2055.089757612718
 30
0.0
 10
8364.7596847264
 20
-2054.114091255771
 30
0.0
 10
8364.93578548148
 20
-2052.656025862004
 30
0.0
 10
8365.018962940421
 20
-2052.168745810667
 30
0.0
 10
8365.232755340969
 20
-2051.206401205928
 30
0.0
 10
8365.362506216317
 20
-2050.734090182198
 30
0.0
 10
8365.818340286589
 20
-2049.342819939083
 30
0.0
 10
8366.210354117724
 20
-2048.449274581718
 30
0.0
 10
8366.934621776794
 20
-2047.160854242351
 30
0.0
 10
8367.198375310005
 20
-2046.741678261351
 30
0.0
 10
8367.760201448895
 20
-2045.938851467196
 30
0.0
 10
8368.05950300399
 20
-2045.552925951644
 30
0.0
 10
8368.694487692583
 20
-2044.811646364861
 30
0.0
 10
8369.030170401895
 20
-2044.456292034485
 30
0.0
 10
8369.738583160735
 20
-2043.776654577102
 30
0.0
 10
8370.113211041196
 20
-2043.450951618635
 30
0.0
 10
8371.279440816781
 20
-2042.534694255421
 30
0.0
 10
8372.110572285621
 20
-2042.00482509824
 30
0.0
 10
8373.881237709167
 20
-2041.108770551638
 30
0.0
 10
8374.795489644019
 20
-2040.755360900846
 30
0.0
 10
8376.208434049811
 20
-2040.361111175848
 30
0.0
 10
8376.686395824567
 20
-2040.252508039275
 30
0.0
 10
8377.656603791133
 20
-2040.081932406577
 30
0.0
 10
8378.14997800441
 20
-2040.020161268121
 30
0.0
 10
8379.619286750256
 20
-2039.909245144149
 30
0.0
 10
8380.59490216145
 20
-2039.931427069063
 30
0.0
 10
8382.052912596084
 20
-2040.107467557132
 30
0.0
 10
8382.540181024673
 20
-2040.190623984972
 30
0.0
 10
8383.502489923161
 20
-2040.40436792637
 30
0.0
 10
8383.974789893315
 20
-2040.534093958138
 30
0.0
 10
8385.366045868754
 20
-2040.989856201068
 30
0.0
 10
8386.2596072268
 20
-2041.381826155341
 30
0.0
 10
8387.548077215737
 20
-2042.106046286488
 30
0.0
 10
8387.967273691816
 20
-2042.36978704058
 30
0.0
 10
8388.770139891521
 20
-2042.931589663011
 30
0.0
 10
8389.156085239318
 20
-2043.230880837508
 30
0.0
 10
8389.897402782808
 20
-2043.865845411162
 30
0.0
 10
8390.252775232133
 20
-2044.201518385633
 30
0.0
 10
8390.932445941376
 20
-2044.909909439547
 30
0.0
 10
8391.25816373413
 20
-2045.284524852155
 30
0.0
 10
8392.174461269782
 20
-2046.450710451127
 30
0.0
 10
8392.704317431642
 20
-2047.281734104562
 30
0.0
 10
8393.152408450529
 20
-2048.16709856372
 30
0.0
  0
SPLINE
  5
163
330
1F
100
AcDbEntity
  8
0
  6
Continuous
 62
     7
370
    15
100
AcDbSpline
210
0.0
220
0.0
230
1.0
 70
    11
 71
     3
 72
   102
 73
    98
 74
     0
 42
0.000000001
 43
0.00000001
 40
0.0
 40
0.0
 40
0.0
 40
0.0
 40
0.0312500000000426
 40
0.0312500000000426
 40
0.046875000000075
 40
0.046875000000075
 40
0.0625000000001073
 40
0.0625000000001073
 40
0.0937500000001762
 40
0.0937500000001762
 40
0.1093750000002074
 40
0.1093750000002074
 40
0.1250000000002387
 40
0.1250000000002387
 40
0.1562500000003005
 40
0.1562500000003005
 40
0.1718750000003315
 40
0.1718750000003315
 40
0.1875000000003624
 40
0.1875000000003624
 40
0.2031250000003934
 40
0.2031250000003934
 40
0.2187500000004243
 40
0.2187500000004243
 40
0.2500000000004862
 40
0.2500000000004862
 40
0.2812500000005481
 40
0.2812500000005481
 40
0.2968750000005506
 40
0.2968750000005506
 40
0.3125000000005531
 40
0.3125000000005531
 40
0.3437500000005016
 40
0.3437500000005016
 40
0.3593750000004754
 40
0.3593750000004754
 40
0.3750000000004491
 40
0.3750000000004491
 40
0.406250000000394
 40
0.406250000000394
 40
0.4218750000003647
 40
0.4218750000003647
 40
0.4375000000003353
 40
0.4375000000003353
 40
0.453125000000306
 40
0.453125000000306
 40
0.4687500000002767
 40
0.4687500000002767
 40
0.5000000000001832
 40
0.5000000000001832
 40
0.5312500000000897
 40
0.5312500000000897
 40
0.5468750000000506
 40
0.5468750000000506
 40
0.5625000000000115
 40
0.5625000000000115
 40
0.5937499999999406
 40
0.5937499999999406
 40
0.6093749999999019
 40
0.6093749999999019
 40
0.6249999999998631
 40
0.6249999999998631
 40
0.6562499999998093
 40
0.6562499999998093
 40
0.6718749999997856
 40
0.6718749999997856
 40
0.687499999999762
 40
0.687499999999762
 40
0.7031249999997383
 40
0.7031249999997383
 40
0.7187499999997147
 40
0.7187499999997147
 40
0.7499999999996672
 40
0.7499999999996672
 40
0.7812499999996197
 40
0.7812499999996197
 40
0.7968749999996232
 40
0.7968749999996232
 40
0.8124999999996266
 40
0.8124999999996266
 40
0.8437499999996902
 40
0.8437499999996902
 40
0.8593749999997219
 40
0.8593749999997219
 40
0.8749999999997535
 40
0.8749999999997535
 40
0.9062499999998153
 40
0.9062499999998153
 40
0.921874999999846
 40
0.921874999999846
 40
0.9374999999998769
 40
0.9374999999998769
 40
0.9531249999999077
 40
0.9531249999999077
 40
0.9687499999999386
 40
0.9687499999999386
 40
1.0
 40
1.0
 40
1.0
 40
1.0
 10
8750.046909770728
 20
-1867.539539959271
 30
0.0
 10
8750.495000789617
 20
-1868.424904418429
 30
0.0
 10
8750.848467191054
 20
-1869.339200851131
 30
0.0
 10
8751.242786798168
 20
-1870.752228766193
 30
0.0
 10
8751.351410658832
 20
-1871.230221135929
 30
0.0
 10
8751.522021609293
 20
-1872.20049500622
 30
0.0
 10
8751.583808493568
 20
-1872.69391286763
 30
0.0
 10
8751.694757403902
 20
-1874.163356153535
 30
0.0
 10
8751.672578565282
 20
-1875.13905872329
 30
0.0
 10
8751.496522908265
 20
-1876.597178021518
 30
0.0
 10
8751.413359621174
 20
-1877.084473876729
 30
0.0
 10
8751.199588995156
 20
-1878.0468641665
 30
0.0
 10
8751.069847057559
 20
-1878.519197260434
 30
0.0
 10
8750.614034801602
 20
-1879.910531743777
 30
0.0
 10
8750.222028922888
 20
-1880.804117329948
 30
0.0
 10
8749.497764875325
 20
-1882.092594782453
 30
0.0
 10
8749.234008879783
 20
-1882.511792794195
 30
0.0
 10
8748.672175858206
 20
-1883.31465925743
 30
0.0
 10
8748.372869471601
 20
-1883.700603429796
 30
0.0
 10
8747.737872553356
 20
-1884.44191816425
 30
0.0
 10
8747.402182445247
 20
-1884.797288984906
 30
0.0
 10
8746.693752384286
 20
-1885.476957316795
 30
0.0
 10
8746.319114597565
 20
-1885.802674719502
 30
0.0
 10
8745.152849057082
 20
-1886.718973469475
 30
0.0
 10
8744.32168986837
 20
-1887.248864364399
 30
0.0
 10
8742.550961354362
 20
-1888.14495083602
 30
0.0
 10
8741.636675833439
 20
-1888.498369771099
 30
0.0
 10
8740.22367809098
 20
-1888.892623763209
 30
0.0
 10
8739.745698037232
 20
-1889.001226689167
 30
0.0
 10
8738.775452439695
 20
-1889.171798404632
 30
0.0
 10
8738.282060362428
 20
-1889.233565558568
 30
0.0
 10
8736.812700110042
 20
-1889.344464880481
 30
0.0
 10
8735.837050602468
 20
-1889.322265440554
 30
0.0
 10
8734.37898938525
 20
-1889.146187856071
 30
0.0
 10
8733.891702279456
 20
-1889.063016698194
 30
0.0
 10
8732.929367950732
 20
-1888.849242279736
 30
0.0
 10
8732.457055784167
 20
-1888.719499637182
 30
0.0
 10
8731.065764896124
 20
-1888.263683095156
 30
0.0
 10
8730.172182455899
 20
-1887.871671099139
 30
0.0
 10
8728.883685227309
 20
-1887.147376123679
 30
0.0
 10
8728.46448704865
 20
-1886.883612534095
 30
0.0
 10
8727.66161658446
 20
-1886.321760991865
 30
0.0
 10
8727.275670037152
 20
-1886.02244423281
 30
0.0
 10
8726.534352290295
 20
-1885.387425845795
 30
0.0
 10
8726.178980835211
 20
-1885.051724644795
 30
0.0
 10
8725.499314769235
 20
-1884.343273945714
 30
0.0
 10
8725.173600304677
 20
-1883.968626176119
 30
0.0
 10
8724.257331311592
 20
-1882.802358502064
 30
0.0
 10
8723.727459614822
 20
-1881.971199355399
 30
0.0
 10
8722.831418460111
 20
-1880.20050020937
 30
0.0
 10
8722.478013081429
 20
-1879.286221542361
 30
0.0
 10
8722.083775974676
 20
-1877.873223021616
 30
0.0
 10
8721.975178072344
 20
-1877.395240918799
 30
0.0
 10
8721.804616508323
 20
-1876.424988349099
 30
0.0
 10
8721.742853955535
 20
-1875.93158740049
 30
0.0
 10
8721.631971259289
 20
-1874.462199008268
 30
0.0
 10
8721.654186046602
 20
-1873.486532651322
 30
0.0
 10
8721.830286801684
 20
-1872.028467257555
 30
0.0
 10
8721.913464260624
 20
-1871.541187206215
 30
0.0
 10
8722.12725666117
 20
-1870.578842601477
 30
0.0
 10
8722.257007536518
 20
-1870.106531577748
 30
0.0
 10
8722.712841606788
 20
-1868.715261334632
 30
0.0
 10
8723.104855437921
 20
-1867.821715977267
 30
0.0
 10
8723.829123096992
 20
-1866.533295637901
 30
0.0
 10
8724.092876630202
 20
-1866.114119656901
 30
0.0
 10
8724.654702769098
 20
-1865.311292862746
 30
0.0
 10
8724.954004324189
 20
-1864.925367347194
 30
0.0
 10
8725.588989012786
 20
-1864.184087760411
 30
0.0
 10
8725.924671722092
 20
-1863.828733430036
 30
0.0
 10
8726.633084480938
 20
-1863.149095972654
 30
0.0
 10
8727.007712361401
 20
-1862.823393014186
 30
0.0
 10
8728.173942136982
 20
-1861.907135650971
 30
0.0
 10
8729.00507360582
 20
-1861.37726649379
 30
0.0
 10
8730.775739029372
 20
-1860.481211947189
 30
0.0
 10
8731.689990964223
 20
-1860.127802296397
 30
0.0
 10
8733.102935370012
 20
-1859.733552571399
 30
0.0
 10
8733.580897144771
 20
-1859.624949434826
 30
0.0
 10
8734.551105111335
 20
-1859.454373802127
 30
0.0
 10
8735.04447932461
 20
-1859.392602663671
 30
0.0
 10
8736.51378807046
 20
-1859.2816865397
 30
0.0
 10
8737.489403481648
 20
-1859.303868464613
 30
0.0
 10
8738.947413916285
 20
-1859.479908952681
 30
0.0
 10
8739.434682344872
 20
-1859.563065380523
 30
0.0
 10
8740.396991243366
 20
-1859.776809321919
 30
0.0
 10
8740.869291213516
 20
-1859.906535353688
 30
0.0
 10
8742.260547188953
 20
-1860.362297596619
 30
0.0
 10
8743.154108547002
 20
-1860.754267550891
 30
0.0
 10
8744.442578535938
 20
-1861.478487682038
 30
0.0
 10
8744.861775012023
 20
-1861.742228436132
 30
0.0
 10
8745.664641211724
 20
-1862.304031058562
 30
0.0
 10
8746.05058655952
 20
-1862.603322233057
 30
0.0
 10
8746.791904103005
 20
-1863.238286806712
 30
0.0
 10
8747.147276552338
 20
-1863.573959781184
 30
0.0
 10
8747.826947261576
 20
-1864.282350835097
 30
0.0
 10
8748.152665054331
 20
-1864.656966247706
 30
0.0
 10
8749.068962589983
 20
-1865.823151846677
 30
0.0
 10
8749.59881875184
 20
-1866.654175500111
 30
0.0
 10
8750.046909770728
 20
-1867.53953995927
 30
0.0
  0
SPLINE
  5
164
330
1F
100
AcDbEntity
  8
0
  6
Continuous
 62
     7
370
    15
100
AcDbSpline
210
0.0
220
0.0
230
1.0
 70
    11
 71
     3
 72
   102
 73
    98
 74
     0
 42
0.000000001
 43
0.00000001
 40
0.0
 40
0.0
 40
0.0
 40
0.0
 40
0.0312500000000418
 40
0.0312500000000418
 40
0.0468750000000516
 40
0.0468750000000516
 40
0.0625000000000615
 40
0.0625000000000615
 40
0.0937500000000699
 40
0.0937500000000699
 40
0.1093750000000779
 40
0.1093750000000779
 40
0.1250000000000858
 40
0.1250000000000858
 40
0.1562500000000836
 40
0.1562500000000836
 40
0.1718750000000795
 40
0.1718750000000795
 40
0.1875000000000753
 40
0.1875000000000753
 40
0.2031250000000712
 40
0.2031250000000712
 40
0.218750000000067
 40
0.218750000000067
 40
0.2500000000000587
 40
0.2500000000000587
 40
0.2812500000000504
 40
0.2812500000000504
 40
0.2968750000000746
 40
0.2968750000000746
 40
0.3125000000000988
 40
0.3125000000000988
 40
0.3437500000001478
 40
0.3437500000001478
 40
0.3593750000001728
 40
0.3593750000001728
 40
0.3750000000001977
 40
0.3750000000001977
 40
0.4062500000001954
 40
0.4062500000001954
 40
0.421875000000196
 40
0.421875000000196
 40
0.4375000000001966
 40
0.4375000000001966
 40
0.4531250000001972
 40
0.4531250000001972
 40
0.4687500000001977
 40
0.4687500000001977
 40
0.5000000000002388
 40
0.5000000000002388
 40
0.5312500000002799
 40
0.5312500000002799
 40
0.5468750000002928
 40
0.5468750000002928
 40
0.5625000000003056
 40
0.5625000000003056
 40
0.593750000000339
 40
0.593750000000339
 40
0.6093750000003589
 40
0.6093750000003589
 40
0.6250000000003789
 40
0.6250000000003789
 40
0.6562500000004021
 40
0.6562500000004021
 40
0.6718750000004103
 40
0.6718750000004103
 40
0.6875000000004186
 40
0.6875000000004186
 40
0.7031250000004268
 40
0.7031250000004268
 40
0.718750000000435
 40
0.718750000000435
 40
0.7500000000004516
 40
0.7500000000004516
 40
0.7812500000004683
 40
0.7812500000004683
 40
0.7968750000004494
 40
0.7968750000004494
 40
0.8125000000004305
 40
0.8125000000004305
 40
0.8437500000003928
 40
0.8437500000003928
 40
0.859375000000374
 40
0.859375000000374
 40
0.8750000000003553
 40
0.8750000000003553
 40
0.9062500000002665
 40
0.9062500000002665
 40
0.921875000000222
 40
0.921875000000222
 40
0.9375000000001776
 40
0.9375000000001776
 40
0.9531250000001332
 40
0.9531250000001332
 40
0.9687500000000888
 40
0.9687500000000888
 40
1.0
 40
1.0
 40
1.0
 40
1.0
 10
9106.941411090935
 20
-1686.91198135482
 30
0.0
 10
9107.389502109821
 20
-1687.797345813979
 30
0.0
 10
9107.742968511257
 20
-1688.711642246678
 30
0.0
 10
9108.137288118369
 20
-1690.124670161743
 30
0.0
 10
9108.245911979033
 20
-1690.602662531478
 30
0.0
 10
9108.416522929496
 20
-1691.57293640177
 30
0.0
 10
9108.47830981377
 20
-1692.06635426318
 30
0.0
 10
9108.589258724101
 20
-1693.535797549084
 30
0.0
 10
9108.567079885486
 20
-1694.511500118841
 30
0.0
 10
9108.391024228466
 20
-1695.969619417069
 30
0.0
 10
9108.307860941377
 20
-1696.456915272279
 30
0.0
 10
9108.09409031536
 20
-1697.419305562051
 30
0.0
 10
9107.964348377762
 20
-1697.891638655983
 30
0.0
 10
9107.508536121813
 20
-1699.282973139326
 30
0.0
 10
9107.11653024309
 20
-1700.176558725498
 30
0.0
 10
9106.392266195528
 20
-1701.465036178003
 30
0.0
 10
9106.128510199982
 20
-1701.884234189748
 30
0.0
 10
9105.566677178409
 20
-1702.687100652981
 30
0.0
 10
9105.267370791806
 20
-1703.073044825346
 30
0.0
 10
9104.632373873561
 20
-1703.814359559799
 30
0.0
 10
9104.296683765457
 20
-1704.169730380456
 30
0.0
 10
9103.588253704489
 20
-1704.849398712345
 30
0.0
 10
9103.213615917763
 20
-1705.175116115052
 30
0.0
 10
9102.047350377286
 20
-1706.091414865025
 30
0.0
 10
9101.216191188574
 20
-1706.621305759949
 30
0.0
 10
9099.445462674566
 20
-1707.51739223157
 30
0.0
 10
9098.531177153636
 20
-1707.870811166649
 30
0.0
 10
9097.118179411184
 20
-1708.26506515876
 30
0.0
 10
9096.640199357436
 20
-1708.373668084717
 30
0.0
 10
9095.6699537599
 20
-1708.544239800181
 30
0.0
 10
9095.176561682629
 20
-1708.606006954119
 30
0.0
 10
9093.707201430241
 20
-1708.716906276032
 30
0.0
 10
9092.73155192268
 20
-1708.694706836106
 30
0.0
 10
9091.273490705456
 20
-1708.518629251622
 30
0.0
 10
9090.786203599653
 20
-1708.435458093744
 30
0.0
 10
9089.823869270938
 20
-1708.221683675287
 30
0.0
 10
9089.351557104372
 20
-1708.091941032733
 30
0.0
 10
9087.96026621633
 20
-1707.636124490707
 30
0.0
 10
9087.066683776096
 20
-1707.244112494691
 30
0.0
 10
9085.778186547515
 20
-1706.519817519229
 30
0.0
 10
9085.35898836885
 20
-1706.256053929645
 30
0.0
 10
9084.556117904664
 20
-1705.694202387415
 30
0.0
 10
9084.170171357357
 20
-1705.39488562836
 30
0.0
 10
9083.428853610505
 20
-1704.759867241346
 30
0.0
 10
9083.07348215541
 20
-1704.424166040344
 30
0.0
 10
9082.393816089441
 20
-1703.715715341264
 30
0.0
 10
9082.068101624884
 20
-1703.341067571668
 30
0.0
 10
9081.151832631793
 20
-1702.174799897614
 30
0.0
 10
9080.621960935021
 20
-1701.34364075095
 30
0.0
 10
9079.725919780314
 20
-1699.572941604922
 30
0.0
 10
9079.372514401633
 20
-1698.658662937913
 30
0.0
 10
9078.97827729488
 20
-1697.245664417165
 30
0.0
 10
9078.869679392546
 20
-1696.76768231435
 30
0.0
 10
9078.699117828528
 20
-1695.797429744648
 30
0.0
 10
9078.637355275738
 20
-1695.30402879604
 30
0.0
 10
9078.526472579497
 20
-1693.834640403818
 30
0.0
 10
9078.548687366805
 20
-1692.858974046872
 30
0.0
 10
9078.724788121886
 20
-1691.400908653105
 30
0.0
 10
9078.807965580825
 20
-1690.913628601766
 30
0.0
 10
9079.021757981373
 20
-1689.951283997028
 30
0.0
 10
9079.151508856727
 20
-1689.4789729733
 30
0.0
 10
9079.607342926995
 20
-1688.087702730184
 30
0.0
 10
9079.999356758135
 20
-1687.194157372816
 30
0.0
 10
9080.723624417198
 20
-1685.905737033451
 30
0.0
 10
9080.987377950407
 20
-1685.48656105245
 30
0.0
 10
9081.549204089297
 20
-1684.683734258296
 30
0.0
 10
9081.848505644393
 20
-1684.297808742744
 30
0.0
 10
9082.483490332985
 20
-1683.556529155961
 30
0.0
 10
9082.819173042295
 20
-1683.201174825585
 30
0.0
 10
9083.527585801141
 20
-1682.521537368203
 30
0.0
 10
9083.9022136816
 20
-1682.195834409735
 30
0.0
 10
9085.068443457183
 20
-1681.279577046521
 30
0.0
 10
9085.899574926028
 20
-1680.749707889342
 30
0.0
 10
9087.670240349571
 20
-1679.853653342739
 30
0.0
 10
9088.58449228443
 20
-1679.500243691949
 30
0.0
 10
9089.997436690219
 20
-1679.105993966949
 30
0.0
 10
9090.475398464974
 20
-1678.997390830375
 30
0.0
 10
9091.445606431542
 20
-1678.826815197677
 30
0.0
 10
9091.938980644816
 20
-1678.765044059222
 30
0.0
 10
9093.408289390667
 20
-1678.654127935249
 30
0.0
 10
9094.38390480186
 20
-1678.676309860164
 30
0.0
 10
9095.84191523649
 20
-1678.852350348232
 30
0.0
 10
9096.329183665079
 20
-1678.935506776073
 30
0.0
 10
9097.291492563569
 20
-1679.14925071747
 30
0.0
 10
9097.76379253372
 20
-1679.278976749238
 30
0.0
 10
9099.155048509165
 20
-1679.734738992169
 30
0.0
 10
9100.048609867208
 20
-1680.126708946441
 30
0.0
 10
9101.33707985614
 20
-1680.850929077588
 30
0.0
 10
9101.75627633222
 20
-1681.11466983168
 30
0.0
 10
9102.559142531925
 20
-1681.676472454111
 30
0.0
 10
9102.945087879722
 20
-1681.975763628606
 30
0.0
 10
9103.686405423212
 20
-1682.610728202262
 30
0.0
 10
9104.041777872542
 20
-1682.946401176734
 30
0.0
 10
9104.721448581779
 20
-1683.654792230648
 30
0.0
 10
9105.047166374537
 20
-1684.029407643257
 30
0.0
 10
9105.963463910186
 20
-1685.195593242228
 30
0.0
 10
9106.493320072048
 20
-1686.026616895665
 30
0.0
 10
9106.941411090935
 20
-1686.91198135482
 30
0.0
  0
SPLINE
  5
167
330
1F
100
AcDbEntity
  8
0
  6
Continuous
 62
     7
370
    15
100
AcDbSpline
210
0.0
220
0.0
230
1.0
 70
    11
 71
     3
 72
   102
 73
    98
 74
     0
 42
0.000000001
 43
0.00000001
 40
0.0
 40
0.0
 40
0.0
 40
0.0
 40
0.0312500000000844
 40
0.0312500000000844
 40
0.0468750000001376
 40
0.0468750000001376
 40
0.0625000000001908
 40
0.0625000000001908
 40
0.0937500000003089
 40
0.0937500000003089
 40
0.1093750000003682
 40
0.1093750000003682
 40
0.1250000000004276
 40
0.1250000000004276
 40
0.1562500000005468
 40
0.1562500000005468
 40
0.1718750000006095
 40
0.1718750000006095
 40
0.1875000000006722
 40
0.1875000000006722
 40
0.2031250000007348
 40
0.2031250000007348
 40
0.2187500000007975
 40
0.2187500000007975
 40
0.2500000000009228
 40
0.2500000000009228
 40
0.2812500000010482
 40
0.2812500000010482
 40
0.2968750000010825
 40
0.2968750000010825
 40
0.3125000000011168
 40
0.3125000000011168
 40
0.3437500000011287
 40
0.3437500000011287
 40
0.3593750000011343
 40
0.3593750000011343
 40
0.3750000000011398
 40
0.3750000000011398
 40
0.4062500000010944
 40
0.4062500000010944
 40
0.42187500000107
 40
0.42187500000107
 40
0.4375000000010456
 40
0.4375000000010456
 40
0.4531250000010211
 40
0.4531250000010211
 40
0.4687500000009967
 40
0.4687500000009967
 40
0.5000000000009185
 40
0.5000000000009185
 40
0.5312500000008403
 40
0.5312500000008403
 40
0.5468750000007936
 40
0.5468750000007936
 40
0.5625000000007468
 40
0.5625000000007468
 40
0.593750000000653
 40
0.593750000000653
 40
0.6093750000006027
 40
0.6093750000006027
 40
0.6250000000005524
 40
0.6250000000005524
 40
0.6562500000004701
 40
0.6562500000004701
 40
0.6718750000004317
 40
0.6718750000004317
 40
0.6875000000003932
 40
0.6875000000003932
 40
0.7031250000003548
 40
0.7031250000003548
 40
0.7187500000003164
 40
0.7187500000003164
 40
0.7500000000002397
 40
0.7500000000002397
 40
0.7812500000001631
 40
0.7812500000001631
 40
0.7968750000001522
 40
0.7968750000001522
 40
0.8125000000001413
 40
0.8125000000001413
 40
0.8437500000001196
 40
0.8437500000001196
 40
0.8593750000001089
 40
0.8593750000001089
 40
0.8750000000000983
 40
0.8750000000000983
 40
0.9062500000000748
 40
0.9062500000000748
 40
0.9218750000000614
 40
0.9218750000000614
 40
0.937500000000048
 40
0.937500000000048
 40
0.9531250000000345
 40
0.9531250000000345
 40
0.9687500000000211
 40
0.9687500000000211
 40
1.0
 40
1.0
 40
1.0
 40
1.0
 10
9820.730413731337
 20
-1325.656864145921
 30
0.0
 10
9821.178504750227
 20
-1326.542228605079
 30
0.0
 10
9821.531971151662
 20
-1327.45652503778
 30
0.0
 10
9821.926290758769
 20
-1328.869552952843
 30
0.0
 10
9822.03491461944
 20
-1329.347545322579
 30
0.0
 10
9822.205525569902
 20
-1330.317819192871
 30
0.0
 10
9822.267312454176
 20
-1330.81123705428
 30
0.0
 10
9822.378261364513
 20
-1332.280680340184
 30
0.0
 10
9822.35608252589
 20
-1333.256382909942
 30
0.0
 10
9822.18002686887
 20
-1334.714502208168
 30
0.0
 10
9822.096863581788
 20
-1335.201798063381
 30
0.0
 10
9821.883092955763
 20
-1336.164188353151
 30
0.0
 10
9821.75335101817
 20
-1336.636521447083
 30
0.0
 10
9821.297538762212
 20
-1338.027855930427
 30
0.0
 10
9820.905532883493
 20
-1338.921441516598
 30
0.0
 10
9820.181268835939
 20
-1340.209918969104
 30
0.0
 10
9819.91751284039
 20
-1340.629116980847
 30
0.0
 10
9819.355679818813
 20
-1341.43198344408
 30
0.0
 10
9819.056373432213
 20
-1341.817927616447
 30
0.0
 10
9818.421376513967
 20
-1342.5592423509
 30
0.0
 10
9818.08568640586
 20
-1342.914613171556
 30
0.0
 10
9817.377256344897
 20
-1343.594281503445
 30
0.0
 10
9817.002618558166
 20
-1343.919998906152
 30
0.0
 10
9815.836353017694
 20
-1344.836297656125
 30
0.0
 10
9815.00519382898
 20
-1345.36618855105
 30
0.0
 10
9813.234465314963
 20
-1346.26227502267
 30
0.0
 10
9812.320179794046
 20
-1346.615693957749
 30
0.0
 10
9810.90718205159
 20
-1347.00994794986
 30
0.0
 10
9810.429201997844
 20
-1347.118550875817
 30
0.0
 10
9809.458956400309
 20
-1347.289122591282
 30
0.0
 10
9808.965564323033
 20
-1347.350889745218
 30
0.0
 10
9807.496204070649
 20
-1347.461789067132
 30
0.0
 10
9806.52055456308
 20
-1347.439589627205
 30
0.0
 10
9805.062493345858
 20
-1347.263512042722
 30
0.0
 10
9804.575206240062
 20
-1347.180340884845
 30
0.0
 10
9803.612871911342
 20
-1346.966566466387
 30
0.0
 10
9803.140559744781
 20
-1346.836823823834
 30
0.0
 10
9801.749268856736
 20
-1346.381007281807
 30
0.0
 10
9800.855686416498
 20
-1345.988995285789
 30
0.0
 10
9799.567189187914
 20
-1345.264700310329
 30
0.0
 10
9799.147991009253
 20
-1345.000936720745
 30
0.0
 10
9798.34512054507
 20
-1344.439085178516
 30
0.0
 10
9797.959173997755
 20
-1344.139768419462
 30
0.0
 10
9797.217856250907
 20
-1343.504750032448
 30
0.0
 10
9796.862484795822
 20
-1343.169048831445
 30
0.0
 10
9796.182818729849
 20
-1342.460598132365
 30
0.0
 10
9795.857104265286
 20
-1342.085950362771
 30
0.0
 10
9794.940835272202
 20
-1340.919682688715
 30
0.0
 10
9794.410963575428
 20
-1340.088523542051
 30
0.0
 10
9793.514922420722
 20
-1338.317824396022
 30
0.0
 10
9793.161517042032
 20
-1337.403545729014
 30
0.0
 10
9792.767279935291
 20
-1335.990547208267
 30
0.0
 10
9792.65868203295
 20
-1335.512565105451
 30
0.0
 10
9792.488120468934
 20
-1334.54231253575
 30
0.0
 10
9792.426357916138
 20
-1334.048911587141
 30
0.0
 10
9792.315475219897
 20
-1332.579523194919
 30
0.0
 10
9792.337690007214
 20
-1331.603856837973
 30
0.0
 10
9792.513790762288
 20
-1330.145791444206
 30
0.0
 10
9792.596968221229
 20
-1329.658511392867
 30
0.0
 10
9792.810760621776
 20
-1328.696166788128
 30
0.0
 10
9792.940511497129
 20
-1328.2238557644
 30
0.0
 10
9793.396345567393
 20
-1326.832585521284
 30
0.0
 10
9793.788359398537
 20
-1325.939040163918
 30
0.0
 10
9794.5126270576
 20
-1324.650619824551
 30
0.0
 10
9794.776380590807
 20
-1324.231443843554
 30
0.0
 10
9795.338206729695
 20
-1323.428617049398
 30
0.0
 10
9795.637508284797
 20
-1323.042691533845
 30
0.0
 10
9796.272492973394
 20
-1322.301411947062
 30
0.0
 10
9796.608175682699
 20
-1321.946057616687
 30
0.0
 10
9797.316588441547
 20
-1321.266420159305
 30
0.0
 10
9797.691216322002
 20
-1320.940717200836
 30
0.0
 10
9798.857446097592
 20
-1320.024459837622
 30
0.0
 10
9799.688577566434
 20
-1319.494590680442
 30
0.0
 10
9801.459242989979
 20
-1318.598536133839
 30
0.0
 10
9802.373494924832
 20
-1318.245126483047
 30
0.0
 10
9803.786439330628
 20
-1317.850876758049
 30
0.0
 10
9804.264401105376
 20
-1317.742273621476
 30
0.0
 10
9805.234609071942
 20
-1317.571697988777
 30
0.0
 10
9805.727983285222
 20
-1317.509926850323
 30
0.0
 10
9807.197292031069
 20
-1317.399010726351
 30
0.0
 10
9808.172907442253
 20
-1317.421192651265
 30
0.0
 10
9809.630917876893
 20
-1317.597233139333
 30
0.0
 10
9810.118186305479
 20
-1317.680389567173
 30
0.0
 10
9811.08049520397
 20
-1317.894133508569
 30
0.0
 10
9811.552795174126
 20
-1318.02385954034
 30
0.0
 10
9812.944051149565
 20
-1318.479621783269
 30
0.0
 10
9813.837612507607
 20
-1318.871591737542
 30
0.0
 10
9815.126082496541
 20
-1319.595811868687
 30
0.0
 10
9815.545278972626
 20
-1319.85955262278
 30
0.0
 10
9816.348145172331
 20
-1320.421355245212
 30
0.0
 10
9816.734090520125
 20
-1320.720646419707
 30
0.0
 10
9817.475408063616
 20
-1321.355610993363
 30
0.0
 10
9817.830780512944
 20
-1321.691283967834
 30
0.0
 10
9818.510451222184
 20
-1322.399675021749
 30
0.0
 10
9818.836169014943
 20
-1322.774290434357
 30
0.0
 10
9819.752466550592
 20
-1323.940476033327
 30
0.0
 10
9820.28232271245
 20
-1324.771499686766
 30
0.0
 10
9820.730413731339
 20
-1325.656864145921
 30
0.0
  0
SPLINE
  5
168
330
1F
100
AcDbEntity
  8
0
  6
Continuous
 62
     7
370
    15
100
AcDbSpline
210
0.0
220
0.0
230
1.0
 70
    11
 71
     3
 72
   102
 73
    98
 74
     0
 42
0.000000001
 43
0.00000001
 40
0.0
 40
0.0
 40
0.0
 40
0.0
 40
0.0312500000000412
 40
0.0312500000000412
 40
0.0468750000000576
 40
0.0468750000000576
 40
0.062500000000074
 40
0.062500000000074
 40
0.093750000000103
 40
0.093750000000103
 40
0.1093750000001143
 40
0.1093750000001143
 40
0.1250000000001255
 40
0.1250000000001255
 40
0.1562500000001299
 40
0.1562500000001299
 40
0.1718750000001351
 40
0.1718750000001351
 40
0.1875000000001404
 40
0.1875000000001404
 40
0.2031250000001456
 40
0.2031250000001456
 40
0.2187500000001508
 40
0.2187500000001508
 40
0.2500000000001613
 40
0.2500000000001613
 40
0.2812500000001717
 40
0.2812500000001717
 40
0.2968750000002032
 40
0.2968750000002032
 40
0.3125000000002347
 40
0.3125000000002347
 40
0.3437500000002971
 40
0.3437500000002971
 40
0.3593750000003279
 40
0.3593750000003279
 40
0.3750000000003587
 40
0.3750000000003587
 40
0.4062500000003637
 40
0.4062500000003637
 40
0.4218750000003646
 40
0.4218750000003646
 40
0.4375000000003654
 40
0.4375000000003654
 40
0.4531250000003663
 40
0.4531250000003663
 40
0.4687500000003671
 40
0.4687500000003671
 40
0.5000000000003977
 40
0.5000000000003977
 40
0.5312500000004282
 40
0.5312500000004282
 40
0.5468750000004359
 40
0.5468750000004359
 40
0.5625000000004434
 40
0.5625000000004434
 40
0.5937500000004522
 40
0.5937500000004522
 40
0.6093750000004599
 40
0.6093750000004599
 40
0.6250000000004676
 40
0.6250000000004676
 40
0.6562500000004728
 40
0.6562500000004728
 40
0.6718750000004788
 40
0.6718750000004788
 40
0.6875000000004847
 40
0.6875000000004847
 40
0.7031250000004907
 40
0.7031250000004907
 40
0.7187500000004967
 40
0.7187500000004967
 40
0.7500000000005088
 40
0.7500000000005088
 40
0.7812500000005209
 40
0.7812500000005209
 40
0.7968750000004998
 40
0.7968750000004998
 40
0.8125000000004786
 40
0.8125000000004786
 40
0.8437500000004369
 40
0.8437500000004369
 40
0.8593750000004152
 40
0.8593750000004152
 40
0.8750000000003937
 40
0.8750000000003937
 40
0.9062500000002952
 40
0.9062500000002952
 40
0.921875000000246
 40
0.921875000000246
 40
0.9375000000001967
 40
0.9375000000001967
 40
0.9531250000001475
 40
0.9531250000001475
 40
0.9687500000000984
 40
0.9687500000000984
 40
1.0
 40
1.0
 40
1.0
 40
1.0
 10
9463.835912411138
 20
-1506.284422750371
 30
0.0
 10
9464.284003430028
 20
-1507.169787209529
 30
0.0
 10
9464.637469831467
 20
-1508.084083642229
 30
0.0
 10
9465.031789438566
 20
-1509.497111557293
 30
0.0
 10
9465.140413299234
 20
-1509.975103927029
 30
0.0
 10
9465.3110242497
 20
-1510.945377797321
 30
0.0
 10
9465.372811133975
 20
-1511.43879565873
 30
0.0
 10
9465.483760044304
 20
-1512.908238944635
 30
0.0
 10
9465.461581205696
 20
-1513.883941514392
 30
0.0
 10
9465.285525548667
 20
-1515.342060812618
 30
0.0
 10
9465.20236226158
 20
-1515.82935666783
 30
0.0
 10
9464.98859163556
 20
-1516.791746957601
 30
0.0
 10
9464.858849697963
 20
-1517.264080051533
 30
0.0
 10
9464.40303744201
 20
-1518.655414534877
 30
0.0
 10
9464.011031563288
 20
-1519.549000121047
 30
0.0
 10
9463.286767515729
 20
-1520.837477573554
 30
0.0
 10
9463.023011520185
 20
-1521.256675585298
 30
0.0
 10
9462.461178498608
 20
-1522.059542048531
 30
0.0
 10
9462.161872112007
 20
-1522.445486220896
 30
0.0
 10
9461.526875193762
 20
-1523.186800955349
 30
0.0
 10
9461.191185085656
 20
-1523.542171776006
 30
0.0
 10
9460.482755024694
 20
-1524.221840107895
 30
0.0
 10
9460.108117237964
 20
-1524.547557510602
 30
0.0
 10
9458.941851697487
 20
-1525.463856260574
 30
0.0
 10
9458.110692508777
 20
-1525.993747155499
 30
0.0
 10
9456.339963994764
 20
-1526.88983362712
 30
0.0
 10
9455.425678473845
 20
-1527.243252562199
 30
0.0
 10
9454.012680731385
 20
-1527.63750655431
 30
0.0
 10
9453.534700677643
 20
-1527.746109480267
 30
0.0
 10
9452.564455080104
 20
-1527.916681195732
 30
0.0
 10
9452.071063002832
 20
-1527.978448349668
 30
0.0
 10
9450.601702750444
 20
-1528.089347671581
 30
0.0
 10
9449.62605324288
 20
-1528.067148231656
 30
0.0
 10
9448.167992025657
 20
-1527.891070647172
 30
0.0
 10
9447.680704919852
 20
-1527.807899489294
 30
0.0
 10
9446.718370591141
 20
-1527.594125070837
 30
0.0
 10
9446.246058424571
 20
-1527.464382428283
 30
0.0
 10
9444.85476753654
 20
-1527.008565886257
 30
0.0
 10
9443.961185096297
 20
-1526.616553890239
 30
0.0
 10
9442.672687867715
 20
-1525.892258914778
 30
0.0
 10
9442.253489689057
 20
-1525.628495325195
 30
0.0
 10
9441.45061922487
 20
-1525.066643782966
 30
0.0
 10
9441.064672677561
 20
-1524.767327023912
 30
0.0
 10
9440.323354930704
 20
-1524.132308636896
 30
0.0
 10
9439.967983475619
 20
-1523.796607435896
 30
0.0
 10
9439.288317409648
 20
-1523.088156736815
 30
0.0
 10
9438.962602945081
 20
-1522.713508967219
 30
0.0
 10
9438.046333951997
 20
-1521.547241293164
 30
0.0
 10
9437.516462255226
 20
-1520.7160821465
 30
0.0
 10
9436.620421100515
 20
-1518.945383000472
 30
0.0
 10
9436.26701572184
 20
-1518.031104333463
 30
0.0
 10
9435.872778615083
 20
-1516.618105812716
 30
0.0
 10
9435.76418071275
 20
-1516.1401237099
 30
0.0
 10
9435.59361914873
 20
-1515.169871140199
 30
0.0
 10
9435.531856595937
 20
-1514.67647019159
 30
0.0
 10
9435.420973899698
 20
-1513.207081799368
 30
0.0
 10
9435.443188687002
 20
-1512.231415442421
 30
0.0
 10
9435.619289442091
 20
-1510.773350048656
 30
0.0
 10
9435.702466901026
 20
-1510.286069997317
 30
0.0
 10
9435.916259301579
 20
-1509.323725392578
 30
0.0
 10
9436.046010176926
 20
-1508.851414368848
 30
0.0
 10
9436.501844247192
 20
-1507.460144125733
 30
0.0
 10
9436.89385807833
 20
-1506.566598768367
 30
0.0
 10
9437.618125737405
 20
-1505.278178429001
 30
0.0
 10
9437.881879270613
 20
-1504.859002448001
 30
0.0
 10
9438.443705409501
 20
-1504.056175653846
 30
0.0
 10
9438.743006964598
 20
-1503.670250138295
 30
0.0
 10
9439.37799165319
 20
-1502.928970551512
 30
0.0
 10
9439.713674362498
 20
-1502.573616221135
 30
0.0
 10
9440.422087121344
 20
-1501.893978763753
 30
0.0
 10
9440.796715001801
 20
-1501.568275805286
 30
0.0
 10
9441.962944777388
 20
-1500.652018442071
 30
0.0
 10
9442.794076246231
 20
-1500.122149284891
 30
0.0
 10
9444.564741669778
 20
-1499.226094738288
 30
0.0
 10
9445.478993604633
 20
-1498.872685087498
 30
0.0
 10
9446.891938010414
 20
-1498.478435362498
 30
0.0
 10
9447.369899785173
 20
-1498.369832225925
 30
0.0
 10
9448.340107751741
 20
-1498.199256593227
 30
0.0
 10
9448.83348196502
 20
-1498.137485454772
 30
0.0
 10
9450.302790710863
 20
-1498.026569330799
 30
0.0
 10
9451.278406122061
 20
-1498.048751255715
 30
0.0
 10
9452.73641655669
 20
-1498.224791743782
 30
0.0
 10
9453.223684985285
 20
-1498.307948171624
 30
0.0
 10
9454.18599388377
 20
-1498.52169211302
 30
0.0
 10
9454.658293853921
 20
-1498.651418144788
 30
0.0
 10
9456.049549829364
 20
-1499.107180387719
 30
0.0
 10
9456.943111187416
 20
-1499.499150341993
 30
0.0
 10
9458.231581176342
 20
-1500.223370473139
 30
0.0
 10
9458.650777652423
 20
-1500.48711122723
 30
0.0
 10
9459.453643852125
 20
-1501.048913849662
 30
0.0
 10
9459.839589199926
 20
-1501.348205024157
 30
0.0
 10
9460.580906743417
 20
-1501.983169597813
 30
0.0
 10
9460.93627919274
 20
-1502.318842572283
 30
0.0
 10
9461.615949901983
 20
-1503.027233626198
 30
0.0
 10
9461.94166769474
 20
-1503.401849038807
 30
0.0
 10
9462.857965230392
 20
-1504.568034637779
 30
0.0
 10
9463.387821392249
 20
-1505.399058291216
 30
0.0
 10
9463.835912411138
 20
-1506.284422750371
 30
0.0
  0
LWPOLYLINE
  5
169
330
1F
100
AcDbEntity
  8
0
  6
Continuous
 62
     7
370
    15
100
AcDbPolyline
 90
        3
 70
   128
 43
0.0
 10
9494.967192426
 20
-1591.3987430392
 10
9495.0149052762
 20
-1591.5017444369
 10
9495.0737410908
 20
-1591.6456291381
  0
LWPOLYLINE
  5
16A
330
1F
100
AcDbEntity
  8
0
  6
Continuous
 62
     7
370
    15
100
AcDbPolyline
 90
        5
 70
   128
 43
0.0
 10
9477.1059081894
 20
-1600.4671916941
 10
9477.1236882281
 20
-1600.4995957382
 10
9477.2257060226
 20
-1600.6718733199
 10
9477.1679685
 20
-1600.528257811
 10
9477.1225203932
 20
-1600.4300941288
  0
LWPOLYLINE
  5
16B
330
1F
100
AcDbEntity
  8
0
  6
Continuous
 62
     7
370
    15
100
AcDbPolyline
 90
        4
 70
   128
 43
0.0
 10
9493.6288420747
 20
-1592.076094345
 10
9493.676385018
 20
-1592.17873294
 10
9493.7341225406
 20
-1592.3223484489
 10
9493.6819774914
 20
-1592.2393160605
  0
LWPOLYLINE
  5
16C
330
1F
100
AcDbEntity
  8
0
  6
Continuous
 62
     7
370
    15
100
AcDbPolyline
 90
        3
 70
   128
 43
0.0
 10
9478.5653245728
 20
-1599.9951540092
 10
9478.5064887582
 20
-1599.8512693079
 10
9478.4608708473
 20
-1599.752742771
  0
LWPOLYLINE
  5
17A
330
1F
100
AcDbEntity
  8
0
  6
Continuous
 62
     7
370
    15
100
AcDbPolyline
 90
       12
 70
   128
 43
0.0
 10
8446.667199077
 20
-2213.4614912
 10
8447.4677783781
 20
-2215.0411174155
 10
8448.5396310375
 20
-2217.1548574651
 10
8449.5168625048
 20
-2219.0805822705
 10
8450.3840975241
 20
-2220.7879934707
 10
8451.127691467
 20
-2222.2502275388
 10
8451.73594501
 20
-2223.444278438
 10
8452.1992882054
 20
-2224.3513595875
 10
8452.5104310506
 20
-2224.9571994402
 10
8452.6644781843
 20
-2225.2522660245
 10
8452.6590059086
 20
-2225.2319169149
 10
8452.5676521863
 20
-2225.0450537275
  0
CIRCLE
  5
17E
330
1F
100
AcDbEntity
  8
0
  6
Continuous
 62
     7
370
    15
100
AcDbCircle
 10
10298.2163194714
 20
-1285.7371865685
 30
0.0
 40
89.99999999999872
  0
CIRCLE
  5
17F
330
1F
100
AcDbEntity
  8
0
  6
Continuous
 62
     7
370
    15
100
AcDbCircle
 10
10603.8007369992
 20
-2747.4151098363
 30
0.0
 40
90.00000000000297
  0
CIRCLE
  5
188
330
1F
100
AcDbEntity
  8
0
  6
Continuous
 62
     7
370
    15
100
AcDbCircle
 10
9093.5578672914
 20
-1693.6855148025
 30
0.0
 40
5.000000000001092
  0
LWPOLYLINE
  5
18D
330
1F
100
AcDbEntity
  8
0
  6
Continuous
 62
     7
370
    15
100
AcDbPolyline
 90
        3
 70
   128
 43
0.0
 10
8796.2613364578
 20
-1979.7301732828
 10
8796.219759421
 20
-1979.689506926
 10
8795.3867359044
 20
-1978.9742773946
  0
LWPOLYLINE
  5
18E
330
1F
100
AcDbEntity
  8
0
  6
Continuous
 62
     7
370
    15
100
AcDbPolyline
 90
        3
 70
   128
 43
0.0
 10
8780.9422113599
 20
-1985.8558259618
 10
8780.9704568156
 20
-1986.9267424794
 10
8780.9781882209
 20
-1987.0112524576
  0
LWPOLYLINE
  5
195
330
1F
100
AcDbEntity
  8
0
  6
PHANTOM
 62
     8
370
     0
100
AcDbPolyline
 90
        3
 70
   128
 43
0.0
 10
8794.8552895641
 20
-2015.0326751903
 10
8794.291334896
 20
-2013.510167995
 10
8794.1109771498
 20
-2012.4193660196
  0
LWPOLYLINE
  5
196
330
1F
100
AcDbEntity
  8
0
  6
PHANTOM
 62
     8
370
     0
100
AcDbPolyline
 90
        3
 70
   128
 43
0.0
 10
8808.4302261374
 20
-2005.2808011475
 10
8809.1299605309
 20
-2006.0054584967
 10
8810.0254189227
 20
-2007.3603060175
  0
LWPOLYLINE
  5
19B
330
1F
100
AcDbEntity
  8
0
  6
PHANTOM
 62
     8
370
     0
100
AcDbPolyline
 90
        3
 70
   128
 43
0.0
 10
9136.2028182351
 20
-1806.436890716
 10
9135.6301041516
 20
-1804.8983544399
 10
9135.4417603578
 20
-1803.7720939688
  0
LWPOLYLINE
  5
19C
330
1F
100
AcDbEntity
  8
0
  6
PHANTOM
 62
     8
370
     0
100
AcDbPolyline
 90
        3
 70
   128
 43
0.0
 10
9149.7824190992
 20
-1796.6766371928
 10
9150.4688338987
 20
-1797.3939731416
 10
9151.3730540318
 20
-1798.7648570755
  0
LWPOLYLINE
  5
1A1
330
1F
100
AcDbEntity
  8
0
  6
PHANTOM
 62
     8
370
     0
100
AcDbPolyline
 90
        3
 70
   128
 43
0.0
 10
8111.0607202791
 20
-2429.9291764994
 10
8110.5155686587
 20
-2428.4412841503
 10
8110.3507770783
 20
-2427.4134150418
  0
LWPOLYLINE
  5
1A2
330
1F
100
AcDbEntity
  8
0
  6
PHANTOM
 62
     8
370
     0
100
AcDbPolyline
 90
        3
 70
   128
 43
0.0
 10
8124.6338925496
 20
-2420.2028247446
 10
8125.352708357
 20
-2420.9335187969
 10
8126.2293305043
 20
-2422.2536832019
  0
SPLINE
  5
1A8
330
1F
100
AcDbEntity
  8
0
  6
PHANTOM
 62
     8
370
     0
100
AcDbSpline
210
0.0
220
0.0
230
1.0
 70
     8
 71
     3
 72
    33
 73
    29
 74
     0
 42
0.000000001
 43
0.00000001
 40
0.0
 40
0.0
 40
0.0
 40
0.0
 40
0.0116735200337416
 40
0.0233255690788762
 40
0.0349717901726207
 40
0.0466278498165793
 40
0.0583093749276037
 40
0.0891930522154688
 40
0.1201014884750521
 40
0.1522728418786035
 40
0.1844690549823105
 40
0.2501183091587935
 40
0.3157675633352923
 40
0.3800525968666489
 40
0.4417717228354361
 40
0.500002828304411
 40
0.558233933773383
 40
0.6199530597421893
 40
0.6842380932734373
 40
0.7498873474499342
 40
0.8155366016264537
 40
0.8477079570305084
 40
0.8799041721362008
 40
0.9107878472860733
 40
0.9416962828742315
 40
0.9611373980146711
 40
0.980547766504271
 40
1.0
 40
1.0
 40
1.0
 40
1.0
 10
9802.909933294128
 20
-1327.343542644505
 30
0.0
 10
9802.848386238458
 20
-1327.39837447607
 30
0.0
 10
9802.725405330004
 20
-1327.50793728756
 30
0.0
 10
9802.548790409639
 20
-1327.680610559572
 30
0.0
 10
9802.378277934575
 20
-1327.859083665317
 30
0.0
 10
9802.214403700997
 20
-1328.043979303814
 30
0.0
 10
9801.971024080682
 20
-1328.339553126327
 30
0.0
 10
9801.668066765416
 20
-1328.761780690096
 30
0.0
 10
9801.33519265562
 20
-1329.33678866953
 30
0.0
 10
9801.056471403124
 20
-1329.950352675294
 30
0.0
 10
9800.76306723782
 20
-1330.821520784208
 30
0.0
 10
9800.56445437243
 20
-1331.967726714595
 30
0.0
 10
9800.613329623035
 20
-1333.357422640272
 30
0.0
 10
9800.936197696248
 20
-1334.681064490278
 30
0.0
 10
9801.490581492542
 20
-1335.866848139628
 30
0.0
 10
9802.231554964288
 20
-1336.892158074476
 30
0.0
 10
9803.146698034798
 20
-1337.765551073168
 30
0.0
 10
9804.246175381415
 20
-1338.475884616862
 30
0.0
 10
9805.513684554357
 20
-1338.975576884541
 30
0.0
 10
9806.883856938064
 20
-1339.212789718188
 30
0.0
 10
9808.046243053397
 20
-1339.171737406605
 30
0.0
 10
9808.949196733378
 20
-1338.999436473631
 30
0.0
 10
9809.5947836047
 20
-1338.806735542014
 30
0.0
 10
9810.209834711306
 20
-1338.5549826927
 30
0.0
 10
9810.717897962239
 20
-1338.286693144305
 30
0.0
 10
9811.133963018936
 20
-1338.022721632332
 30
0.0
 10
9811.468745175513
 20
-1337.782506941991
 30
0.0
 10
9811.678710709251
 20
-1337.605734152347
 30
0.0
 10
9811.783806569534
 20
-1337.517252542671
 30
0.0
  0
SPLINE
  5
1A9
330
1F
100
AcDbEntity
  8
0
  6
PHANTOM
 62
     8
370
     0
100
AcDbSpline
210
0.0
220
0.0
230
1.0
 70
     8
 71
     3
 72
    33
 73
    29
 74
     0
 42
0.000000001
 43
0.00000001
 40
0.0
 40
0.0
 40
0.0
 40
0.0
 40
0.0116735200336512
 40
0.0233255690787711
 40
0.0349717901725735
 40
0.0466278498164921
 40
0.058309374927602
 40
0.089193052215333
 40
0.1201014884750489
 40
0.1522728418786062
 40
0.1844690549823161
 40
0.2501183091587987
 40
0.3157675633352973
 40
0.3800525968666534
 40
0.4417717228354403
 40
0.500002828304415
 40
0.5582339337733866
 40
0.6199530597421926
 40
0.6842380932734403
 40
0.7498873474499369
 40
0.815536601626456
 40
0.8477079570302556
 40
0.8799041721362008
 40
0.9107878472859716
 40
0.9416962828742332
 40
0.9611373980145906
 40
0.9805477665042646
 40
1.0
 40
1.0
 40
1.0
 40
1.0
 10
9811.783806569534
 20
-1337.517252542671
 30
0.0
 10
9811.8453536252
 20
-1337.462420711106
 30
0.0
 10
9811.96833453365
 20
-1337.352857899616
 30
0.0
 10
9812.144949454017
 20
-1337.180184627604
 30
0.0
 10
9812.315461929093
 20
-1337.001711521862
 30
0.0
 10
9812.47933616266
 20
-1336.816815883361
 30
0.0
 10
9812.722715782977
 20
-1336.521242060851
 30
0.0
 10
9813.025673098246
 20
-1336.099014497081
 30
0.0
 10
9813.358547208038
 20
-1335.524006517646
 30
0.0
 10
9813.637268460543
 20
-1334.910442511884
 30
0.0
 10
9813.930672625838
 20
-1334.039274402967
 30
0.0
 10
9814.129285491237
 20
-1332.893068472582
 30
0.0
 10
9814.080410240625
 20
-1331.503372546905
 30
0.0
 10
9813.757542167412
 20
-1330.179730696898
 30
0.0
 10
9813.203158371121
 20
-1328.993947047549
 30
0.0
 10
9812.46218489937
 20
-1327.9686371127
 30
0.0
 10
9811.547041828864
 20
-1327.095244114009
 30
0.0
 10
9810.447564482243
 20
-1326.384910570313
 30
0.0
 10
9809.180055309305
 20
-1325.885218302635
 30
0.0
 10
9807.809882925594
 20
-1325.648005468988
 30
0.0
 10
9806.647496810267
 20
-1325.689057780571
 30
0.0
 10
9805.744543130282
 20
-1325.861358713545
 30
0.0
 10
9805.098956258964
 20
-1326.054059645161
 30
0.0
 10
9804.483905152352
 20
-1326.305812494475
 30
0.0
 10
9803.975841901427
 20
-1326.57410204287
 30
0.0
 10
9803.559776844728
 20
-1326.838073554845
 30
0.0
 10
9803.224994688146
 20
-1327.078288245185
 30
0.0
 10
9803.015029154407
 20
-1327.255061034829
 30
0.0
 10
9802.909933294128
 20
-1327.343542644505
 30
0.0
  0
SPLINE
  5
1AA
330
1F
100
AcDbEntity
  8
0
  6
PHANTOM
 62
     8
370
     0
100
AcDbSpline
210
0.0
220
0.0
230
1.0
 70
     8
 71
     3
 72
    33
 73
    29
 74
     0
 42
0.000000001
 43
0.00000001
 40
0.0
 40
0.0
 40
0.0
 40
0.0
 40
0.0116735200337416
 40
0.0233255690788762
 40
0.0349717901726207
 40
0.0466278498165793
 40
0.0583093749276037
 40
0.0891930522154688
 40
0.1201014884750521
 40
0.1522728418786035
 40
0.1844690549823105
 40
0.2501183091587935
 40
0.3157675633352923
 40
0.3800525968666489
 40
0.4417717228354361
 40
0.500002828304411
 40
0.558233933773383
 40
0.6199530597421893
 40
0.6842380932734373
 40
0.7498873474499342
 40
0.8155366016264537
 40
0.8477079570305084
 40
0.8799041721362008
 40
0.9107878472860733
 40
0.9416962828742315
 40
0.9611373980146711
 40
0.980547766504271
 40
1.0
 40
1.0
 40
1.0
 40
1.0
 10
9446.015431973927
 20
-1507.971101248955
 30
0.0
 10
9445.953884918259
 20
-1508.02593308052
 30
0.0
 10
9445.830904009805
 20
-1508.13549589201
 30
0.0
 10
9445.654289089436
 20
-1508.308169164022
 30
0.0
 10
9445.483776614372
 20
-1508.486642269767
 30
0.0
 10
9445.319902380796
 20
-1508.671537908263
 30
0.0
 10
9445.076522760479
 20
-1508.967111730776
 30
0.0
 10
9444.773565445215
 20
-1509.389339294546
 30
0.0
 10
9444.44069133542
 20
-1509.96434727398
 30
0.0
 10
9444.161970082921
 20
-1510.577911279743
 30
0.0
 10
9443.868565917619
 20
-1511.449079388658
 30
0.0
 10
9443.669953052227
 20
-1512.595285319044
 30
0.0
 10
9443.718828302835
 20
-1513.984981244722
 30
0.0
 10
9444.041696376049
 20
-1515.308623094727
 30
0.0
 10
9444.59608017234
 20
-1516.494406744078
 30
0.0
 10
9445.337053644089
 20
-1517.519716678926
 30
0.0
 10
9446.252196714595
 20
-1518.393109677617
 30
0.0
 10
9447.351674061214
 20
-1519.103443221313
 30
0.0
 10
9448.619183234152
 20
-1519.603135488991
 30
0.0
 10
9449.989355617863
 20
-1519.840348322638
 30
0.0
 10
9451.151741733194
 20
-1519.799296011055
 30
0.0
 10
9452.054695413177
 20
-1519.62699507808
 30
0.0
 10
9452.700282284497
 20
-1519.434294146464
 30
0.0
 10
9453.315333391105
 20
-1519.18254129715
 30
0.0
 10
9453.823396642034
 20
-1518.914251748755
 30
0.0
 10
9454.239461698733
 20
-1518.650280236781
 30
0.0
 10
9454.574243855312
 20
-1518.41006554644
 30
0.0
 10
9454.78420938905
 20
-1518.233292756796
 30
0.0
 10
9454.889305249333
 20
-1518.144811147121
 30
0.0
  0
SPLINE
  5
1AB
330
1F
100
AcDbEntity
  8
0
  6
PHANTOM
 62
     8
370
     0
100
AcDbSpline
210
0.0
220
0.0
230
1.0
 70
     8
 71
     3
 72
    33
 73
    29
 74
     0
 42
0.000000001
 43
0.00000001
 40
0.0
 40
0.0
 40
0.0
 40
0.0
 40
0.0116735200336512
 40
0.0233255690787711
 40
0.0349717901725735
 40
0.0466278498164921
 40
0.058309374927602
 40
0.089193052215333
 40
0.1201014884750489
 40
0.1522728418786062
 40
0.1844690549823161
 40
0.2501183091587987
 40
0.3157675633352973
 40
0.3800525968666534
 40
0.4417717228354403
 40
0.500002828304415
 40
0.5582339337733866
 40
0.6199530597421926
 40
0.6842380932734403
 40
0.7498873474499369
 40
0.815536601626456
 40
0.8477079570302556
 40
0.8799041721362008
 40
0.9107878472859716
 40
0.9416962828742332
 40
0.9611373980145906
 40
0.9805477665042646
 40
1.0
 40
1.0
 40
1.0
 40
1.0
 10
9454.889305249333
 20
-1518.144811147121
 30
0.0
 10
9454.950852304999
 20
-1518.089979315556
 30
0.0
 10
9455.07383321345
 20
-1517.980416504065
 30
0.0
 10
9455.250448133816
 20
-1517.807743232054
 30
0.0
 10
9455.42096060889
 20
-1517.629270126312
 30
0.0
 10
9455.584834842459
 20
-1517.444374487811
 30
0.0
 10
9455.828214462776
 20
-1517.148800665301
 30
0.0
 10
9456.131171778045
 20
-1516.726573101531
 30
0.0
 10
9456.464045887837
 20
-1516.151565122096
 30
0.0
 10
9456.74276714034
 20
-1515.538001116333
 30
0.0
 10
9457.036171305637
 20
-1514.666833007417
 30
0.0
 10
9457.234784171036
 20
-1513.520627077032
 30
0.0
 10
9457.185908920426
 20
-1512.130931151354
 30
0.0
 10
9456.863040847209
 20
-1510.807289301348
 30
0.0
 10
9456.30865705092
 20
-1509.621505651998
 30
0.0
 10
9455.567683579171
 20
-1508.596195717149
 30
0.0
 10
9454.652540508663
 20
-1507.722802718459
 30
0.0
 10
9453.553063162044
 20
-1507.012469174763
 30
0.0
 10
9452.285553989104
 20
-1506.512776907085
 30
0.0
 10
9450.915381605393
 20
-1506.275564073438
 30
0.0
 10
9449.75299549007
 20
-1506.31661638502
 30
0.0
 10
9448.850041810081
 20
-1506.488917317995
 30
0.0
 10
9448.204454938763
 20
-1506.681618249611
 30
0.0
 10
9447.589403832155
 20
-1506.933371098924
 30
0.0
 10
9447.081340581222
 20
-1507.20166064732
 30
0.0
 10
9446.665275524525
 20
-1507.465632159295
 30
0.0
 10
9446.330493367943
 20
-1507.705846849634
 30
0.0
 10
9446.120527834206
 20
-1507.882619639279
 30
0.0
 10
9446.015431973927
 20
-1507.971101248955
 30
0.0
  0
SPLINE
  5
1AC
330
1F
100
AcDbEntity
  8
0
  6
PHANTOM
 62
     8
370
     0
100
AcDbSpline
210
0.0
220
0.0
230
1.0
 70
     8
 71
     3
 72
    33
 73
    29
 74
     0
 42
0.000000001
 43
0.00000001
 40
0.0
 40
0.0
 40
0.0
 40
0.0
 40
0.0116735200337416
 40
0.0233255690788762
 40
0.0349717901726207
 40
0.0466278498165793
 40
0.0583093749276037
 40
0.0891930522154688
 40
0.1201014884750521
 40
0.1522728418786035
 40
0.1844690549823105
 40
0.2501183091587935
 40
0.3157675633352923
 40
0.3800525968666489
 40
0.4417717228354361
 40
0.500002828304411
 40
0.558233933773383
 40
0.6199530597421893
 40
0.6842380932734373
 40
0.7498873474499342
 40
0.8155366016264537
 40
0.8477079570305084
 40
0.8799041721362008
 40
0.9107878472860733
 40
0.9416962828742315
 40
0.9611373980146711
 40
0.980547766504271
 40
1.0
 40
1.0
 40
1.0
 40
1.0
 10
9089.120930653722
 20
-1688.598659853404
 30
0.0
 10
9089.059383598054
 20
-1688.653491684969
 30
0.0
 10
9088.936402689602
 20
-1688.763054496459
 30
0.0
 10
9088.759787769235
 20
-1688.935727768472
 30
0.0
 10
9088.589275294169
 20
-1689.114200874217
 30
0.0
 10
9088.425401060591
 20
-1689.299096512713
 30
0.0
 10
9088.182021440276
 20
-1689.594670335226
 30
0.0
 10
9087.879064125013
 20
-1690.016897898995
 30
0.0
 10
9087.546190015213
 20
-1690.59190587843
 30
0.0
 10
9087.267468762719
 20
-1691.205469884193
 30
0.0
 10
9086.974064597414
 20
-1692.076637993108
 30
0.0
 10
9086.775451732025
 20
-1693.222843923494
 30
0.0
 10
9086.824326982629
 20
-1694.612539849171
 30
0.0
 10
9087.147195055843
 20
-1695.936181699177
 30
0.0
 10
9087.701578852135
 20
-1697.121965348527
 30
0.0
 10
9088.442552323884
 20
-1698.147275283376
 30
0.0
 10
9089.357695394388
 20
-1699.020668282066
 30
0.0
 10
9090.457172741011
 20
-1699.731001825762
 30
0.0
 10
9091.724681913951
 20
-1700.230694093441
 30
0.0
 10
9093.094854297658
 20
-1700.467906927087
 30
0.0
 10
9094.257240412991
 20
-1700.426854615505
 30
0.0
 10
9095.160194092972
 20
-1700.254553682531
 30
0.0
 10
9095.805780964292
 20
-1700.061852750913
 30
0.0
 10
9096.4208320709
 20
-1699.8100999016
 30
0.0
 10
9096.928895321831
 20
-1699.541810353204
 30
0.0
 10
9097.344960378532
 20
-1699.277838841231
 30
0.0
 10
9097.679742535107
 20
-1699.037624150889
 30
0.0
 10
9097.889708068846
 20
-1698.860851361246
 30
0.0
 10
9097.99480392913
 20
-1698.772369751571
 30
0.0
  0
SPLINE
  5
1AD
330
1F
100
AcDbEntity
  8
0
  6
PHANTOM
 62
     8
370
     0
100
AcDbSpline
210
0.0
220
0.0
230
1.0
 70
     8
 71
     3
 72
    33
 73
    29
 74
     0
 42
0.000000001
 43
0.00000001
 40
0.0
 40
0.0
 40
0.0
 40
0.0
 40
0.0116735200336512
 40
0.0233255690787711
 40
0.0349717901725735
 40
0.0466278498164921
 40
0.058309374927602
 40
0.089193052215333
 40
0.1201014884750489
 40
0.1522728418786062
 40
0.1844690549823161
 40
0.2501183091587987
 40
0.3157675633352973
 40
0.3800525968666534
 40
0.4417717228354403
 40
0.500002828304415
 40
0.5582339337733866
 40
0.6199530597421926
 40
0.6842380932734403
 40
0.7498873474499369
 40
0.815536601626456
 40
0.8477079570302556
 40
0.8799041721362008
 40
0.9107878472859716
 40
0.9416962828742332
 40
0.9611373980145906
 40
0.9805477665042646
 40
1.0
 40
1.0
 40
1.0
 40
1.0
 10
9097.99480392913
 20
-1698.772369751571
 30
0.0
 10
9098.056350984796
 20
-1698.717537920006
 30
0.0
 10
9098.179331893247
 20
-1698.607975108516
 30
0.0
 10
9098.355946813614
 20
-1698.435301836503
 30
0.0
 10
9098.526459288687
 20
-1698.256828730762
 30
0.0
 10
9098.690333522254
 20
-1698.071933092261
 30
0.0
 10
9098.933713142571
 20
-1697.776359269751
 30
0.0
 10
9099.23667045784
 20
-1697.35413170598
 30
0.0
 10
9099.569544567632
 20
-1696.779123726546
 30
0.0
 10
9099.848265820137
 20
-1696.165559720783
 30
0.0
 10
9100.141669985434
 20
-1695.294391611867
 30
0.0
 10
9100.34028285083
 20
-1694.148185681481
 30
0.0
 10
9100.29140760022
 20
-1692.758489755804
 30
0.0
 10
9099.968539527004
 20
-1691.434847905798
 30
0.0
 10
9099.414155730718
 20
-1690.249064256448
 30
0.0
 10
9098.673182258966
 20
-1689.223754321599
 30
0.0
 10
9097.758039188458
 20
-1688.350361322908
 30
0.0
 10
9096.65856184184
 20
-1687.640027779212
 30
0.0
 10
9095.391052668901
 20
-1687.140335511534
 30
0.0
 10
9094.020880285188
 20
-1686.903122677887
 30
0.0
 10
9092.858494169865
 20
-1686.94417498947
 30
0.0
 10
9091.955540489877
 20
-1687.116475922445
 30
0.0
 10
9091.309953618558
 20
-1687.309176854061
 30
0.0
 10
9090.694902511948
 20
-1687.560929703375
 30
0.0
 10
9090.18683926102
 20
-1687.829219251769
 30
0.0
 10
9089.770774204322
 20
-1688.093190763744
 30
0.0
 10
9089.435992047742
 20
-1688.333405454084
 30
0.0
 10
9089.226026514001
 20
-1688.510178243729
 30
0.0
 10
9089.120930653722
 20
-1688.598659853404
 30
0.0
  0
SPLINE
  5
1AE
330
1F
100
AcDbEntity
  8
0
  6
PHANTOM
 62
     8
370
     0
100
AcDbSpline
210
0.0
220
0.0
230
1.0
 70
     8
 71
     3
 72
    33
 73
    29
 74
     0
 42
0.000000001
 43
0.00000001
 40
0.0
 40
0.0
 40
0.0
 40
0.0
 40
0.0116735200337416
 40
0.0233255690788762
 40
0.0349717901726207
 40
0.0466278498165793
 40
0.0583093749276037
 40
0.0891930522154688
 40
0.1201014884750521
 40
0.1522728418786035
 40
0.1844690549823105
 40
0.2501183091587935
 40
0.3157675633352923
 40
0.3800525968666489
 40
0.4417717228354361
 40
0.500002828304411
 40
0.558233933773383
 40
0.6199530597421893
 40
0.6842380932734373
 40
0.7498873474499342
 40
0.8155366016264537
 40
0.8477079570305084
 40
0.8799041721362008
 40
0.9107878472860733
 40
0.9416962828742315
 40
0.9611373980146711
 40
0.980547766504271
 40
1.0
 40
1.0
 40
1.0
 40
1.0
 10
8732.226429333521
 20
-1869.226218457854
 30
0.0
 10
8732.164882277853
 20
-1869.281050289419
 30
0.0
 10
8732.041901369399
 20
-1869.390613100909
 30
0.0
 10
8731.86528644903
 20
-1869.563286372922
 30
0.0
 10
8731.694773973966
 20
-1869.741759478667
 30
0.0
 10
8731.53089974039
 20
-1869.926655117163
 30
0.0
 10
8731.287520120073
 20
-1870.222228939675
 30
0.0
 10
8730.98456280481
 20
-1870.644456503446
 30
0.0
 10
8730.651688695012
 20
-1871.21946448288
 30
0.0
 10
8730.372967442516
 20
-1871.833028488642
 30
0.0
 10
8730.079563277213
 20
-1872.704196597558
 30
0.0
 10
8729.88095041182
 20
-1873.850402527944
 30
0.0
 10
8729.929825662428
 20
-1875.240098453621
 30
0.0
 10
8730.252693735643
 20
-1876.563740303627
 30
0.0
 10
8730.807077531934
 20
-1877.749523952977
 30
0.0
 10
8731.548051003683
 20
-1878.774833887826
 30
0.0
 10
8732.46319407419
 20
-1879.648226886516
 30
0.0
 10
8733.562671420807
 20
-1880.358560430212
 30
0.0
 10
8734.830180593748
 20
-1880.85825269789
 30
0.0
 10
8736.200352977457
 20
-1881.095465531537
 30
0.0
 10
8737.362739092789
 20
-1881.054413219955
 30
0.0
 10
8738.265692772771
 20
-1880.88211228698
 30
0.0
 10
8738.911279644093
 20
-1880.689411355363
 30
0.0
 10
8739.526330750698
 20
-1880.43765850605
 30
0.0
 10
8740.03439400163
 20
-1880.169368957654
 30
0.0
 10
8740.450459058327
 20
-1879.905397445681
 30
0.0
 10
8740.785241214906
 20
-1879.66518275534
 30
0.0
 10
8740.995206748645
 20
-1879.488409965696
 30
0.0
 10
8741.100302608927
 20
-1879.399928356021
 30
0.0
  0
SPLINE
  5
1AF
330
1F
100
AcDbEntity
  8
0
  6
PHANTOM
 62
     8
370
     0
100
AcDbSpline
210
0.0
220
0.0
230
1.0
 70
     8
 71
     3
 72
    33
 73
    29
 74
     0
 42
0.000000001
 43
0.00000001
 40
0.0
 40
0.0
 40
0.0
 40
0.0
 40
0.0116735200336512
 40
0.0233255690787711
 40
0.0349717901725735
 40
0.0466278498164921
 40
0.058309374927602
 40
0.089193052215333
 40
0.1201014884750489
 40
0.1522728418786062
 40
0.1844690549823161
 40
0.2501183091587987
 40
0.3157675633352973
 40
0.3800525968666534
 40
0.4417717228354403
 40
0.500002828304415
 40
0.5582339337733866
 40
0.6199530597421926
 40
0.6842380932734403
 40
0.7498873474499369
 40
0.815536601626456
 40
0.8477079570302556
 40
0.8799041721362008
 40
0.9107878472859716
 40
0.9416962828742332
 40
0.9611373980145906
 40
0.9805477665042646
 40
1.0
 40
1.0
 40
1.0
 40
1.0
 10
8741.100302608927
 20
-1879.399928356021
 30
0.0
 10
8741.161849664595
 20
-1879.345096524456
 30
0.0
 10
8741.284830573046
 20
-1879.235533712965
 30
0.0
 10
8741.461445493413
 20
-1879.062860440953
 30
0.0
 10
8741.631957968484
 20
-1878.884387335212
 30
0.0
 10
8741.795832202053
 20
-1878.69949169671
 30
0.0
 10
8742.039211822372
 20
-1878.403917874201
 30
0.0
 10
8742.342169137639
 20
-1877.98169031043
 30
0.0
 10
8742.675043247431
 20
-1877.406682330995
 30
0.0
 10
8742.953764499933
 20
-1876.793118325233
 30
0.0
 10
8743.247168665232
 20
-1875.921950216316
 30
0.0
 10
8743.445781530629
 20
-1874.775744285932
 30
0.0
 10
8743.39690628002
 20
-1873.386048360254
 30
0.0
 10
8743.074038206805
 20
-1872.062406510248
 30
0.0
 10
8742.519654410515
 20
-1870.876622860898
 30
0.0
 10
8741.778680938765
 20
-1869.851312926049
 30
0.0
 10
8740.863537868257
 20
-1868.977919927358
 30
0.0
 10
8739.76406052164
 20
-1868.267586383662
 30
0.0
 10
8738.496551348699
 20
-1867.767894115984
 30
0.0
 10
8737.12637896499
 20
-1867.530681282338
 30
0.0
 10
8735.963992849662
 20
-1867.57173359392
 30
0.0
 10
8735.061039169675
 20
-1867.744034526894
 30
0.0
 10
8734.415452298357
 20
-1867.936735458511
 30
0.0
 10
8733.800401191747
 20
-1868.188488307824
 30
0.0
 10
8733.292337940817
 20
-1868.456777856219
 30
0.0
 10
8732.876272884121
 20
-1868.720749368195
 30
0.0
 10
8732.541490727537
 20
-1868.960964058533
 30
0.0
 10
8732.3315251938
 20
-1869.137736848179
 30
0.0
 10
8732.226429333521
 20
-1869.226218457854
 30
0.0
  0
SPLINE
  5
1B0
330
1F
100
AcDbEntity
  8
0
  6
PHANTOM
 62
     8
370
     0
100
AcDbSpline
210
0.0
220
0.0
230
1.0
 70
     8
 71
     3
 72
    33
 73
    29
 74
     0
 42
0.000000001
 43
0.00000001
 40
0.0
 40
0.0
 40
0.0
 40
0.0
 40
0.0116735200337557
 40
0.0233255690788685
 40
0.0349717901726207
 40
0.0466278498165794
 40
0.0583093749276119
 40
0.0891930522154688
 40
0.1201014884750614
 40
0.1522728418786035
 40
0.1844690549823107
 40
0.2501183091588046
 40
0.3157675633353039
 40
0.3800525968666407
 40
0.4417717228354567
 40
0.5000028283044237
 40
0.5582339337733888
 40
0.61995305974219
 40
0.6842380932734384
 40
0.7498873474499359
 40
0.8155366016264564
 40
0.8477079570305074
 40
0.8799041721362031
 40
0.9107878472860639
 40
0.9416962828742272
 40
0.9611373980146837
 40
0.9805477665042776
 40
1.0
 40
1.0
 40
1.0
 40
1.0
 10
8375.331928013316
 20
-2049.853777062304
 30
0.0
 10
8375.270380957647
 20
-2049.908608893869
 30
0.0
 10
8375.147400049196
 20
-2050.01817170536
 30
0.0
 10
8374.970785128828
 20
-2050.190844977371
 30
0.0
 10
8374.800272653767
 20
-2050.369318083117
 30
0.0
 10
8374.636398420187
 20
-2050.554213721613
 30
0.0
 10
8374.393018799874
 20
-2050.849787544126
 30
0.0
 10
8374.090061484603
 20
-2051.272015107894
 30
0.0
 10
8373.757187374811
 20
-2051.84702308733
 30
0.0
 10
8373.478466122311
 20
-2052.460587093092
 30
0.0
 10
8373.18506195701
 20
-2053.331755202008
 30
0.0
 10
8372.986449091619
 20
-2054.477961132393
 30
0.0
 10
8373.035324342225
 20
-2055.867657058071
 30
0.0
 10
8373.358192415442
 20
-2057.191298908077
 30
0.0
 10
8373.912576211727
 20
-2058.377082557427
 30
0.0
 10
8374.653549683477
 20
-2059.402392492275
 30
0.0
 10
8375.568692753985
 20
-2060.275785490966
 30
0.0
 10
8376.668170100602
 20
-2060.986119034661
 30
0.0
 10
8377.935679273545
 20
-2061.48581130234
 30
0.0
 10
8379.305851657255
 20
-2061.723024135987
 30
0.0
 10
8380.46823777258
 20
-2061.681971824403
 30
0.0
 10
8381.371191452568
 20
-2061.50967089143
 30
0.0
 10
8382.016778323885
 20
-2061.316969959812
 30
0.0
 10
8382.631829430498
 20
-2061.0652171105
 30
0.0
 10
8383.139892681424
 20
-2060.796927562104
 30
0.0
 10
8383.555957738126
 20
-2060.53295605013
 30
0.0
 10
8383.890739894701
 20
-2060.292741359789
 30
0.0
 10
8384.100705428444
 20
-2060.115968570145
 30
0.0
 10
8384.205801288723
 20
-2060.02748696047
 30
0.0
  0
SPLINE
  5
1B1
330
1F
100
AcDbEntity
  8
0
  6
PHANTOM
 62
     8
370
     0
100
AcDbSpline
210
0.0
220
0.0
230
1.0
 70
     8
 71
     3
 72
    33
 73
    29
 74
     0
 42
0.000000001
 43
0.00000001
 40
0.0
 40
0.0
 40
0.0
 40
0.0
 40
0.0116735200336654
 40
0.0233255690787635
 40
0.0349717901725736
 40
0.0466278498164923
 40
0.0583093749276105
 40
0.0891930522153332
 40
0.1201014884750586
 40
0.1522728418785971
 40
0.1844690549823172
 40
0.2501183091588109
 40
0.3157675633353101
 40
0.3800525968666467
 40
0.4417717228354627
 40
0.5000028283044294
 40
0.5582339337733946
 40
0.6199530597421955
 40
0.684238093273444
 40
0.7498873474499411
 40
0.8155366016264615
 40
0.8477079570302614
 40
0.879904172136204
 40
0.9107878472859712
 40
0.9416962828742281
 40
0.9611373980146025
 40
0.9805477665042643
 40
1.0
 40
1.0
 40
1.0
 40
1.0
 10
8384.205801288723
 20
-2060.02748696047
 30
0.0
 10
8384.267348344389
 20
-2059.972655128905
 30
0.0
 10
8384.390329252841
 20
-2059.863092317415
 30
0.0
 10
8384.566944173212
 20
-2059.690419045403
 30
0.0
 10
8384.737456648276
 20
-2059.511945939661
 30
0.0
 10
8384.90133088185
 20
-2059.327050301161
 30
0.0
 10
8385.144710502167
 20
-2059.031476478649
 30
0.0
 10
8385.447667817438
 20
-2058.609248914881
 30
0.0
 10
8385.780541927228
 20
-2058.034240935446
 30
0.0
 10
8386.05926317973
 20
-2057.420676929683
 30
0.0
 10
8386.352667345029
 20
-2056.549508820766
 30
0.0
 10
8386.551280210422
 20
-2055.403302890381
 30
0.0
 10
8386.502404959814
 20
-2054.013606964703
 30
0.0
 10
8386.179536886599
 20
-2052.689965114697
 30
0.0
 10
8385.62515309031
 20
-2051.504181465347
 30
0.0
 10
8384.884179618559
 20
-2050.478871530498
 30
0.0
 10
8383.969036548058
 20
-2049.605478531808
 30
0.0
 10
8382.869559201437
 20
-2048.895144988112
 30
0.0
 10
8381.602050028494
 20
-2048.395452720434
 30
0.0
 10
8380.231877644785
 20
-2048.158239886787
 30
0.0
 10
8379.069491529459
 20
-2048.19929219837
 30
0.0
 10
8378.166537849474
 20
-2048.371593131345
 30
0.0
 10
8377.520950978156
 20
-2048.56429406296
 30
0.0
 10
8376.905899871545
 20
-2048.816046912274
 30
0.0
 10
8376.397836620612
 20
-2049.084336460669
 30
0.0
 10
8375.98177156392
 20
-2049.348307972645
 30
0.0
 10
8375.646989407334
 20
-2049.588522662983
 30
0.0
 10
8375.437023873596
 20
-2049.765295452628
 30
0.0
 10
8375.331928013316
 20
-2049.853777062304
 30
0.0
  0
SPLINE
  5
1B2
330
1F
100
AcDbEntity
  8
0
  6
PHANTOM
 62
     8
370
     0
100
AcDbSpline
210
0.0
220
0.0
230
1.0
 70
     8
 71
     3
 72
    33
 73
    29
 74
     0
 42
0.000000001
 43
0.00000001
 40
0.0
 40
0.0
 40
0.0
 40
0.0
 40
0.0116735200337557
 40
0.0233255690788685
 40
0.0349717901726207
 40
0.0466278498165794
 40
0.0583093749276119
 40
0.0891930522154688
 40
0.1201014884750614
 40
0.1522728418786035
 40
0.1844690549823107
 40
0.2501183091588046
 40
0.3157675633353039
 40
0.3800525968666407
 40
0.4417717228354567
 40
0.5000028283044237
 40
0.5582339337733888
 40
0.61995305974219
 40
0.6842380932734384
 40
0.7498873474499359
 40
0.8155366016264564
 40
0.8477079570305074
 40
0.8799041721362031
 40
0.9107878472860639
 40
0.9416962828742272
 40
0.9611373980146837
 40
0.9805477665042776
 40
1.0
 40
1.0
 40
1.0
 40
1.0
 10
8018.437426693115
 20
-2230.481335666754
 30
0.0
 10
8018.375879637444
 20
-2230.536167498319
 30
0.0
 10
8018.252898728993
 20
-2230.645730309809
 30
0.0
 10
8018.076283808624
 20
-2230.818403581821
 30
0.0
 10
8017.905771333565
 20
-2230.996876687567
 30
0.0
 10
8017.741897099984
 20
-2231.181772326062
 30
0.0
 10
8017.498517479669
 20
-2231.477346148576
 30
0.0
 10
8017.195560164401
 20
-2231.899573712344
 30
0.0
 10
8016.862686054612
 20
-2232.47458169178
 30
0.0
 10
8016.583964802107
 20
-2233.088145697542
 30
0.0
 10
8016.290560636809
 20
-2233.959313806457
 30
0.0
 10
8016.091947771416
 20
-2235.105519736844
 30
0.0
 10
8016.140823022024
 20
-2236.495215662521
 30
0.0
 10
8016.463691095241
 20
-2237.818857512527
 30
0.0
 10
8017.018074891525
 20
-2239.004641161875
 30
0.0
 10
8017.759048363276
 20
-2240.029951096725
 30
0.0
 10
8018.674191433784
 20
-2240.903344095415
 30
0.0
 10
8019.773668780401
 20
-2241.613677639112
 30
0.0
 10
8021.041177953345
 20
-2242.11336990679
 30
0.0
 10
8022.411350337052
 20
-2242.350582740436
 30
0.0
 10
8023.573736452381
 20
-2242.309530428853
 30
0.0
 10
8024.476690132367
 20
-2242.13722949588
 30
0.0
 10
8025.122277003684
 20
-2241.944528564262
 30
0.0
 10
8025.737328110294
 20
-2241.69277571495
 30
0.0
 10
8026.245391361223
 20
-2241.424486166553
 30
0.0
 10
8026.661456417924
 20
-2241.160514654581
 30
0.0
 10
8026.996238574499
 20
-2240.920299964239
 30
0.0
 10
8027.206204108241
 20
-2240.743527174595
 30
0.0
 10
8027.31129996852
 20
-2240.65504556492
 30
0.0
  0
SPLINE
  5
1B3
330
1F
100
AcDbEntity
  8
0
  6
PHANTOM
 62
     8
370
     0
100
AcDbSpline
210
0.0
220
0.0
230
1.0
 70
     8
 71
     3
 72
    33
 73
    29
 74
     0
 42
0.000000001
 43
0.00000001
 40
0.0
 40
0.0
 40
0.0
 40
0.0
 40
0.0116735200336654
 40
0.0233255690787635
 40
0.0349717901725736
 40
0.0466278498164923
 40
0.0583093749276105
 40
0.0891930522153332
 40
0.1201014884750586
 40
0.1522728418785971
 40
0.1844690549823172
 40
0.2501183091588109
 40
0.3157675633353101
 40
0.3800525968666467
 40
0.4417717228354627
 40
0.5000028283044294
 40
0.5582339337733946
 40
0.6199530597421955
 40
0.684238093273444
 40
0.7498873474499411
 40
0.8155366016264615
 40
0.8477079570302614
 40
0.879904172136204
 40
0.9107878472859712
 40
0.9416962828742281
 40
0.9611373980146025
 40
0.9805477665042643
 40
1.0
 40
1.0
 40
1.0
 40
1.0
 10
8027.31129996852
 20
-2240.65504556492
 30
0.0
 10
8027.372847024188
 20
-2240.600213733355
 30
0.0
 10
8027.49582793264
 20
-2240.490650921864
 30
0.0
 10
8027.672442853009
 20
-2240.317977649854
 30
0.0
 10
8027.842955328074
 20
-2240.13950454411
 30
0.0
 10
8028.006829561651
 20
-2239.954608905611
 30
0.0
 10
8028.250209181964
 20
-2239.6590350831
 30
0.0
 10
8028.553166497236
 20
-2239.23680751933
 30
0.0
 10
8028.886040607029
 20
-2238.661799539895
 30
0.0
 10
8029.164761859528
 20
-2238.048235534132
 30
0.0
 10
8029.458166024826
 20
-2237.177067425216
 30
0.0
 10
8029.656778890221
 20
-2236.03086149483
 30
0.0
 10
8029.607903639613
 20
-2234.641165569153
 30
0.0
 10
8029.285035566398
 20
-2233.317523719147
 30
0.0
 10
8028.730651770107
 20
-2232.131740069797
 30
0.0
 10
8027.98967829836
 20
-2231.106430134948
 30
0.0
 10
8027.074535227854
 20
-2230.233037136258
 30
0.0
 10
8025.975057881235
 20
-2229.522703592563
 30
0.0
 10
8024.707548708292
 20
-2229.023011324884
 30
0.0
 10
8023.337376324584
 20
-2228.785798491238
 30
0.0
 10
8022.174990209258
 20
-2228.82685080282
 30
0.0
 10
8021.272036529272
 20
-2228.999151735795
 30
0.0
 10
8020.626449657952
 20
-2229.19185266741
 30
0.0
 10
8020.011398551344
 20
-2229.443605516724
 30
0.0
 10
8019.503335300412
 20
-2229.711895065118
 30
0.0
 10
8019.087270243716
 20
-2229.975866577095
 30
0.0
 10
8018.752488087131
 20
-2230.216081267433
 30
0.0
 10
8018.542522553395
 20
-2230.392854057078
 30
0.0
 10
8018.437426693115
 20
-2230.481335666754
 30
0.0
  0
SPLINE
  5
1B4
330
1F
100
AcDbEntity
  8
0
  6
PHANTOM
 62
     8
370
     0
100
AcDbSpline
210
0.0
220
0.0
230
1.0
 70
     8
 71
     3
 72
    11
 73
     7
 74
     0
 42
0.000000001
 43
0.00000001
 40
0.0
 40
0.0
 40
0.0
 40
0.0
 40
0.2337741252908761
 40
0.4815512294841054
 40
0.7396294054359575
 40
1.0
 40
1.0
 40
1.0
 40
1.0
 10
9127.550309268701
 20
-1786.352117580479
 30
0.0
 10
9126.843979989957
 20
-1786.159191460641
 30
0.0
 10
9125.389012584237
 20
-1785.761783021655
 30
0.0
 10
9123.355809250152
 20
-1784.633061459189
 30
0.0
 10
9121.478468969453
 20
-1783.120145388203
 30
0.0
 10
9120.523033066664
 20
-1781.80944026237
 30
0.0
 10
9120.043202795625
 20
-1781.151189935011
 30
0.0
  0
SPLINE
  5
1B5
330
1F
100
AcDbEntity
  8
0
  6
PHANTOM
 62
     8
370
     0
100
AcDbSpline
210
0.0
220
0.0
230
1.0
 70
     8
 71
     3
 72
    19
 73
    15
 74
     0
 42
0.000000001
 43
0.00000001
 40
0.0
 40
0.0
 40
0.0
 40
0.0
 40
0.0007961326923644
 40
0.0947046853262584
 40
0.1848649212500913
 40
0.2699298038902114
 40
0.3549946865303316
 40
0.4451549224541702
 40
0.5390634750880627
 40
0.6349649019450851
 40
0.7308663288021042
 40
0.8247748814359996
 40
0.9149351173598863
 40
1.0
 40
1.0
 40
1.0
 40
1.0
 10
9141.337417298357
 20
-1770.3739939743
 30
0.0
 10
9141.34048983204
 20
-1770.380079970185
 30
0.0
 10
9141.705985858494
 20
-1771.104045121564
 30
0.0
 10
9142.01037288419
 20
-1772.693580015067
 30
0.0
 10
9142.198281413539
 20
-1774.989960399437
 30
0.0
 10
9141.906752197323
 20
-1777.220366125871
 30
0.0
 10
9141.227307540952
 20
-1779.357610514429
 30
0.0
 10
9140.117948202163
 20
-1781.400680336772
 30
0.0
 10
9138.568207459495
 20
-1783.259841483948
 30
0.0
 10
9136.633999616579
 20
-1784.798569082718
 30
0.0
 10
9134.425269520518
 20
-1785.912338184775
 30
0.0
 10
9132.088151472639
 20
-1786.534875237602
 30
0.0
 10
9129.761725731465
 20
-1786.711038008734
 30
0.0
 10
9128.273018097329
 20
-1786.469415686304
 30
0.0
 10
9127.550309268701
 20
-1786.352117580479
 30
0.0
  0
SPLINE
  5
1B6
330
1F
100
AcDbEntity
  8
0
  6
PHANTOM
 62
     8
370
     0
100
AcDbSpline
210
0.0
220
0.0
230
1.0
 70
     8
 71
     3
 72
    16
 73
    12
 74
     0
 42
0.000000001
 43
0.00000001
 40
0.0
 40
0.0
 40
0.0
 40
0.0
 40
0.1058505921501118
 40
0.2180415934745037
 40
0.3348968173429717
 40
0.4542318767211391
 40
0.5735669360993081
 40
0.6904221599677893
 40
0.8026131612921215
 40
0.9084637534422274
 40
1.0
 40
1.0
 40
1.0
 40
1.0
 10
8098.012048676013
 20
-2401.988470092472
 30
0.0
 10
8097.308235410118
 20
-2401.799559605491
 30
0.0
 10
8095.858450738278
 20
-2401.410422967058
 30
0.0
 10
8093.827551056828
 20
-2400.302062918378
 30
0.0
 10
8091.976238591745
 20
-2398.786122094746
 30
0.0
 10
8090.449101463022
 20
-2396.878697930559
 30
0.0
 10
8089.351447277901
 20
-2394.699759839585
 30
0.0
 10
8088.734316690278
 20
-2392.386856770976
 30
0.0
 10
8088.60522348089
 20
-2390.092297591593
 30
0.0
 10
8088.85337434144
 20
-2387.969427706782
 30
0.0
 10
8089.318303981152
 20
-2386.693352147297
 30
0.0
 10
8089.533910626517
 20
-2386.101584389102
 30
0.0
  0
SPLINE
  5
1B7
330
1F
100
AcDbEntity
  8
0
  6
PHANTOM
 62
     8
370
     0
100
AcDbSpline
210
0.0
220
0.0
230
1.0
 70
     8
 71
     3
 72
    23
 73
    19
 74
     0
 42
0.000000001
 43
0.00000001
 40
0.0
 40
0.0
 40
0.0
 40
0.0
 40
0.0424416854041332
 40
0.1052263710111448
 40
0.1706212636987066
 40
0.2374039298350802
 40
0.3041865959714546
 40
0.369581488659024
 40
0.4323661742660022
 40
0.4916026198900553
 40
0.5508390655141024
 40
0.6136237511210831
 40
0.6790186438086564
 40
0.7458013099450321
 40
0.8125839760814282
 40
0.877978868768979
 40
0.9407635543759866
 40
1.0
 40
1.0
 40
1.0
 40
1.0
 10
8103.84191593627
 20
-2378.940473292224
 30
0.0
 10
8104.345039546179
 20
-2379.078807667682
 30
0.0
 10
8105.592442214965
 20
-2379.421782367602
 30
0.0
 10
8107.434649825635
 20
-2380.448252168099
 30
0.0
 10
8109.288104165264
 20
-2381.958747239639
 30
0.0
 10
8110.814482074577
 20
-2383.867619839049
 30
0.0
 10
8111.912956419927
 20
-2386.046395170895
 30
0.0
 10
8112.527650274538
 20
-2388.358523325561
 30
0.0
 10
8112.665154308029
 20
-2390.656144195525
 30
0.0
 10
8112.376136512336
 20
-2392.866373180686
 30
0.0
 10
8111.687264081761
 20
-2394.991702111842
 30
0.0
 10
8110.573226791979
 20
-2397.023644769926
 30
0.0
 10
8109.019378120294
 20
-2398.875266992835
 30
0.0
 10
8107.083328487826
 20
-2400.410239602187
 30
0.0
 10
8104.874830640288
 20
-2401.524544264992
 30
0.0
 10
8102.54007419497
 20
-2402.151771429455
 30
0.0
 10
8100.217664243603
 20
-2402.335902868466
 30
0.0
 10
8098.732861725068
 20
-2402.102013940405
 30
0.0
 10
8098.012048676015
 20
-2401.988470092472
 30
0.0
  0
SPLINE
  5
1BB
330
1F
100
AcDbEntity
  8
0
  6
PHANTOM
 62
     8
370
     0
100
AcDbSpline
210
0.0
220
0.0
230
1.0
 70
     8
 71
     3
 72
    16
 73
    12
 74
     0
 42
0.000000001
 43
0.00000001
 40
0.0
 40
0.0
 40
0.0
 40
0.0
 40
0.1053058470186844
 40
0.2169194731908476
 40
0.33317331814413
 40
0.4518942364837595
 40
0.5706151548233216
 40
0.6868689997766362
 40
0.7984826259487298
 40
0.9037884729674471
 40
1.0
 40
1.0
 40
1.0
 40
1.0
 10
8441.43649543005
 20
-2197.273947537964
 30
0.0
 10
8440.731809366025
 20
-2197.083311373375
 30
0.0
 10
8439.280226817655
 20
-2196.690620012309
 30
0.0
 10
8437.245954884049
 20
-2195.57559167618
 30
0.0
 10
8435.390794707613
 20
-2194.052054496214
 30
0.0
 10
8433.859509151216
 20
-2192.136399933666
 30
0.0
 10
8432.7575626597
 20
-2189.949101838266
 30
0.0
 10
8432.136660273902
 20
-2187.628310902829
 30
0.0
 10
8432.003086685037
 20
-2185.326431627729
 30
0.0
 10
8432.255339999234
 20
-2183.162801813437
 30
0.0
 10
8432.732205802184
 20
-2181.850484378571
 30
0.0
 10
8432.959878415064
 20
-2181.223937585997
 30
0.0
  0
SPLINE
  5
1BC
330
1F
100
AcDbEntity
  8
0
  6
PHANTOM
 62
     8
370
     0
100
AcDbSpline
210
0.0
220
0.0
230
1.0
 70
     8
 71
     3
 72
    23
 73
    19
 74
     0
 42
0.000000001
 43
0.00000001
 40
0.0
 40
0.0
 40
0.0
 40
0.0
 40
0.0397646080950388
 40
0.1027248229148752
 40
0.1683025422571404
 40
0.2352719148921776
 40
0.3022412875271768
 40
0.3678190068694601
 40
0.4307792216892573
 40
0.4901812765947796
 40
0.5495833315003181
 40
0.6125435463201067
 40
0.6781212656623984
 40
0.745090638297396
 40
0.8120600109323917
 40
0.8776377302747046
 40
0.9405979450944862
 40
1.0
 40
1.0
 40
1.0
 40
1.0
 10
8447.334309558528
 20
-2174.197047747061
 30
0.0
 10
8447.804757452726
 20
-2174.328017200687
 30
0.0
 10
8449.020076273595
 20
-2174.666353590143
 30
0.0
 10
8450.833908853807
 20
-2175.685510515764
 30
0.0
 10
8452.691618353709
 20
-2177.202489932268
 30
0.0
 10
8454.222049060012
 20
-2179.119905136967
 30
0.0
 10
8455.324777060527
 20
-2181.306941653016
 30
0.0
 10
8455.943484979294
 20
-2183.627037227212
 30
0.0
 10
8456.08459398708
 20
-2185.931769413721
 30
0.0
 10
8455.798690846183
 20
-2188.148151909988
 30
0.0
 10
8455.1124719498
 20
-2190.27871950868
 30
0.0
 10
8454.00059229488
 20
-2192.314921017746
 30
0.0
 10
8452.448261400123
 20
-2194.169536859059
 30
0.0
 10
8450.512930594241
 20
-2195.705924072069
 30
0.0
 10
8448.30428607697
 20
-2196.819933096964
 30
0.0
 10
8445.968538330158
 20
-2197.445196008555
 30
0.0
 10
8443.644474608367
 20
-2197.626054746583
 30
0.0
 10
8442.158080926254
 20
-2197.389019028376
 30
0.0
 10
8441.43649543005
 20
-2197.273947537964
 30
0.0
  0
LWPOLYLINE
  5
1C1
330
1F
100
AcDbEntity
  8
0
  6
PHANTOM
 62
     8
370
     0
100
AcDbPolyline
 90
        3
 70
   128
 43
0.0
 10
8453.0373276973
 20
-2222.6292056633
 10
8452.4825695579
 20
-2221.1235968027
 10
8452.3100547675
 20
-2220.0654403092
  0
LWPOLYLINE
  5
1C2
330
1F
100
AcDbEntity
  8
0
  6
PHANTOM
 62
     8
370
     0
100
AcDbPolyline
 90
        3
 70
   128
 43
0.0
 10
8466.6102446319
 20
-2212.888771873
 10
8467.3206617647
 20
-2213.6177526983
 10
8468.2069117107
 20
-2214.9556765367
  0
SPLINE
  5
1C4
330
1F
100
AcDbEntity
  8
0
  6
PHANTOM
 62
     8
370
     0
100
AcDbSpline
210
0.0
220
0.0
230
1.0
 70
     8
 71
     3
 72
    16
 73
    12
 74
     0
 42
0.000000001
 43
0.00000001
 40
0.0
 40
0.0
 40
0.0
 40
0.0
 40
0.1044954185566521
 40
0.2152500719178163
 40
0.3306092331716349
 40
0.448416481340025
 40
0.5662237295083663
 40
0.681582890762224
 40
0.7923375441234686
 40
0.8968329626800231
 40
1.0
 40
1.0
 40
1.0
 40
1.0
 10
8784.720751423949
 20
-1992.297669879356
 30
0.0
 10
8784.015347837787
 20
-1992.105613541706
 30
0.0
 10
8782.562287265853
 20
-1991.709996766706
 30
0.0
 10
8780.525231676358
 20
-1990.589459004611
 30
0.0
 10
8778.666883488822
 20
-1989.05962998214
 30
0.0
 10
8777.132166320729
 20
-1987.137146849645
 30
0.0
 10
8776.026609111741
 20
-1984.942884792362
 30
0.0
 10
8775.402708606218
 20
-1982.615557989988
 30
0.0
 10
8775.26488010832
 20
-1980.307430152267
 30
0.0
 10
8775.525115860548
 20
-1978.086139871012
 30
0.0
 10
8776.020909723897
 20
-1976.721080138881
 30
0.0
 10
8776.267220901267
 20
-1976.042916299711
 30
0.0
  0
SPLINE
  5
1C5
330
1F
100
AcDbEntity
  8
0
  6
PHANTOM
 62
     8
370
     0
100
AcDbSpline
210
0.0
220
0.0
230
1.0
 70
     8
 71
     3
 72
    23
 73
    19
 74
     0
 42
0.000000001
 43
0.00000001
 40
0.0
 40
0.0
 40
0.0
 40
0.0
 40
0.035794322467349
 40
0.0990148589104619
 40
0.1648637224729863
 40
0.2321099933976545
 40
0.2993562643222947
 40
0.3652051278848413
 40
0.4284256643280002
 40
0.4880733289317654
 40
0.5477209935355565
 40
0.6109415299786923
 40
0.6767903935412317
 40
0.7440366644658816
 40
0.8112829353905591
 40
0.8771317989530745
 40
0.9403523353962372
 40
1.0
 40
1.0
 40
1.0
 40
1.0
 10
8790.737980983486
 20
-1969.216436713638
 30
0.0
 10
8791.159843950427
 20
-1969.33550029023
 30
0.0
 10
8792.326808409362
 20
-1969.664855965235
 30
0.0
 10
8794.096688827143
 20
-1970.669274264894
 30
0.0
 10
8795.95823519607
 20
-1972.190786457007
 30
0.0
 10
8797.491942201961
 20
-1974.115523755451
 30
0.0
 10
8798.598231421767
 20
-1976.309369306665
 30
0.0
 10
8799.220279564533
 20
-1978.6361215332
 30
0.0
 10
8799.36440267825
 20
-1980.946789755981
 30
0.0
 10
8799.081109225146
 20
-1983.168326272978
 30
0.0
 10
8798.39712193333
 20
-1985.303294579224
 30
0.0
 10
8797.287066549654
 20
-1987.343091605547
 30
0.0
 10
8795.736032620182
 20
-1989.200259209223
 30
0.0
 10
8793.801337346997
 20
-1990.737890430662
 30
0.0
 10
8791.592609340601
 20
-1991.851722492513
 30
0.0
 10
8789.256073935925
 20
-1992.475417631104
 30
0.0
 10
8786.930668281604
 20
-1992.653614449442
 30
0.0
 10
8785.442970169468
 20
-1992.413995450606
 30
0.0
 10
8784.720751423947
 20
-1992.297669879356
 30
0.0
  0
LINE
  5
1C7
330
1F
100
AcDbEntity
  8
0
  6
Continuous
 62
     7
370
    15
100
AcDbLine
 10
10823.0000305117
 20
-2795.6840387169
 30
0.0
 11
8223.6550514122
 21
-3311.344469262
 31
0.0
  0
LINE
  5
1C8
330
1F
100
AcDbEntity
  8
0
  6
Continuous
 62
     7
370
    15
100
AcDbLine
 10
8258.6810429209
 20
-3487.9037508612
 30
0.0
 11
10858.0260220205
 21
-2972.2433203161
 31
0.0
  0
LINE
  5
1C9
330
1F
100
AcDbEntity
  8
0
  6
Continuous
 62
     7
370
    15
100
AcDbLine
 10
9123.4957818777
 20
-1779.4038082069
 30
0.0
 11
9124.5318962881
 21
-1781.6977894642
 31
0.0
  0
LINE
  5
1CA
330
1F
100
AcDbEntity
  8
0
  6
Continuous
 62
     7
370
    15
100
AcDbLine
 10
9139.1135328898
 20
-1775.1117531739
 30
0.0
 11
9137.7855713289
 21
-1772.1716155785
 31
0.0
  0
LINE
  5
1CB
330
1F
100
AcDbEntity
  8
0
  6
Continuous
 62
     7
370
    15
100
AcDbLine
 10
8788.2574999041
 20
-2000.6778746097
 30
0.0
 11
8795.2807297497
 21
-2014.76577304
 31
0.0
  0
LINE
  5
1CC
330
1F
100
AcDbEntity
  8
0
  6
Continuous
 62
     7
370
    15
100
AcDbLine
 10
8809.5999787372
 20
-2007.6272081679
 30
0.0
 11
8802.5695295006
 21
-1993.5248283595
 31
0.0
  0
LINE
  5
1CD
330
1F
100
AcDbEntity
  8
0
  6
Continuous
 62
     7
370
    15
100
AcDbLine
 10
8780.9371558261
 20
-1986.1414324395
 30
0.0
 11
8781.7397442766
 21
-1987.6801569435
 31
0.0
  0
LINE
  5
1CE
330
1F
100
AcDbEntity
  8
0
  6
Continuous
 62
     7
370
    15
100
AcDbLine
 10
8794.3810208927
 20
-2017.4710920429
 30
0.0
 11
8795.7195617184
 21
-2016.7941182923
 31
0.0
  0
LINE
  5
1CF
330
1F
100
AcDbEntity
  8
0
  6
Continuous
 62
     7
370
    15
100
AcDbLine
 10
8810.889691077
 20
-2009.1217491195
 30
0.0
 11
8812.2282319028
 21
-2008.444775369
 31
0.0
  0
LINE
  5
1D0
330
1F
100
AcDbEntity
  8
0
  6
Continuous
 62
     7
370
    15
100
AcDbLine
 10
8056.1333873588
 20
-2319.6056402748
 30
0.0
 11
8095.3099871126
 21
-2397.6009748668
 31
0.0
  0
LINE
  5
1D1
330
1F
100
AcDbEntity
  8
0
  6
Continuous
 62
     7
370
    15
100
AcDbLine
 10
8109.6076777314
 20
-2390.4193286093
 30
0.0
 11
8070.4092334514
 21
-2312.3805045073
 31
0.0
  0
LINE
  5
1D2
330
1F
100
AcDbEntity
  8
0
  6
Continuous
 62
     7
370
    15
100
AcDbLine
 10
9130.3761663301
 20
-1793.5339997112
 30
0.0
 11
9136.6176067627
 21
-1806.1486022837
 31
0.0
  0
LINE
  5
1D3
330
1F
100
AcDbEntity
  8
0
  6
Continuous
 62
     7
370
    15
100
AcDbLine
 10
9150.9582655042
 20
-1799.0531455077
 30
0.0
 11
9144.7164173467
 21
-1786.4377188806
 31
0.0
  0
LINE
  5
1D4
330
1F
100
AcDbEntity
  8
0
  6
Continuous
 62
     7
370
    15
100
AcDbLine
 10
9123.340482777
 20
-1779.4824064966
 30
0.0
 11
9124.4851289013
 21
-1781.6605383828
 31
0.0
  0
LINE
  5
1D5
330
1F
100
AcDbEntity
  8
0
  6
Continuous
 62
     7
370
    15
100
AcDbLine
 10
9135.6165931855
 20
-1808.6713621876
 30
0.0
 11
9136.9551434028
 21
-1807.9944180428
 31
0.0
  0
LINE
  5
1D6
330
1F
100
AcDbEntity
  8
0
  6
Continuous
 62
     7
370
    15
100
AcDbLine
 10
9152.1253791995
 20
-1800.3223844023
 30
0.0
 11
9153.4639294169
 21
-1799.6454402575
 31
0.0
  0
LINE
  5
1D7
330
1F
100
AcDbEntity
  8
0
  6
Continuous
 62
     7
370
    15
100
AcDbLine
 10
8102.9435871195
 20
-2412.7408646486
 30
0.0
 11
8111.5034676561
 21
-2429.6967249992
 31
0.0
  0
LINE
  5
1D8
330
1F
100
AcDbEntity
  8
0
  6
Continuous
 62
     7
370
    15
100
AcDbLine
 10
8125.7865831274
 20
-2422.486134702
 30
0.0
 11
8117.2206909921
 21
-2405.5183662615
 31
0.0
  0
LINE
  5
1D9
330
1F
100
AcDbEntity
  8
0
  6
Continuous
 62
     7
370
    15
100
AcDbLine
 10
8112.6148341956
 20
-2431.9039309492
 30
0.0
 11
8111.506855874
 21
-2429.7034266965
 31
0.0
  0
LINE
  5
1DA
330
1F
100
AcDbEntity
  8
0
  6
Continuous
 62
     7
370
    15
100
AcDbLine
 10
8111.3199428869
 20
-2429.3565728821
 30
0.0
 11
8112.6148341956
 21
-2431.9039309492
 31
0.0
  0
LINE
  5
1DB
330
1F
100
AcDbEntity
  8
0
  6
Continuous
 62
     7
370
    15
100
AcDbLine
 10
8126.8911732311
 20
-2424.6799372574
 30
0.0
 11
8125.7831949095
 21
-2422.4794330047
 31
0.0
  0
LINE
  5
1DC
330
1F
100
AcDbEntity
  8
0
  6
Continuous
 62
     7
370
    15
100
AcDbLine
 10
8110.8302929844
 20
-2432.8069324696
 30
0.0
 11
8112.168699769
 21
-2432.129683061
 31
0.0
  0
LINE
  5
1DD
330
1F
100
AcDbEntity
  8
0
  6
Continuous
 62
     7
370
    15
100
AcDbLine
 10
8127.3373099943
 20
-2424.4541897634
 30
0.0
 11
8128.6757167788
 21
-2423.7769403548
 31
0.0
  0
LINE
  5
1DE
330
1F
100
AcDbEntity
  8
0
  6
Continuous
 62
     7
370
    15
100
AcDbLine
 10
8781.8362579566
 20
-2008.3860301601
 30
0.0
 11
8787.8869981811
 21
-2004.6838437312
 31
0.0
  0
LINE
  5
1DF
330
1F
100
AcDbEntity
  8
0
  6
Continuous
 62
     7
370
    15
100
AcDbLine
 10
8805.0667606381
 20
-1994.1722895973
 30
0.0
 11
8811.6912124395
 21
-1990.1190738504
 31
0.0
  0
LINE
  5
1E0
330
1F
100
AcDbEntity
  8
0
  6
Continuous
 62
     7
370
    15
100
AcDbLine
 10
8806.4720820653
 20
-1981.5890868553
 30
0.0
 11
8804.4766119507
 21
-1982.8100287737
 31
0.0
  0
LINE
  5
1E1
330
1F
100
AcDbEntity
  8
0
  6
Continuous
 62
     7
370
    15
100
AcDbLine
 10
8780.4300448986
 20
-1997.5230838544
 30
0.0
 11
8776.6171275824
 21
-1999.856043165
 31
0.0
  0
LINE
  5
1E2
330
1F
100
AcDbEntity
  8
0
  6
Continuous
 62
     7
370
    15
100
AcDbLine
 10
8440.6367781513
 20
-2217.1512451281
 30
0.0
 11
8446.667199077
 21
-2213.4614912
 31
0.0
  0
LINE
  5
1E3
330
1F
100
AcDbEntity
  8
0
  6
Continuous
 62
     7
370
    15
100
AcDbLine
 10
8463.7821067184
 20
-2202.9896189247
 30
0.0
 11
8470.4917326343
 21
-2198.8842888184
 31
0.0
  0
LINE
  5
1E4
330
1F
100
AcDbEntity
  8
0
  6
Continuous
 62
     7
370
    15
100
AcDbLine
 10
8465.2726022601
 20
-2190.3543018233
 30
0.0
 11
8462.1509892682
 21
-2192.2642818962
 31
0.0
  0
LINE
  5
1E5
330
1F
100
AcDbEntity
  8
0
  6
Continuous
 62
     7
370
    15
100
AcDbLine
 10
8440.6130862403
 20
-2205.4423938855
 30
0.0
 11
8435.4176477771
 21
-2208.621258133
 31
0.0
  0
LINE
  5
1E6
330
1F
100
AcDbEntity
  8
0
  6
Continuous
 62
     7
370
    15
100
AcDbLine
 10
8099.4372983461
 20
-2425.9164600961
 30
0.0
 11
8105.4707493511
 21
-2422.2248521934
 31
0.0
  0
LINE
  5
1E7
330
1F
100
AcDbEntity
  8
0
  6
Continuous
 62
     7
370
    15
100
AcDbLine
 10
8122.595460985
 20
-2411.7469812788
 30
0.0
 11
8129.2922528291
 21
-2407.6495037864
 31
0.0
  0
LINE
  5
1E8
330
1F
100
AcDbEntity
  8
0
  6
Continuous
 62
     7
370
    15
100
AcDbLine
 10
8124.0731224549
 20
-2399.1195167913
 30
0.0
 11
8118.6713273359
 21
-2402.4246417577
 31
0.0
  0
LINE
  5
1E9
330
1F
100
AcDbEntity
  8
0
  6
Continuous
 62
     7
370
    15
100
AcDbLine
 10
8100.9427229263
 20
-2413.2720085613
 30
0.0
 11
8094.2181679719
 21
-2417.386473101
 31
0.0
  0
LINE
  5
1EA
330
1F
100
AcDbEntity
  8
0
  6
Continuous
 62
     7
370
    15
100
AcDbLine
 10
9131.7783443327
 20
-1801.0818307973
 30
0.0
 11
9131.8594615816
 21
-1801.0408074229
 31
0.0
  0
LINE
  5
1EB
330
1F
100
AcDbEntity
  8
0
  6
Continuous
 62
     7
370
    15
100
AcDbLine
 10
8790.5426169213
 20
-2009.8816391026
 30
0.0
 11
8790.5974818895
 21
-2009.8538908691
 31
0.0
  0
LINE
  5
1EC
330
1F
100
AcDbEntity
  8
0
  6
Continuous
 62
     7
370
    15
100
AcDbLine
 10
8448.8428072282
 20
-2217.6931008964
 30
0.0
 11
8448.8739162961
 21
-2217.6773643846
 31
0.0
  0
LINE
  5
1ED
330
1F
100
AcDbEntity
  8
0
  6
Continuous
 62
     7
370
    15
100
AcDbLine
 10
8106.9903384042
 20
-2425.2182639565
 30
0.0
 11
8106.9997790509
 21
-2425.2134868794
 31
0.0
  0
LINE
  5
1EE
330
1F
100
AcDbEntity
  8
0
  6
Continuous
 62
     7
370
    15
100
AcDbLine
 10
9117.2439989928
 20
-1782.5678924818
 30
0.0
 11
9118.2649058985
 21
-1784.8282039721
 31
0.0
  0
LINE
  5
1EF
330
1F
100
AcDbEntity
  8
0
  6
Continuous
 62
     7
370
    15
100
AcDbLine
 10
9145.6054745266
 20
-1772.4793859277
 30
0.0
 11
9144.0373542138
 21
-1769.0075313036
 31
0.0
  0
LINE
  5
1F0
330
1F
100
AcDbEntity
  8
0
  6
Continuous
 62
     7
370
    15
100
AcDbLine
 10
8087.4429186636
 20
-2397.5340110061
 30
0.0
 11
8091.0275739468
 21
-2404.6705769654
 31
0.0
  0
LINE
  5
1F1
330
1F
100
AcDbEntity
  8
0
  6
Continuous
 62
     7
370
    15
100
AcDbLine
 10
8117.8357438571
 20
-2391.2049902325
 30
0.0
 11
8114.2510885739
 21
-2384.0684242732
 31
0.0
  0
LINE
  5
1F2
330
1F
100
AcDbEntity
  8
0
  6
Continuous
 62
     7
370
    15
100
AcDbLine
 10
8118.8070312918
 20
-2401.8586990192
 30
0.0
 11
8118.994815418
 21
-2401.2038705671
 31
0.0
  0
LINE
  5
1F3
330
1F
100
AcDbEntity
  8
0
  6
Continuous
 62
     7
370
    15
100
AcDbLine
 10
7462.3891107407
 20
-2620.1050279767
 30
0.0
 11
7439.1654470747
 21
-2664.1290891238
 31
0.0
  0
LINE
  5
1F4
330
1F
100
AcDbEntity
  8
0
  6
Continuous
 62
     7
370
    15
100
AcDbLine
 10
7598.3715046471
 20
-2748.1137974475
 30
0.0
 11
7733.1117781152
 21
-2492.6926837325
 31
0.0
  0
LINE
  5
1F5
330
1F
100
AcDbEntity
  8
0
  6
Continuous
 62
     7
370
    15
100
AcDbLine
 10
8531.8906970237
 20
-3103.2330442569
 30
0.0
 11
8299.6771533341
 21
-3027.8552162157
 31
0.0
  0
LINE
  5
1F6
330
1F
100
AcDbEntity
  8
0
  6
Continuous
 62
     7
370
    15
100
AcDbLine
 10
8244.1027290926
 20
-3199.0611838985
 30
0.0
 11
8451.0427620481
 21
-3266.235087587
 31
0.0
  0
LINE
  5
1F7
330
1F
100
AcDbEntity
  8
0
  6
Continuous
 62
     7
370
    15
100
AcDbLine
 10
9123.0357377618
 20
-1799.6208151921
 30
0.0
 11
9129.0826520795
 21
-1795.9209696702
 31
0.0
  0
LINE
  5
1F8
330
1F
100
AcDbEntity
  8
0
  6
Continuous
 62
     7
370
    15
100
AcDbLine
 10
9146.3285120984
 20
-1785.368973295
 30
0.0
 11
9152.8906922448
 21
-1781.3538588824
 31
0.0
  0
LINE
  5
1F9
330
1F
100
AcDbEntity
  8
0
  6
Continuous
 62
     7
370
    15
100
AcDbLine
 10
9147.6715618706
 20
-1772.8238718873
 30
0.0
 11
9146.1187681368
 21
-1773.7739592609
 31
0.0
  0
LINE
  5
1FA
330
1F
100
AcDbEntity
  8
0
  6
Continuous
 62
     7
370
    15
100
AcDbLine
 10
9121.138414882
 20
-1789.0583577605
 30
0.0
 11
9117.8166073876
 21
-1791.090828197
 31
0.0
  0
LINE
  5
1FB
330
1F
100
AcDbEntity
  8
0
  6
Continuous
 62
     7
370
    15
100
AcDbLine
 10
10711.3532812081
 20
-2456.6474645939
 30
0.0
 11
8094.9761019499
 21
-2877.4448693592
 31
0.0
  0
LINE
  5
1FC
330
1F
100
AcDbEntity
  8
0
  6
Continuous
 62
     7
370
    15
100
AcDbLine
 10
8123.5585671793
 20
-3055.1610551201
 30
0.0
 11
8221.9524276215
 21
-3039.3361650977
 31
0.0
  0
LINE
  5
1FD
330
1F
100
AcDbEntity
  8
0
  6
Continuous
 62
     7
370
    15
100
AcDbLine
 10
8297.513457247
 20
-3027.1835269307
 30
0.0
 11
10739.9357464374
 21
-2634.3636503548
 31
0.0
  0
LINE
  5
1FE
330
1F
100
AcDbEntity
  8
0
  6
Continuous
 62
     7
370
    15
100
AcDbLine
 10
10325.2295907424
 20
-952.6785563245
 30
0.0
 11
10166.5827525695
 21
-1049.7476998474
 31
0.0
  0
LINE
  5
1FF
330
1F
100
AcDbEntity
  8
0
  6
Continuous
 62
     7
370
    15
100
AcDbLine
 10
8258.831112599
 20
-2217.0184748537
 30
0.0
 11
8078.0647470406
 21
-2327.6216011724
 31
0.0
  0
LINE
  5
200
330
1F
100
AcDbEntity
  8
0
  6
Continuous
 62
     7
370
    15
100
AcDbLine
 10
8064.3689234711
 20
-2336.0014836778
 30
0.0
 11
7697.2878311347
 21
-2560.602538744
 31
0.0
  0
LINE
  5
201
330
1F
100
AcDbEntity
  8
0
  6
Continuous
 62
     7
370
    15
100
AcDbLine
 10
7604.2782290848
 20
-2828.5313457229
 30
0.0
 11
10254.3384638374
 21
-1207.0740243281
 31
0.0
  0
LINE
  5
202
330
1F
100
AcDbEntity
  8
0
  6
Continuous
 62
     7
370
    15
100
AcDbLine
 10
10318.1543218349
 20
-1168.0278589564
 30
0.0
 11
10419.173937478
 21
-1106.2183222369
 31
0.0
  0
LINE
  5
203
330
1F
100
AcDbEntity
  8
0
  6
Continuous
 62
     7
370
    15
100
AcDbLine
 10
10239.5908834951
 20
-1012.7976196456
 30
0.0
 11
7295.2112476034
 21
-2502.9749781324
 31
0.0
  0
LINE
  5
204
330
1F
100
AcDbEntity
  8
0
  6
Continuous
 62
     7
370
    15
100
AcDbLine
 10
7376.4936489754
 20
-2663.5775037264
 30
0.0
 11
10320.8732848671
 21
-1173.4001452397
 31
0.0
  0
LINE
  5
205
330
1F
100
AcDbEntity
  8
0
  6
Continuous
 62
     7
370
    15
100
AcDbLine
 10
9477.2268043146
 20
-1600.6721425122
 30
0.0
 11
9478.5653245728
 21
-1599.9951540092
 31
0.0
  0
LINE
  5
206
330
1F
100
AcDbEntity
  8
0
  6
Continuous
 62
     7
370
    15
100
AcDbLine
 10
9493.7352208326
 20
-1592.3226176412
 30
0.0
 11
9495.0737410908
 21
-1591.6456291381
 31
0.0
  0
LINE
  5
207
330
1F
100
AcDbEntity
  8
0
  6
Continuous
 62
     7
370
    15
100
AcDbLine
 10
8431.4927078706
 20
-2178.24067151
 30
0.0
 11
8431.3201069385
 21
-2178.5336706607
 31
0.0
  0
LINE
  5
208
330
1F
100
AcDbEntity
  8
0
  6
Continuous
 62
     7
370
    15
100
AcDbLine
 10
8430.7584280348
 20
-2192.6092275956
 30
0.0
 11
8433.7213958421
 21
-2198.6339677847
 31
0.0
  0
LINE
  5
209
330
1F
100
AcDbEntity
  8
0
  6
Continuous
 62
     7
370
    15
100
AcDbLine
 10
8460.6419287494
 20
-2185.3944470991
 30
0.0
 11
8457.6789609421
 21
-2179.3697069099
 31
0.0
  0
LINE
  5
20A
330
1F
100
AcDbEntity
  8
0
  6
Continuous
 62
     7
370
    15
100
AcDbLine
 10
8461.2723804041
 20
-2196.9823788137
 30
0.0
 11
8461.7482907606
 21
-2195.3647885843
 31
0.0
  0
LINE
  5
20B
330
1F
100
AcDbEntity
  8
0
  6
Continuous
 62
     7
370
    15
100
AcDbLine
 10
8445.6725191656
 20
-2206.8395235506
 30
0.0
 11
8453.4720247718
 21
-2222.3807753181
 31
0.0
  0
LINE
  5
20C
330
1F
100
AcDbEntity
  8
0
  6
Continuous
 62
     7
370
    15
100
AcDbLine
 10
8467.7722146362
 20
-2215.2041068819
 30
0.0
 11
8459.9699191965
 21
-2199.6572961078
 31
0.0
  0
LINE
  5
20D
330
1F
100
AcDbEntity
  8
0
  6
Continuous
 62
     7
370
    15
100
AcDbLine
 10
8438.3753968004
 20
-2192.3901886372
 30
0.0
 11
8438.558937744
 21
-2192.7454866798
 31
0.0
  0
LINE
  5
20E
330
1F
100
AcDbEntity
  8
0
  6
Continuous
 62
     7
370
    15
100
AcDbLine
 10
8452.6817831771
 20
-2225.2822645291
 30
0.0
 11
8454.0202758842
 21
-2224.6051884297
 31
0.0
  0
LINE
  5
20F
330
1F
100
AcDbEntity
  8
0
  6
Continuous
 62
     7
370
    15
100
AcDbLine
 10
8469.1898598976
 20
-2216.931659303
 30
0.0
 11
8470.5283526046
 21
-2216.2545832036
 31
0.0
  0
LINE
  5
210
330
1F
100
AcDbEntity
  8
0
  6
Continuous
 62
     7
370
    15
100
AcDbLine
 10
8412.3516750215
 20
-2139.3203195631
 30
0.0
 11
8438.6652268141
 21
-2192.8248877239
 31
0.0
  0
LINE
  5
211
330
1F
100
AcDbEntity
  8
0
  6
Continuous
 62
     7
370
    15
100
AcDbLine
 10
8453.0228443647
 20
-2185.7638100249
 30
0.0
 11
8426.6283920245
 21
-2132.0947430198
 31
0.0
  0
LINE
  5
212
330
1F
100
AcDbEntity
  8
0
  6
Continuous
 62
     7
370
    15
100
AcDbLine
 10
8768.243222909
 20
-1959.2003648283
 30
0.0
 11
8781.8527887704
 21
-1987.7671483374
 31
0.0
  0
LINE
  5
213
330
1F
100
AcDbEntity
  8
0
  6
Continuous
 62
     7
370
    15
100
AcDbLine
 10
8796.2973133149
 20
-1980.8855997703
 30
0.0
 11
8782.5230890088
 21
-1951.9731944985
 31
0.0
  0
LINE
  5
214
330
1F
100
AcDbEntity
  8
0
  6
Continuous
 62
     7
370
    15
100
AcDbLine
 10
8773.9105546105
 20
-1987.3716274407
 30
0.0
 11
8776.2454865432
 21
-1992.2727018547
 31
0.0
  0
LINE
  5
215
330
1F
100
AcDbEntity
  8
0
  6
Continuous
 62
     7
370
    15
100
AcDbLine
 10
8803.3289700642
 20
-1979.3697982913
 30
0.0
 11
8800.9940381316
 21
-1974.4687238773
 31
0.0
  0
LINE
  5
216
330
1F
100
AcDbEntity
  8
0
  6
Continuous
 62
     7
370
    15
100
AcDbLine
 10
8795.7626312023
 20
-1999.473579941
 30
0.0
 11
8796.2081674892
 21
-1999.2989452108
 31
0.0
  0
LINE
  5
217
330
1F
100
AcDbEntity
  8
0
  6
Continuous
 62
     7
370
    15
100
AcDbLine
 10
8223.6550514122
 20
-3311.344469262
 30
0.0
 11
8258.6810429209
 21
-3487.9037508612
 31
0.0
  0
LINE
  5
218
330
1F
100
AcDbEntity
  8
0
  6
Continuous
 62
     7
370
    15
100
AcDbLine
 10
10858.0260220205
 20
-2972.2433203161
 30
0.0
 11
10823.0000305117
 21
-2795.6840387169
 31
0.0
  0
LINE
  5
219
330
1F
100
AcDbEntity
  8
0
  6
Continuous
 62
     7
370
    15
100
AcDbLine
 10
8794.8552895641
 20
-2015.0326751903
 30
0.0
 11
8787.6641602248
 21
-2000.6079871252
 31
0.0
  0
LINE
  5
21A
330
1F
100
AcDbEntity
  8
0
  6
Continuous
 62
     7
370
    15
100
AcDbLine
 10
8793.5167487384
 20
-2015.7096489409
 30
0.0
 11
8785.7990178513
 21
-2000.2286507049
 31
0.0
  0
LINE
  5
21B
330
1F
100
AcDbEntity
  8
0
  6
Continuous
 62
     7
370
    15
100
AcDbLine
 10
8803.6944575926
 20
-1991.2990760547
 30
0.0
 11
8811.3639597485
 21
-2006.683332267
 31
0.0
  0
LINE
  5
21C
330
1F
100
AcDbEntity
  8
0
  6
Continuous
 62
     7
370
    15
100
AcDbLine
 10
8802.8756016521
 20
-1993.018485841
 30
0.0
 11
8810.0254189227
 21
-2007.3603060175
 31
0.0
  0
LINE
  5
21D
330
1F
100
AcDbEntity
  8
0
  6
Continuous
 62
     7
370
    15
100
AcDbLine
 10
8796.1415622646
 20
-1979.6144392345
 30
0.0
 11
8796.2734755873
 21
-1979.8673437734
 31
0.0
  0
LINE
  5
21E
330
1F
100
AcDbEntity
  8
0
  6
Continuous
 62
     7
370
    15
100
AcDbLine
 10
9124.7441467558
 20
-1782.1479953171
 30
0.0
 11
9124.5976581113
 21
-1781.5924024363
 31
0.0
  0
LINE
  5
21F
330
1F
100
AcDbEntity
  8
0
  6
Continuous
 62
     7
370
    15
100
AcDbLine
 10
9145.8419727452
 20
-1784.2036706348
 30
0.0
 11
9152.7116042492
 21
-1798.0879129307
 31
0.0
  0
LINE
  5
220
330
1F
100
AcDbEntity
  8
0
  6
Continuous
 62
     7
370
    15
100
AcDbLine
 10
9134.8642680178
 20
-1807.1138348608
 30
0.0
 11
9127.9178222855
 21
-1793.0743429919
 31
0.0
  0
LINE
  5
221
330
1F
100
AcDbEntity
  8
0
  6
Continuous
 62
     7
370
    15
100
AcDbLine
 10
9136.2028182351
 20
-1806.436890716
 30
0.0
 11
9129.7829559597
 21
-1793.4616789762
 31
0.0
  0
LINE
  5
222
330
1F
100
AcDbEntity
  8
0
  6
Continuous
 62
     7
370
    15
100
AcDbLine
 10
9145.0187270561
 20
-1785.9220990167
 30
0.0
 11
9151.3730540318
 21
-1798.7648570755
 31
0.0
  0
LINE
  5
223
330
1F
100
AcDbEntity
  8
0
  6
Continuous
 62
     7
370
    15
100
AcDbLine
 10
9123.2722740861
 20
-1780.4250821189
 30
0.0
 11
9123.1305698761
 21
-1780.1554350625
 31
0.0
  0
LINE
  5
224
330
1F
100
AcDbEntity
  8
0
  6
Continuous
 62
     7
370
    15
100
AcDbLine
 10
9123.2377360557
 20
-1780.4425490149
 30
0.0
 11
9123.2722740861
 21
-1780.4250821189
 31
0.0
  0
LINE
  5
225
330
1F
100
AcDbEntity
  8
0
  6
Continuous
 62
     7
370
    15
100
AcDbLine
 10
9139.0336517053
 20
-1774.9348943849
 30
0.0
 11
9139.1290548537
 21
-1774.6990977906
 31
0.0
  0
LINE
  5
226
330
1F
100
AcDbEntity
  8
0
  6
Continuous
 62
     7
370
    15
100
AcDbLine
 10
9138.2368399148
 20
-1772.3616818318
 30
0.0
 11
9138.4425098827
 21
-1772.7530484783
 31
0.0
  0
LINE
  5
227
330
1F
100
AcDbEntity
  8
0
  6
Continuous
 62
     7
370
    15
100
AcDbLine
 10
9138.5664670045
 20
-1772.6903597225
 30
0.0
 11
9138.4425098827
 21
-1772.7530484783
 31
0.0
  0
LINE
  5
228
330
1F
100
AcDbEntity
  8
0
  6
Continuous
 62
     7
370
    15
100
AcDbLine
 10
8118.3320828936
 20
-2403.2819651377
 30
0.0
 11
8127.5677372889
 21
-2421.5764337933
 31
0.0
  0
LINE
  5
229
330
1F
100
AcDbEntity
  8
0
  6
Continuous
 62
     7
370
    15
100
AcDbLine
 10
8109.7223134945
 20
-2430.606425908
 30
0.0
 11
8100.4815131039
 21
-2412.3017637949
 31
0.0
  0
LINE
  5
22A
330
1F
100
AcDbEntity
  8
0
  6
Continuous
 62
     7
370
    15
100
AcDbLine
 10
8111.0607202791
 20
-2429.9291764994
 30
0.0
 11
8102.3452083791
 21
-2412.6650333811
 31
0.0
  0
LINE
  5
22B
330
1F
100
AcDbEntity
  8
0
  6
Continuous
 62
     7
370
    15
100
AcDbLine
 10
8117.5200479281
 20
-2405.0018794548
 30
0.0
 11
8126.2293305043
 21
-2422.2536832019
 31
0.0
  0
LINE
  5
22C
330
1F
100
AcDbEntity
  8
0
  6
Continuous
 62
     7
370
    15
100
AcDbLine
 10
8128.6757167788
 20
-2423.7769403548
 30
0.0
 11
8127.5677372889
 21
-2421.5764337933
 31
0.0
  0
LINE
  5
22D
330
1F
100
AcDbEntity
  8
0
  6
Continuous
 62
     7
370
    15
100
AcDbLine
 10
8100.4313147581
 20
-2412.2799588884
 30
0.0
 11
8100.9355312874
 21
-2413.2764088143
 31
0.0
  0
LINE
  5
22E
330
1F
100
AcDbEntity
  8
0
  6
Continuous
 62
     7
370
    15
100
AcDbLine
 10
8127.3373099943
 20
-2424.4541897634
 30
0.0
 11
8126.2293305043
 21
-2422.2536832019
 31
0.0
  0
LINE
  5
22F
330
1F
100
AcDbEntity
  8
0
  6
Continuous
 62
     7
370
    15
100
AcDbLine
 10
8112.168699769
 20
-2432.129683061
 30
0.0
 11
8111.0607202791
 21
-2429.9291764994
 31
0.0
  0
LINE
  5
230
330
1F
100
AcDbEntity
  8
0
  6
Continuous
 62
     7
370
    15
100
AcDbLine
 10
9127.8133853295
 20
-1793.0452208471
 30
0.0
 11
9131.310394375
 21
-1800.1130411328
 31
0.0
  0
LINE
  5
231
330
1F
100
AcDbEntity
  8
0
  6
Continuous
 62
     7
370
    15
100
AcDbLine
 10
8785.7294712637
 20
-2000.2096577231
 30
0.0
 11
8790.0050353868
 21
-2008.7860128222
 31
0.0
  0
LINE
  5
232
330
1F
100
AcDbEntity
  8
0
  6
Continuous
 62
     7
370
    15
100
AcDbLine
 10
8443.1759352483
 20
-2206.3905215925
 30
0.0
 11
8448.2314086172
 21
-2216.4640298886
 31
0.0
  0
LINE
  5
233
330
1F
100
AcDbEntity
  8
0
  6
Continuous
 62
     7
370
    15
100
AcDbLine
 10
8100.4695672258
 20
-2412.2979939676
 30
0.0
 11
8106.3011697073
 21
-2423.8495380428
 31
0.0
  0
LINE
  5
234
330
1F
100
AcDbEntity
  8
0
  6
Continuous
 62
     7
370
    15
100
AcDbLine
 10
8104.8501038511
 20
-2420.9997908697
 30
0.0
 11
8100.4309368443
 21
-2412.2609234801
 31
0.0
  0
LINE
  5
235
330
1F
100
AcDbEntity
  8
0
  6
Continuous
 62
     7
370
    15
100
AcDbLine
 10
8094.9761019499
 20
-2877.4448693592
 30
0.0
 11
8123.5585671793
 21
-3055.1610551201
 31
0.0
  0
LINE
  5
236
330
1F
100
AcDbEntity
  8
0
  6
Continuous
 62
     7
370
    15
100
AcDbLine
 10
10739.9357464374
 20
-2634.3636503548
 30
0.0
 11
10711.3532812081
 21
-2456.6474645939
 31
0.0
  0
LINE
  5
237
330
1F
100
AcDbEntity
  8
0
  6
Continuous
 62
     7
370
    15
100
AcDbLine
 10
7573.1293438282
 20
-2777.6225607144
 30
0.0
 11
7604.2782290848
 21
-2828.5313457229
 31
0.0
  0
LINE
  5
238
330
1F
100
AcDbEntity
  8
0
  6
Continuous
 62
     7
370
    15
100
AcDbLine
 10
10419.173937478
 20
-1106.2183222369
 30
0.0
 11
10325.2295907424
 21
-952.6785563245
 31
0.0
  0
LINE
  5
239
330
1F
100
AcDbEntity
  8
0
  6
Continuous
 62
     7
370
    15
100
AcDbLine
 10
7295.2112476034
 20
-2502.9749781324
 30
0.0
 11
7376.4936489754
 21
-2663.5775037264
 31
0.0
  0
LINE
  5
23A
330
1F
100
AcDbEntity
  8
0
  6
Continuous
 62
     7
370
    15
100
AcDbLine
 10
10320.8732848671
 20
-1173.4001452397
 30
0.0
 11
10239.5908834951
 21
-1012.7976196456
 31
0.0
  0
LINE
  5
23B
330
1F
100
AcDbEntity
  8
0
  6
Continuous
 62
     7
370
    15
100
AcDbLine
 10
8453.0235966018
 20
-2185.4001795644
 30
0.0
 11
8452.7351299701
 21
-2185.1787869708
 31
0.0
  0
LINE
  5
23C
330
1F
100
AcDbEntity
  8
0
  6
Continuous
 62
     7
370
    15
100
AcDbLine
 10
8438.3775124196
 20
-2192.2398646698
 30
0.0
 11
8438.3767601827
 21
-2192.6034951308
 31
0.0
  0
LINE
  5
23D
330
1F
100
AcDbEntity
  8
0
  6
Continuous
 62
     7
370
    15
100
AcDbLine
 10
8461.0868789049
 20
-2197.424189246
 30
0.0
 11
8469.5454044177
 21
-2214.2786004372
 31
0.0
  0
LINE
  5
23E
330
1F
100
AcDbEntity
  8
0
  6
Continuous
 62
     7
370
    15
100
AcDbLine
 10
8451.6988349902
 20
-2223.3062817627
 30
0.0
 11
8443.2147286627
 21
-2206.4008983815
 31
0.0
  0
LINE
  5
23F
330
1F
100
AcDbEntity
  8
0
  6
Continuous
 62
     7
370
    15
100
AcDbLine
 10
8453.0373276973
 20
-2222.6292056633
 30
0.0
 11
8445.0793062921
 21
-2206.7720961908
 31
0.0
  0
LINE
  5
240
330
1F
100
AcDbEntity
  8
0
  6
Continuous
 62
     7
370
    15
100
AcDbLine
 10
8460.2719682286
 20
-2199.1445520063
 30
0.0
 11
8468.2069117107
 21
-2214.9556765367
 31
0.0
  0
LINE
  5
241
330
1F
100
AcDbEntity
  8
0
  6
Continuous
 62
     7
370
    15
100
AcDbLine
 10
8452.4954096753
 20
-2224.8991110017
 30
0.0
 11
8451.6988349902
 21
-2223.3062817627
 31
0.0
  0
LINE
  5
242
330
1F
100
AcDbEntity
  8
0
  6
Continuous
 62
     7
370
    15
100
AcDbLine
 10
12308.402117697
 20
-2589.6087935281
 30
0.0
 11
11775.6056864189
 21
-570.0440295366
 31
0.0
  0
LINE
  5
243
330
1F
100
AcDbEntity
  8
0
  6
Continuous
 62
     7
370
    15
100
AcDbLine
 10
8550.5643054937
 20
-4959.2310975213
 30
0.0
 11
11149.9092845932
 21
-4443.5706669762
 31
0.0
  0
LINE
  5
244
330
1F
100
AcDbEntity
  8
0
  6
Continuous
 62
     7
370
    15
100
AcDbLine
 10
9641.9968558791
 20
382.6839525139
 30
0.0
 11
6611.9785127402
 21
-1167.6124692939
 31
0.0
  0
LINE
  5
245
330
1F
100
AcDbEntity
  8
0
  6
Continuous
 62
     7
370
    15
100
AcDbLine
 10
6222.9343691378
 20
-3551.889796365
 30
0.0
 11
7186.4041644553
 21
-4536.8185690938
 31
0.0
  0
LINE
  5
246
330
1F
100
AcDbEntity
  8
0
  6
PHANTOM
 62
     8
370
     0
100
AcDbLine
 10
8794.8552895641
 20
-2015.0326751903
 30
0.0
 11
8793.5167487384
 21
-2015.7096489409
 31
0.0
  0
LINE
  5
247
330
1F
100
AcDbEntity
  8
0
  6
PHANTOM
 62
     8
370
     0
100
AcDbLine
 10
8810.0254189227
 20
-2007.3603060175
 30
0.0
 11
8811.3639597485
 21
-2006.683332267
 31
0.0
  0
LINE
  5
248
330
1F
100
AcDbEntity
  8
0
  6
PHANTOM
 62
     8
370
     0
100
AcDbLine
 10
9136.2028182351
 20
-1806.436890716
 30
0.0
 11
9134.8642680178
 21
-1807.1138348608
 31
0.0
  0
LINE
  5
249
330
1F
100
AcDbEntity
  8
0
  6
PHANTOM
 62
     8
370
     0
100
AcDbLine
 10
9151.3730540318
 20
-1798.7648570755
 30
0.0
 11
9152.7116042492
 21
-1798.0879129307
 31
0.0
  0
LINE
  5
24A
330
1F
100
AcDbEntity
  8
0
  6
PHANTOM
 62
     8
370
     0
100
AcDbLine
 10
8111.0607202791
 20
-2429.9291764994
 30
0.0
 11
8109.7223134945
 21
-2430.606425908
 31
0.0
  0
LINE
  5
24B
330
1F
100
AcDbEntity
  8
0
  6
PHANTOM
 62
     8
370
     0
100
AcDbLine
 10
8126.2293305043
 20
-2422.2536832019
 30
0.0
 11
8127.5677372889
 21
-2421.5764337933
 31
0.0
  0
LINE
  5
24C
330
1F
100
AcDbEntity
  8
0
  6
PHANTOM
 62
     8
370
     0
100
AcDbLine
 10
9131.3824037999
 20
-1800.0766238524
 30
0.0
 11
9131.310394375
 21
-1800.1130411328
 31
0.0
  0
LINE
  5
24D
330
1F
100
AcDbEntity
  8
0
  6
PHANTOM
 62
     8
370
     0
100
AcDbLine
 10
8790.0530159104
 20
-2008.7617464311
 30
0.0
 11
8790.0050353868
 21
-2008.7860128222
 31
0.0
  0
LINE
  5
24E
330
1F
100
AcDbEntity
  8
0
  6
PHANTOM
 62
     8
370
     0
100
AcDbLine
 10
8448.2581943888
 20
-2216.4504803148
 30
0.0
 11
8448.2314086172
 21
-2216.4640298886
 31
0.0
  0
LINE
  5
24F
330
1F
100
AcDbEntity
  8
0
  6
PHANTOM
 62
     8
370
     0
100
AcDbLine
 10
8106.3091690164
 20
-2423.8454902993
 30
0.0
 11
8106.3011697073
 21
-2423.8495380428
 31
0.0
  0
LINE
  5
250
330
1F
100
AcDbEntity
  8
0
  6
PHANTOM
 62
     8
370
     0
100
AcDbLine
 10
8453.0373276973
 20
-2222.6292056633
 30
0.0
 11
8451.6988349902
 21
-2223.3062817627
 31
0.0
  0
LINE
  5
251
330
1F
100
AcDbEntity
  8
0
  6
PHANTOM
 62
     8
370
     0
100
AcDbLine
 10
8468.2069117107
 20
-2214.9556765367
 30
0.0
 11
8469.5454044177
 21
-2214.2786004372
 31
0.0
  0
ARC
  5
252
330
1F
100
AcDbEntity
  8
0
  6
Continuous
 62
     7
370
    15
100
AcDbCircle
 10
8119.7530051928
 20
-2428.2919370271
 30
0.0
 40
7.999999079941024
100
AcDbArc
 50
206.8399177408
 51
26.8399646774
  0
ARC
  5
253
330
1F
100
AcDbEntity
  8
0
  6
Continuous
 62
     7
370
    15
100
AcDbCircle
 10
8809.0816472524
 20
-1985.8540803529
 30
0.0
 40
5.000000000000677
100
AcDbArc
 50
301.460661964
 51
121.4606619639
  0
ARC
  5
254
330
1F
100
AcDbEntity
  8
0
  6
Continuous
 62
     7
370
    15
100
AcDbCircle
 10
8779.2266927695
 20
-2004.1210366626
 30
0.0
 40
5.000000000001371
100
AcDbArc
 50
121.4606619641
 51
301.460661964
  0
ARC
  5
255
330
1F
100
AcDbEntity
  8
0
  6
Continuous
 62
     7
370
    15
100
AcDbCircle
 10
8467.8821674472
 20
-2194.6192953209
 30
0.0
 40
5.000000000000228
100
AcDbArc
 50
301.460661964
 51
121.4606619639
  0
ARC
  5
256
330
1F
100
AcDbEntity
  8
0
  6
Continuous
 62
     7
370
    15
100
AcDbCircle
 10
8438.0272129642
 20
-2212.8862516306
 30
0.0
 40
5.000000000000749
100
AcDbArc
 50
121.4606619641
 51
301.460661964
  0
ARC
  5
257
330
1F
100
AcDbEntity
  8
0
  6
Continuous
 62
     7
370
    15
100
AcDbCircle
 10
8126.682687642
 20
-2403.3845102889
 30
0.0
 40
4.999999999999922
100
AcDbArc
 50
301.460661964
 51
121.4606619639
  0
ARC
  5
258
330
1F
100
AcDbEntity
  8
0
  6
Continuous
 62
     7
370
    15
100
AcDbCircle
 10
8096.827733159
 20
-2421.6514665986
 30
0.0
 40
5.000000000000922
100
AcDbArc
 50
121.4606619641
 51
301.460661964
  0
ARC
  5
259
330
1F
100
AcDbEntity
  8
0
  6
Continuous
 62
     7
370
    15
100
AcDbCircle
 10
9150.2811270577
 20
-1777.0888653849
 30
0.0
 40
5.000000000000228
100
AcDbArc
 50
301.460661964
 51
121.4606619639
  0
ARC
  5
25A
330
1F
100
AcDbEntity
  8
0
  6
Continuous
 62
     7
370
    15
100
AcDbCircle
 10
9120.4261725747
 20
-1795.3558216946
 30
0.0
 40
5.000000000001678
100
AcDbArc
 50
121.4606619641
 51
301.460661964
  0
ARC
  5
25B
330
1F
100
AcDbEntity
  8
0
  6
Continuous
 62
     7
370
    15
100
AcDbCircle
 10
8767.5376627416
 20
-2029.279958955
 30
0.0
 40
49.30874006718493
100
AcDbArc
 50
24.9953967843
 51
27.2754128212
  0
ARC
  5
25C
330
1F
100
AcDbEntity
  8
0
  6
Continuous
 62
     7
370
    15
100
AcDbCircle
 10
8766.1991219098
 20
-2029.9569327085
 30
0.0
 40
49.30874007390091
100
AcDbArc
 50
24.9953967845
 51
27.2754128211
  0
ARC
  5
25D
330
1F
100
AcDbEntity
  8
0
  6
Continuous
 62
     7
370
    15
100
AcDbCircle
 10
8751.0289925459
 20
-2037.6293018839
 30
0.0
 40
49.30874007978406
100
AcDbArc
 50
24.9953967846
 51
27.2754128209
  0
ARC
  5
25E
330
1F
100
AcDbEntity
  8
0
  6
Continuous
 62
     7
370
    15
100
AcDbCircle
 10
9131.232341031
 20
-1776.3908448495
 30
0.0
 40
8.075896068446019
100
AcDbArc
 50
12.0919412541
 51
26.7726305646
  0
ARC
  5
25F
330
1F
100
AcDbEntity
  8
0
  6
Continuous
 62
     7
370
    15
100
AcDbCircle
 10
9129.6106983285
 20
-1810.2066956072
 30
0.0
 40
26.08671592820513
100
AcDbArc
 50
23.8818439841
 51
27.6815957619
  0
ARC
  5
260
330
1F
100
AcDbEntity
  8
0
  6
Continuous
 62
     7
370
    15
100
AcDbCircle
 10
9113.1019123175
 20
-1818.555673391
 30
0.0
 40
26.08671592477383
100
AcDbArc
 50
23.8818439838
 51
27.6815957621
  0
ARC
  5
261
330
1F
100
AcDbEntity
  8
0
  6
Continuous
 62
     7
370
    15
100
AcDbCircle
 10
8829.304386016
 20
-1943.8440182055
 30
0.0
 40
334.3258971018691
100
AcDbArc
 50
26.2209786697
 51
26.8193238017
  0
ARC
  5
262
330
1F
100
AcDbEntity
  8
0
  6
Continuous
 62
     7
370
    15
100
AcDbCircle
 10
9130.2153575146
 20
-1774.8337277533
 30
0.0
 40
15.01058230115085
100
AcDbArc
 50
210.8296744825
 51
347.5591495256
  0
ARC
  5
263
330
1F
100
AcDbEntity
  8
0
  6
Continuous
 62
     7
370
    15
100
AcDbCircle
 10
9130.3099968039
 20
-1774.8487754862
 30
0.0
 40
14.91492457319381
100
AcDbArc
 50
347.5372763751
 51
23.0497480879
  0
ARC
  5
264
330
1F
100
AcDbEntity
  8
0
  6
Continuous
 62
     7
370
    15
100
AcDbCircle
 10
9130.1754868597
 20
-1774.6376224411
 30
0.0
 40
8.95070285680777
100
AcDbArc
 50
347.5396168544
 51
18.905665351
  0
ARC
  5
265
330
1F
100
AcDbEntity
  8
0
  6
Continuous
 62
     7
370
    15
100
AcDbCircle
 10
9130.1192365116
 20
-1774.6270150707
 30
0.0
 40
9.00791712194934
100
AcDbArc
 50
214.9563072176
 51
347.5509343401
  0
ARC
  5
266
330
1F
100
AcDbEntity
  8
0
  6
Continuous
 62
     7
370
    15
100
AcDbCircle
 10
9132.0136604898
 20
-1778.6163536284
 30
0.0
 40
14.91307417564541
100
AcDbArc
 50
347.5352376992
 51
24.3000992594
  0
ARC
  5
267
330
1F
100
AcDbEntity
  8
0
  6
Continuous
 62
     7
370
    15
100
AcDbCircle
 10
9131.9206311481
 20
-1778.6076963021
 30
0.0
 40
15.00578381044261
100
AcDbArc
 50
204.4903935986
 51
347.5796290519
  0
ARC
  5
268
330
1F
100
AcDbEntity
  8
0
  6
Continuous
 62
     7
370
    15
100
AcDbCircle
 10
8100.812931065
 20
-2390.2833591005
 30
0.0
 40
8.796834730367893
100
AcDbArc
 50
347.1976861276
 51
54.2389026618
  0
ARC
  5
269
330
1F
100
AcDbEntity
  8
0
  6
Continuous
 62
     7
370
    15
100
AcDbCircle
 10
8100.6260935164
 20
-2390.3261884323
 30
0.0
 40
8.969922659878634
100
AcDbArc
 50
180.0033874588
 51
347.7289173722
  0
ARC
  5
26A
330
1F
100
AcDbEntity
  8
0
  6
Continuous
 62
     7
370
    15
100
AcDbCircle
 10
8100.5614258696
 20
-2390.9444502916
 30
0.0
 40
14.67698308682992
100
AcDbArc
 50
163.5522813401
 51
249.1981666582
  0
ARC
  5
26B
330
1F
100
AcDbEntity
  8
0
  6
Continuous
 62
     7
370
    15
100
AcDbCircle
 10
8101.1303312518
 20
-2390.6568342149
 30
0.0
 40
14.67816740930508
100
AcDbArc
 50
347.2328096324
 51
72.2809762699
  0
ARC
  5
26C
330
1F
100
AcDbEntity
  8
0
  6
Continuous
 62
     7
370
    15
100
AcDbCircle
 10
8104.7024275223
 20
-2397.7891886751
 30
0.0
 40
14.69134667348915
100
AcDbArc
 50
347.2276150413
 51
26.6262358303
  0
ARC
  5
26D
330
1F
100
AcDbEntity
  8
0
  6
Continuous
 62
     7
370
    15
100
AcDbCircle
 10
8104.3702567278
 20
-2397.7776451643
 30
0.0
 40
15.01797897886638
100
AcDbArc
 50
207.3212216301
 51
347.4648336054
  0
ARC
  5
26E
330
1F
100
AcDbEntity
  8
0
  6
Continuous
 62
     7
370
    15
100
AcDbCircle
 10
8444.1697184051
 20
-2185.5654790632
 30
0.0
 40
8.856043632598643
100
AcDbArc
 50
347.3321885464
 51
53.6679385165
  0
ARC
  5
26F
330
1F
100
AcDbEntity
  8
0
  6
Continuous
 62
     7
370
    15
100
AcDbCircle
 10
8444.0373972786
 20
-2185.5943685547
 30
0.0
 40
8.978990595460262
100
AcDbArc
 50
179.3477558506
 51
347.6972153153
  0
ARC
  5
270
330
1F
100
AcDbEntity
  8
0
  6
Continuous
 62
     7
370
    15
100
AcDbCircle
 10
8444.0457367927
 20
-2186.0748800137
 30
0.0
 40
14.79957240289121
100
AcDbArc
 50
149.4473690144
 51
263.73937484
  0
ARC
  5
271
330
1F
100
AcDbEntity
  8
0
  6
Continuous
 62
     7
370
    15
100
AcDbCircle
 10
8444.4037571706
 20
-2185.8925598387
 30
0.0
 40
14.7873722257848
100
AcDbArc
 50
347.3848120658
 51
84.3930908608
  0
ARC
  5
272
330
1F
100
AcDbEntity
  8
0
  6
Continuous
 62
     7
370
    15
100
AcDbCircle
 10
8447.3750993011
 20
-2191.9105521833
 30
0.0
 40
14.78067620507323
100
AcDbArc
 50
347.3521963928
 51
26.1583169949
  0
ARC
  5
273
330
1F
100
AcDbEntity
  8
0
  6
Continuous
 62
     7
370
    15
100
AcDbCircle
 10
8447.1394748634
 20
-2191.9003568106
 30
0.0
 40
15.01287318842726
100
AcDbArc
 50
206.6489266515
 51
347.5111275651
  0
ARC
  5
274
330
1F
100
AcDbEntity
  8
0
  6
Continuous
 62
     7
370
    15
100
AcDbCircle
 10
8372.8385969973
 20
-2263.6176585445
 30
0.0
 40
108.5658751927093
100
AcDbArc
 50
25.8655710369
 51
27.0303197567
  0
ARC
  5
275
330
1F
100
AcDbEntity
  8
0
  6
Continuous
 62
     7
370
    15
100
AcDbCircle
 10
8391.6776401254
 20
-2254.2006673102
 30
0.0
 40
86.00522490045464
100
AcDbArc
 50
25.6863561718
 51
27.1492136766
  0
ARC
  5
276
330
1F
100
AcDbEntity
  8
0
  6
Continuous
 62
     7
370
    15
100
AcDbCircle
 10
8356.3305202631
 20
-2271.9682637774
 30
0.0
 40
108.5658752080973
100
AcDbArc
 50
25.865571037
 51
27.0303197566
  0
ARC
  5
277
330
1F
100
AcDbEntity
  8
0
  6
Continuous
 62
     7
370
    15
100
AcDbCircle
 10
8258.6810429209
 20
-3487.9037508612
 30
0.0
 40
1500.000000000007
100
AcDbArc
 50
224.3689899239
 51
281.2207058766
  0
ARC
  5
278
330
1F
100
AcDbEntity
  8
0
  6
Continuous
 62
     7
370
    15
100
AcDbCircle
 10
10858.0260220205
 20
-2972.2433203161
 30
0.0
 40
1499.999999999987
100
AcDbArc
 50
281.2207058766
 51
14.7788994435
  0
ARC
  5
279
330
1F
100
AcDbEntity
  8
0
  6
Continuous
 62
     7
370
    15
100
AcDbCircle
 10
7295.2112476034
 20
-2502.9749781324
 30
0.0
 40
1499.999999999993
100
AcDbArc
 50
117.0963689332
 51
224.3689899239
  0
ARC
  5
27A
330
1F
100
AcDbEntity
  8
0
  6
Continuous
 62
     7
370
    15
100
AcDbCircle
 10
10325.2295907424
 20
-952.6785563246
 30
0.0
 40
1500.000000000006
100
AcDbArc
 50
14.7788994435
 51
117.0963689332
  0
ARC
  5
27B
330
1F
100
AcDbEntity
  8
0
  6
Continuous
 62
     7
370
    15
100
AcDbCircle
 10
8787.4622828795
 20
-1980.9361827105
 30
0.0
 40
14.95357272217121
100
AcDbArc
 50
147.8265472145
 51
347.8626395383
  0
ARC
  5
27C
330
1F
100
AcDbEntity
  8
0
  6
Continuous
 62
     7
370
    15
100
AcDbCircle
 10
8787.5739537909
 20
-1980.8584164106
 30
0.0
 40
14.86108204904651
100
AcDbArc
 50
347.478993296
 51
83.5262707803
  0
ARC
  5
27D
330
1F
100
AcDbEntity
  8
0
  6
Continuous
 62
     7
370
    15
100
AcDbCircle
 10
8787.3972415641
 20
-1980.5861035234
 30
0.0
 40
8.905530790128568
100
AcDbArc
 50
347.4436489817
 51
52.8799660098
  0
ARC
  5
27E
330
1F
100
AcDbEntity
  8
0
  6
Continuous
 62
     7
370
    15
100
AcDbCircle
 10
8787.3104629647
 20
-1980.6036063649
 30
0.0
 40
8.986500671781998
100
AcDbArc
 50
178.4888731133
 51
347.6728573184
  0
ARC
  5
27F
330
1F
100
AcDbEntity
  8
0
  6
Continuous
 62
     7
370
    15
100
AcDbCircle
 10
8789.9156801612
 20
-1985.7548165835
 30
0.0
 40
14.85546379662531
100
AcDbArc
 50
347.4557128082
 51
25.4554661261
  0
ARC
  5
280
330
1F
100
AcDbEntity
  8
0
  6
Continuous
 62
     7
370
    15
100
AcDbCircle
 10
8789.7267624952
 20
-1985.8011859927
 30
0.0
 40
14.95410708962755
100
AcDbArc
 50
205.6427446522
 51
293.8146998092
  0
ARC
  5
281
330
1F
100
AcDbEntity
  8
0
  6
Continuous
 62
     7
370
    15
100
AcDbCircle
 10
8789.7833642635
 20
-1985.7258579486
 30
0.0
 40
14.9909107588792
100
AcDbArc
 50
320.080839102
 51
347.4575125933
  0
ARC
  5
282
330
1F
100
AcDbEntity
  8
0
  6
PHANTOM
 62
     8
370
     0
100
AcDbCircle
 10
8801.96789261
 20
-2011.0626623999
 30
0.0
 40
7.6440287501705
100
AcDbArc
 50
208.9761092828
 51
299.599980536
  0
ARC
  5
283
330
1F
100
AcDbEntity
  8
0
  6
PHANTOM
 62
     8
370
     0
100
AcDbCircle
 10
8802.6332936121
 20
-2010.7409062119
 30
0.0
 40
7.630846423716873
100
AcDbArc
 50
294.0539092225
 51
24.0818314259
  0
ARC
  5
284
330
1F
100
AcDbEntity
  8
0
  6
PHANTOM
 62
     8
370
     0
100
AcDbCircle
 10
9143.3726714806
 20
-1802.4809231856
 30
0.0
 40
7.686531682748448
100
AcDbArc
 50
208.4998572472
 51
299.270176282
  0
ARC
  5
285
330
1F
100
AcDbEntity
  8
0
  6
PHANTOM
 62
     8
370
     0
100
AcDbCircle
 10
9143.9649896787
 20
-1802.2009440321
 30
0.0
 40
7.669063979522386
100
AcDbArc
 50
294.381309559
 51
24.2333619663
  0
ARC
  5
286
330
1F
100
AcDbEntity
  8
0
  6
PHANTOM
 62
     8
370
     0
100
AcDbCircle
 10
8118.0494344112
 20
-2425.9263315049
 30
0.0
 40
7.554174201168082
100
AcDbArc
 50
209.9413946826
 51
300.3206498496
  0
ARC
  5
287
330
1F
100
AcDbEntity
  8
0
  6
PHANTOM
 62
     8
370
     0
100
AcDbCircle
 10
8118.8690722722
 20
-2425.5146704356
 30
0.0
 40
7.551422721633163
100
AcDbArc
 50
293.3584259001
 51
23.644147325
  0
ARC
  5
288
330
1F
100
AcDbEntity
  8
0
  6
PHANTOM
 62
     8
370
     0
100
AcDbCircle
 10
8100.7082465604
 20
-2390.5281541122
 30
0.0
 40
15.11828786562154
100
AcDbArc
 50
249.2383087224
 51
347.11069316
  0
ARC
  5
289
330
1F
100
AcDbEntity
  8
0
  6
PHANTOM
 62
     8
370
     0
100
AcDbCircle
 10
9485.1350640526
 20
-1594.5959561758
 30
0.0
 40
7.809912938307906
100
AcDbArc
 50
218.5703314652
 51
298.6808004669
  0
ARC
  5
28A
330
1F
100
AcDbEntity
  8
0
  6
PHANTOM
 62
     8
370
     0
100
AcDbCircle
 10
9485.5065923838
 20
-1594.3506928456
 30
0.0
 40
7.859308748113178
100
AcDbArc
 50
295.4447659188
 51
14.812829935
  0
ARC
  5
28B
330
1F
100
AcDbEntity
  8
0
  6
PHANTOM
 62
     8
370
     0
100
AcDbCircle
 10
8444.11876333
 20
-2185.7936759109
 30
0.0
 40
15.08712132726516
100
AcDbArc
 50
263.5801562813
 51
347.2547285416
  0
ARC
  5
28C
330
1F
100
AcDbEntity
  8
0
  6
PHANTOM
 62
     8
370
     0
100
AcDbCircle
 10
8460.08947779
 20
-2218.6435942781
 30
0.0
 40
7.599816219703919
100
AcDbArc
 50
209.4554215256
 51
299.950546833
  0
ARC
  5
28D
330
1F
100
AcDbEntity
  8
0
  6
PHANTOM
 62
     8
370
     0
100
AcDbCircle
 10
8460.8307742389
 20
-2218.2778748941
 30
0.0
 40
7.591550867982039
100
AcDbArc
 50
293.7125498231
 51
23.8844403585
  0
ARC
  5
28E
330
1F
100
AcDbEntity
  8
0
  6
PHANTOM
 62
     8
370
     0
100
AcDbCircle
 10
8789.7163488238
 20
-1985.6708680476
 30
0.0
 40
15.07759567081445
100
AcDbArc
 50
293.6509444336
 51
320.083991946
  0
ENDSEC
  0
SECTION
  2
OBJECTS
  0
DICTIONARY
  5
C
330
0
100
AcDbDictionary
281
     1
  3
ACAD_GROUP
350
D
  3
ACAD_LAYOUT
350
1A
  3
ACAD_MLINESTYLE
350
17
  3
ACAD_PLOTSETTINGS
350
19
  3
ACAD_PLOTSTYLENAME
350
E
  3
ACAD_SCALELIST
350
47
  0
DICTIONARY
  5
D
102
{ACAD_REACTORS
330
C
102
}
330
C
100
AcDbDictionary
281
     1
  0
DICTIONARY
  5
1A
102
{ACAD_REACTORS
330
C
102
}
330
C
100
AcDbDictionary
281
     1
  3
Layout1
350
1E
  3
Layout2
350
26
  3
Model
350
22
  0
DICTIONARY
  5
17
102
{ACAD_REACTORS
330
C
102
}
330
C
100
AcDbDictionary
281
     1
  3
Standard
350
18
  0
DICTIONARY
  5
19
102
{ACAD_REACTORS
330
C
102
}
330
C
100
AcDbDictionary
281
     1
  0
ACDBDICTIONARYWDFLT
  5
E
102
{ACAD_REACTORS
330
C
102
}
330
C
100
AcDbDictionary
281
     1
  3
Normal
350
F
100
AcDbDictionaryWithDefault
340
F
  0
DICTIONARY
  5
47
102
{ACAD_REACTORS
330
C
102
}
330
C
100
AcDbDictionary
281
     1
  3
A0
350
48
  3
A1
350
49
  3
A2
350
4A
  3
A3
350
4B
  3
A4
350
4C
  3
A5
350
4D
  3
A6
350
4E
  3
A7
350
4F
  3
A8
350
50
  3
A9
350
51
  3
B0
350
52
  3
B1
350
53
  3
B2
350
54
  3
B3
350
55
  3
B4
350
56
  3
B5
350
57
  3
B6
350
58
  3
B7
350
59
  3
B8
350
5A
  3
B9
350
5B
  3
C0
350
5C
  3
C1
350
5D
  3
C2
350
5E
  3
C3
350
5F
  3
C4
350
60
  3
C5
350
61
  3
C6
350
62
  3
C7
350
63
  3
C8
350
64
  3
C9
350
65
  3
D0
350
66
  3
D1
350
67
  3
D2
350
68
  0
LAYOUT
  5
1E
102
{ACAD_REACTORS
330
1A
102
}
330
1A
100
AcDbPlotSettings
  1

  2
none_device
  4

  6

 40
0.0
 41
0.0
 42
0.0
 43
0.0
 44
0.0
 45
0.0
 46
0.0
 47
0.0
 48
0.0
 49
0.0
140
0.0
141
0.0
142
1.0
143
1.0
 70
   688
 72
     1
 73
     0
 74
     5
  7

 75
    16
147
1.0
148
0.0
149
0.0
100
AcDbLayout
  1
Layout1
 70
     1
 71
     1
 10
0.0
 20
0.0
 11
420.0
 21
297.0
 12
0.0
 22
0.0
 32
0.0
 14
1.0000000000E+20
 24
1.0000000000E+20
 34
1.0000000000E+20
 15
-1.0000000000E+20
 25
-1.0000000000E+20
 35
-1.0000000000E+20
146
0.0
 13
0.0
 23
0.0
 33
0.0
 16
1.0
 26
0.0
 36
0.0
 17
0.0
 27
1.0
 37
0.0
 76
     0
330
1B
  0
LAYOUT
  5
26
102
{ACAD_REACTORS
330
1A
102
}
330
1A
100
AcDbPlotSettings
  1

  2
none_device
  4

  6

 40
0.0
 41
0.0
 42
0.0
 43
0.0
 44
0.0
 45
0.0
 46
0.0
 47
0.0
 48
0.0
 49
0.0
140
0.0
141
0.0
142
1.0
143
1.0
 70
   688
 72
     1
 73
     0
 74
     5
  7

 75
    16
147
1.0
148
0.0
149
0.0
100
AcDbLayout
  1
Layout2
 70
     1
 71
     2
 10
0.0
 20
0.0
 11
0.0
 21
0.0
 12
0.0
 22
0.0
 32
0.0
 14
0.0
 24
0.0
 34
0.0
 15
0.0
 25
0.0
 35
0.0
146
0.0
 13
0.0
 23
0.0
 33
0.0
 16
1.0
 26
0.0
 36
0.0
 17
0.0
 27
1.0
 37
0.0
 76
     0
330
23
  0
LAYOUT
  5
22
102
{ACAD_REACTORS
330
1A
102
}
330
1A
100
AcDbPlotSettings
  1

  2
none_device
  4
ANSI_A_(11.00_x_8.50_Inches)
  6

 40
6.35
 41
19.05
 42
6.35000508
 43
19.05000254
 44
279.4
 45
215.9
 46
-217.1408092263
 47
174.6358513433
 48
0.0
 49
0.0
140
0.0
141
0.0
142
0.0015202634
143
1.0
 70
  1696
 72
     0
 73
     0
 74
     0
  7

 75
     0
147
0.0179189148
148
-1300.4909072572
149
0.0
100
AcDbLayout
  1
Model
 70
     1
 71
     0
 10
0.0
 20
0.0
 11
420.0
 21
297.0
 12
0.0
 22
0.0
 32
0.0
 14
5795.2112476034
 24
-4987.9037508612
 34
0.0
 15
12358.0260220205
 25
547.3214436754
 35
0.0
146
0.0
 13
0.0
 23
0.0
 33
0.0
 16
1.0
 26
0.0
 36
0.0
 17
0.0
 27
1.0
 37
0.0
 76
     0
330
1F
331
29
  0
MLINESTYLE
  5
18
102
{ACAD_REACTORS
330
17
102
}
330
17
100
AcDbMlineStyle
  2
Standard
 70
     0
  3

 62
   256
 51
90.0
 52
90.0
 71
     2
 49
0.5
 62
   256
  6
BYLAYER
 49
-0.5
 62
   256
  6
BYLAYER
  0
ACDBPLACEHOLDER
  5
F
102
{ACAD_REACTORS
330
E
102
}
330
E
  0
SCALE
  5
48
102
{ACAD_REACTORS
330
47
102
}
330
47
100
AcDbScale
 70
     0
300
1:1
140
1.0
141
1.0
290
     1
  0
SCALE
  5
49
102
{ACAD_REACTORS
330
47
102
}
330
47
100
AcDbScale
 70
     0
300
1:2
140
1.0
141
2.0
290
     0
  0
SCALE
  5
4A
102
{ACAD_REACTORS
330
47
102
}
330
47
100
AcDbScale
 70
     0
300
1:4
140
1.0
141
4.0
290
     0
  0
SCALE
  5
4B
102
{ACAD_REACTORS
330
47
102
}
330
47
100
AcDbScale
 70
     0
300
1:5
140
1.0
141
5.0
290
     0
  0
SCALE
  5
4C
102
{ACAD_REACTORS
330
47
102
}
330
47
100
AcDbScale
 70
     0
300
1:8
140
1.0
141
8.0
290
     0
  0
SCALE
  5
4D
102
{ACAD_REACTORS
330
47
102
}
330
47
100
AcDbScale
 70
     0
300
1:10
140
1.0
141
10.0
290
     0
  0
SCALE
  5
4E
102
{ACAD_REACTORS
330
47
102
}
330
47
100
AcDbScale
 70
     0
300
1:16
140
1.0
141
16.0
290
     0
  0
SCALE
  5
4F
102
{ACAD_REACTORS
330
47
102
}
330
47
100
AcDbScale
 70
     0
300
1:20
140
1.0
141
20.0
290
     0
  0
SCALE
  5
50
102
{ACAD_REACTORS
330
47
102
}
330
47
100
AcDbScale
 70
     0
300
1:30
140
1.0
141
30.0
290
     0
  0
SCALE
  5
51
102
{ACAD_REACTORS
330
47
102
}
330
47
100
AcDbScale
 70
     0
300
1:40
140
1.0
141
40.0
290
     0
  0
SCALE
  5
52
102
{ACAD_REACTORS
330
47
102
}
330
47
100
AcDbScale
 70
     0
300
1:50
140
1.0
141
50.0
290
     0
  0
SCALE
  5
53
102
{ACAD_REACTORS
330
47
102
}
330
47
100
AcDbScale
 70
     0
300
1:100
140
1.0
141
100.0
290
     0
  0
SCALE
  5
54
102
{ACAD_REACTORS
330
47
102
}
330
47
100
AcDbScale
 70
     0
300
2:1
140
2.0
141
1.0
290
     0
  0
SCALE
  5
55
102
{ACAD_REACTORS
330
47
102
}
330
47
100
AcDbScale
 70
     0
300
4:1
140
4.0
141
1.0
290
     0
  0
SCALE
  5
56
102
{ACAD_REACTORS
330
47
102
}
330
47
100
AcDbScale
 70
     0
300
8:1
140
8.0
141
1.0
290
     0
  0
SCALE
  5
57
102
{ACAD_REACTORS
330
47
102
}
330
47
100
AcDbScale
 70
     0
300
10:1
140
10.0
141
1.0
290
     0
  0
SCALE
  5
58
102
{ACAD_REACTORS
330
47
102
}
330
47
100
AcDbScale
 70
     0
300
100:1
140
100.0
141
1.0
290
     0
  0
SCALE
  5
59
102
{ACAD_REACTORS
330
47
102
}
330
47
100
AcDbScale
 70
     0
300
1/128" = 1'-0"
140
0.0078125
141
12.0
290
     0
  0
SCALE
  5
5A
102
{ACAD_REACTORS
330
47
102
}
330
47
100
AcDbScale
 70
     0
300
1/64" = 1'-0"
140
0.015625
141
12.0
290
     0
  0
SCALE
  5
5B
102
{ACAD_REACTORS
330
47
102
}
330
47
100
AcDbScale
 70
     0
300
1/32" = 1'-0"
140
0.03125
141
12.0
290
     0
  0
SCALE
  5
5C
102
{ACAD_REACTORS
330
47
102
}
330
47
100
AcDbScale
 70
     0
300
1/16" = 1'-0"
140
0.0625
141
12.0
290
     0
  0
SCALE
  5
5D
102
{ACAD_REACTORS
330
47
102
}
330
47
100
AcDbScale
 70
     0
300
3/32" = 1'-0"
140
0.09375
141
12.0
290
     0
  0
SCALE
  5
5E
102
{ACAD_REACTORS
330
47
102
}
330
47
100
AcDbScale
 70
     0
300
1/8" = 1'-0"
140
0.125
141
12.0
290
     0
  0
SCALE
  5
5F
102
{ACAD_REACTORS
330
47
102
}
330
47
100
AcDbScale
 70
     0
300
3/16" = 1'-0"
140
0.1875
141
12.0
290
     0
  0
SCALE
  5
60
102
{ACAD_REACTORS
330
47
102
}
330
47
100
AcDbScale
 70
     0
300
1/4" = 1'-0"
140
0.25
141
12.0
290
     0
  0
SCALE
  5
61
102
{ACAD_REACTORS
330
47
102
}
330
47
100
AcDbScale
 70
     0
300
3/8" = 1'-0"
140
0.375
141
12.0
290
     0
  0
SCALE
  5
62
102
{ACAD_REACTORS
330
47
102
}
330
47
100
AcDbScale
 70
     0
300
1/2" = 1'-0"
140
0.5
141
12.0
290
     0
  0
SCALE
  5
63
102
{ACAD_REACTORS
330
47
102
}
330
47
100
AcDbScale
 70
     0
300
3/4" = 1'-0"
140
0.75
141
12.0
290
     0
  0
SCALE
  5
64
102
{ACAD_REACTORS
330
47
102
}
330
47
100
AcDbScale
 70
     0
300
1" = 1'-0"
140
1.0
141
12.0
290
     0
  0
SCALE
  5
65
102
{ACAD_REACTORS
330
47
102
}
330
47
100
AcDbScale
 70
     0
300
1-1/2" = 1'-0"
140
1.5
141
12.0
290
     0
  0
SCALE
  5
66
102
{ACAD_REACTORS
330
47
102
}
330
47
100
AcDbScale
 70
     0
300
3" = 1'-0"
140
3.0
141
12.0
290
     0
  0
SCALE
  5
67
102
{ACAD_REACTORS
330
47
102
}
330
47
100
AcDbScale
 70
     0
300
6" = 1'-0"
140
6.0
141
12.0
290
     0
  0
SCALE
  5
68
102
{ACAD_REACTORS
330
47
102
}
330
47
100
AcDbScale
 70
     0
300
1'-0" = 1'-0"
140
12.0
141
12.0
290
     0
  0
ENDSEC
  0
EOF
