  0
SECTION
  2
HEADER
  9
$ACADVER
  1
AC1015
  9
$ACADMAINTVER
 70
     6
  9
$DWGCODEPAGE
  3
ANSI_1251
  9
$INSBASE
 10
0.0
 20
0.0
 30
0.0
  9
$EXTMIN
 10
414.6456349849
 20
297.8209391736
 30
0.0
  9
$EXTMAX
 10
859.6456349849
 20
742.8209391736
 30
0.0
  9
$LIMMIN
 10
0.0
 20
0.0
  9
$LIMMAX
 10
420.0
 20
297.0
  9
$ORTHOMODE
 70
     0
  9
$REGENMODE
 70
     1
  9
$FILLMODE
 70
     1
  9
$QTEXTMODE
 70
     0
  9
$MIRRTEXT
 70
     1
  9
$LTSCALE
 40
1.0
  9
$ATTMODE
 70
     1
  9
$TEXTSIZE
 40
3.0
  9
$TRACEWID
 40
1.0
  9
$TEXTSTYLE
  7
Standard
  9
$CLAYER
  8
0
  9
$CELTYPE
  6
ByLayer
  9
$CECOLOR
 62
   256
  9
$CELTSCALE
 40
1.0
  9
$DISPSILH
 70
     0
  9
$DIMSCALE
 40
1.0
  9
$DIMASZ
 40
3.0
  9
$DIMEXO
 40
0.0
  9
$DIMDLI
 40
3.75
  9
$DIMRND
 40
0.0
  9
$DIMDLE
 40
0.0
  9
$DIMEXE
 40
2.0
  9
$DIMTP
 40
0.0
  9
$DIMTM
 40
0.0
  9
$DIMTXT
 40
3.0
  9
$DIMCEN
 40
2.5
  9
$DIMTSZ
 40
0.0
  9
$DIMTOL
 70
     0
  9
$DIMLIM
 70
     0
  9
$DIMTIH
 70
     1
  9
$DIMTOH
 70
     1
  9
$DIMSE1
 70
     0
  9
$DIMSE2
 70
     0
  9
$DIMTAD
 70
     1
  9
$DIMZIN
 70
     0
  9
$DIMBLK
  1

  9
$DIMASO
 70
     1
  9
$DIMSHO
 70
     1
  9
$DIMPOST
  1

  9
$DIMAPOST
  1

  9
$DIMALT
 70
     0
  9
$DIMALTD
 70
     3
  9
$DIMALTF
 40
0.0393700787
  9
$DIMLFAC
 40
1.0
  9
$DIMTOFL
 70
     1
  9
$DIMTVP
 40
0.0
  9
$DIMTIX
 70
     0
  9
$DIMSOXD
 70
     0
  9
$DIMSAH
 70
     0
  9
$DIMBLK1
  1

  9
$DIMBLK2
  1

  9
$DIMSTYLE
  2
ISO-25
  9
$DIMCLRD
 70
     0
  9
$DIMCLRE
 70
     0
  9
$DIMCLRT
 70
     0
  9
$DIMTFAC
 40
1.0
  9
$DIMGAP
 40
2.0
  9
$DIMJUST
 70
     0
  9
$DIMSD1
 70
     0
  9
$DIMSD2
 70
     0
  9
$DIMTOLJ
 70
     0
  9
$DIMTZIN
 70
     0
  9
$DIMALTZ
 70
     0
  9
$DIMALTTZ
 70
     0
  9
$DIMUPT
 70
     0
  9
$DIMDEC
 70
     2
  9
$DIMTDEC
 70
     2
  9
$DIMALTU
 70
     2
  9
$DIMALTTD
 70
     3
  9
$DIMTXSTY
  7
Standard
  9
$DIMAUNIT
 70
     0
  9
$DIMADEC
 70
     2
  9
$DIMALTRND
 40
0.0
  9
$DIMAZIN
 70
     0
  9
$DIMDSEP
 70
    44
  9
$DIMATFIT
 70
     3
  9
$DIMFRAC
 70
     0
  9
$DIMLDRBLK
  1

  9
$DIMLUNIT
 70
     2
  9
$DIMLWD
 70
    -2
  9
$DIMLWE
 70
    -2
  9
$DIMTMOVE
 70
     0
  9
$LUNITS
 70
     2
  9
$LUPREC
 70
     2
  9
$SKETCHINC
 40
1.0
  9
$FILLETRAD
 40
10.0
  9
$AUNITS
 70
     1
  9
$AUPREC
 70
     2
  9
$MENU
  1
.
  9
$ELEVATION
 40
0.0
  9
$PELEVATION
 40
0.0
  9
$THICKNESS
 40
0.0
  9
$LIMCHECK
 70
     0
  9
$CHAMFERA
 40
0.0
  9
$CHAMFERB
 40
0.0
  9
$CHAMFERC
 40
0.0
  9
$CHAMFERD
 40
0.0
  9
$SKPOLY
 70
     0
  9
$TDCREATE
 40
2459306.435486331
  9
$TDUCREATE
 40
2459306.310486331
  9
$TDUPDATE
 40
2459306.435513947
  9
$TDUUPDATE
 40
2459306.310513947
  9
$TDINDWG
 40
0.0000000116
  9
$TDUSRTIMER
 40
0.0000000116
  9
$USRTIMER
 70
     1
  9
$ANGBASE
 50
0.0
  9
$ANGDIR
 70
     0
  9
$PDMODE
 70
     0
  9
$PDSIZE
 40
-1.0
  9
$PLINEWID
 40
0.0
  9
$SPLFRAME
 70
     0
  9
$SPLINETYPE
 70
     6
  9
$SPLINESEGS
 70
     8
  9
$HANDSEED
  5
1D9
  9
$SURFTAB1
 70
     6
  9
$SURFTAB2
 70
     6
  9
$SURFTYPE
 70
     6
  9
$SURFU
 70
     6
  9
$SURFV
 70
     6
  9
$UCSBASE
  2

  9
$UCSNAME
  2

  9
$UCSORG
 10
0.0
 20
0.0
 30
0.0
  9
$UCSXDIR
 10
1.0
 20
0.0
 30
0.0
  9
$UCSYDIR
 10
0.0
 20
1.0
 30
0.0
  9
$UCSORTHOREF
  2

  9
$UCSORTHOVIEW
 70
     0
  9
$UCSORGTOP
 10
0.0
 20
0.0
 30
0.0
  9
$UCSORGBOTTOM
 10
0.0
 20
0.0
 30
0.0
  9
$UCSORGLEFT
 10
0.0
 20
0.0
 30
0.0
  9
$UCSORGRIGHT
 10
0.0
 20
0.0
 30
0.0
  9
$UCSORGFRONT
 10
0.0
 20
0.0
 30
0.0
  9
$UCSORGBACK
 10
0.0
 20
0.0
 30
0.0
  9
$PUCSBASE
  2

  9
$PUCSNAME
  2

  9
$PUCSORG
 10
0.0
 20
0.0
 30
0.0
  9
$PUCSXDIR
 10
1.0
 20
0.0
 30
0.0
  9
$PUCSYDIR
 10
0.0
 20
1.0
 30
0.0
  9
$PUCSORTHOREF
  2

  9
$PUCSORTHOVIEW
 70
     0
  9
$PUCSORGTOP
 10
0.0
 20
0.0
 30
0.0
  9
$PUCSORGBOTTOM
 10
0.0
 20
0.0
 30
0.0
  9
$PUCSORGLEFT
 10
0.0
 20
0.0
 30
0.0
  9
$PUCSORGRIGHT
 10
0.0
 20
0.0
 30
0.0
  9
$PUCSORGFRONT
 10
0.0
 20
0.0
 30
0.0
  9
$PUCSORGBACK
 10
0.0
 20
0.0
 30
0.0
  9
$USERI1
 70
     0
  9
$USERI2
 70
     0
  9
$USERI3
 70
     0
  9
$USERI4
 70
     0
  9
$USERI5
 70
     0
  9
$USERR1
 40
0.0
  9
$USERR2
 40
0.0
  9
$USERR3
 40
0.0
  9
$USERR4
 40
0.0
  9
$USERR5
 40
0.0
  9
$WORLDVIEW
 70
     1
  9
$SHADEDGE
 70
     3
  9
$SHADEDIF
 70
    70
  9
$TILEMODE
 70
     1
  9
$MAXACTVP
 70
    64
  9
$PINSBASE
 10
0.0
 20
0.0
 30
0.0
  9
$PLIMCHECK
 70
     0
  9
$PEXTMIN
 10
1.0000000000E+20
 20
1.0000000000E+20
 30
1.0000000000E+20
  9
$PEXTMAX
 10
-1.0000000000E+20
 20
-1.0000000000E+20
 30
-1.0000000000E+20
  9
$PLIMMIN
 10
0.0
 20
0.0
  9
$PLIMMAX
 10
420.0
 20
297.0
  9
$UNITMODE
 70
     0
  9
$VISRETAIN
 70
     1
  9
$PLINEGEN
 70
     0
  9
$PSLTSCALE
 70
     1
  9
$TREEDEPTH
 70
  3020
  9
$CMLSTYLE
  2
Standard
  9
$CMLJUST
 70
     0
  9
$CMLSCALE
 40
20.0
  9
$PROXYGRAPHICS
 70
     1
  9
$MEASUREMENT
 70
     1
  9
$CELWEIGHT
370
    -1
  9
$ENDCAPS
280
     0
  9
$JOINSTYLE
280
     0
  9
$LWDISPLAY
290
     1
  9
$INSUNITS
 70
     4
  9
$HYPERLINKBASE
  1

  9
$STYLESHEET
  1

  9
$XEDIT
290
     1
  9
$CEPSNTYPE
380
     0
  9
$PSTYLEMODE
290
     1
  9
$FINGERPRINTGUID
  2
{F04DD3D6-265C-4DD2-95C2-07D53F533798}
  9
$VERSIONGUID
  2
{FAEB1C32-E019-11D5-929B-00C0DF256EC4}
  9
$EXTNAMES
290
     1
  9
$PSVPSCALE
 40
0.0
  9
$OLESTARTUP
290
     0
  0
ENDSEC
  0
SECTION
  2
CLASSES
  0
CLASS
  1
ACDBDICTIONARYWDFLT
  2
AcDbDictionaryWithDefault
  3
ObjectDBX Classes
 90
        0
280
     0
281
     0
  0
CLASS
  1
VISUALSTYLE
  2
AcDbVisualStyle
  3
ObjectDBX Classes
 90
     4095
280
     0
281
     0
  0
CLASS
  1
MATERIAL
  2
AcDbMaterial
  3
ObjectDBX Classes
 90
     1153
280
     0
281
     0
  0
CLASS
  1
SCALE
  2
AcDbScale
  3
ObjectDBX Classes
 90
     1153
280
     0
281
     0
  0
CLASS
  1
SUN
  2
AcDbSun
  3
SCENEOE
 90
     1153
280
     0
281
     0
  0
CLASS
  1
ACDBPLACEHOLDER
  2
AcDbPlaceHolder
  3
ObjectDBX Classes
 90
        0
280
     0
281
     0
  0
CLASS
  1
LAYOUT
  2
AcDbLayout
  3
ObjectDBX Classes
 90
        0
280
     0
281
     0
  0
ENDSEC
  0
SECTION
  2
TABLES
  0
TABLE
  2
VPORT
  5
8
330
0
100
AcDbSymbolTable
 70
     1
  0
VPORT
  5
29
330
8
100
AcDbSymbolTableRecord
100
AcDbViewportTableRecord
  2
*Active
 70
     0
 10
0.0
 20
0.0
 11
1.0
 21
1.0
 12
637.1456349849
 22
520.3209391736
 13
0.0
 23
0.0
 14
10.0
 24
10.0
 15
10.0
 25
10.0
 16
0.0
 26
0.0
 36
1.0
 17
0.0
 27
0.0
 37
0.0
 40
453.9
 41
1.0
 42
50.0
 43
0.0
 44
0.0
 50
0.0
 51
0.0
 71
     0
 72
   100
 73
     1
 74
     3
 75
     0
 76
     0
 77
     0
 78
     0
281
     0
 65
     1
110
0.0
120
0.0
130
0.0
111
1.0
121
0.0
131
0.0
112
0.0
122
1.0
132
0.0
 79
     0
146
0.0
  0
ENDTAB
  0
TABLE
  2
LTYPE
  5
5
330
0
100
AcDbSymbolTable
 70
     6
  0
LTYPE
  5
14
330
5
100
AcDbSymbolTableRecord
100
AcDbLinetypeTableRecord
  2
ByBlock
 70
     0
  3

 72
    65
 73
     0
 40
0.0
  0
LTYPE
  5
15
330
5
100
AcDbSymbolTableRecord
100
AcDbLinetypeTableRecord
  2
ByLayer
 70
     0
  3

 72
    65
 73
     0
 40
0.0
  0
LTYPE
  5
16
330
5
100
AcDbSymbolTableRecord
100
AcDbLinetypeTableRecord
  2
Continuous
 70
     0
  3
Solid line
 72
    65
 73
     0
 40
0.0
  0
LTYPE
  5
6A
330
5
100
AcDbSymbolTableRecord
100
AcDbLinetypeTableRecord
  2
HIDDEN
 70
     0
  3
Hidden __ __ __ __ __ __ __ __ __ __ __ __ __ __
 72
    65
 73
     2
 40
1.905
 49
1.27
 74
     0
 49
-0.635
 74
     0
  0
LTYPE
  5
6B
330
5
100
AcDbSymbolTableRecord
100
AcDbLinetypeTableRecord
  2
PHANTOM
 70
     0
  3
Phantom ______  __  __  ______  __  __  ______
 72
    65
 73
     6
 40
12.7
 49
6.35
 74
     0
 49
-1.27
 74
     0
 49
1.27
 74
     0
 49
-1.27
 74
     0
 49
1.27
 74
     0
 49
-1.27
 74
     0
  0
LTYPE
  5
6C
330
5
100
AcDbSymbolTableRecord
100
AcDbLinetypeTableRecord
  2
CENTER
 70
     0
  3
Center ____ _ ____ _ ____ _ ____ _ ____ _ ____
 72
    65
 73
     4
 40
10.16
 49
6.35
 74
     0
 49
-1.27
 74
     0
 49
1.27
 74
     0
 49
-1.27
 74
     0
  0
LTYPE
  5
6D
330
5
100
AcDbSymbolTableRecord
100
AcDbLinetypeTableRecord
  2
CENTERX2
 70
     0
  3
Center (2x) ________  __  ________  __  _____
 72
    65
 73
     4
 40
20.32
 49
12.7
 74
     0
 49
-2.54
 74
     0
 49
2.54
 74
     0
 49
-2.54
 74
     0
  0
LTYPE
  5
6E
330
5
100
AcDbSymbolTableRecord
100
AcDbLinetypeTableRecord
  2
DOT2
 70
     0
  3
Dot (.5x) ........................................
 72
    65
 73
     2
 40
0.635
 49
0.0
 74
     0
 49
-0.635
 74
     0
  0
ENDTAB
  0
TABLE
  2
LAYER
  5
2
330
0
100
AcDbSymbolTable
 70
     1
  0
LAYER
  5
10
330
2
100
AcDbSymbolTableRecord
100
AcDbLayerTableRecord
  2
0
 70
     0
 62
     7
  6
Continuous
370
    -3
390
F
  0
ENDTAB
  0
TABLE
  2
STYLE
  5
3
330
0
100
AcDbSymbolTable
 70
     1
  0
STYLE
  5
11
330
3
100
AcDbSymbolTableRecord
100
AcDbTextStyleTableRecord
  2
Standard
 70
     0
 40
0.0
 41
1.0
 50
0.0
 71
     0
 42
3.0
  3
txt
  4

  0
ENDTAB
  0
TABLE
  2
VIEW
  5
6
330
0
100
AcDbSymbolTable
 70
     0
  0
ENDTAB
  0
TABLE
  2
UCS
  5
7
330
0
100
AcDbSymbolTable
 70
     0
  0
ENDTAB
  0
TABLE
  2
APPID
  5
9
330
0
100
AcDbSymbolTable
 70
     1
  0
APPID
  5
12
330
9
100
AcDbSymbolTableRecord
100
AcDbRegAppTableRecord
  2
ACAD
 70
     0
  0
ENDTAB
  0
TABLE
  2
DIMSTYLE
  5
A
330
0
100
AcDbSymbolTable
 70
     1
100
AcDbDimStyleTable
  0
DIMSTYLE
105
27
330
A
100
AcDbSymbolTableRecord
100
AcDbDimStyleTableRecord
  2
ISO-25
 70
     0
 41
2.5
 42
0.625
 43
3.75
 44
1.25
 73
     0
 74
     0
 77
     1
 78
     8
140
2.5
141
2.5
143
0.0393700787
147
0.625
171
     3
172
     1
178
     0
271
     2
272
     2
274
     3
278
    44
283
     0
284
     8
340
11
  0
ENDTAB
  0
TABLE
  2
BLOCK_RECORD
  5
1
330
0
100
AcDbSymbolTable
 70
     1
  0
BLOCK_RECORD
  5
1F
330
1
100
AcDbSymbolTableRecord
100
AcDbBlockTableRecord
  2
*Model_Space
340
22
  0
BLOCK_RECORD
  5
1B
330
1
100
AcDbSymbolTableRecord
100
AcDbBlockTableRecord
  2
*Paper_Space
340
1E
  0
BLOCK_RECORD
  5
23
330
1
100
AcDbSymbolTableRecord
100
AcDbBlockTableRecord
  2
*Paper_Space0
340
26
  0
ENDTAB
  0
ENDSEC
  0
SECTION
  2
BLOCKS
  0
BLOCK
  5
20
330
1F
100
AcDbEntity
  8
0
100
AcDbBlockBegin
  2
*Model_Space
 70
     0
 10
0.0
 20
0.0
 30
0.0
  3
*Model_Space
  1
*Model_Space
  0
ENDBLK
  5
21
330
1F
100
AcDbEntity
  8
0
100
AcDbBlockEnd
  0
BLOCK
  5
1C
330
1B
100
AcDbEntity
 67
     1
  8
0
100
AcDbBlockBegin
  2
*Paper_Space
 70
     0
 10
0.0
 20
0.0
 30
0.0
  3
*Paper_Space
  1
*Paper_Space
  0
ENDBLK
  5
1D
330
1B
100
AcDbEntity
 67
     1
  8
0
100
AcDbBlockEnd
  0
BLOCK
  5
24
330
23
100
AcDbEntity
  8
0
100
AcDbBlockBegin
  2
*Paper_Space0
 70
     0
 10
0.0
 20
0.0
 30
0.0
  3
*Paper_Space0
  1
*Paper_Space0
  0
ENDBLK
  5
25
330
23
100
AcDbEntity
  8
0
100
AcDbBlockEnd
  0
ENDSEC
  0
SECTION
  2
ENTITIES
  0
SPLINE
  5
7B
330
1F
100
AcDbEntity
  8
0
  6
Continuous
 62
     7
370
    15
100
AcDbSpline
210
0.0
220
0.0
230
1.0
 70
     8
 71
     3
 72
    12
 73
     8
 74
     0
 42
0.000000001
 43
0.00000001
 40
0.0
 40
0.0
 40
0.0
 40
0.0
 40
0.25
 40
0.25
 40
0.5
 40
0.5
 40
1.0
 40
1.0
 40
1.0
 40
1.0
 10
821.1004594885491
 20
449.3445194529985
 30
0.0
 10
821.1004594885488
 20
449.417290801492
 30
0.0
 10
821.0832460557783
 20
449.4886667085785
 30
0.0
 10
821.0159192526131
 20
449.6323867853212
 30
0.0
 10
820.9648878703716
 20
449.7053790398393
 30
0.0
 10
820.7696168814322
 20
449.9208458251538
 30
0.0
 10
820.5790774980862
 20
450.0650021115924
 30
0.0
 10
820.3504594885491
 20
450.2105448567829
 30
0.0
  0
SPLINE
  5
7C
330
1F
100
AcDbEntity
  8
0
  6
Continuous
 62
     7
370
    15
100
AcDbSpline
210
0.0
220
0.0
230
1.0
 70
     8
 71
     3
 72
    12
 73
     8
 74
     0
 42
0.000000001
 43
0.00000001
 40
0.0
 40
0.0
 40
0.0
 40
0.0
 40
0.2500000000000044
 40
0.2500000000000044
 40
0.5000000000000089
 40
0.5000000000000089
 40
1.0
 40
1.0
 40
1.0
 40
1.0
 10
820.3504594885491
 20
594.4784940492139
 30
0.0
 10
820.4647684554587
 20
594.5512653977075
 30
0.0
 10
820.5682444700684
 20
594.6226413047937
 30
0.0
 10
820.752712087754
 20
594.7663613815364
 30
0.0
 10
820.8340168406302
 20
594.8393536360546
 30
0.0
 10
821.0295586381717
 20
595.0548204213692
 30
0.0
 10
821.1004594885493
 20
595.1989767078078
 30
0.0
 10
821.1004594885491
 20
595.3445194529983
 30
0.0
  0
SPLINE
  5
8E
330
1F
100
AcDbEntity
  8
0
  6
Continuous
 62
     7
370
    15
100
AcDbSpline
210
0.0
220
0.0
230
1.0
 70
     8
 71
     3
 72
    12
 73
     8
 74
     0
 42
0.000000001
 43
0.00000001
 40
0.0
 40
0.0
 40
0.0
 40
0.0
 40
0.2499999999999775
 40
0.2499999999999775
 40
0.4999999999999549
 40
0.4999999999999549
 40
1.0
 40
1.0
 40
1.0
 40
1.0
 10
453.1004594885489
 20
591.844519452998
 30
0.0
 10
453.1004594885491
 20
591.7717481045048
 30
0.0
 10
453.11767292132
 20
591.7003721974183
 30
0.0
 10
453.1849997244849
 20
591.5566521206754
 30
0.0
 10
453.2360311067267
 20
591.4836598661573
 30
0.0
 10
453.4313020956662
 20
591.2681930808432
 30
0.0
 10
453.6218414790117
 20
591.1240367944042
 30
0.0
 10
453.8504594885488
 20
590.9784940492136
 30
0.0
  0
SPLINE
  5
8F
330
1F
100
AcDbEntity
  8
0
  6
Continuous
 62
     7
370
    15
100
AcDbSpline
210
0.0
220
0.0
230
1.0
 70
     8
 71
     3
 72
    12
 73
     8
 74
     0
 42
0.000000001
 43
0.00000001
 40
0.0
 40
0.0
 40
0.0
 40
0.0
 40
0.2499999999999966
 40
0.2499999999999966
 40
0.4999999999999932
 40
0.4999999999999932
 40
1.0
 40
1.0
 40
1.0
 40
1.0
 10
453.8504594885489
 20
446.7105448567827
 30
0.0
 10
453.7361505216394
 20
446.6377735082891
 30
0.0
 10
453.6326745070292
 20
446.5663976012028
 30
0.0
 10
453.4482068893438
 20
446.42267752446
 30
0.0
 10
453.3669021364679
 20
446.349685269942
 30
0.0
 10
453.1713603389261
 20
446.1342184846274
 30
0.0
 10
453.1004594885488
 20
445.9900621981888
 30
0.0
 10
453.1004594885489
 20
445.8445194529983
 30
0.0
  0
SPLINE
  5
A1
330
1F
100
AcDbEntity
  8
0
  6
Continuous
 62
     7
370
    15
100
AcDbSpline
210
0.0
220
0.0
230
1.0
 70
     8
 71
     3
 72
    18
 73
    14
 74
     0
 42
0.000000001
 43
0.00000001
 40
0.0
 40
0.0
 40
0.0
 40
0.0
 40
0.124999999999994
 40
0.124999999999994
 40
0.249999999999988
 40
0.249999999999988
 40
0.374999999999982
 40
0.374999999999982
 40
0.499999999999976
 40
0.499999999999976
 40
0.749999999999988
 40
0.749999999999988
 40
1.0
 40
1.0
 40
1.0
 40
1.0
 10
454.6004594885493
 20
344.6746464719191
 30
0.0
 10
454.6004594885494
 20
344.4581401209731
 30
0.0
 10
454.6268894688258
 20
344.2417362582406
 30
0.0
 10
454.72787566212
 20
343.8285037815476
 30
0.0
 10
454.8023049326097
 20
343.6318200341447
 30
0.0
 10
454.9868493386077
 20
343.2722247107744
 30
0.0
 10
455.096800265431
 20
343.109332775307
 30
0.0
 10
455.3369954239974
 20
342.8233120001786
 30
0.0
 10
455.4671261552165
 20
342.7001085512922
 30
0.0
 10
455.8671261552164
 20
342.3883394059301
 30
0.0
 10
456.1444594885498
 20
342.2580891852011
 30
0.0
 10
456.6564594885496
 20
342.1028974328431
 30
0.0
 10
456.8921261552162
 20
342.0765702605679
 30
0.0
 10
457.1004594885493
 20
342.0765702605679
 30
0.0
  0
SPLINE
  5
A4
330
1F
100
AcDbEntity
  8
0
  6
Continuous
 62
     7
370
    15
100
AcDbSpline
210
0.0
220
0.0
230
1.0
 70
     8
 71
     3
 72
    18
 73
    14
 74
     0
 42
0.000000001
 43
0.00000001
 40
0.0
 40
0.0
 40
0.0
 40
0.0
 40
0.25
 40
0.25
 40
0.5
 40
0.5
 40
0.625
 40
0.625
 40
0.75
 40
0.75
 40
0.875
 40
0.875
 40
1.0
 40
1.0
 40
1.0
 40
1.0
 10
457.1004594885492
 20
698.6124686454302
 30
0.0
 10
456.8921261552157
 20
698.6124686454305
 30
0.0
 10
456.6564594885489
 20
698.5861414731553
 30
0.0
 10
456.1444594885486
 20
698.4309497207967
 30
0.0
 10
455.8671261552153
 20
698.3006995000674
 30
0.0
 10
455.4671261552152
 20
697.988930354705
 30
0.0
 10
455.3369954239961
 20
697.8657269058183
 30
0.0
 10
455.0968002654297
 20
697.5797061306893
 30
0.0
 10
454.9868493386064
 20
697.4168141952216
 30
0.0
 10
454.8023049326087
 20
697.0572188718508
 30
0.0
 10
454.7278756621188
 20
696.8605351244476
 30
0.0
 10
454.626889468825
 20
696.4473026477539
 30
0.0
 10
454.6004594885492
 20
696.2308987850212
 30
0.0
 10
454.6004594885493
 20
696.0143924340751
 30
0.0
  0
SPLINE
  5
A5
330
1F
100
AcDbEntity
  8
0
  6
Continuous
 62
     7
370
    15
100
AcDbSpline
210
0.0
220
0.0
230
1.0
 70
     8
 71
     3
 72
    18
 73
    14
 74
     0
 42
0.000000001
 43
0.00000001
 40
0.0
 40
0.0
 40
0.0
 40
0.0
 40
0.1250000000000033
 40
0.1250000000000033
 40
0.2500000000000067
 40
0.2500000000000067
 40
0.37500000000001
 40
0.37500000000001
 40
0.5000000000000133
 40
0.5000000000000133
 40
0.7500000000000067
 40
0.7500000000000067
 40
1.0
 40
1.0
 40
1.0
 40
1.0
 10
812.7703324696291
 20
337.8445194529989
 30
0.0
 10
812.9868388205751
 20
337.844519452999
 30
0.0
 10
813.2032426833076
 20
337.8709494332753
 30
0.0
 10
813.6164751600011
 20
337.9719356265695
 30
0.0
 10
813.8131589074037
 20
338.0463648970594
 30
0.0
 10
814.1727542307739
 20
338.2309093030572
 30
0.0
 10
814.3356461662415
 20
338.3408602298808
 30
0.0
 10
814.6216669413699
 20
338.5810553884472
 30
0.0
 10
814.7448703902562
 20
338.7111861196662
 30
0.0
 10
815.0566395356186
 20
339.1111861196662
 30
0.0
 10
815.1868897563476
 20
339.3885194529994
 30
0.0
 10
815.3420815087054
 20
339.9005194529991
 30
0.0
 10
815.3684086809803
 20
340.1361861196655
 30
0.0
 10
815.3684086809803
 20
340.3445194529988
 30
0.0
  0
SPLINE
  5
A7
330
1F
100
AcDbEntity
  8
0
  6
Continuous
 62
     7
370
    15
100
AcDbSpline
210
0.0
220
0.0
230
1.0
 70
     8
 71
     3
 72
    18
 73
    14
 74
     0
 42
0.000000001
 43
0.00000001
 40
0.0
 40
0.0
 40
0.0
 40
0.0
 40
0.250000000000018
 40
0.250000000000018
 40
0.500000000000036
 40
0.500000000000036
 40
0.625000000000027
 40
0.625000000000027
 40
0.750000000000018
 40
0.750000000000018
 40
0.875000000000009
 40
0.875000000000009
 40
1.0
 40
1.0
 40
1.0
 40
1.0
 10
458.8325102961181
 20
340.344519452999
 30
0.0
 10
458.8325102961182
 20
340.1361861196658
 30
0.0
 10
458.8588374683931
 20
339.9005194529993
 30
0.0
 10
459.0140292207511
 20
339.3885194529993
 30
0.0
 10
459.1442794414803
 20
339.1111861196662
 30
0.0
 10
459.4560485868423
 20
338.7111861196662
 30
0.0
 10
459.5792520357288
 20
338.5810553884472
 30
0.0
 10
459.865272810857
 20
338.3408602298807
 30
0.0
 10
460.0281647463246
 20
338.2309093030574
 30
0.0
 10
460.3877600696949
 20
338.0463648970594
 30
0.0
 10
460.5844438170976
 20
337.9719356265694
 30
0.0
 10
460.9976762937908
 20
337.8709494332754
 30
0.0
 10
461.2140801565233
 20
337.844519452999
 30
0.0
 10
461.4305865074694
 20
337.844519452999
 30
0.0
  0
SPLINE
  5
A8
330
1F
100
AcDbEntity
  8
0
  6
Continuous
 62
     7
370
    15
100
AcDbSpline
210
0.0
220
0.0
230
1.0
 70
     8
 71
     3
 72
    18
 73
    14
 74
     0
 42
0.000000001
 43
0.00000001
 40
0.0
 40
0.0
 40
0.0
 40
0.0
 40
0.249999999999976
 40
0.249999999999976
 40
0.499999999999952
 40
0.499999999999952
 40
0.624999999999964
 40
0.624999999999964
 40
0.749999999999976
 40
0.749999999999976
 40
0.874999999999988
 40
0.874999999999988
 40
1.0
 40
1.0
 40
1.0
 40
1.0
 10
815.3684086809803
 20
700.3445194529991
 30
0.0
 10
815.3684086809802
 20
700.5528527863328
 30
0.0
 10
815.3420815087054
 20
700.7885194529991
 30
0.0
 10
815.1868897563468
 20
701.3005194529994
 30
0.0
 10
815.0566395356174
 20
701.5778527863326
 30
0.0
 10
814.7448703902547
 20
701.977852786333
 30
0.0
 10
814.6216669413685
 20
702.1079835175524
 30
0.0
 10
814.3356461662396
 20
702.348178676119
 30
0.0
 10
814.1727542307718
 20
702.4581296029422
 30
0.0
 10
813.8131589074007
 20
702.6426740089398
 30
0.0
 10
813.6164751599978
 20
702.7171032794297
 30
0.0
 10
813.2032426833042
 20
702.8180894727236
 30
0.0
 10
812.9868388205714
 20
702.8445194529993
 30
0.0
 10
812.7703324696253
 20
702.8445194529992
 30
0.0
  0
SPLINE
  5
AA
330
1F
100
AcDbEntity
  8
0
  6
Continuous
 62
     7
370
    15
100
AcDbSpline
210
0.0
220
0.0
230
1.0
 70
     8
 71
     3
 72
    18
 73
    14
 74
     0
 42
0.000000001
 43
0.00000001
 40
0.0
 40
0.0
 40
0.0
 40
0.0
 40
0.1250000000000073
 40
0.1250000000000073
 40
0.2500000000000147
 40
0.2500000000000147
 40
0.375000000000022
 40
0.375000000000022
 40
0.5000000000000293
 40
0.5000000000000293
 40
0.7500000000000147
 40
0.7500000000000147
 40
1.0
 40
1.0
 40
1.0
 40
1.0
 10
461.9305865074733
 20
702.8445194529991
 30
0.0
 10
461.7140801565269
 20
702.8445194529991
 30
0.0
 10
461.4976762937943
 20
702.818089472723
 30
0.0
 10
461.0844438171005
 20
702.7171032794294
 30
0.0
 10
460.8877600696976
 20
702.6426740089396
 30
0.0
 10
460.5281647463266
 20
702.4581296029422
 30
0.0
 10
460.3652728108592
 20
702.3481786761186
 30
0.0
 10
460.0792520357304
 20
702.1079835175523
 30
0.0
 10
459.9560485868432
 20
701.9778527863331
 30
0.0
 10
459.6442794414806
 20
701.5778527863328
 30
0.0
 10
459.5140292207514
 20
701.3005194529993
 30
0.0
 10
459.3588374683933
 20
700.7885194529991
 30
0.0
 10
459.3325102961181
 20
700.5528527863322
 30
0.0
 10
459.3325102961181
 20
700.344519452999
 30
0.0
  0
SPLINE
  5
AB
330
1F
100
AcDbEntity
  8
0
  6
Continuous
 62
     7
370
    15
100
AcDbSpline
210
0.0
220
0.0
230
1.0
 70
     8
 71
     3
 72
    18
 73
    14
 74
     0
 42
0.000000001
 43
0.00000001
 40
0.0
 40
0.0
 40
0.0
 40
0.0
 40
0.2499999999999847
 40
0.2499999999999847
 40
0.4999999999999694
 40
0.4999999999999694
 40
0.624999999999977
 40
0.624999999999977
 40
0.7499999999999847
 40
0.7499999999999847
 40
0.8749999999999923
 40
0.8749999999999923
 40
1.0
 40
1.0
 40
1.0
 40
1.0
 10
817.1004594885488
 20
342.5765702605678
 30
0.0
 10
817.3087928218824
 20
342.5765702605678
 30
0.0
 10
817.5444594885496
 20
342.6028974328431
 30
0.0
 10
818.05645948855
 20
342.7580891852013
 30
0.0
 10
818.3337928218838
 20
342.8883394059305
 30
0.0
 10
818.7337928218841
 20
343.2001085512932
 30
0.0
 10
818.8639235531031
 20
343.32331200018
 30
0.0
 10
819.1041187116699
 20
343.6093327753089
 30
0.0
 10
819.2140696384935
 20
343.7722247107764
 30
0.0
 10
819.3986140444911
 20
344.1318200341474
 30
0.0
 10
819.4730433149812
 20
344.3285037815505
 30
0.0
 10
819.5740295082749
 20
344.7417362582441
 30
0.0
 10
819.6004594885507
 20
344.958140120977
 30
0.0
 10
819.6004594885508
 20
345.1746464719231
 30
0.0
  0
SPLINE
  5
AE
330
1F
100
AcDbEntity
  8
0
  6
Continuous
 62
     7
370
    15
100
AcDbSpline
210
0.0
220
0.0
230
1.0
 70
     8
 71
     3
 72
    18
 73
    14
 74
     0
 42
0.000000001
 43
0.00000001
 40
0.0
 40
0.0
 40
0.0
 40
0.0
 40
0.124999999999997
 40
0.124999999999997
 40
0.249999999999994
 40
0.249999999999994
 40
0.374999999999991
 40
0.374999999999991
 40
0.499999999999988
 40
0.499999999999988
 40
0.749999999999994
 40
0.749999999999994
 40
1.0
 40
1.0
 40
1.0
 40
1.0
 10
819.6004594885492
 20
696.0143924340747
 30
0.0
 10
819.6004594885495
 20
696.2308987850208
 30
0.0
 10
819.5740295082733
 20
696.4473026477538
 30
0.0
 10
819.4730433149796
 20
696.8605351244474
 30
0.0
 10
819.3986140444897
 20
697.0572188718503
 30
0.0
 10
819.214069638492
 20
697.416814195221
 30
0.0
 10
819.1041187116685
 20
697.5797061306891
 30
0.0
 10
818.8639235531023
 20
697.865726905818
 30
0.0
 10
818.7337928218828
 20
697.9889303547044
 30
0.0
 10
818.3337928218828
 20
698.300699500067
 30
0.0
 10
818.0564594885496
 20
698.4309497207963
 30
0.0
 10
817.5444594885495
 20
698.586141473155
 30
0.0
 10
817.3087928218823
 20
698.6124686454299
 30
0.0
 10
817.1004594885492
 20
698.6124686454299
 30
0.0
  0
SPLINE
  5
BB
330
1F
100
AcDbEntity
  8
0
  6
Continuous
 62
     7
370
    15
100
AcDbSpline
210
0.0
220
0.0
230
1.0
 70
    24
 71
     3
 72
    18
 73
    14
 74
     0
 42
0.000000001
 43
0.00000001
 40
0.0
 40
0.0
 40
0.0
 40
0.0
 40
0.1250000000000026
 40
0.1250000000000026
 40
0.2500000000000051
 40
0.2500000000000051
 40
0.3750000000000077
 40
0.3750000000000077
 40
0.5000000000000102
 40
0.5000000000000102
 40
0.7500000000000051
 40
0.7500000000000051
 40
1.0
 40
1.0
 40
1.0
 40
1.0
 10
831.6456349849144
 20
715.3209391735586
 30
0.0
 10
831.8956349849145
 20
715.5709391735589
 30
0.0
 10
832.1455166417192
 20
715.8208208303636
 30
0.0
 10
832.6226764050327
 20
716.2979805936772
 30
0.0
 10
832.8497872340496
 20
716.5250914226937
 30
0.0
 10
833.2650121475443
 20
716.9403163361887
 30
0.0
 10
833.4531035531263
 20
717.1284077417707
 30
0.0
 10
833.7833718961552
 20
717.4586760847995
 30
0.0
 10
833.9256349849152
 20
717.6009391735596
 30
0.0
 10
834.2856349849151
 20
717.9609391735594
 30
0.0
 10
834.4360349849148
 20
718.1113391735593
 30
0.0
 10
834.6152349849152
 20
718.2905391735595
 30
0.0
 10
834.6456349849152
 20
718.3209391735596
 30
0.0
 10
834.6456349849152
 20
718.3209391735595
 30
0.0
  0
SPLINE
  5
BC
330
1F
100
AcDbEntity
  8
0
  6
Continuous
 62
     7
370
    15
100
AcDbSpline
210
0.0
220
0.0
230
1.0
 70
    24
 71
     3
 72
     9
 73
     5
 74
     0
 42
0.000000001
 43
0.00000001
 40
0.0
 40
0.0
 40
0.0
 40
0.0
 40
0.524343297481804
 40
1.0
 40
1.0
 40
1.0
 40
1.0
 10
831.6456349849152
 20
715.3209391735595
 30
0.0
 10
831.984772272423
 20
715.8861679860728
 30
0.0
 10
832.6315570966722
 20
716.9641426931545
 30
0.0
 10
833.1832286926835
 20
717.8835953531735
 30
0.0
 10
833.4456349849152
 20
718.3209391735596
 30
0.0
  0
SPLINE
  5
BD
330
1F
100
AcDbEntity
  8
0
  6
Continuous
 62
     7
370
    15
100
AcDbSpline
210
0.0
220
0.0
230
1.0
 70
    24
 71
     3
 72
    18
 73
    14
 74
     0
 42
0.000000001
 43
0.00000001
 40
0.0
 40
0.0
 40
0.0
 40
0.0
 40
0.2499999999999949
 40
0.2499999999999949
 40
0.4999999999999898
 40
0.4999999999999898
 40
0.6249999999999923
 40
0.6249999999999923
 40
0.7499999999999949
 40
0.7499999999999949
 40
0.8749999999999974
 40
0.8749999999999974
 40
1.0
 40
1.0
 40
1.0
 40
1.0
 10
439.6456349849151
 20
718.3209391735594
 30
0.0
 10
439.645634984915
 20
718.3209391735594
 30
0.0
 10
439.6760349849152
 20
718.2905391735596
 30
0.0
 10
439.8552349849151
 20
718.1113391735596
 30
0.0
 10
440.0056349849149
 20
717.9609391735594
 30
0.0
 10
440.3656349849148
 20
717.6009391735596
 30
0.0
 10
440.5078980736746
 20
717.4586760848006
 30
0.0
 10
440.838166416703
 20
717.1284077417716
 30
0.0
 10
441.0262578222848
 20
716.9403163361897
 30
0.0
 10
441.4414827357795
 20
716.5250914226951
 30
0.0
 10
441.668593564796
 20
716.2979805936785
 30
0.0
 10
442.1457533281095
 20
715.8208208303652
 30
0.0
 10
442.3956349849142
 20
715.5709391735605
 30
0.0
 10
442.6456349849142
 20
715.3209391735604
 30
0.0
  0
SPLINE
  5
BE
330
1F
100
AcDbEntity
  8
0
  6
Continuous
 62
     7
370
    15
100
AcDbSpline
210
0.0
220
0.0
230
1.0
 70
    24
 71
     3
 72
    10
 73
     6
 74
     0
 42
0.000000001
 43
0.00000001
 40
0.0
 40
0.0
 40
0.0
 40
0.0
 40
0.1650894688530383
 40
0.680363156712794
 40
1.0
 40
1.0
 40
1.0
 40
1.0
 10
440.8456349849151
 20
718.3209391735596
 30
0.0
 10
440.9296221707538
 20
718.1809605304953
 30
0.0
 10
441.2757483487445
 20
717.6040835671778
 30
0.0
 10
441.9131286780661
 20
716.5417830183081
 30
0.0
 10
442.4428403583855
 20
715.6589302177757
 30
0.0
 10
442.6456349849152
 20
715.3209391735594
 30
0.0
  0
SPLINE
  5
CB
330
1F
100
AcDbEntity
  8
0
  6
Continuous
 62
     7
370
    15
100
AcDbSpline
210
0.0
220
0.0
230
1.0
 70
    24
 71
     3
 72
    18
 73
    14
 74
     0
 42
0.000000001
 43
0.00000001
 40
0.0
 40
0.0
 40
0.0
 40
0.0
 40
0.2499999999999796
 40
0.2499999999999796
 40
0.4999999999999591
 40
0.4999999999999591
 40
0.6249999999999694
 40
0.6249999999999694
 40
0.7499999999999796
 40
0.7499999999999796
 40
0.8749999999999898
 40
0.8749999999999898
 40
1.0
 40
1.0
 40
1.0
 40
1.0
 10
439.1456349849151
 20
322.8209391735595
 30
0.0
 10
439.145634984915
 20
322.8209391735595
 30
0.0
 10
439.1760349849151
 20
322.8513391735593
 30
0.0
 10
439.355234984915
 20
323.0305391735594
 30
0.0
 10
439.5056349849149
 20
323.1809391735593
 30
0.0
 10
439.8656349849149
 20
323.5409391735592
 30
0.0
 10
440.0078980736743
 20
323.6832022623187
 30
0.0
 10
440.3381664167028
 20
324.0134706053473
 30
0.0
 10
440.5262578222847
 20
324.2015620109291
 30
0.0
 10
440.9414827357793
 20
324.6167869244238
 30
0.0
 10
441.168593564796
 20
324.8438977534404
 30
0.0
 10
441.6457533281095
 20
325.3210575167539
 30
0.0
 10
441.8956349849144
 20
325.5709391735585
 30
0.0
 10
442.1456349849142
 20
325.8209391735584
 30
0.0
  0
SPLINE
  5
CC
330
1F
100
AcDbEntity
  8
0
  6
Continuous
 62
     7
370
    15
100
AcDbSpline
210
0.0
220
0.0
230
1.0
 70
    24
 71
     3
 72
    10
 73
     6
 74
     0
 42
0.000000001
 43
0.00000001
 40
0.0
 40
0.0
 40
0.0
 40
0.0
 40
0.1650894688528119
 40
0.6803631567127021
 40
1.0
 40
1.0
 40
1.0
 40
1.0
 10
439.1456349849157
 20
324.0209391735598
 30
0.0
 10
439.2856136279798
 20
324.1049263593983
 30
0.0
 10
439.8624905912975
 20
324.4510525373888
 30
0.0
 10
440.9247911401665
 20
325.0884328667103
 30
0.0
 10
441.807643940699
 20
325.6181445470298
 30
0.0
 10
442.1456349849152
 20
325.8209391735595
 30
0.0
  0
SPLINE
  5
CD
330
1F
100
AcDbEntity
  8
0
  6
Continuous
 62
     7
370
    15
100
AcDbSpline
210
0.0
220
0.0
230
1.0
 70
    24
 71
     3
 72
     9
 73
     5
 74
     0
 42
0.000000001
 43
0.00000001
 40
0.0
 40
0.0
 40
0.0
 40
0.0
 40
0.5243432974819014
 40
1.0
 40
1.0
 40
1.0
 40
1.0
 10
442.1456349849151
 20
714.8209391735595
 30
0.0
 10
441.580406172402
 20
715.1600764610674
 30
0.0
 10
440.5024314653205
 20
715.8068612853164
 30
0.0
 10
439.5829788053018
 20
716.3585328813276
 30
0.0
 10
439.1456349849158
 20
716.6209391735592
 30
0.0
  0
SPLINE
  5
CE
330
1F
100
AcDbEntity
  8
0
  6
Continuous
 62
     7
370
    15
100
AcDbSpline
210
0.0
220
0.0
230
1.0
 70
    24
 71
     3
 72
    18
 73
    14
 74
     0
 42
0.000000001
 43
0.00000001
 40
0.0
 40
0.0
 40
0.0
 40
0.0
 40
0.1250000000000115
 40
0.1250000000000115
 40
0.250000000000023
 40
0.250000000000023
 40
0.3750000000000345
 40
0.3750000000000345
 40
0.500000000000046
 40
0.500000000000046
 40
0.750000000000023
 40
0.750000000000023
 40
1.0
 40
1.0
 40
1.0
 40
1.0
 10
442.1456349849162
 20
714.8209391735585
 30
0.0
 10
441.8956349849163
 20
715.0709391735588
 30
0.0
 10
441.6457533281115
 20
715.3208208303635
 30
0.0
 10
441.1685935647976
 20
715.797980593677
 30
0.0
 10
440.9414827357808
 20
716.0250914226934
 30
0.0
 10
440.5262578222859
 20
716.4403163361887
 30
0.0
 10
440.3381664167039
 20
716.6284077417706
 30
0.0
 10
440.0078980736752
 20
716.9586760847994
 30
0.0
 10
439.8656349849154
 20
717.1009391735591
 30
0.0
 10
439.5056349849153
 20
717.4609391735596
 30
0.0
 10
439.3552349849153
 20
717.6113391735594
 30
0.0
 10
439.1760349849152
 20
717.7905391735595
 30
0.0
 10
439.145634984915
 20
717.8209391735594
 30
0.0
 10
439.1456349849151
 20
717.8209391735595
 30
0.0
  0
SPLINE
  5
DF
330
1F
100
AcDbEntity
  8
0
  6
Continuous
 62
     7
370
    15
100
AcDbSpline
210
0.0
220
0.0
230
1.0
 70
    24
 71
     3
 72
    10
 73
     6
 74
     0
 42
0.000000001
 43
0.00000001
 40
0.0
 40
0.0
 40
0.0
 40
0.0
 40
0.1650894688535712
 40
0.680363156712988
 40
1.0
 40
1.0
 40
1.0
 40
1.0
 10
833.4456349849162
 20
322.3209391735576
 30
0.0
 10
833.3616477990773
 20
322.4609178166226
 30
0.0
 10
833.0155216210869
 20
323.037794779941
 30
0.0
 10
832.3781412917643
 20
324.1000953288108
 30
0.0
 10
831.8484296114448
 20
324.9829481293433
 30
0.0
 10
831.6456349849152
 20
325.3209391735595
 30
0.0
  0
SPLINE
  5
E0
330
1F
100
AcDbEntity
  8
0
  6
Continuous
 62
     7
370
    15
100
AcDbSpline
210
0.0
220
0.0
230
1.0
 70
    24
 71
     3
 72
     9
 73
     5
 74
     0
 42
0.000000001
 43
0.00000001
 40
0.0
 40
0.0
 40
0.0
 40
0.0
 40
0.5243432974822126
 40
1.0
 40
1.0
 40
1.0
 40
1.0
 10
442.6456349849151
 20
325.3209391735595
 30
0.0
 10
442.3064976974072
 20
324.7557103610463
 30
0.0
 10
441.6597128731586
 20
323.6777356539654
 30
0.0
 10
441.1080412771478
 20
322.7582829939473
 30
0.0
 10
440.8456349849164
 20
322.3209391735617
 30
0.0
  0
SPLINE
  5
E1
330
1F
100
AcDbEntity
  8
0
  6
Continuous
 62
     7
370
    15
100
AcDbSpline
210
0.0
220
0.0
230
1.0
 70
    24
 71
     3
 72
    18
 73
    14
 74
     0
 42
0.000000001
 43
0.00000001
 40
0.0
 40
0.0
 40
0.0
 40
0.0
 40
0.1250000000000077
 40
0.1250000000000077
 40
0.2500000000000153
 40
0.2500000000000153
 40
0.375000000000023
 40
0.375000000000023
 40
0.5000000000000306
 40
0.5000000000000306
 40
0.7500000000000153
 40
0.7500000000000153
 40
1.0
 40
1.0
 40
1.0
 40
1.0
 10
442.6456349849162
 20
325.3209391735605
 30
0.0
 10
442.3956349849161
 20
325.0709391735605
 30
0.0
 10
442.1457533281114
 20
324.8210575167557
 30
0.0
 10
441.6685935647977
 20
324.343897753442
 30
0.0
 10
441.4414827357808
 20
324.1167869244252
 30
0.0
 10
441.026257822286
 20
323.7015620109302
 30
0.0
 10
440.838166416704
 20
323.5134706053483
 30
0.0
 10
440.507898073675
 20
323.1832022623194
 30
0.0
 10
440.3656349849155
 20
323.04093917356
 30
0.0
 10
440.0056349849153
 20
322.6809391735598
 30
0.0
 10
439.855234984915
 20
322.5305391735595
 30
0.0
 10
439.6760349849149
 20
322.3513391735593
 30
0.0
 10
439.6456349849151
 20
322.3209391735596
 30
0.0
 10
439.6456349849151
 20
322.3209391735595
 30
0.0
  0
SPLINE
  5
E2
330
1F
100
AcDbEntity
  8
0
  6
Continuous
 62
     7
370
    15
100
AcDbSpline
210
0.0
220
0.0
230
1.0
 70
    24
 71
     3
 72
    18
 73
    14
 74
     0
 42
0.000000001
 43
0.00000001
 40
0.0
 40
0.0
 40
0.0
 40
0.0
 40
0.2499999999999643
 40
0.2499999999999643
 40
0.4999999999999285
 40
0.4999999999999285
 40
0.6249999999999464
 40
0.6249999999999464
 40
0.7499999999999643
 40
0.7499999999999643
 40
0.8749999999999821
 40
0.8749999999999821
 40
1.0
 40
1.0
 40
1.0
 40
1.0
 10
834.6456349849152
 20
322.3209391735595
 30
0.0
 10
834.6456349849149
 20
322.3209391735593
 30
0.0
 10
834.6152349849152
 20
322.3513391735596
 30
0.0
 10
834.4360349849152
 20
322.5305391735594
 30
0.0
 10
834.2856349849155
 20
322.6809391735593
 30
0.0
 10
833.9256349849156
 20
323.0409391735593
 30
0.0
 10
833.7833718961558
 20
323.1832022623188
 30
0.0
 10
833.4531035531272
 20
323.5134706053474
 30
0.0
 10
833.2650121475459
 20
323.7015620109291
 30
0.0
 10
832.8497872340511
 20
324.1167869244238
 30
0.0
 10
832.6226764050342
 20
324.3438977534403
 30
0.0
 10
832.1455166417209
 20
324.8210575167538
 30
0.0
 10
831.8956349849165
 20
325.0709391735585
 30
0.0
 10
831.6456349849163
 20
325.3209391735584
 30
0.0
  0
SPLINE
  5
EF
330
1F
100
AcDbEntity
  8
0
  6
Continuous
 62
     7
370
    15
100
AcDbSpline
210
0.0
220
0.0
230
1.0
 70
    24
 71
     3
 72
    18
 73
    14
 74
     0
 42
0.000000001
 43
0.00000001
 40
0.0
 40
0.0
 40
0.0
 40
0.0
 40
0.1249999999999923
 40
0.1249999999999923
 40
0.2499999999999847
 40
0.2499999999999847
 40
0.374999999999977
 40
0.374999999999977
 40
0.4999999999999694
 40
0.4999999999999694
 40
0.7499999999999847
 40
0.7499999999999847
 40
1.0
 40
1.0
 40
1.0
 40
1.0
 10
832.1456349849143
 20
325.8209391735605
 30
0.0
 10
832.3956349849144
 20
325.5709391735604
 30
0.0
 10
832.6455166417192
 20
325.3210575167556
 30
0.0
 10
833.1226764050327
 20
324.8438977534418
 30
0.0
 10
833.3497872340495
 20
324.6167869244251
 30
0.0
 10
833.7650121475444
 20
324.20156201093
 30
0.0
 10
833.9531035531268
 20
324.0134706053482
 30
0.0
 10
834.2833718961555
 20
323.6832022623194
 30
0.0
 10
834.425634984915
 20
323.5409391735597
 30
0.0
 10
834.7856349849153
 20
323.1809391735596
 30
0.0
 10
834.9360349849152
 20
323.0305391735595
 30
0.0
 10
835.1152349849153
 20
322.8513391735594
 30
0.0
 10
835.145634984915
 20
322.8209391735595
 30
0.0
 10
835.1456349849152
 20
322.8209391735595
 30
0.0
  0
SPLINE
  5
F0
330
1F
100
AcDbEntity
  8
0
  6
Continuous
 62
     7
370
    15
100
AcDbSpline
210
0.0
220
0.0
230
1.0
 70
    24
 71
     3
 72
     9
 73
     5
 74
     0
 42
0.000000001
 43
0.00000001
 40
0.0
 40
0.0
 40
0.0
 40
0.0
 40
0.5243432974819604
 40
1.0
 40
1.0
 40
1.0
 40
1.0
 10
832.1456349849152
 20
325.8209391735595
 30
0.0
 10
832.7108637974283
 20
325.4818018860516
 30
0.0
 10
833.7888385045097
 20
324.8350170618028
 30
0.0
 10
834.7082911645284
 20
324.2833454657916
 30
0.0
 10
835.1456349849142
 20
324.0209391735601
 30
0.0
  0
SPLINE
  5
F1
330
1F
100
AcDbEntity
  8
0
  6
Continuous
 62
     7
370
    15
100
AcDbSpline
210
0.0
220
0.0
230
1.0
 70
    24
 71
     3
 72
    10
 73
     6
 74
     0
 42
0.000000001
 43
0.00000001
 40
0.0
 40
0.0
 40
0.0
 40
0.0
 40
0.1650894688535804
 40
0.6803631567129718
 40
0.9999999999999999
 40
0.9999999999999999
 40
0.9999999999999999
 40
0.9999999999999999
 10
835.145634984917
 20
716.6209391735606
 30
0.0
 10
835.0056563418519
 20
716.5369519877216
 30
0.0
 10
834.428779378534
 20
716.190825809731
 30
0.0
 10
833.3664788296638
 20
715.5534454804085
 30
0.0
 10
832.4836260291314
 20
715.0237338000893
 30
0.0
 10
832.1456349849151
 20
714.8209391735595
 30
0.0
  0
SPLINE
  5
F2
330
1F
100
AcDbEntity
  8
0
  6
Continuous
 62
     7
370
    15
100
AcDbSpline
210
0.0
220
0.0
230
1.0
 70
    24
 71
     3
 72
    18
 73
    14
 74
     0
 42
0.000000001
 43
0.00000001
 40
0.0
 40
0.0
 40
0.0
 40
0.0
 40
0.2500000000000102
 40
0.2500000000000102
 40
0.5000000000000204
 40
0.5000000000000204
 40
0.6250000000000153
 40
0.6250000000000153
 40
0.7500000000000102
 40
0.7500000000000102
 40
0.8750000000000051
 40
0.8750000000000051
 40
1.0
 40
1.0
 40
1.0
 40
1.0
 10
835.1456349849149
 20
717.8209391735595
 30
0.0
 10
835.1456349849149
 20
717.8209391735595
 30
0.0
 10
835.1152349849145
 20
717.7905391735592
 30
0.0
 10
834.936034984915
 20
717.6113391735593
 30
0.0
 10
834.7856349849152
 20
717.4609391735598
 30
0.0
 10
834.4256349849155
 20
717.1009391735599
 30
0.0
 10
834.2833718961559
 20
716.9586760848003
 30
0.0
 10
833.9531035531273
 20
716.6284077417718
 30
0.0
 10
833.7650121475455
 20
716.44031633619
 30
0.0
 10
833.3497872340508
 20
716.0250914226955
 30
0.0
 10
833.1226764050347
 20
715.7979805936787
 30
0.0
 10
832.6455166417211
 20
715.3208208303653
 30
0.0
 10
832.3956349849166
 20
715.0709391735608
 30
0.0
 10
832.1456349849165
 20
714.8209391735609
 30
0.0
  0
SPLINE
  5
F3
330
1F
100
AcDbEntity
  8
0
  6
Continuous
 62
     7
370
    15
100
AcDbSpline
210
0.0
220
0.0
230
1.0
 70
    24
 71
     3
 72
    20
 73
    16
 74
     0
 42
0.000000001
 43
0.00000001
 40
0.0
 40
0.0
 40
0.0
 40
0.0
 40
0.125
 40
0.125
 40
0.25
 40
0.25
 40
0.375
 40
0.375
 40
0.5
 40
0.5
 40
0.625
 40
0.625
 40
0.75
 40
0.75
 40
1.0
 40
1.0
 40
1.0
 40
1.0
 10
434.1456349849175
 20
317.8161808968628
 30
0.0
 10
434.5623016515843
 20
318.2328475635294
 30
0.0
 10
434.978771079592
 20
318.6493169915371
 30
0.0
 10
435.7740373517811
 20
319.4445832637262
 30
0.0
 10
436.152555400142
 20
319.8231013120873
 30
0.0
 10
436.844596922633
 20
320.5151428345783
 30
0.0
 10
437.1580825986027
 20
320.828628510548
 30
0.0
 10
437.7085298369836
 20
321.3790757489289
 30
0.0
 10
437.9456349849164
 20
321.6161808968617
 30
0.0
 10
438.3456349849162
 20
322.0161808968615
 30
0.0
 10
438.5087204539226
 20
322.1792663658678
 30
0.0
 10
438.7713135608533
 20
322.4418594727986
 30
0.0
 10
438.8709683182492
 20
322.5415142301945
 30
0.0
 10
439.094968318249
 20
322.7655142301943
 30
0.0
 10
439.1456349849159
 20
322.816180896861
 30
0.0
 10
439.1456349849159
 20
322.8161808968611
 30
0.0
  0
SPLINE
  5
FA
330
1F
100
AcDbEntity
  8
0
  6
Continuous
 62
     7
370
    15
100
AcDbSpline
210
0.0
220
0.0
230
1.0
 70
    24
 71
     3
 72
    20
 73
    16
 74
     0
 42
0.000000001
 43
0.00000001
 40
0.0
 40
0.0
 40
0.0
 40
0.0
 40
0.2499999999999898
 40
0.2499999999999898
 40
0.3749999999999916
 40
0.3749999999999916
 40
0.4999999999999932
 40
0.4999999999999932
 40
0.6249999999999949
 40
0.6249999999999949
 40
0.7499999999999967
 40
0.7499999999999967
 40
0.8749999999999983
 40
0.8749999999999983
 40
1.0
 40
1.0
 40
1.0
 40
1.0
 10
439.1456349849164
 20
717.8161808968612
 30
0.0
 10
439.1456349849165
 20
717.8161808968617
 30
0.0
 10
439.0949683182498
 20
717.8668475635278
 30
0.0
 10
438.8709683182495
 20
718.0908475635277
 30
0.0
 10
438.7713135608535
 20
718.190502320924
 30
0.0
 10
438.5087204539225
 20
718.453095427855
 30
0.0
 10
438.345634984916
 20
718.6161808968618
 30
0.0
 10
437.9456349849158
 20
719.016180896862
 30
0.0
 10
437.708529836983
 20
719.2532860447945
 30
0.0
 10
437.1580825986014
 20
719.803733283176
 30
0.0
 10
436.8445969226315
 20
720.1172189591459
 30
0.0
 10
436.1525554001396
 20
720.8092604816376
 30
0.0
 10
435.7740373517785
 20
721.1877785299987
 30
0.0
 10
434.9787710795889
 20
721.9830448021884
 30
0.0
 10
434.5623016515809
 20
722.3995142301966
 30
0.0
 10
434.145634984914
 20
722.8161808968632
 30
0.0
  0
SPLINE
  5
109
330
1F
100
AcDbEntity
  8
0
  6
Continuous
 62
     7
370
    15
100
AcDbSpline
210
0.0
220
0.0
230
1.0
 70
    24
 71
     3
 72
    20
 73
    16
 74
     0
 42
0.000000001
 43
0.00000001
 40
0.0
 40
0.0
 40
0.0
 40
0.0
 40
0.1249999999999991
 40
0.1249999999999991
 40
0.2499999999999983
 40
0.2499999999999983
 40
0.3749999999999974
 40
0.3749999999999974
 40
0.4999999999999967
 40
0.4999999999999967
 40
0.6249999999999958
 40
0.6249999999999958
 40
0.7499999999999949
 40
0.7499999999999949
 40
1.0
 40
1.0
 40
1.0
 40
1.0
 10
434.6408767082193
 20
723.3209391735583
 30
0.0
 10
435.0575433748858
 20
722.9042725068917
 30
0.0
 10
435.4740128028936
 20
722.4878030788838
 30
0.0
 10
436.2692790750829
 20
721.6925368066948
 30
0.0
 10
436.6477971234435
 20
721.3140187583334
 30
0.0
 10
437.3398386459346
 20
720.6219772358425
 30
0.0
 10
437.6533243219042
 20
720.3084915598727
 30
0.0
 10
438.2037715602855
 20
719.7580443214919
 30
0.0
 10
438.4408767082182
 20
719.5209391735592
 30
0.0
 10
438.8408767082179
 20
719.1209391735595
 30
0.0
 10
439.0039621772243
 20
718.9578537045531
 30
0.0
 10
439.2665552841552
 20
718.6952605976221
 30
0.0
 10
439.366210041551
 20
718.5956058402265
 30
0.0
 10
439.5902100415508
 20
718.3716058402263
 30
0.0
 10
439.6408767082177
 20
718.3209391735595
 30
0.0
 10
439.6408767082176
 20
718.3209391735596
 30
0.0
  0
SPLINE
  5
10B
330
1F
100
AcDbEntity
  8
0
  6
Continuous
 62
     7
370
    15
100
AcDbSpline
210
0.0
220
0.0
230
1.0
 70
    24
 71
     3
 72
    20
 73
    16
 74
     0
 42
0.000000001
 43
0.00000001
 40
0.0
 40
0.0
 40
0.0
 40
0.0
 40
0.2499999999999856
 40
0.2499999999999856
 40
0.3749999999999879
 40
0.3749999999999879
 40
0.4999999999999903
 40
0.4999999999999903
 40
0.6249999999999928
 40
0.6249999999999928
 40
0.7499999999999951
 40
0.7499999999999951
 40
0.8749999999999976
 40
0.8749999999999976
 40
1.0
 40
1.0
 40
1.0
 40
1.0
 10
834.6408767082185
 20
718.3209391735589
 30
0.0
 10
834.6408767082181
 20
718.3209391735587
 30
0.0
 10
834.6915433748851
 20
718.3716058402256
 30
0.0
 10
834.9155433748854
 20
718.5956058402261
 30
0.0
 10
835.015198132281
 20
718.6952605976214
 30
0.0
 10
835.2777912392122
 20
718.9578537045527
 30
0.0
 10
835.4408767082186
 20
719.1209391735595
 30
0.0
 10
835.8408767082187
 20
719.5209391735597
 30
0.0
 10
836.0779818561515
 20
719.7580443214924
 30
0.0
 10
836.6284290945331
 20
720.3084915598739
 30
0.0
 10
836.9419147705031
 20
720.621977235844
 30
0.0
 10
837.6339562929943
 20
721.3140187583357
 30
0.0
 10
838.0124743413558
 20
721.6925368066968
 30
0.0
 10
838.807740613545
 20
722.4878030788864
 30
0.0
 10
839.2242100415534
 20
722.9042725068946
 30
0.0
 10
839.6408767082199
 20
723.3209391735614
 30
0.0
  0
SPLINE
  5
112
330
1F
100
AcDbEntity
  8
0
  6
Continuous
 62
     7
370
    15
100
AcDbSpline
210
0.0
220
0.0
230
1.0
 70
    24
 71
     3
 72
    20
 73
    16
 74
     0
 42
0.000000001
 43
0.00000001
 40
0.0
 40
0.0
 40
0.0
 40
0.0
 40
0.1249999999999958
 40
0.1249999999999958
 40
0.2499999999999917
 40
0.2499999999999917
 40
0.3749999999999876
 40
0.3749999999999876
 40
0.4999999999999835
 40
0.4999999999999835
 40
0.6249999999999793
 40
0.6249999999999793
 40
0.7499999999999754
 40
0.7499999999999754
 40
1.0
 40
1.0
 40
1.0
 40
1.0
 10
840.1456349849153
 20
722.8256974502551
 30
0.0
 10
839.7289683182487
 20
722.4090307835885
 30
0.0
 10
839.3124988902408
 20
721.9925613555804
 30
0.0
 10
838.5172326180522
 20
721.1972950833919
 30
0.0
 10
838.1387145696907
 20
720.8187770350307
 30
0.0
 10
837.4466730471997
 20
720.1267355125395
 30
0.0
 10
837.1331873712301
 20
719.8132498365701
 30
0.0
 10
836.5827401328492
 20
719.2628025981893
 30
0.0
 10
836.3456349849166
 20
719.0256974502566
 30
0.0
 10
835.9456349849168
 20
718.6256974502569
 30
0.0
 10
835.7825495159102
 20
718.4626119812503
 30
0.0
 10
835.5199564089794
 20
718.2000188743195
 30
0.0
 10
835.4203016515835
 20
718.1003641169234
 30
0.0
 10
835.1963016515838
 20
717.8763641169236
 30
0.0
 10
835.1456349849171
 20
717.825697450257
 30
0.0
 10
835.145634984917
 20
717.8256974502572
 30
0.0
  0
SPLINE
  5
113
330
1F
100
AcDbEntity
  8
0
  6
Continuous
 62
     7
370
    15
100
AcDbSpline
210
0.0
220
0.0
230
1.0
 70
    24
 71
     3
 72
    20
 73
    16
 74
     0
 42
0.000000001
 43
0.00000001
 40
0.0
 40
0.0
 40
0.0
 40
0.0
 40
0.2499999999999993
 40
0.2499999999999993
 40
0.3749999999999994
 40
0.3749999999999994
 40
0.4999999999999996
 40
0.4999999999999996
 40
0.6249999999999997
 40
0.6249999999999997
 40
0.7499999999999998
 40
0.7499999999999998
 40
0.8749999999999999
 40
0.8749999999999999
 40
1.0
 40
1.0
 40
1.0
 40
1.0
 10
835.145634984914
 20
322.8256974502567
 30
0.0
 10
835.1456349849142
 20
322.8256974502567
 30
0.0
 10
835.1963016515805
 20
322.7750307835899
 30
0.0
 10
835.4203016515805
 20
322.5510307835897
 30
0.0
 10
835.5199564089764
 20
322.4513760261938
 30
0.0
 10
835.7825495159076
 20
322.1887829192628
 30
0.0
 10
835.9456349849141
 20
322.0256974502564
 30
0.0
 10
836.3456349849141
 20
321.6256974502562
 30
0.0
 10
836.5827401328469
 20
321.3885923023234
 30
0.0
 10
837.1331873712285
 20
320.838145063942
 30
0.0
 10
837.4466730471987
 20
320.5246593879721
 30
0.0
 10
838.1387145696906
 20
319.8326178654805
 30
0.0
 10
838.5172326180515
 20
319.4540998171195
 30
0.0
 10
839.3124988902412
 20
318.65883354493
 30
0.0
 10
839.7289683182498
 20
318.242364116922
 30
0.0
 10
840.1456349849161
 20
317.8256974502552
 30
0.0
  0
SPLINE
  5
11F
330
1F
100
AcDbEntity
  8
0
  6
Continuous
 62
     7
370
    15
100
AcDbSpline
210
0.0
220
0.0
230
1.0
 70
    24
 71
     3
 72
    20
 73
    16
 74
     0
 42
0.000000001
 43
0.00000001
 40
0.0
 40
0.0
 40
0.0
 40
0.0
 40
0.1249999999999991
 40
0.1249999999999991
 40
0.2499999999999983
 40
0.2499999999999983
 40
0.3749999999999974
 40
0.3749999999999974
 40
0.4999999999999967
 40
0.4999999999999967
 40
0.6249999999999958
 40
0.6249999999999958
 40
0.7499999999999949
 40
0.7499999999999949
 40
1.0
 40
1.0
 40
1.0
 40
1.0
 10
839.6503932616105
 20
317.3209391735591
 30
0.0
 10
839.2337265949438
 20
317.7376058402256
 30
0.0
 10
838.817257166936
 20
318.1540752682336
 30
0.0
 10
838.0219908947472
 20
318.9493415404227
 30
0.0
 10
837.6434728463862
 20
319.3278595887836
 30
0.0
 10
836.951431323895
 20
320.0199011112746
 30
0.0
 10
836.6379456479253
 20
320.3333867872445
 30
0.0
 10
836.0874984095443
 20
320.8838340256256
 30
0.0
 10
835.8503932616114
 20
321.120939173558
 30
0.0
 10
835.4503932616119
 20
321.5209391735579
 30
0.0
 10
835.2873077926054
 20
321.6840246425643
 30
0.0
 10
835.0247146856743
 20
321.9466177494951
 30
0.0
 10
834.9250599282783
 20
322.0462725068911
 30
0.0
 10
834.7010599282783
 20
322.2702725068909
 30
0.0
 10
834.650393261612
 20
322.3209391735576
 30
0.0
 10
834.650393261612
 20
322.3209391735576
 30
0.0
  0
SPLINE
  5
120
330
1F
100
AcDbEntity
  8
0
  6
Continuous
 62
     7
370
    15
100
AcDbSpline
210
0.0
220
0.0
230
1.0
 70
    24
 71
     3
 72
    20
 73
    16
 74
     0
 42
0.000000001
 43
0.00000001
 40
0.0
 40
0.0
 40
0.0
 40
0.0
 40
0.2499999999999949
 40
0.2499999999999949
 40
0.3749999999999957
 40
0.3749999999999957
 40
0.4999999999999966
 40
0.4999999999999966
 40
0.6249999999999974
 40
0.6249999999999974
 40
0.7499999999999982
 40
0.7499999999999982
 40
0.8749999999999991
 40
0.8749999999999991
 40
1.0
 40
1.0
 40
1.0
 40
1.0
 10
439.650393261612
 20
322.3209391735626
 30
0.0
 10
439.6503932616119
 20
322.3209391735626
 30
0.0
 10
439.5997265949453
 20
322.2702725068958
 30
0.0
 10
439.3757265949451
 20
322.0462725068957
 30
0.0
 10
439.2760718375492
 20
321.9466177494997
 30
0.0
 10
439.013478730618
 20
321.6840246425687
 30
0.0
 10
438.8503932616117
 20
321.5209391735621
 30
0.0
 10
438.4503932616116
 20
321.1209391735619
 30
0.0
 10
438.2132881136786
 20
320.8838340256291
 30
0.0
 10
437.6628408752973
 20
320.3333867872475
 30
0.0
 10
437.3493551993272
 20
320.0199011112774
 30
0.0
 10
436.6573136768356
 20
319.3278595887858
 30
0.0
 10
436.2787956284744
 20
318.9493415404247
 30
0.0
 10
435.4835293562849
 20
318.154075268235
 30
0.0
 10
435.0670599282769
 20
317.7376058402269
 30
0.0
 10
434.6503932616102
 20
317.3209391735601
 30
0.0
  0
LINE
  5
137
330
1F
100
AcDbEntity
  8
0
  6
Continuous
 62
     7
370
    15
100
AcDbLine
 10
822.1004594885
 20
338.844519453
 30
0.0
 11
822.1004594885
 21
703.344519453
 31
0.0
  0
LINE
  5
138
330
1F
100
AcDbEntity
  8
0
  6
Continuous
 62
     7
370
    15
100
AcDbLine
 10
821.1004594885
 20
703.344519453
 30
0.0
 11
821.1004594885
 21
338.844519453
 31
0.0
  0
LINE
  5
139
330
1F
100
AcDbEntity
  8
0
  6
Continuous
 62
     7
370
    15
100
AcDbLine
 10
454.6004594885
 20
704.844519453
 30
0.0
 11
819.6004594885
 21
704.844519453
 31
0.0
  0
LINE
  5
13A
330
1F
100
AcDbEntity
  8
0
  6
Continuous
 62
     7
370
    15
100
AcDbLine
 10
456.6004594885
 20
705.844519453
 30
0.0
 11
456.6004594885
 21
704.844519453
 31
0.0
  0
LINE
  5
13B
330
1F
100
AcDbEntity
  8
0
  6
Continuous
 62
     7
370
    15
100
AcDbLine
 10
819.6004594885
 20
705.844519453
 30
0.0
 11
456.6004594885
 21
705.844519453
 31
0.0
  0
LINE
  5
13C
330
1F
100
AcDbEntity
  8
0
  6
Continuous
 62
     7
370
    15
100
AcDbLine
 10
796.1004594885
 20
336.344519453
 30
0.0
 11
796.1004594885
 21
337.344519453
 31
0.0
  0
LINE
  5
13D
330
1F
100
AcDbEntity
  8
0
  6
Continuous
 62
     7
370
    15
100
AcDbLine
 10
819.6004594885
 20
337.344519453
 30
0.0
 11
796.1004594885
 21
337.344519453
 31
0.0
  0
LINE
  5
13E
330
1F
100
AcDbEntity
  8
0
  6
Continuous
 62
     7
370
    15
100
AcDbLine
 10
819.6004594885
 20
336.344519453
 30
0.0
 11
454.6004594885
 21
336.344519453
 31
0.0
  0
LINE
  5
13F
330
1F
100
AcDbEntity
  8
0
  6
Continuous
 62
     7
370
    15
100
AcDbLine
 10
796.938889923
 20
485.5281680858
 30
0.0
 11
796.938889923
 21
559.1608708202
 31
0.0
  0
LINE
  5
140
330
1F
100
AcDbEntity
  8
0
  6
Continuous
 62
     7
370
    15
100
AcDbLine
 10
802.0119492848
 20
573.3030064439
 30
0.0
 11
820.3504594885
 21
594.4784940492
 31
0.0
  0
LINE
  5
141
330
1F
100
AcDbEntity
  8
0
  6
Continuous
 62
     7
370
    15
100
AcDbLine
 10
820.3504594885
 20
450.2105448568
 30
0.0
 11
802.0119492848
 21
471.3860324621
 31
0.0
  0
LINE
  5
142
330
1F
100
AcDbEntity
  8
0
  6
Continuous
 62
     7
370
    15
100
AcDbLine
 10
452.1004594885
 20
702.344519453
 30
0.0
 11
452.1004594885
 21
337.844519453
 31
0.0
  0
LINE
  5
143
330
1F
100
AcDbEntity
  8
0
  6
Continuous
 62
     7
370
    15
100
AcDbLine
 10
478.1004594885
 20
704.844519453
 30
0.0
 11
478.1004594885
 21
703.844519453
 31
0.0
  0
LINE
  5
144
330
1F
100
AcDbEntity
  8
0
  6
Continuous
 62
     7
370
    15
100
AcDbLine
 10
454.6004594885
 20
703.844519453
 30
0.0
 11
478.1004594885
 21
703.844519453
 31
0.0
  0
LINE
  5
145
330
1F
100
AcDbEntity
  8
0
  6
Continuous
 62
     7
370
    15
100
AcDbLine
 10
453.1004594885
 20
337.844519453
 30
0.0
 11
453.1004594885
 21
702.344519453
 31
0.0
  0
LINE
  5
146
330
1F
100
AcDbEntity
  8
0
  6
Continuous
 62
     7
370
    15
100
AcDbLine
 10
817.6004594885
 20
335.344519453
 30
0.0
 11
817.6004594885
 21
336.344519453
 31
0.0
  0
LINE
  5
147
330
1F
100
AcDbEntity
  8
0
  6
Continuous
 62
     7
370
    15
100
AcDbLine
 10
454.6004594885
 20
335.344519453
 30
0.0
 11
817.6004594885
 21
335.344519453
 31
0.0
  0
LINE
  5
148
330
1F
100
AcDbEntity
  8
0
  6
Continuous
 62
     7
370
    15
100
AcDbLine
 10
477.262029054
 20
555.6608708202
 30
0.0
 11
477.262029054
 21
482.0281680858
 31
0.0
  0
LINE
  5
149
330
1F
100
AcDbEntity
  8
0
  6
Continuous
 62
     7
370
    15
100
AcDbLine
 10
453.8504594885
 20
590.9784940492
 30
0.0
 11
472.1889696923
 21
569.8030064439
 31
0.0
  0
LINE
  5
14A
330
1F
100
AcDbEntity
  8
0
  6
Continuous
 62
     7
370
    15
100
AcDbLine
 10
472.1889696923
 20
467.8860324621
 30
0.0
 11
453.8504594885
 21
446.7105448568
 31
0.0
  0
LINE
  5
14B
330
1F
100
AcDbEntity
  8
0
  6
Continuous
 62
     7
370
    15
100
AcDbLine
 10
457.1004594885
 20
342.0765702606
 30
0.0
 11
457.6004594885
 21
342.0765702606
 31
0.0
  0
LINE
  5
14C
330
1F
100
AcDbEntity
  8
0
  6
Continuous
 62
     7
370
    15
100
AcDbLine
 10
457.6004594885
 20
698.6124686454
 30
0.0
 11
457.1004594885
 21
698.6124686454
 31
0.0
  0
LINE
  5
14D
330
1F
100
AcDbEntity
  8
0
  6
Continuous
 62
     7
370
    15
100
AcDbLine
 10
459.3325102961
 20
700.344519453
 30
0.0
 11
459.3325102961
 21
699.844519453
 31
0.0
  0
LINE
  5
14E
330
1F
100
AcDbEntity
  8
0
  6
Continuous
 62
     7
370
    15
100
AcDbLine
 10
815.368408681
 20
699.844519453
 30
0.0
 11
815.368408681
 21
700.344519453
 31
0.0
  0
LINE
  5
14F
330
1F
100
AcDbEntity
  8
0
  6
Continuous
 62
     7
370
    15
100
AcDbLine
 10
817.1004594885
 20
698.6124686454
 30
0.0
 11
816.6004594885
 21
698.6124686454
 31
0.0
  0
LINE
  5
150
330
1F
100
AcDbEntity
  8
0
  6
Continuous
 62
     7
370
    15
100
AcDbLine
 10
816.6004594885
 20
342.5765702606
 30
0.0
 11
817.1004594885
 21
342.5765702606
 31
0.0
  0
LINE
  5
151
330
1F
100
AcDbEntity
  8
0
  6
Continuous
 62
     7
370
    15
100
AcDbLine
 10
815.368408681
 20
340.344519453
 30
0.0
 11
815.368408681
 21
340.844519453
 31
0.0
  0
LINE
  5
152
330
1F
100
AcDbEntity
  8
0
  6
Continuous
 62
     7
370
    15
100
AcDbLine
 10
458.8325102961
 20
340.844519453
 30
0.0
 11
458.8325102961
 21
340.344519453
 31
0.0
  0
LINE
  5
153
330
1F
100
AcDbEntity
  8
0
  6
Continuous
 62
     7
370
    15
100
AcDbLine
 10
454.6004594885
 20
696.0143924341
 30
0.0
 11
454.6004594885
 21
590.1124686454
 31
0.0
  0
LINE
  5
154
330
1F
100
AcDbEntity
  8
0
  6
Continuous
 62
     7
370
    15
100
AcDbLine
 10
454.6004594885
 20
447.5765702606
 30
0.0
 11
454.6004594885
 21
344.6746464719
 31
0.0
  0
LINE
  5
155
330
1F
100
AcDbEntity
  8
0
  6
Continuous
 62
     7
370
    15
100
AcDbLine
 10
461.4305865075
 20
337.844519453
 30
0.0
 11
812.7703324696
 21
337.844519453
 31
0.0
  0
LINE
  5
156
330
1F
100
AcDbEntity
  8
0
  6
Continuous
 62
     7
370
    15
100
AcDbLine
 10
812.7703324696
 20
702.844519453
 30
0.0
 11
461.9305865075
 21
702.844519453
 31
0.0
  0
LINE
  5
157
330
1F
100
AcDbEntity
  8
0
  6
Continuous
 62
     7
370
    15
100
AcDbLine
 10
819.6004594885
 20
345.1746464719
 30
0.0
 11
819.6004594885
 21
451.0765702606
 31
0.0
  0
LINE
  5
158
330
1F
100
AcDbEntity
  8
0
  6
Continuous
 62
     7
370
    15
100
AcDbLine
 10
819.6004594885
 20
593.6124686454
 30
0.0
 11
819.6004594885
 21
696.0143924341
 31
0.0
  0
LINE
  5
159
330
1F
100
AcDbEntity
  8
0
  6
Continuous
 62
     7
370
    15
100
AcDbLine
 10
446.3208045784
 20
711.6457695801
 30
0.0
 11
442.6456349849
 21
715.3209391736
 31
0.0
  0
LINE
  5
15A
330
1F
100
AcDbEntity
  8
0
  6
Continuous
 62
     7
370
    15
100
AcDbLine
 10
831.6456349849
 20
715.3209391736
 30
0.0
 11
827.7583333571
 21
711.4336375458
 31
0.0
  0
LINE
  5
15B
330
1F
100
AcDbEntity
  8
0
  6
Continuous
 62
     7
370
    15
100
AcDbLine
 10
827.7583333571
 20
711.4336375458
 30
0.0
 11
830.5867604819
 21
708.605210421
 31
0.0
  0
LINE
  5
15C
330
1F
100
AcDbEntity
  8
0
  6
Continuous
 62
     7
370
    15
100
AcDbLine
 10
830.5867604819
 20
708.605210421
 30
0.0
 11
824.9299062324
 21
702.9483561715
 31
0.0
  0
LINE
  5
15D
330
1F
100
AcDbEntity
  8
0
  6
Continuous
 62
     7
370
    15
100
AcDbLine
 10
824.9299062324
 20
702.9483561715
 30
0.0
 11
822.1014791076
 21
705.7767832963
 31
0.0
  0
LINE
  5
15E
330
1F
100
AcDbEntity
  8
0
  6
Continuous
 62
     7
370
    15
100
AcDbLine
 10
822.1014791076
 20
705.7767832963
 30
0.0
 11
821.4022700232
 21
705.0775742119
 31
0.0
  0
LINE
  5
15F
330
1F
100
AcDbEntity
  8
0
  6
Continuous
 62
     7
370
    15
100
AcDbLine
 10
820.6949402775
 20
704.3702444662
 30
0.0
 11
815.8163119938
 21
699.4916161824
 31
0.0
  0
LINE
  5
160
330
1F
100
AcDbEntity
  8
0
  6
Continuous
 62
     7
370
    15
100
AcDbLine
 10
458.5454805231
 20
699.4210936354
 30
0.0
 11
454.1816949403
 21
703.7848792182
 31
0.0
  0
LINE
  5
161
330
1F
100
AcDbEntity
  8
0
  6
Continuous
 62
     7
370
    15
100
AcDbLine
 10
453.4188960826
 20
704.5476780759
 30
0.0
 11
452.4019228966
 21
705.5646512619
 31
0.0
  0
LINE
  5
162
330
1F
100
AcDbEntity
  8
0
  6
Continuous
 62
     7
370
    15
100
AcDbLine
 10
452.4019228966
 20
705.5646512619
 30
0.0
 11
454.7353752745
 21
707.8981036398
 31
0.0
  0
LINE
  5
163
330
1F
100
AcDbEntity
  8
0
  6
Continuous
 62
     7
370
    15
100
AcDbLine
 10
454.7353752745
 20
707.8981036398
 30
0.0
 11
448.6542569563
 21
713.979221958
 31
0.0
  0
LINE
  5
164
330
1F
100
AcDbEntity
  8
0
  6
Continuous
 62
     7
370
    15
100
AcDbLine
 10
448.6542569563
 20
713.979221958
 30
0.0
 11
446.3208045784
 21
711.6457695801
 31
0.0
  0
LINE
  5
165
330
1F
100
AcDbEntity
  8
0
  6
Continuous
 62
     7
370
    15
100
AcDbLine
 10
445.8208045784
 20
329.496108767
 30
0.0
 11
442.1456349849
 21
325.8209391736
 31
0.0
  0
LINE
  5
166
330
1F
100
AcDbEntity
  8
0
  6
Continuous
 62
     7
370
    15
100
AcDbLine
 10
448.8613637375
 20
713.7620646705
 30
0.0
 11
454.5182179869
 21
708.105210421
 31
0.0
  0
LINE
  5
167
330
1F
100
AcDbEntity
  8
0
  6
Continuous
 62
     7
370
    15
100
AcDbLine
 10
454.5182179869
 20
708.105210421
 30
0.0
 11
451.6897908622
 21
705.2767832963
 31
0.0
  0
LINE
  5
168
330
1F
100
AcDbEntity
  8
0
  6
Continuous
 62
     7
370
    15
100
AcDbLine
 10
451.6897908622
 20
705.2767832963
 30
0.0
 11
452.8435231205
 21
704.123051038
 31
0.0
  0
LINE
  5
169
330
1F
100
AcDbEntity
  8
0
  6
Continuous
 62
     7
370
    15
100
AcDbLine
 10
453.5506518869
 20
703.4159222715
 30
0.0
 11
457.9796340808
 21
698.9869400776
 31
0.0
  0
LINE
  5
16A
330
1F
100
AcDbEntity
  8
0
  6
Continuous
 62
     7
370
    15
100
AcDbLine
 10
457.9533627591
 20
341.6286669478
 30
0.0
 11
453.3463254098
 21
337.0216295985
 31
0.0
  0
LINE
  5
16B
330
1F
100
AcDbEntity
  8
0
  6
Continuous
 62
     7
370
    15
100
AcDbLine
 10
452.6302698785
 20
336.3055740672
 30
0.0
 11
451.9019228966
 21
335.5772270852
 31
0.0
  0
LINE
  5
16C
330
1F
100
AcDbEntity
  8
0
  6
Continuous
 62
     7
370
    15
100
AcDbLine
 10
451.9019228966
 20
335.5772270852
 30
0.0
 11
449.5684705186
 21
337.9106794631
 31
0.0
  0
LINE
  5
16D
330
1F
100
AcDbEntity
  8
0
  6
Continuous
 62
     7
370
    15
100
AcDbLine
 10
449.5684705186
 20
337.9106794631
 30
0.0
 11
443.4873522004
 21
331.8295611449
 31
0.0
  0
LINE
  5
16E
330
1F
100
AcDbEntity
  8
0
  6
Continuous
 62
     7
370
    15
100
AcDbLine
 10
443.4873522004
 20
331.8295611449
 30
0.0
 11
445.8208045784
 21
329.496108767
 31
0.0
  0
LINE
  5
16F
330
1F
100
AcDbEntity
  8
0
  6
Continuous
 62
     7
370
    15
100
AcDbLine
 10
446.0329366127
 20
710.9336375458
 30
0.0
 11
448.8613637375
 21
713.7620646705
 31
0.0
  0
LINE
  5
170
330
1F
100
AcDbEntity
  8
0
  6
Continuous
 62
     7
370
    15
100
AcDbLine
 10
442.1456349849
 20
714.8209391736
 30
0.0
 11
446.0329366127
 21
710.9336375458
 31
0.0
  0
LINE
  5
171
330
1F
100
AcDbEntity
  8
0
  6
Continuous
 62
     7
370
    15
100
AcDbLine
 10
827.9704653915
 20
328.996108767
 30
0.0
 11
831.6456349849
 21
325.3209391736
 31
0.0
  0
LINE
  5
172
330
1F
100
AcDbEntity
  8
0
  6
Continuous
 62
     7
370
    15
100
AcDbLine
 10
442.6456349849
 20
325.3209391736
 30
0.0
 11
446.5329366127
 21
329.2082408014
 31
0.0
  0
LINE
  5
173
330
1F
100
AcDbEntity
  8
0
  6
Continuous
 62
     7
370
    15
100
AcDbLine
 10
443.704509488
 20
332.0366679261
 30
0.0
 11
449.3613637375
 21
337.6935221756
 31
0.0
  0
LINE
  5
174
330
1F
100
AcDbEntity
  8
0
  6
Continuous
 62
     7
370
    15
100
AcDbLine
 10
449.3613637375
 20
337.6935221756
 30
0.0
 11
452.1897908622
 21
334.8650950508
 31
0.0
  0
LINE
  5
175
330
1F
100
AcDbEntity
  8
0
  6
Continuous
 62
     7
370
    15
100
AcDbLine
 10
815.7428801132
 20
341.2236940453
 30
0.0
 11
819.6219014451
 21
337.3446727133
 31
0.0
  0
LINE
  5
176
330
1F
100
AcDbEntity
  8
0
  6
Continuous
 62
     7
370
    15
100
AcDbLine
 10
820.4670527952
 20
336.4995213633
 30
0.0
 11
821.8893470733
 21
335.0772270852
 31
0.0
  0
LINE
  5
177
330
1F
100
AcDbEntity
  8
0
  6
Continuous
 62
     7
370
    15
100
AcDbLine
 10
821.8893470733
 20
335.0772270852
 30
0.0
 11
819.5558946954
 21
332.7437747073
 31
0.0
  0
LINE
  5
178
330
1F
100
AcDbEntity
  8
0
  6
Continuous
 62
     7
370
    15
100
AcDbLine
 10
819.5558946954
 20
332.7437747073
 30
0.0
 11
825.6370130136
 21
326.6626563891
 31
0.0
  0
LINE
  5
179
330
1F
100
AcDbEntity
  8
0
  6
Continuous
 62
     7
370
    15
100
AcDbLine
 10
825.6370130136
 20
326.6626563891
 30
0.0
 11
827.9704653915
 21
328.996108767
 31
0.0
  0
LINE
  5
17A
330
1F
100
AcDbEntity
  8
0
  6
Continuous
 62
     7
370
    15
100
AcDbLine
 10
452.1897908622
 20
334.8650950508
 30
0.0
 11
453.1400940667
 21
335.8153982554
 31
0.0
  0
LINE
  5
17B
330
1F
100
AcDbEntity
  8
0
  6
Continuous
 62
     7
370
    15
100
AcDbLine
 10
453.8630109642
 20
336.5383151528
 30
0.0
 11
458.4582369596
 21
341.1335411482
 31
0.0
  0
LINE
  5
17C
330
1F
100
AcDbEntity
  8
0
  6
Continuous
 62
     7
370
    15
100
AcDbLine
 10
446.5329366127
 20
329.2082408014
 30
0.0
 11
443.704509488
 21
332.0366679261
 31
0.0
  0
LINE
  5
17D
330
1F
100
AcDbEntity
  8
0
  6
Continuous
 62
     7
370
    15
100
AcDbLine
 10
828.4704653915
 20
711.1457695801
 30
0.0
 11
832.1456349849
 21
714.8209391736
 31
0.0
  0
LINE
  5
17E
330
1F
100
AcDbEntity
  8
0
  6
Continuous
 62
     7
370
    15
100
AcDbLine
 10
832.1456349849
 20
325.8209391736
 30
0.0
 11
828.2583333571
 21
329.7082408014
 31
0.0
  0
LINE
  5
17F
330
1F
100
AcDbEntity
  8
0
  6
Continuous
 62
     7
370
    15
100
AcDbLine
 10
828.2583333571
 20
329.7082408014
 30
0.0
 11
825.4299062324
 21
326.8798136766
 31
0.0
  0
LINE
  5
180
330
1F
100
AcDbEntity
  8
0
  6
Continuous
 62
     7
370
    15
100
AcDbLine
 10
825.4299062324
 20
326.8798136766
 30
0.0
 11
819.7730519829
 21
332.5366679261
 31
0.0
  0
LINE
  5
181
330
1F
100
AcDbEntity
  8
0
  6
Continuous
 62
     7
370
    15
100
AcDbLine
 10
819.7730519829
 20
332.5366679261
 30
0.0
 11
822.6014791076
 21
335.3650950508
 31
0.0
  0
LINE
  5
182
330
1F
100
AcDbEntity
  8
0
  6
Continuous
 62
     7
370
    15
100
AcDbLine
 10
822.6014791076
 20
335.3650950508
 30
0.0
 11
821.1127656513
 21
336.8538085071
 31
0.0
  0
LINE
  5
183
330
1F
100
AcDbEntity
  8
0
  6
Continuous
 62
     7
370
    15
100
AcDbLine
 10
820.3945925778
 20
337.5719815807
 30
0.0
 11
816.1770336709
 21
341.7895404875
 31
0.0
  0
LINE
  5
184
330
1F
100
AcDbEntity
  8
0
  6
Continuous
 62
     7
370
    15
100
AcDbLine
 10
816.3114377933
 20
698.986741982
 30
0.0
 11
821.0510471084
 21
703.726351297
 31
0.0
  0
LINE
  5
185
330
1F
100
AcDbEntity
  8
0
  6
Continuous
 62
     7
370
    15
100
AcDbLine
 10
821.8199012544
 20
704.4952054431
 30
0.0
 11
822.3893470733
 21
705.0646512619
 31
0.0
  0
LINE
  5
186
330
1F
100
AcDbEntity
  8
0
  6
Continuous
 62
     7
370
    15
100
AcDbLine
 10
822.3893470733
 20
705.0646512619
 30
0.0
 11
824.7227994512
 21
702.731198884
 31
0.0
  0
LINE
  5
187
330
1F
100
AcDbEntity
  8
0
  6
Continuous
 62
     7
370
    15
100
AcDbLine
 10
824.7227994512
 20
702.731198884
 30
0.0
 11
830.8039177694
 21
708.8123172022
 31
0.0
  0
LINE
  5
188
330
1F
100
AcDbEntity
  8
0
  6
Continuous
 62
     7
370
    15
100
AcDbLine
 10
830.8039177694
 20
708.8123172022
 30
0.0
 11
828.4704653915
 21
711.1457695801
 31
0.0
  0
LINE
  5
189
330
1F
100
AcDbEntity
  8
0
  6
Continuous
 62
     7
370
    15
100
AcDbLine
 10
415.4858385542
 20
741.4759773275
 30
0.0
 11
434.1456349849
 21
722.8161808969
 31
0.0
  0
LINE
  5
18A
330
1F
100
AcDbEntity
  8
0
  6
Continuous
 62
     7
370
    15
100
AcDbLine
 10
434.1456349849
 20
317.8161808969
 30
0.0
 11
415.4858385542
 21
299.1563844662
 31
0.0
  0
LINE
  5
18B
330
1F
100
AcDbEntity
  8
0
  6
Continuous
 62
     7
370
    15
100
AcDbLine
 10
414.6456349849
 20
301.6090741157
 30
0.0
 11
414.6456349849
 21
739.023287678
 31
0.0
  0
LINE
  5
18C
330
1F
100
AcDbEntity
  8
0
  6
Continuous
 62
     7
370
    15
100
AcDbLine
 10
439.1456349849
 20
322.8161808969
 30
0.0
 11
439.1456349849
 21
717.8161808969
 31
0.0
  0
LINE
  5
18D
330
1F
100
AcDbEntity
  8
0
  6
Continuous
 62
     7
370
    15
100
AcDbLine
 10
439.6456349849
 20
718.3209391736
 30
0.0
 11
439.6456349849
 21
717.8209391736
 31
0.0
  0
LINE
  5
18E
330
1F
100
AcDbEntity
  8
0
  6
Continuous
 62
     7
370
    15
100
AcDbLine
 10
439.6456349849
 20
717.8209391736
 30
0.0
 11
439.1456349849
 21
717.8209391736
 31
0.0
  0
LINE
  5
18F
330
1F
100
AcDbEntity
  8
0
  6
Continuous
 62
     7
370
    15
100
AcDbLine
 10
439.6408767082
 20
718.3209391736
 30
0.0
 11
834.6408767082
 21
718.3209391736
 31
0.0
  0
LINE
  5
190
330
1F
100
AcDbEntity
  8
0
  6
Continuous
 62
     7
370
    15
100
AcDbLine
 10
434.6408767082
 20
723.3209391736
 30
0.0
 11
415.9810802775
 21
741.9807356042
 31
0.0
  0
LINE
  5
191
330
1F
100
AcDbEntity
  8
0
  6
Continuous
 62
     7
370
    15
100
AcDbLine
 10
418.433769927
 20
742.8209391736
 30
0.0
 11
855.8479834894
 21
742.8209391736
 31
0.0
  0
LINE
  5
192
330
1F
100
AcDbEntity
  8
0
  6
Continuous
 62
     7
370
    15
100
AcDbLine
 10
858.3006731389
 20
741.9807356042
 30
0.0
 11
839.6408767082
 21
723.3209391736
 31
0.0
  0
LINE
  5
193
330
1F
100
AcDbEntity
  8
0
  6
Continuous
 62
     7
370
    15
100
AcDbLine
 10
835.1456349849
 20
717.8256974503
 30
0.0
 11
835.1456349849
 21
322.8256974503
 31
0.0
  0
LINE
  5
194
330
1F
100
AcDbEntity
  8
0
  6
Continuous
 62
     7
370
    15
100
AcDbLine
 10
858.8054314156
 20
299.1659010196
 30
0.0
 11
840.1456349849
 21
317.8256974503
 31
0.0
  0
LINE
  5
195
330
1F
100
AcDbEntity
  8
0
  6
Continuous
 62
     7
370
    15
100
AcDbLine
 10
840.1456349849
 20
722.8256974503
 30
0.0
 11
858.8054314156
 21
741.4854938809
 31
0.0
  0
LINE
  5
196
330
1F
100
AcDbEntity
  8
0
  6
Continuous
 62
     7
370
    15
100
AcDbLine
 10
859.6456349849
 20
739.0328042314
 30
0.0
 11
859.6456349849
 21
301.6185906691
 31
0.0
  0
LINE
  5
197
330
1F
100
AcDbEntity
  8
0
  6
Continuous
 62
     7
370
    15
100
AcDbLine
 10
839.6503932616
 20
317.3209391736
 30
0.0
 11
858.3101896923
 21
298.6611427429
 31
0.0
  0
LINE
  5
198
330
1F
100
AcDbEntity
  8
0
  6
Continuous
 62
     7
370
    15
100
AcDbLine
 10
855.8575000428
 20
297.8209391736
 30
0.0
 11
418.4432864804
 21
297.8209391736
 31
0.0
  0
LINE
  5
199
330
1F
100
AcDbEntity
  8
0
  6
Continuous
 62
     7
370
    15
100
AcDbLine
 10
415.9905968309
 20
298.6611427429
 30
0.0
 11
434.6503932616
 21
317.3209391736
 31
0.0
  0
LINE
  5
19A
330
1F
100
AcDbEntity
  8
0
  6
Continuous
 62
     7
370
    15
100
AcDbLine
 10
834.6503932616
 20
322.3209391736
 30
0.0
 11
439.6503932616
 21
322.3209391736
 31
0.0
  0
LINE
  5
19B
330
1F
100
AcDbEntity
  8
0
  6
Continuous
 62
     7
370
    15
100
AcDbLine
 10
835.1456349849
 20
717.8209391736
 30
0.0
 11
834.6456349849
 21
717.8209391736
 31
0.0
  0
LINE
  5
19C
330
1F
100
AcDbEntity
  8
0
  6
Continuous
 62
     7
370
    15
100
AcDbLine
 10
834.6456349849
 20
717.8209391736
 30
0.0
 11
834.6456349849
 21
718.3209391736
 31
0.0
  0
LINE
  5
19D
330
1F
100
AcDbEntity
  8
0
  6
Continuous
 62
     7
370
    15
100
AcDbLine
 10
834.6456349849
 20
322.3209391736
 30
0.0
 11
834.6456349849
 21
322.8209391736
 31
0.0
  0
LINE
  5
19E
330
1F
100
AcDbEntity
  8
0
  6
Continuous
 62
     7
370
    15
100
AcDbLine
 10
834.6456349849
 20
322.8209391736
 30
0.0
 11
835.1456349849
 21
322.8209391736
 31
0.0
  0
LINE
  5
19F
330
1F
100
AcDbEntity
  8
0
  6
Continuous
 62
     7
370
    15
100
AcDbLine
 10
439.1456349849
 20
322.8209391736
 30
0.0
 11
439.6456349849
 21
322.8209391736
 31
0.0
  0
LINE
  5
1A0
330
1F
100
AcDbEntity
  8
0
  6
Continuous
 62
     7
370
    15
100
AcDbLine
 10
439.6456349849
 20
322.8209391736
 30
0.0
 11
439.6456349849
 21
322.3209391736
 31
0.0
  0
LINE
  5
1A1
330
1F
100
AcDbEntity
  8
0
  6
PHANTOM
 62
     8
370
     0
100
AcDbLine
 10
820.3504594885
 20
450.2105448568
 30
0.0
 11
820.3504594885
 21
594.4784940492
 31
0.0
  0
LINE
  5
1A2
330
1F
100
AcDbEntity
  8
0
  6
PHANTOM
 62
     8
370
     0
100
AcDbLine
 10
453.8504594885
 20
590.9784940492
 30
0.0
 11
453.8504594885
 21
446.7105448568
 31
0.0
  0
LINE
  5
1A3
330
1F
100
AcDbEntity
  8
0
  6
PHANTOM
 62
     8
370
     0
100
AcDbLine
 10
457.1004594885
 20
698.6124686454
 30
0.0
 11
457.1004594885
 21
587.2257172995
 31
0.0
  0
LINE
  5
1A4
330
1F
100
AcDbEntity
  8
0
  6
PHANTOM
 62
     8
370
     0
100
AcDbLine
 10
457.1004594885
 20
450.4633216065
 30
0.0
 11
457.1004594885
 21
342.0765702606
 31
0.0
  0
LINE
  5
1A5
330
1F
100
AcDbEntity
  8
0
  6
PHANTOM
 62
     8
370
     0
100
AcDbLine
 10
815.368408681
 20
700.344519453
 30
0.0
 11
459.3325102961
 21
700.344519453
 31
0.0
  0
LINE
  5
1A6
330
1F
100
AcDbEntity
  8
0
  6
PHANTOM
 62
     8
370
     0
100
AcDbLine
 10
817.1004594885
 20
342.5765702606
 30
0.0
 11
817.1004594885
 21
453.9633216065
 31
0.0
  0
LINE
  5
1A7
330
1F
100
AcDbEntity
  8
0
  6
PHANTOM
 62
     8
370
     0
100
AcDbLine
 10
817.1004594885
 20
590.7257172995
 30
0.0
 11
817.1004594885
 21
698.6124686454
 31
0.0
  0
LINE
  5
1A8
330
1F
100
AcDbEntity
  8
0
  6
PHANTOM
 62
     8
370
     0
100
AcDbLine
 10
458.8325102961
 20
340.344519453
 30
0.0
 11
815.368408681
 21
340.344519453
 31
0.0
  0
LINE
  5
1A9
330
1F
100
AcDbEntity
  8
0
  6
PHANTOM
 62
     8
370
     0
100
AcDbLine
 10
442.6456349849
 20
715.3209391736
 30
0.0
 11
831.6456349849
 21
715.3209391736
 31
0.0
  0
LINE
  5
1AA
330
1F
100
AcDbEntity
  8
0
  6
PHANTOM
 62
     8
370
     0
100
AcDbLine
 10
442.1456349849
 20
325.8209391736
 30
0.0
 11
442.1456349849
 21
714.8209391736
 31
0.0
  0
LINE
  5
1AB
330
1F
100
AcDbEntity
  8
0
  6
PHANTOM
 62
     8
370
     0
100
AcDbLine
 10
831.6456349849
 20
325.3209391736
 30
0.0
 11
442.6456349849
 21
325.3209391736
 31
0.0
  0
LINE
  5
1AC
330
1F
100
AcDbEntity
  8
0
  6
PHANTOM
 62
     8
370
     0
100
AcDbLine
 10
832.1456349849
 20
714.8209391736
 30
0.0
 11
832.1456349849
 21
325.8209391736
 31
0.0
  0
LINE
  5
1AD
330
1F
100
AcDbEntity
  8
0
  6
PHANTOM
 62
     8
370
     0
100
AcDbLine
 10
434.1456349849
 20
722.8161808969
 30
0.0
 11
434.1456349849
 21
317.8161808969
 31
0.0
  0
LINE
  5
1AE
330
1F
100
AcDbEntity
  8
0
  6
PHANTOM
 62
     8
370
     0
100
AcDbLine
 10
839.6408767082
 20
723.3209391736
 30
0.0
 11
434.6408767082
 21
723.3209391736
 31
0.0
  0
LINE
  5
1AF
330
1F
100
AcDbEntity
  8
0
  6
PHANTOM
 62
     8
370
     0
100
AcDbLine
 10
840.1456349849
 20
317.8256974503
 30
0.0
 11
840.1456349849
 21
722.8256974503
 31
0.0
  0
LINE
  5
1B0
330
1F
100
AcDbEntity
  8
0
  6
PHANTOM
 62
     8
370
     0
100
AcDbLine
 10
434.6503932616
 20
317.3209391736
 30
0.0
 11
839.6503932616
 21
317.3209391736
 31
0.0
  0
ARC
  5
1B1
330
1F
100
AcDbEntity
  8
0
  6
Continuous
 62
     7
370
    15
100
AcDbCircle
 10
819.6004594885
 20
703.344519453
 30
0.0
 40
2.5
100
AcDbArc
 50
0.0
 51
90.0
  0
ARC
  5
1B2
330
1F
100
AcDbEntity
  8
0
  6
Continuous
 62
     7
370
    15
100
AcDbCircle
 10
819.6004594885
 20
338.844519453
 30
0.0
 40
2.500000000000227
100
AcDbArc
 50
270.0
 51
360.0
  0
ARC
  5
1B3
330
1F
100
AcDbEntity
  8
0
  6
Continuous
 62
     7
370
    15
100
AcDbCircle
 10
819.6004594885
 20
338.844519453
 30
0.0
 40
1.5
100
AcDbArc
 50
270.0
 51
0.0
  0
ARC
  5
1B4
330
1F
100
AcDbEntity
  8
0
  6
Continuous
 62
     7
370
    15
100
AcDbCircle
 10
819.6004594885
 20
703.344519453
 30
0.0
 40
1.499999999999773
100
AcDbArc
 50
360.0
 51
90.0
  0
ARC
  5
1B5
330
1F
100
AcDbEntity
  8
0
  6
Continuous
 62
     7
370
    15
100
AcDbCircle
 10
818.5850980672
 20
559.3769249476
 30
0.0
 40
21.64728635197238
100
AcDbArc
 50
139.960344087
 51
180.5718589838
  0
ARC
  5
1B6
330
1F
100
AcDbEntity
  8
0
  6
Continuous
 62
     7
370
    15
100
AcDbCircle
 10
818.5850980672
 20
485.3121139584
 30
0.0
 40
21.64728635197057
100
AcDbArc
 50
179.4281410162
 51
220.039655913
  0
ARC
  5
1B7
330
1F
100
AcDbEntity
  8
0
  6
Continuous
 62
     7
370
    15
100
AcDbCircle
 10
454.6004594885
 20
337.844519453
 30
0.0
 40
2.499999999999886
100
AcDbArc
 50
180.0
 51
270.0
  0
ARC
  5
1B8
330
1F
100
AcDbEntity
  8
0
  6
Continuous
 62
     7
370
    15
100
AcDbCircle
 10
454.6004594885
 20
702.344519453
 30
0.0
 40
2.499999999999886
100
AcDbArc
 50
90.0
 51
180.0
  0
ARC
  5
1B9
330
1F
100
AcDbEntity
  8
0
  6
Continuous
 62
     7
370
    15
100
AcDbCircle
 10
454.6004594885
 20
702.344519453
 30
0.0
 40
1.5
100
AcDbArc
 50
90.0
 51
180.0
  0
ARC
  5
1BA
330
1F
100
AcDbEntity
  8
0
  6
Continuous
 62
     7
370
    15
100
AcDbCircle
 10
454.6004594885
 20
337.844519453
 30
0.0
 40
1.500000000000114
100
AcDbArc
 50
180.0
 51
270.0
  0
ARC
  5
1BB
330
1F
100
AcDbEntity
  8
0
  6
Continuous
 62
     7
370
    15
100
AcDbCircle
 10
455.6158209099
 20
481.8121139584
 30
0.0
 40
21.64728635197166
100
AcDbArc
 50
319.960344087
 51
0.5718589838
  0
ARC
  5
1BC
330
1F
100
AcDbEntity
  8
0
  6
Continuous
 62
     7
370
    15
100
AcDbCircle
 10
455.6158209099
 20
555.8769249476
 30
0.0
 40
21.64728635197084
100
AcDbArc
 50
359.4281410162
 51
40.039655913
  0
ARC
  5
1BD
330
1F
100
AcDbEntity
  8
0
  6
Continuous
 62
     7
370
    15
100
AcDbCircle
 10
461.6979375635
 20
344.941997528
 30
0.0
 40
4.999999999999952
100
AcDbArc
 50
214.9656652911
 51
235.0343347089
  0
ARC
  5
1BE
330
1F
100
AcDbEntity
  8
0
  6
Continuous
 62
     7
370
    15
100
AcDbCircle
 10
461.2984560108
 20
695.2472313995
 30
0.0
 40
4.999999999997458
100
AcDbArc
 50
113.1530833076
 51
137.6972936374
  0
ARC
  5
1BF
330
1F
100
AcDbEntity
  8
0
  6
Continuous
 62
     7
370
    15
100
AcDbCircle
 10
812.5029814136
 20
695.747041378
 30
0.0
 40
4.999999999995831
100
AcDbArc
 50
34.9656652911
 51
55.0343347089
  0
ARC
  5
1C0
330
1F
100
AcDbEntity
  8
0
  6
Continuous
 62
     7
370
    15
100
AcDbCircle
 10
812.003171435
 20
344.5425159752
 30
0.0
 40
4.999999999998439
100
AcDbArc
 50
312.3027063626
 51
336.8469166924
  0
ARC
  5
1C1
330
1F
100
AcDbEntity
  8
0
  6
Continuous
 62
     7
370
    15
100
AcDbCircle
 10
418.1456349849
 20
739.3209391736
 30
0.0
 40
3.499999999999773
100
AcDbArc
 50
90.0
 51
180.0
  0
ARC
  5
1C2
330
1F
100
AcDbEntity
  8
0
  6
Continuous
 62
     7
370
    15
100
AcDbCircle
 10
418.1456349849
 20
739.3209391736
 30
0.0
 40
1.499999999996817
100
AcDbArc
 50
121.499185471
 51
148.7653039523
  0
ARC
  5
1C3
330
1F
100
AcDbEntity
  8
0
  6
Continuous
 62
     7
370
    15
100
AcDbCircle
 10
436.1456349849
 20
721.3209391736
 30
0.0
 40
3.499999999990589
100
AcDbArc
 50
309.0637383143
 51
320.8619189996
  0
ARC
  5
1C4
330
1F
100
AcDbEntity
  8
0
  6
Continuous
 62
     7
370
    15
100
AcDbCircle
 10
436.1456349849
 20
721.3209391736
 30
0.0
 40
1.499999999998657
100
AcDbArc
 50
300.9392592626
 51
328.6120592692
  0
ARC
  5
1C5
330
1F
100
AcDbEntity
  8
0
  6
Continuous
 62
     7
370
    15
100
AcDbCircle
 10
418.6456349849
 20
739.023287678
 30
0.0
 40
3.999999999999892
100
AcDbArc
 50
142.1807557815
 51
180.0
  0
ARC
  5
1C6
330
1F
100
AcDbEntity
  8
0
  6
Continuous
 62
     7
370
    15
100
AcDbCircle
 10
418.6456349849
 20
301.6090741157
 30
0.0
 40
3.999999999999901
100
AcDbArc
 50
180.0
 51
217.8192442185
  0
ARC
  5
1C7
330
1F
100
AcDbEntity
  8
0
  6
Continuous
 62
     7
370
    15
100
AcDbCircle
 10
838.1456349849
 20
721.3209391736
 30
0.0
 40
3.499999999987758
100
AcDbArc
 50
219.0637383143
 51
230.8619189996
  0
ARC
  5
1C8
330
1F
100
AcDbEntity
  8
0
  6
Continuous
 62
     7
370
    15
100
AcDbCircle
 10
838.1456349849
 20
721.3209391736
 30
0.0
 40
1.499999999998404
100
AcDbArc
 50
210.9392592626
 51
238.6120592693
  0
ARC
  5
1C9
330
1F
100
AcDbEntity
  8
0
  6
Continuous
 62
     7
370
    15
100
AcDbCircle
 10
856.1456349849
 20
739.3209391736
 30
0.0
 40
3.500000000000341
100
AcDbArc
 50
0.0
 51
90.0
  0
ARC
  5
1CA
330
1F
100
AcDbEntity
  8
0
  6
Continuous
 62
     7
370
    15
100
AcDbCircle
 10
856.1456349849
 20
739.3209391736
 30
0.0
 40
1.500000000012354
100
AcDbArc
 50
31.4991854712
 51
58.7653039522
  0
ARC
  5
1CB
330
1F
100
AcDbEntity
  8
0
  6
Continuous
 62
     7
370
    15
100
AcDbCircle
 10
838.1456349849
 20
319.3209391736
 30
0.0
 40
3.499999999998851
100
AcDbArc
 50
129.0637383143
 51
140.8619189996
  0
ARC
  5
1CC
330
1F
100
AcDbEntity
  8
0
  6
Continuous
 62
     7
370
    15
100
AcDbCircle
 10
838.1456349849
 20
319.3209391736
 30
0.0
 40
1.499999999999447
100
AcDbArc
 50
120.9392592626
 51
148.6120592693
  0
ARC
  5
1CD
330
1F
100
AcDbEntity
  8
0
  6
Continuous
 62
     7
370
    15
100
AcDbCircle
 10
856.1456349849
 20
301.3209391736
 30
0.0
 40
3.499999999999659
100
AcDbArc
 50
270.0
 51
0.0
  0
ARC
  5
1CE
330
1F
100
AcDbEntity
  8
0
  6
Continuous
 62
     7
370
    15
100
AcDbCircle
 10
856.1456349849
 20
301.3209391736
 30
0.0
 40
1.49999999999863
100
AcDbArc
 50
301.499185471
 51
328.7653039523
  0
ARC
  5
1CF
330
1F
100
AcDbEntity
  8
0
  6
Continuous
 62
     7
370
    15
100
AcDbCircle
 10
436.1456349849
 20
319.3209391736
 30
0.0
 40
3.499999999974221
100
AcDbArc
 50
39.0637383143
 51
50.8619189996
  0
ARC
  5
1D0
330
1F
100
AcDbEntity
  8
0
  6
Continuous
 62
     7
370
    15
100
AcDbCircle
 10
436.1456349849
 20
319.3209391736
 30
0.0
 40
1.499999999999856
100
AcDbArc
 50
30.9392592626
 51
58.6120592691
  0
ARC
  5
1D1
330
1F
100
AcDbEntity
  8
0
  6
Continuous
 62
     7
370
    15
100
AcDbCircle
 10
418.1456349849
 20
301.3209391736
 30
0.0
 40
3.499999999999829
100
AcDbArc
 50
180.0
 51
270.0
  0
ARC
  5
1D2
330
1F
100
AcDbEntity
  8
0
  6
Continuous
 62
     7
370
    15
100
AcDbCircle
 10
418.1456349849
 20
301.3209391736
 30
0.0
 40
1.500000000002664
100
AcDbArc
 50
211.4991854712
 51
238.7653039523
  0
ARC
  5
1D3
330
1F
100
AcDbEntity
  8
0
  6
Continuous
 62
     7
370
    15
100
AcDbCircle
 10
418.433769927
 20
738.8209391736
 30
0.0
 40
3.999999999999328
100
AcDbArc
 50
90.0
 51
127.8192442185
  0
ARC
  5
1D4
330
1F
100
AcDbEntity
  8
0
  6
Continuous
 62
     7
370
    15
100
AcDbCircle
 10
855.8479834894
 20
738.8209391736
 30
0.0
 40
3.999999999998948
100
AcDbArc
 50
52.1807557814
 51
90.0
  0
ARC
  5
1D5
330
1F
100
AcDbEntity
  8
0
  6
Continuous
 62
     7
370
    15
100
AcDbCircle
 10
855.6456349849
 20
739.0328042314
 30
0.0
 40
4.000000000000227
100
AcDbArc
 50
360.0
 51
37.8192442185
  0
ARC
  5
1D6
330
1F
100
AcDbEntity
  8
0
  6
Continuous
 62
     7
370
    15
100
AcDbCircle
 10
855.6456349849
 20
301.6185906691
 30
0.0
 40
3.999999999999545
100
AcDbArc
 50
322.1807557815
 51
0.0
  0
ARC
  5
1D7
330
1F
100
AcDbEntity
  8
0
  6
Continuous
 62
     7
370
    15
100
AcDbCircle
 10
855.8575000428
 20
301.8209391736
 30
0.0
 40
4.000000000001068
100
AcDbArc
 50
270.0
 51
307.8192442185
  0
ARC
  5
1D8
330
1F
100
AcDbEntity
  8
0
  6
Continuous
 62
     7
370
    15
100
AcDbCircle
 10
418.4432864804
 20
301.8209391736
 30
0.0
 40
3.999999999999802
100
AcDbArc
 50
232.1807557815
 51
270.0
  0
ENDSEC
  0
SECTION
  2
OBJECTS
  0
DICTIONARY
  5
C
330
0
100
AcDbDictionary
281
     1
  3
ACAD_GROUP
350
D
  3
ACAD_LAYOUT
350
1A
  3
ACAD_MLINESTYLE
350
17
  3
ACAD_PLOTSETTINGS
350
19
  3
ACAD_PLOTSTYLENAME
350
E
  3
ACAD_SCALELIST
350
47
  0
DICTIONARY
  5
D
102
{ACAD_REACTORS
330
C
102
}
330
C
100
AcDbDictionary
281
     1
  0
DICTIONARY
  5
1A
102
{ACAD_REACTORS
330
C
102
}
330
C
100
AcDbDictionary
281
     1
  3
Layout1
350
1E
  3
Layout2
350
26
  3
Model
350
22
  0
DICTIONARY
  5
17
102
{ACAD_REACTORS
330
C
102
}
330
C
100
AcDbDictionary
281
     1
  3
Standard
350
18
  0
DICTIONARY
  5
19
102
{ACAD_REACTORS
330
C
102
}
330
C
100
AcDbDictionary
281
     1
  0
ACDBDICTIONARYWDFLT
  5
E
102
{ACAD_REACTORS
330
C
102
}
330
C
100
AcDbDictionary
281
     1
  3
Normal
350
F
100
AcDbDictionaryWithDefault
340
F
  0
DICTIONARY
  5
47
102
{ACAD_REACTORS
330
C
102
}
330
C
100
AcDbDictionary
281
     1
  3
A0
350
48
  3
A1
350
49
  3
A2
350
4A
  3
A3
350
4B
  3
A4
350
4C
  3
A5
350
4D
  3
A6
350
4E
  3
A7
350
4F
  3
A8
350
50
  3
A9
350
51
  3
B0
350
52
  3
B1
350
53
  3
B2
350
54
  3
B3
350
55
  3
B4
350
56
  3
B5
350
57
  3
B6
350
58
  3
B7
350
59
  3
B8
350
5A
  3
B9
350
5B
  3
C0
350
5C
  3
C1
350
5D
  3
C2
350
5E
  3
C3
350
5F
  3
C4
350
60
  3
C5
350
61
  3
C6
350
62
  3
C7
350
63
  3
C8
350
64
  3
C9
350
65
  3
D0
350
66
  3
D1
350
67
  3
D2
350
68
  0
LAYOUT
  5
1E
102
{ACAD_REACTORS
330
1A
102
}
330
1A
100
AcDbPlotSettings
  1

  2
none_device
  4

  6

 40
0.0
 41
0.0
 42
0.0
 43
0.0
 44
0.0
 45
0.0
 46
0.0
 47
0.0
 48
0.0
 49
0.0
140
0.0
141
0.0
142
1.0
143
1.0
 70
   688
 72
     1
 73
     0
 74
     5
  7

 75
    16
147
1.0
148
0.0
149
0.0
100
AcDbLayout
  1
Layout1
 70
     1
 71
     1
 10
0.0
 20
0.0
 11
420.0
 21
297.0
 12
0.0
 22
0.0
 32
0.0
 14
1.0000000000E+20
 24
1.0000000000E+20
 34
1.0000000000E+20
 15
-1.0000000000E+20
 25
-1.0000000000E+20
 35
-1.0000000000E+20
146
0.0
 13
0.0
 23
0.0
 33
0.0
 16
1.0
 26
0.0
 36
0.0
 17
0.0
 27
1.0
 37
0.0
 76
     0
330
1B
  0
LAYOUT
  5
26
102
{ACAD_REACTORS
330
1A
102
}
330
1A
100
AcDbPlotSettings
  1

  2
none_device
  4

  6

 40
0.0
 41
0.0
 42
0.0
 43
0.0
 44
0.0
 45
0.0
 46
0.0
 47
0.0
 48
0.0
 49
0.0
140
0.0
141
0.0
142
1.0
143
1.0
 70
   688
 72
     1
 73
     0
 74
     5
  7

 75
    16
147
1.0
148
0.0
149
0.0
100
AcDbLayout
  1
Layout2
 70
     1
 71
     2
 10
0.0
 20
0.0
 11
0.0
 21
0.0
 12
0.0
 22
0.0
 32
0.0
 14
0.0
 24
0.0
 34
0.0
 15
0.0
 25
0.0
 35
0.0
146
0.0
 13
0.0
 23
0.0
 33
0.0
 16
1.0
 26
0.0
 36
0.0
 17
0.0
 27
1.0
 37
0.0
 76
     0
330
23
  0
LAYOUT
  5
22
102
{ACAD_REACTORS
330
1A
102
}
330
1A
100
AcDbPlotSettings
  1

  2
none_device
  4
ANSI_A_(11.00_x_8.50_Inches)
  6

 40
6.35
 41
19.05
 42
6.35000508
 43
19.05000254
 44
279.4
 45
215.9
 46
-172.6817894328
 47
-161.0189178091
 48
0.0
 49
0.0
140
0.0
141
0.0
142
0.0189101124
143
1.0
 70
  1696
 72
     0
 73
     0
 74
     0
  7

 75
     0
147
0.0179189148
148
-1300.4909072572
149
0.0
100
AcDbLayout
  1
Model
 70
     1
 71
     0
 10
0.0
 20
0.0
 11
420.0
 21
297.0
 12
0.0
 22
0.0
 32
0.0
 14
414.6456349849
 24
297.8209391736
 34
0.0
 15
859.6456349849
 25
742.8209391736
 35
0.0
146
0.0
 13
0.0
 23
0.0
 33
0.0
 16
1.0
 26
0.0
 36
0.0
 17
0.0
 27
1.0
 37
0.0
 76
     0
330
1F
331
29
  0
MLINESTYLE
  5
18
102
{ACAD_REACTORS
330
17
102
}
330
17
100
AcDbMlineStyle
  2
Standard
 70
     0
  3

 62
   256
 51
90.0
 52
90.0
 71
     2
 49
0.5
 62
   256
  6
BYLAYER
 49
-0.5
 62
   256
  6
BYLAYER
  0
ACDBPLACEHOLDER
  5
F
102
{ACAD_REACTORS
330
E
102
}
330
E
  0
SCALE
  5
48
102
{ACAD_REACTORS
330
47
102
}
330
47
100
AcDbScale
 70
     0
300
1:1
140
1.0
141
1.0
290
     1
  0
SCALE
  5
49
102
{ACAD_REACTORS
330
47
102
}
330
47
100
AcDbScale
 70
     0
300
1:2
140
1.0
141
2.0
290
     0
  0
SCALE
  5
4A
102
{ACAD_REACTORS
330
47
102
}
330
47
100
AcDbScale
 70
     0
300
1:4
140
1.0
141
4.0
290
     0
  0
SCALE
  5
4B
102
{ACAD_REACTORS
330
47
102
}
330
47
100
AcDbScale
 70
     0
300
1:5
140
1.0
141
5.0
290
     0
  0
SCALE
  5
4C
102
{ACAD_REACTORS
330
47
102
}
330
47
100
AcDbScale
 70
     0
300
1:8
140
1.0
141
8.0
290
     0
  0
SCALE
  5
4D
102
{ACAD_REACTORS
330
47
102
}
330
47
100
AcDbScale
 70
     0
300
1:10
140
1.0
141
10.0
290
     0
  0
SCALE
  5
4E
102
{ACAD_REACTORS
330
47
102
}
330
47
100
AcDbScale
 70
     0
300
1:16
140
1.0
141
16.0
290
     0
  0
SCALE
  5
4F
102
{ACAD_REACTORS
330
47
102
}
330
47
100
AcDbScale
 70
     0
300
1:20
140
1.0
141
20.0
290
     0
  0
SCALE
  5
50
102
{ACAD_REACTORS
330
47
102
}
330
47
100
AcDbScale
 70
     0
300
1:30
140
1.0
141
30.0
290
     0
  0
SCALE
  5
51
102
{ACAD_REACTORS
330
47
102
}
330
47
100
AcDbScale
 70
     0
300
1:40
140
1.0
141
40.0
290
     0
  0
SCALE
  5
52
102
{ACAD_REACTORS
330
47
102
}
330
47
100
AcDbScale
 70
     0
300
1:50
140
1.0
141
50.0
290
     0
  0
SCALE
  5
53
102
{ACAD_REACTORS
330
47
102
}
330
47
100
AcDbScale
 70
     0
300
1:100
140
1.0
141
100.0
290
     0
  0
SCALE
  5
54
102
{ACAD_REACTORS
330
47
102
}
330
47
100
AcDbScale
 70
     0
300
2:1
140
2.0
141
1.0
290
     0
  0
SCALE
  5
55
102
{ACAD_REACTORS
330
47
102
}
330
47
100
AcDbScale
 70
     0
300
4:1
140
4.0
141
1.0
290
     0
  0
SCALE
  5
56
102
{ACAD_REACTORS
330
47
102
}
330
47
100
AcDbScale
 70
     0
300
8:1
140
8.0
141
1.0
290
     0
  0
SCALE
  5
57
102
{ACAD_REACTORS
330
47
102
}
330
47
100
AcDbScale
 70
     0
300
10:1
140
10.0
141
1.0
290
     0
  0
SCALE
  5
58
102
{ACAD_REACTORS
330
47
102
}
330
47
100
AcDbScale
 70
     0
300
100:1
140
100.0
141
1.0
290
     0
  0
SCALE
  5
59
102
{ACAD_REACTORS
330
47
102
}
330
47
100
AcDbScale
 70
     0
300
1/128" = 1'-0"
140
0.0078125
141
12.0
290
     0
  0
SCALE
  5
5A
102
{ACAD_REACTORS
330
47
102
}
330
47
100
AcDbScale
 70
     0
300
1/64" = 1'-0"
140
0.015625
141
12.0
290
     0
  0
SCALE
  5
5B
102
{ACAD_REACTORS
330
47
102
}
330
47
100
AcDbScale
 70
     0
300
1/32" = 1'-0"
140
0.03125
141
12.0
290
     0
  0
SCALE
  5
5C
102
{ACAD_REACTORS
330
47
102
}
330
47
100
AcDbScale
 70
     0
300
1/16" = 1'-0"
140
0.0625
141
12.0
290
     0
  0
SCALE
  5
5D
102
{ACAD_REACTORS
330
47
102
}
330
47
100
AcDbScale
 70
     0
300
3/32" = 1'-0"
140
0.09375
141
12.0
290
     0
  0
SCALE
  5
5E
102
{ACAD_REACTORS
330
47
102
}
330
47
100
AcDbScale
 70
     0
300
1/8" = 1'-0"
140
0.125
141
12.0
290
     0
  0
SCALE
  5
5F
102
{ACAD_REACTORS
330
47
102
}
330
47
100
AcDbScale
 70
     0
300
3/16" = 1'-0"
140
0.1875
141
12.0
290
     0
  0
SCALE
  5
60
102
{ACAD_REACTORS
330
47
102
}
330
47
100
AcDbScale
 70
     0
300
1/4" = 1'-0"
140
0.25
141
12.0
290
     0
  0
SCALE
  5
61
102
{ACAD_REACTORS
330
47
102
}
330
47
100
AcDbScale
 70
     0
300
3/8" = 1'-0"
140
0.375
141
12.0
290
     0
  0
SCALE
  5
62
102
{ACAD_REACTORS
330
47
102
}
330
47
100
AcDbScale
 70
     0
300
1/2" = 1'-0"
140
0.5
141
12.0
290
     0
  0
SCALE
  5
63
102
{ACAD_REACTORS
330
47
102
}
330
47
100
AcDbScale
 70
     0
300
3/4" = 1'-0"
140
0.75
141
12.0
290
     0
  0
SCALE
  5
64
102
{ACAD_REACTORS
330
47
102
}
330
47
100
AcDbScale
 70
     0
300
1" = 1'-0"
140
1.0
141
12.0
290
     0
  0
SCALE
  5
65
102
{ACAD_REACTORS
330
47
102
}
330
47
100
AcDbScale
 70
     0
300
1-1/2" = 1'-0"
140
1.5
141
12.0
290
     0
  0
SCALE
  5
66
102
{ACAD_REACTORS
330
47
102
}
330
47
100
AcDbScale
 70
     0
300
3" = 1'-0"
140
3.0
141
12.0
290
     0
  0
SCALE
  5
67
102
{ACAD_REACTORS
330
47
102
}
330
47
100
AcDbScale
 70
     0
300
6" = 1'-0"
140
6.0
141
12.0
290
     0
  0
SCALE
  5
68
102
{ACAD_REACTORS
330
47
102
}
330
47
100
AcDbScale
 70
     0
300
1'-0" = 1'-0"
140
12.0
141
12.0
290
     0
  0
ENDSEC
  0
EOF
