  0
SECTION
  2
HEADER
  9
$ACADVER
  1
AC1015
  9
$ACADMAINTVER
 70
     6
  9
$DWGCODEPAGE
  3
ANSI_1251
  9
$INSBASE
 10
0.0
 20
0.0
 30
0.0
  9
$EXTMIN
 10
-2800.0000000003
 20
-2800.0
 30
0.0
  9
$EXTMAX
 10
2799.9999999997
 20
2800.0
 30
0.0
  9
$LIMMIN
 10
0.0
 20
0.0
  9
$LIMMAX
 10
420.0
 20
297.0
  9
$ORTHOMODE
 70
     0
  9
$REGENMODE
 70
     1
  9
$FILLMODE
 70
     1
  9
$QTEXTMODE
 70
     0
  9
$MIRRTEXT
 70
     1
  9
$LTSCALE
 40
1.0
  9
$ATTMODE
 70
     1
  9
$TEXTSIZE
 40
3.0
  9
$TRACEWID
 40
1.0
  9
$TEXTSTYLE
  7
Standard
  9
$CLAYER
  8
0
  9
$CELTYPE
  6
ByLayer
  9
$CECOLOR
 62
   256
  9
$CELTSCALE
 40
1.0
  9
$DISPSILH
 70
     0
  9
$DIMSCALE
 40
1.0
  9
$DIMASZ
 40
3.0
  9
$DIMEXO
 40
0.0
  9
$DIMDLI
 40
3.75
  9
$DIMRND
 40
0.0
  9
$DIMDLE
 40
0.0
  9
$DIMEXE
 40
2.0
  9
$DIMTP
 40
0.0
  9
$DIMTM
 40
0.0
  9
$DIMTXT
 40
3.0
  9
$DIMCEN
 40
2.5
  9
$DIMTSZ
 40
0.0
  9
$DIMTOL
 70
     0
  9
$DIMLIM
 70
     0
  9
$DIMTIH
 70
     1
  9
$DIMTOH
 70
     1
  9
$DIMSE1
 70
     0
  9
$DIMSE2
 70
     0
  9
$DIMTAD
 70
     1
  9
$DIMZIN
 70
     0
  9
$DIMBLK
  1

  9
$DIMASO
 70
     1
  9
$DIMSHO
 70
     1
  9
$DIMPOST
  1

  9
$DIMAPOST
  1

  9
$DIMALT
 70
     0
  9
$DIMALTD
 70
     3
  9
$DIMALTF
 40
0.0393700787
  9
$DIMLFAC
 40
1.0
  9
$DIMTOFL
 70
     1
  9
$DIMTVP
 40
0.0
  9
$DIMTIX
 70
     0
  9
$DIMSOXD
 70
     0
  9
$DIMSAH
 70
     0
  9
$DIMBLK1
  1

  9
$DIMBLK2
  1

  9
$DIMSTYLE
  2
ISO-25
  9
$DIMCLRD
 70
     0
  9
$DIMCLRE
 70
     0
  9
$DIMCLRT
 70
     0
  9
$DIMTFAC
 40
1.0
  9
$DIMGAP
 40
2.0
  9
$DIMJUST
 70
     0
  9
$DIMSD1
 70
     0
  9
$DIMSD2
 70
     0
  9
$DIMTOLJ
 70
     0
  9
$DIMTZIN
 70
     0
  9
$DIMALTZ
 70
     0
  9
$DIMALTTZ
 70
     0
  9
$DIMUPT
 70
     0
  9
$DIMDEC
 70
     2
  9
$DIMTDEC
 70
     2
  9
$DIMALTU
 70
     2
  9
$DIMALTTD
 70
     3
  9
$DIMTXSTY
  7
Standard
  9
$DIMAUNIT
 70
     0
  9
$DIMADEC
 70
     2
  9
$DIMALTRND
 40
0.0
  9
$DIMAZIN
 70
     0
  9
$DIMDSEP
 70
    44
  9
$DIMATFIT
 70
     3
  9
$DIMFRAC
 70
     0
  9
$DIMLDRBLK
  1

  9
$DIMLUNIT
 70
     2
  9
$DIMLWD
 70
    -2
  9
$DIMLWE
 70
    -2
  9
$DIMTMOVE
 70
     0
  9
$LUNITS
 70
     2
  9
$LUPREC
 70
     2
  9
$SKETCHINC
 40
1.0
  9
$FILLETRAD
 40
10.0
  9
$AUNITS
 70
     1
  9
$AUPREC
 70
     2
  9
$MENU
  1
.
  9
$ELEVATION
 40
0.0
  9
$PELEVATION
 40
0.0
  9
$THICKNESS
 40
0.0
  9
$LIMCHECK
 70
     0
  9
$CHAMFERA
 40
0.0
  9
$CHAMFERB
 40
0.0
  9
$CHAMFERC
 40
0.0
  9
$CHAMFERD
 40
0.0
  9
$SKPOLY
 70
     0
  9
$TDCREATE
 40
2459306.331703866
  9
$TDUCREATE
 40
2459306.206703866
  9
$TDUPDATE
 40
2459306.331756736
  9
$TDUUPDATE
 40
2459306.206756736
  9
$TDINDWG
 40
0.0000000116
  9
$TDUSRTIMER
 40
0.0000000116
  9
$USRTIMER
 70
     1
  9
$ANGBASE
 50
0.0
  9
$ANGDIR
 70
     0
  9
$PDMODE
 70
     0
  9
$PDSIZE
 40
-1.0
  9
$PLINEWID
 40
0.0
  9
$SPLFRAME
 70
     0
  9
$SPLINETYPE
 70
     6
  9
$SPLINESEGS
 70
     8
  9
$HANDSEED
  5
109
  9
$SURFTAB1
 70
     6
  9
$SURFTAB2
 70
     6
  9
$SURFTYPE
 70
     6
  9
$SURFU
 70
     6
  9
$SURFV
 70
     6
  9
$UCSBASE
  2

  9
$UCSNAME
  2

  9
$UCSORG
 10
0.0
 20
0.0
 30
0.0
  9
$UCSXDIR
 10
1.0
 20
0.0
 30
0.0
  9
$UCSYDIR
 10
0.0
 20
1.0
 30
0.0
  9
$UCSORTHOREF
  2

  9
$UCSORTHOVIEW
 70
     0
  9
$UCSORGTOP
 10
0.0
 20
0.0
 30
0.0
  9
$UCSORGBOTTOM
 10
0.0
 20
0.0
 30
0.0
  9
$UCSORGLEFT
 10
0.0
 20
0.0
 30
0.0
  9
$UCSORGRIGHT
 10
0.0
 20
0.0
 30
0.0
  9
$UCSORGFRONT
 10
0.0
 20
0.0
 30
0.0
  9
$UCSORGBACK
 10
0.0
 20
0.0
 30
0.0
  9
$PUCSBASE
  2

  9
$PUCSNAME
  2

  9
$PUCSORG
 10
0.0
 20
0.0
 30
0.0
  9
$PUCSXDIR
 10
1.0
 20
0.0
 30
0.0
  9
$PUCSYDIR
 10
0.0
 20
1.0
 30
0.0
  9
$PUCSORTHOREF
  2

  9
$PUCSORTHOVIEW
 70
     0
  9
$PUCSORGTOP
 10
0.0
 20
0.0
 30
0.0
  9
$PUCSORGBOTTOM
 10
0.0
 20
0.0
 30
0.0
  9
$PUCSORGLEFT
 10
0.0
 20
0.0
 30
0.0
  9
$PUCSORGRIGHT
 10
0.0
 20
0.0
 30
0.0
  9
$PUCSORGFRONT
 10
0.0
 20
0.0
 30
0.0
  9
$PUCSORGBACK
 10
0.0
 20
0.0
 30
0.0
  9
$USERI1
 70
     0
  9
$USERI2
 70
     0
  9
$USERI3
 70
     0
  9
$USERI4
 70
     0
  9
$USERI5
 70
     0
  9
$USERR1
 40
0.0
  9
$USERR2
 40
0.0
  9
$USERR3
 40
0.0
  9
$USERR4
 40
0.0
  9
$USERR5
 40
0.0
  9
$WORLDVIEW
 70
     1
  9
$SHADEDGE
 70
     3
  9
$SHADEDIF
 70
    70
  9
$TILEMODE
 70
     1
  9
$MAXACTVP
 70
    64
  9
$PINSBASE
 10
0.0
 20
0.0
 30
0.0
  9
$PLIMCHECK
 70
     0
  9
$PEXTMIN
 10
1.0000000000E+20
 20
1.0000000000E+20
 30
1.0000000000E+20
  9
$PEXTMAX
 10
-1.0000000000E+20
 20
-1.0000000000E+20
 30
-1.0000000000E+20
  9
$PLIMMIN
 10
0.0
 20
0.0
  9
$PLIMMAX
 10
420.0
 20
297.0
  9
$UNITMODE
 70
     0
  9
$VISRETAIN
 70
     1
  9
$PLINEGEN
 70
     0
  9
$PSLTSCALE
 70
     1
  9
$TREEDEPTH
 70
  3020
  9
$CMLSTYLE
  2
Standard
  9
$CMLJUST
 70
     0
  9
$CMLSCALE
 40
20.0
  9
$PROXYGRAPHICS
 70
     1
  9
$MEASUREMENT
 70
     1
  9
$CELWEIGHT
370
    -1
  9
$ENDCAPS
280
     0
  9
$JOINSTYLE
280
     0
  9
$LWDISPLAY
290
     1
  9
$INSUNITS
 70
     4
  9
$HYPERLINKBASE
  1

  9
$STYLESHEET
  1

  9
$XEDIT
290
     1
  9
$CEPSNTYPE
380
     0
  9
$PSTYLEMODE
290
     1
  9
$FINGERPRINTGUID
  2
{E6C249F0-9434-4A47-A17C-476250006CC0}
  9
$VERSIONGUID
  2
{FAEB1C32-E019-11D5-929B-00C0DF256EC4}
  9
$EXTNAMES
290
     1
  9
$PSVPSCALE
 40
0.0
  9
$OLESTARTUP
290
     0
  0
ENDSEC
  0
SECTION
  2
CLASSES
  0
CLASS
  1
ACDBDICTIONARYWDFLT
  2
AcDbDictionaryWithDefault
  3
ObjectDBX Classes
 90
        0
280
     0
281
     0
  0
CLASS
  1
VISUALSTYLE
  2
AcDbVisualStyle
  3
ObjectDBX Classes
 90
     4095
280
     0
281
     0
  0
CLASS
  1
MATERIAL
  2
AcDbMaterial
  3
ObjectDBX Classes
 90
     1153
280
     0
281
     0
  0
CLASS
  1
SCALE
  2
AcDbScale
  3
ObjectDBX Classes
 90
     1153
280
     0
281
     0
  0
CLASS
  1
SUN
  2
AcDbSun
  3
SCENEOE
 90
     1153
280
     0
281
     0
  0
CLASS
  1
ACDBPLACEHOLDER
  2
AcDbPlaceHolder
  3
ObjectDBX Classes
 90
        0
280
     0
281
     0
  0
CLASS
  1
LAYOUT
  2
AcDbLayout
  3
ObjectDBX Classes
 90
        0
280
     0
281
     0
  0
ENDSEC
  0
SECTION
  2
TABLES
  0
TABLE
  2
VPORT
  5
8
330
0
100
AcDbSymbolTable
 70
     1
  0
VPORT
  5
29
330
8
100
AcDbSymbolTableRecord
100
AcDbViewportTableRecord
  2
*Active
 70
     0
 10
0.0
 20
0.0
 11
1.0
 21
1.0
 12
-0.0000000003
 22
0.0
 13
0.0
 23
0.0
 14
10.0
 24
10.0
 15
10.0
 25
10.0
 16
0.0
 26
0.0
 36
1.0
 17
0.0
 27
0.0
 37
0.0
 40
5712.0
 41
1.0
 42
50.0
 43
0.0
 44
0.0
 50
0.0
 51
0.0
 71
     0
 72
   100
 73
     1
 74
     3
 75
     0
 76
     0
 77
     0
 78
     0
281
     0
 65
     1
110
0.0
120
0.0
130
0.0
111
1.0
121
0.0
131
0.0
112
0.0
122
1.0
132
0.0
 79
     0
146
0.0
  0
ENDTAB
  0
TABLE
  2
LTYPE
  5
5
330
0
100
AcDbSymbolTable
 70
     6
  0
LTYPE
  5
14
330
5
100
AcDbSymbolTableRecord
100
AcDbLinetypeTableRecord
  2
ByBlock
 70
     0
  3

 72
    65
 73
     0
 40
0.0
  0
LTYPE
  5
15
330
5
100
AcDbSymbolTableRecord
100
AcDbLinetypeTableRecord
  2
ByLayer
 70
     0
  3

 72
    65
 73
     0
 40
0.0
  0
LTYPE
  5
16
330
5
100
AcDbSymbolTableRecord
100
AcDbLinetypeTableRecord
  2
Continuous
 70
     0
  3
Solid line
 72
    65
 73
     0
 40
0.0
  0
LTYPE
  5
6A
330
5
100
AcDbSymbolTableRecord
100
AcDbLinetypeTableRecord
  2
HIDDEN
 70
     0
  3
Hidden __ __ __ __ __ __ __ __ __ __ __ __ __ __
 72
    65
 73
     2
 40
1.905
 49
1.27
 74
     0
 49
-0.635
 74
     0
  0
LTYPE
  5
6B
330
5
100
AcDbSymbolTableRecord
100
AcDbLinetypeTableRecord
  2
PHANTOM
 70
     0
  3
Phantom ______  __  __  ______  __  __  ______
 72
    65
 73
     6
 40
12.7
 49
6.35
 74
     0
 49
-1.27
 74
     0
 49
1.27
 74
     0
 49
-1.27
 74
     0
 49
1.27
 74
     0
 49
-1.27
 74
     0
  0
LTYPE
  5
6C
330
5
100
AcDbSymbolTableRecord
100
AcDbLinetypeTableRecord
  2
CENTER
 70
     0
  3
Center ____ _ ____ _ ____ _ ____ _ ____ _ ____
 72
    65
 73
     4
 40
10.16
 49
6.35
 74
     0
 49
-1.27
 74
     0
 49
1.27
 74
     0
 49
-1.27
 74
     0
  0
LTYPE
  5
6D
330
5
100
AcDbSymbolTableRecord
100
AcDbLinetypeTableRecord
  2
CENTERX2
 70
     0
  3
Center (2x) ________  __  ________  __  _____
 72
    65
 73
     4
 40
20.32
 49
12.7
 74
     0
 49
-2.54
 74
     0
 49
2.54
 74
     0
 49
-2.54
 74
     0
  0
LTYPE
  5
6E
330
5
100
AcDbSymbolTableRecord
100
AcDbLinetypeTableRecord
  2
DOT2
 70
     0
  3
Dot (.5x) ........................................
 72
    65
 73
     2
 40
0.635
 49
0.0
 74
     0
 49
-0.635
 74
     0
  0
ENDTAB
  0
TABLE
  2
LAYER
  5
2
330
0
100
AcDbSymbolTable
 70
     1
  0
LAYER
  5
10
330
2
100
AcDbSymbolTableRecord
100
AcDbLayerTableRecord
  2
0
 70
     0
 62
     7
  6
Continuous
370
    -3
390
F
  0
ENDTAB
  0
TABLE
  2
STYLE
  5
3
330
0
100
AcDbSymbolTable
 70
     1
  0
STYLE
  5
11
330
3
100
AcDbSymbolTableRecord
100
AcDbTextStyleTableRecord
  2
Standard
 70
     0
 40
0.0
 41
1.0
 50
0.0
 71
     0
 42
3.0
  3
txt
  4

  0
ENDTAB
  0
TABLE
  2
VIEW
  5
6
330
0
100
AcDbSymbolTable
 70
     0
  0
ENDTAB
  0
TABLE
  2
UCS
  5
7
330
0
100
AcDbSymbolTable
 70
     0
  0
ENDTAB
  0
TABLE
  2
APPID
  5
9
330
0
100
AcDbSymbolTable
 70
     1
  0
APPID
  5
12
330
9
100
AcDbSymbolTableRecord
100
AcDbRegAppTableRecord
  2
ACAD
 70
     0
  0
ENDTAB
  0
TABLE
  2
DIMSTYLE
  5
A
330
0
100
AcDbSymbolTable
 70
     1
100
AcDbDimStyleTable
  0
DIMSTYLE
105
27
330
A
100
AcDbSymbolTableRecord
100
AcDbDimStyleTableRecord
  2
ISO-25
 70
     0
 41
2.5
 42
0.625
 43
3.75
 44
1.25
 73
     0
 74
     0
 77
     1
 78
     8
140
2.5
141
2.5
143
0.0393700787
147
0.625
171
     3
172
     1
178
     0
271
     2
272
     2
274
     3
278
    44
283
     0
284
     8
340
11
  0
ENDTAB
  0
TABLE
  2
BLOCK_RECORD
  5
1
330
0
100
AcDbSymbolTable
 70
     1
  0
BLOCK_RECORD
  5
1F
330
1
100
AcDbSymbolTableRecord
100
AcDbBlockTableRecord
  2
*Model_Space
340
22
  0
BLOCK_RECORD
  5
1B
330
1
100
AcDbSymbolTableRecord
100
AcDbBlockTableRecord
  2
*Paper_Space
340
1E
  0
BLOCK_RECORD
  5
23
330
1
100
AcDbSymbolTableRecord
100
AcDbBlockTableRecord
  2
*Paper_Space0
340
26
  0
ENDTAB
  0
ENDSEC
  0
SECTION
  2
BLOCKS
  0
BLOCK
  5
20
330
1F
100
AcDbEntity
  8
0
100
AcDbBlockBegin
  2
*Model_Space
 70
     0
 10
0.0
 20
0.0
 30
0.0
  3
*Model_Space
  1
*Model_Space
  0
ENDBLK
  5
21
330
1F
100
AcDbEntity
  8
0
100
AcDbBlockEnd
  0
BLOCK
  5
1C
330
1B
100
AcDbEntity
 67
     1
  8
0
100
AcDbBlockBegin
  2
*Paper_Space
 70
     0
 10
0.0
 20
0.0
 30
0.0
  3
*Paper_Space
  1
*Paper_Space
  0
ENDBLK
  5
1D
330
1B
100
AcDbEntity
 67
     1
  8
0
100
AcDbBlockEnd
  0
BLOCK
  5
24
330
23
100
AcDbEntity
  8
0
100
AcDbBlockBegin
  2
*Paper_Space0
 70
     0
 10
0.0
 20
0.0
 30
0.0
  3
*Paper_Space0
  1
*Paper_Space0
  0
ENDBLK
  5
25
330
23
100
AcDbEntity
  8
0
100
AcDbBlockEnd
  0
ENDSEC
  0
SECTION
  2
ENTITIES
  0
SPLINE
  5
77
330
1F
100
AcDbEntity
  8
0
  6
Continuous
 62
     7
370
    15
100
AcDbSpline
210
0.0
220
0.0
230
1.0
 70
     8
 71
     3
 72
    30
 73
    26
 74
     0
 42
0.000000001
 43
0.00000001
 40
0.0
 40
0.0
 40
0.0
 40
0.0
 40
0.0238433238485349
 40
0.0723480660636315
 40
0.1175194052284953
 40
0.1630743994963691
 40
0.2090009486585631
 40
0.2552174973829805
 40
0.3016166850193508
 40
0.3481014318779808
 40
0.3945996936005123
 40
0.4410544561117786
 40
0.4874317215404548
 40
0.5337153504819584
 40
0.5798865890196984
 40
0.6259192526582227
 40
0.6717712444152236
 40
0.7173695399691026
 40
0.762578000587974
 40
0.8071162700598546
 40
0.8503109261055566
 40
0.8900428277364428
 40
0.9220846900536419
 40
0.9508743194099475
 40
1.0
 40
1.0
 40
1.0
 40
1.0
 10
53.95469911047473
 20
1043.135223965711
 30
0.0
 10
53.95109517453054
 20
1043.501385326704
 30
0.0
 10
53.94015971110959
 20
1044.612432867866
 30
0.0
 10
53.58087206242548
 20
1046.404460515809
 30
0.0
 10
52.91660944539141
 20
1048.490835307251
 30
0.0
 10
51.97560580516385
 20
1050.488005491169
 30
0.0
 10
50.76509667590476
 20
1052.438306564853
 30
0.0
 10
49.28787941404077
 20
1054.329552359007
 30
0.0
 10
47.55583975553449
 20
1056.150665112472
 30
0.0
 10
45.58073315160731
 20
1057.892061004266
 30
0.0
 10
43.37586859729422
 20
1059.545562204313
 30
0.0
 10
40.95510018714034
 20
1061.104150322643
 30
0.0
 10
38.3328344363003
 20
1062.561688572202
 30
0.0
 10
35.52402064742525
 20
1063.912655413554
 30
0.0
 10
32.54459564472694
 20
1065.151880821211
 30
0.0
 10
29.41217146715442
 20
1066.274401857131
 30
0.0
 10
26.14673768617497
 20
1067.275502217473
 30
0.0
 10
22.77211192773125
 20
1068.150731268003
 30
0.0
 10
19.31938653375327
 20
1068.895797885941
 30
0.0
 10
15.83679951206168
 20
1069.506252218257
 30
0.0
 10
12.427615999662
 20
1069.975040455406
 30
0.0
 10
9.306025704113797
 20
1070.297508277082
 30
0.0
 10
6.549619609922023
 20
1070.500706616238
 30
0.0
 10
3.518737623306263
 20
1070.656860902392
 30
0.0
 10
1.360666189951048
 20
1070.679998118612
 30
0.0
 10
-0.0000000000251431
 20
1070.694586156502
 30
0.0
  0
SPLINE
  5
78
330
1F
100
AcDbEntity
  8
0
  6
Continuous
 62
     7
370
    15
100
AcDbSpline
210
0.0
220
0.0
230
1.0
 70
     8
 71
     3
 72
    32
 73
    28
 74
     0
 42
0.000000001
 43
0.00000001
 40
0.0
 40
0.0
 40
0.0
 40
0.0
 40
0.0510700232564578
 40
0.0715838633387816
 40
0.1055996263273283
 40
0.1407874520791598
 40
0.1784045894924001
 40
0.2175141439210629
 40
0.257738026636839
 40
0.2987757652104613
 40
0.3404164176254292
 40
0.3825066979766747
 40
0.4249345327829103
 40
0.4676179453702874
 40
0.5104977996612287
 40
0.5535330089612701
 40
0.5966973441211854
 40
0.6399772686968347
 40
0.6833637053664474
 40
0.7268532367600576
 40
0.7704575498991109
 40
0.8142036005977294
 40
0.8581473570107271
 40
0.9023966815034881
 40
0.9471399702965217
 40
0.9926689494135259
 40
1.0
 40
1.0
 40
1.0
 40
1.0
 10
-0.0000000000251431
 20
1070.694586156502
 30
0.0
 10
-1.419556627851465
 20
1070.679056140574
 30
0.0
 10
-3.409321683130376
 20
1070.65728801777
 30
0.0
 10
-6.330646865562201
 20
1070.512428500843
 30
0.0
 10
-8.80136317941383
 20
1070.340214138754
 30
0.0
 10
-11.71697697222555
 20
1070.053796616583
 30
0.0
 10
-14.73376174265164
 20
1069.667114103445
 30
0.0
 10
-17.83361867183669
 20
1069.168337762361
 30
0.0
 10
-20.95631965231907
 20
1068.556162759505
 30
0.0
 10
-24.06139946861839
 20
1067.829993475441
 30
0.0
 10
-27.11502642280217
 20
1066.991096632195
 30
0.0
 10
-30.08912805223967
 20
1066.041876221141
 30
0.0
 10
-32.95990351890725
 20
1064.985596994446
 30
0.0
 10
-35.70693722968554
 20
1063.826108467747
 30
0.0
 10
-38.31257697201551
 20
1062.567612398395
 30
0.0
 10
-40.76146735901302
 20
1061.214446970008
 30
0.0
 10
-43.04015073165488
 20
1059.770887307092
 30
0.0
 10
-45.13657365865688
 20
1058.241048519732
 30
0.0
 10
-47.0396287985549
 20
1056.628833143809
 30
0.0
 10
-48.7389085073434
 20
1054.93784720316
 30
0.0
 10
-50.2240440542494
 20
1053.17134627915
 30
0.0
 10
-51.48530621120221
 20
1051.332221542585
 30
0.0
 10
-52.5091429750707
 20
1049.423114389869
 30
0.0
 10
-53.29242612726733
 20
1047.446281010104
 30
0.0
 10
-53.78574065119528
 20
1045.403864326704
 30
0.0
 10
-54.01341477507837
 20
1043.902450009233
 30
0.0
 10
-53.98127619365315
 20
1043.088422694329
 30
0.0
 10
-53.97681895880999
 20
1042.975526892761
 30
0.0
  0
SPLINE
  5
7B
330
1F
100
AcDbEntity
  8
0
  6
Continuous
 62
     7
370
    15
100
AcDbSpline
210
0.0
220
0.0
230
1.0
 70
     8
 71
     3
 72
    30
 73
    26
 74
     0
 42
0.000000001
 43
0.00000001
 40
0.0
 40
0.0
 40
0.0
 40
0.0
 40
0.0373201152754937
 40
0.0851552023932684
 40
0.1297029073288856
 40
0.1746289706360407
 40
0.2199214591611537
 40
0.2654999435227346
 40
0.3112585452886355
 40
0.3571015250486048
 40
0.4029578330866079
 40
0.4487712424622281
 40
0.4945082246778515
 40
0.5401528631489172
 40
0.5856866628750029
 40
0.6310838008629778
 40
0.6763027613202975
 40
0.7212715280970813
 40
0.7658558419889242
 40
0.8097792173737842
 40
0.8523775292214067
 40
0.8915608933436252
 40
0.9231603866170501
 40
0.9515525471658947
 40
1.0
 40
1.0
 40
1.0
 40
1.0
 10
-1042.490764924516
 20
53.97445487556976
 30
0.0
 10
-1043.072050953497
 20
53.97245758916595
 30
0.0
 10
-1044.398400807479
 20
53.96790027934262
 30
0.0
 10
-1046.40461356454
 20
53.5849829199004
 30
0.0
 10
-1048.490795172498
 20
52.91553143381015
 30
0.0
 10
-1050.488016379301
 20
51.97589825787879
 30
0.0
 10
-1052.438303617211
 20
50.76501750251783
 30
0.0
 10
-1054.329553154374
 20
49.28790077714338
 30
0.0
 10
-1056.150664898575
 20
47.55583401002858
 30
0.0
 10
-1057.892061061658
 20
45.58073469284943
 30
0.0
 10
-1059.545562188961
 20
43.37586818465927
 30
0.0
 10
-1061.104150326759
 20
40.9551002974495
 30
0.0
 10
-1062.561688571112
 20
38.3328344068108
 30
0.0
 10
-1063.912655413854
 20
35.5240206552814
 30
0.0
 10
-1065.15188082114
 20
32.54459564261136
 30
0.0
 10
-1066.274401857159
 20
29.41217146769782
 30
0.0
 10
-1067.275502217473
 20
26.14673768601079
 30
0.0
 10
-1068.150731268008
 20
22.77211192775698
 30
0.0
 10
-1068.895797885944
 20
19.31938653373101
 30
0.0
 10
-1069.50625221826
 20
15.83679951205362
 30
0.0
 10
-1069.975040455409
 20
12.42761599964997
 30
0.0
 10
-1070.297508277084
 20
9.306025704102744
 30
0.0
 10
-1070.50070661624
 20
6.549619609908241
 30
0.0
 10
-1070.656860902392
 20
3.51873762331812
 30
0.0
 10
-1070.679998118612
 20
1.360666189987215
 30
0.0
 10
-1070.694586156502
 20
0.0000000000382611
 30
0.0
  0
SPLINE
  5
7C
330
1F
100
AcDbEntity
  8
0
  6
Continuous
 62
     7
370
    15
100
AcDbSpline
210
0.0
220
0.0
230
1.0
 70
     8
 71
     3
 72
    32
 73
    28
 74
     0
 42
0.000000001
 43
0.00000001
 40
0.0
 40
0.0
 40
0.0
 40
0.0
 40
0.0502185558527933
 40
0.0703903779555648
 40
0.1038390115095161
 40
0.1384401665542267
 40
0.1754301304454626
 40
0.2138876289582231
 40
0.253440877066285
 40
0.2937944119816044
 40
0.3347408086284835
 40
0.3761293367682406
 40
0.417849791470269
 40
0.4598215628207022
 40
0.5019865006910216
 40
0.5443042034065226
 40
0.5867488791247871
 40
0.6293072170889016
 40
0.6719702913188936
 40
0.7147347414211982
 40
0.7576120595648247
 40
0.8006287521417825
 40
0.843839854175124
 40
0.8873514296897766
 40
0.9313487338613322
 40
0.9761186288973309
 40
1.0
 40
1.0
 40
1.0
 40
1.0
 10
-1070.694586156502
 20
0.0000000000382611
 30
0.0
 10
-1070.679056140575
 20
-1.419556627805968
 30
0.0
 10
-1070.657288017772
 20
-3.409321683101248
 30
0.0
 10
-1070.512428500846
 20
-6.330646865550902
 30
0.0
 10
-1070.340214138756
 20
-8.801363179402202
 30
0.0
 10
-1070.053796616585
 20
-11.71697697221252
 30
0.0
 10
-1069.667114103448
 20
-14.73376174263825
 30
0.0
 10
-1069.168337762365
 20
-17.83361867181799
 30
0.0
 10
-1068.556162759511
 20
-20.95631965230531
 30
0.0
 10
-1067.829993475447
 20
-24.06139946858022
 30
0.0
 10
-1066.991096632203
 20
-27.11502642285331
 30
0.0
 10
-1066.041876221147
 20
-30.08912805195041
 30
0.0
 10
-1064.985596994462
 20
-32.9599035199027
 30
0.0
 10
-1063.826108467734
 20
-35.70693722584337
 30
0.0
 10
-1062.567612398488
 20
-38.31257698636161
 30
0.0
 10
-1061.21444696971
 20
-40.76146730511429
 30
0.0
 10
-1059.770887308263
 20
-43.04015093359182
 30
0.0
 10
-1058.24104851541
 20
-45.13657290198104
 30
0.0
 10
-1056.628833160069
 20
-47.03963163273369
 30
0.0
 10
-1054.937847142324
 20
-48.73889789110128
 30
0.0
 10
-1053.171346507224
 20
-50.22408384217253
 30
0.0
 10
-1051.332220686842
 20
-51.48515691246343
 30
0.0
 10
-1049.423117608756
 20
-52.5097045514327
 30
0.0
 10
-1047.446268848877
 20
-53.29030443091597
 30
0.0
 10
-1045.403910607628
 20
-53.79381499194665
 30
0.0
 10
-1043.641489420093
 20
-54.02832094072508
 30
0.0
 10
-1042.566279166988
 20
-53.9722966755667
 30
0.0
 10
-1042.192251177236
 20
-53.95280779586709
 30
0.0
  0
SPLINE
  5
7F
330
1F
100
AcDbEntity
  8
0
  6
Continuous
 62
     7
370
    15
100
AcDbSpline
210
0.0
220
0.0
230
1.0
 70
     8
 71
     3
 72
    30
 73
    26
 74
     0
 42
0.000000001
 43
0.00000001
 40
0.0
 40
0.0
 40
0.0
 40
0.0
 40
0.012924090651357
 40
0.0619714041611109
 40
0.1076480273631894
 40
0.1537125972124682
 40
0.2001528781480368
 40
0.2468864025644439
 40
0.2938046088813623
 40
0.3408093314811619
 40
0.3878277201212853
 40
0.4348021229704514
 40
0.4816981618590939
 40
0.5284995168480878
 40
0.5751872242407129
 40
0.6217348066431267
 40
0.6680996961785736
 40
0.7142080516796142
 40
0.759922211574131
 40
0.8049586836015837
 40
0.8486365126192159
 40
0.8888128530476468
 40
0.9212131338188144
 40
0.9503248023359624
 40
1.0
 40
1.0
 40
1.0
 40
1.0
 10
-53.939088106572
 20
-1043.644475445416
 30
0.0
 10
-53.93570647642007
 20
-1043.840700855251
 30
0.0
 10
-53.91949145793089
 20
-1044.781607608976
 30
0.0
 10
-53.57613197091535
 20
-1046.404284040491
 30
0.0
 10
-52.91785246428288
 20
-1048.49088158531
 30
0.0
 10
-51.97526858775981
 20
-1050.487992936456
 30
0.0
 10
-50.76518796805924
 20
-1052.438309963705
 30
0.0
 10
-49.28785478094634
 20
-1054.329551441921
 30
0.0
 10
-47.55584638046177
 20
-1056.150665359131
 30
0.0
 10
-45.58073137442826
 20
-1057.892060938113
 30
0.0
 10
-43.37586907306346
 20
-1059.545562222037
 30
0.0
 10
-40.95510005992055
 20
-1061.104150317915
 30
0.0
 10
-38.33283447027568
 20
-1062.561688573474
 30
0.0
 10
-35.52402063833697
 20
-1063.912655413222
 30
0.0
 10
-32.54459564713515
 20
-1065.151880821307
 30
0.0
 10
-29.41217146649437
 20
-1066.274401857113
 30
0.0
 10
-26.14673768633186
 20
-1067.275502217485
 30
0.0
 10
-22.77211192767074
 20
-1068.150731268005
 30
0.0
 10
-19.31938653374873
 20
-1068.895797885946
 30
0.0
 10
-15.83679951204179
 20
-1069.50625221826
 30
0.0
 10
-12.42761599964495
 20
-1069.975040455408
 30
0.0
 10
-9.306025704098351
 20
-1070.297508277086
 30
0.0
 10
-6.549619609903398
 20
-1070.500706616239
 30
0.0
 10
-3.518737623340514
 20
-1070.656860902392
 30
0.0
 10
-1.360666190036467
 20
-1070.679998118612
 30
0.0
 10
-0.0000000001164572
 20
-1070.694586156503
 30
0.0
  0
SPLINE
  5
81
330
1F
100
AcDbEntity
  8
0
  6
Continuous
 62
     7
370
    15
100
AcDbSpline
210
0.0
220
0.0
230
1.0
 70
     8
 71
     3
 72
    32
 73
    28
 74
     0
 42
0.000000001
 43
0.00000001
 40
0.0
 40
0.0
 40
0.0
 40
0.0
 40
0.0507732370275137
 40
0.0711678638240885
 40
0.1049859490081796
 40
0.1399692856782486
 40
0.1773678164079897
 40
0.2162500911824051
 40
0.2562402184824166
 40
0.2970394720318275
 40
0.3384381356739679
 40
0.3802838143030743
 40
0.4224650857370384
 40
0.4649004496980491
 40
0.5075311137693744
 40
0.5503162300260741
 40
0.5932297217459546
 40
0.6362581311499955
 40
0.679392433667969
 40
0.7226292317895566
 40
0.7659801446186919
 40
0.8094719713195606
 40
0.8531603547959341
 40
0.8971525305863322
 40
0.9416358000732028
 40
0.9869001939556259
 40
1.0
 40
1.0
 40
1.0
 40
1.0
 10
-0.0000000001164572
 20
-1070.694586156502
 30
0.0
 10
1.419556627748106
 20
-1070.679056140576
 30
0.0
 10
3.409321683060649
 20
-1070.657288017774
 30
0.0
 10
6.330646865524672
 20
-1070.512428500847
 30
0.0
 10
8.801363179368686
 20
-1070.340214138758
 30
0.0
 10
11.7169769721762
 20
-1070.053796616589
 30
0.0
 10
14.73376174259986
 20
-1069.667114103453
 30
0.0
 10
17.83361867178396
 20
-1069.168337762372
 30
0.0
 10
20.9563196522694
 20
-1068.556162759518
 30
0.0
 10
24.0613994685608
 20
-1067.829993475454
 30
0.0
 10
27.11502642278407
 20
-1066.99109663221
 30
0.0
 10
30.08912805207996
 20
-1066.041876221158
 30
0.0
 10
32.95990351928555
 20
-1064.985596994468
 30
0.0
 10
35.70693722804395
 20
-1063.826108467759
 30
0.0
 10
38.31257697797204
 20
-1062.567612398452
 30
0.0
 10
40.76146733647143
 20
-1061.214446969903
 30
0.0
 10
43.0401508159601
 20
-1059.770887307602
 30
0.0
 10
45.13657334261805
 20
-1058.241048517949
 30
0.0
 10
47.03962998216945
 20
-1056.628833150625
 30
0.0
 10
48.73890407365035
 20
-1054.937847177778
 30
0.0
 10
50.22406067089341
 20
-1053.171346374427
 30
0.0
 10
51.48524385942861
 20
-1051.332221185227
 30
0.0
 10
52.50937750666426
 20
-1049.423115734204
 30
0.0
 10
53.29154004143314
 20
-1047.44627593123
 30
0.0
 10
53.7891127448825
 20
-1045.403883655075
 30
0.0
 10
54.01808276741076
 20
-1043.812480978616
 30
0.0
 10
53.97762239802736
 20
-1042.908410177591
 30
0.0
 10
53.96854109489854
 20
-1042.705492084674
 30
0.0
  0
SPLINE
  5
84
330
1F
100
AcDbEntity
  8
0
  6
Continuous
 62
     7
370
    15
100
AcDbSpline
210
0.0
220
0.0
230
1.0
 70
     8
 71
     3
 72
    30
 73
    26
 74
     0
 42
0.000000001
 43
0.00000001
 40
0.0
 40
0.0
 40
0.0
 40
0.0
 40
0.0350965504274129
 40
0.0830421253821418
 40
0.127692725072521
 40
0.1727225570535711
 40
0.2181196606089184
 40
0.2638034205840599
 40
0.309667713992481
 40
0.3556165802884392
 40
0.4015788056475397
 40
0.4474980332584168
 40
0.493340657180511
 40
0.5390907240656024
 40
0.5847296961942235
 40
0.630231690928181
 40
0.6755550965831764
 40
0.720627730668912
 40
0.7653150238735825
 40
0.8093398519583551
 40
0.8520365559197332
 40
0.8913104244270024
 40
0.9229829051217271
 40
0.9514406449049201
 40
1.0
 40
1.0
 40
1.0
 40
1.0
 10
1042.598335696006
 20
-53.97115731473731
 30
0.0
 10
1043.143710038981
 20
-53.96878831428968
 30
0.0
 10
1044.434123028806
 20
-53.96318301035505
 30
0.0
 10
1046.404591872479
 20
-53.58440027531956
 30
0.0
 10
1048.490800860934
 20
-52.91568422372957
 30
0.0
 10
1050.488014836104
 20
-51.97585680764227
 30
0.0
 10
1052.438304035
 20
-50.76502872399943
 30
0.0
 10
1054.329553041654
 20
-49.28789774927667
 30
0.0
 10
1056.1506649289
 20
-47.55583482434646
 30
0.0
 10
1057.892061053532
 20
-45.58073447439453
 30
0.0
 10
1059.545562191144
 20
-43.3758682431321
 30
0.0
 10
1061.104150326181
 20
-40.95510028180463
 30
0.0
 10
1062.561688571271
 20
-38.33283441098001
 30
0.0
 10
1063.912655413816
 20
-35.52402065415764
 30
0.0
 10
1065.151880821153
 20
-32.5445956429018
 30
0.0
 10
1066.274401857158
 20
-29.41217146761004
 30
0.0
 10
1067.275502217476
 20
-26.14673768602107
 30
0.0
 10
1068.150731268011
 20
-22.77211192773873
 30
0.0
 10
1068.895797885947
 20
-19.31938653371799
 30
0.0
 10
1069.506252218261
 20
-15.8367995120376
 30
0.0
 10
1069.97504045541
 20
-12.42761599963316
 30
0.0
 10
1070.297508277084
 20
-9.306025704087476
 30
0.0
 10
1070.500706616239
 20
-6.549619609905103
 30
0.0
 10
1070.656860902396
 20
-3.518737623247657
 30
0.0
 10
1070.679998118612
 20
-1.360666189847113
 30
0.0
 10
1070.694586156501
 20
0.0000000001808935
 30
0.0
  0
SPLINE
  5
85
330
1F
100
AcDbEntity
  8
0
  6
Continuous
 62
     7
370
    15
100
AcDbSpline
210
0.0
220
0.0
230
1.0
 70
     8
 71
     3
 72
    32
 73
    28
 74
     0
 42
0.000000001
 43
0.00000001
 40
0.0
 40
0.0
 40
0.0
 40
0.0
 40
0.0504390015085494
 40
0.0706993723665089
 40
0.1042948362283713
 40
0.1390478808337261
 40
0.1762002204999875
 40
0.2148265368614445
 40
0.2545534128577847
 40
0.2950840887003663
 40
0.3362102287744967
 40
0.3777804411774399
 40
0.4196840372089668
 40
0.4618400530998445
 40
0.5041900834585485
 40
0.5466935492581864
 40
0.5893245454371844
 40
0.6320697028079271
 40
0.6749200562080607
 40
0.7178722304927414
 40
0.7609377682783616
 40
0.804143292312783
 40
0.8475440792076606
 40
0.8912466585799228
 40
0.9354370988243156
 40
0.9804035213947653
 40
1.0
 40
1.0
 40
1.0
 40
1.0
 10
1070.694586156501
 20
0.0000000001808935
 30
0.0
 10
1070.679056140573
 20
1.419556627965818
 30
0.0
 10
1070.657288017768
 20
3.409321683209839
 30
0.0
 10
1070.512428500841
 20
6.330646865603056
 30
0.0
 10
1070.34021413875
 20
8.801363179455606
 30
0.0
 10
1070.053796616578
 20
11.71697697226102
 30
0.0
 10
1069.66711410344
 20
14.73376174268911
 30
0.0
 10
1069.168337762354
 20
17.83361867187543
 30
0.0
 10
1068.556162759497
 20
20.95631965236422
 30
0.0
 10
1067.829993475431
 20
24.06139946864116
 30
0.0
 10
1066.991096632185
 20
27.11502642289317
 30
0.0
 10
1066.041876221129
 20
30.0891280520589
 30
0.0
 10
1064.985596994438
 20
32.95990351974494
 30
0.0
 10
1063.826108467715
 20
35.70693722668245
 30
0.0
 10
1062.567612398446
 20
38.312576983437
 30
0.0
 10
1061.214446969748
 20
40.7614673162982
 30
0.0
 10
1059.770887307994
 20
43.04015089187546
 30
0.0
 10
1058.241048516277
 20
45.13657305846469
 30
0.0
 10
1056.62883315668
 20
47.03963104676662
 30
0.0
 10
1054.937847154873
 20
48.7389000861475
 30
0.0
 10
1053.171346460037
 20
50.22407561562243
 30
0.0
 10
1051.332220863745
 20
51.48518778157008
 30
0.0
 10
1049.423116943184
 20
52.50958843961326
 30
0.0
 10
1047.446271363306
 20
53.29074311401494
 30
0.0
 10
1045.403901038523
 20
53.79214553687731
 30
0.0
 10
1043.709895546573
 20
54.02405560474517
 30
0.0
 10
1042.703151377877
 20
53.97422648220483
 30
0.0
 10
1042.397578979432
 20
53.95910207924278
 30
0.0
  0
SPLINE
  5
88
330
1F
100
AcDbEntity
  8
0
  6
Continuous
 62
     7
370
    15
100
AcDbSpline
210
0.0
220
0.0
230
1.0
 70
     8
 71
     3
 72
    43
 73
    39
 74
     0
 42
0.000000001
 43
0.00000001
 40
0.0
 40
0.0
 40
0.0
 40
0.0
 40
0.0347759666523034
 40
0.0674481692698562
 40
0.0980169177952634
 40
0.1264820717690811
 40
0.1528431317152321
 40
0.1766846405787076
 40
0.1984948702930878
 40
0.2182727911365723
 40
0.236017298081944
 40
0.2545868317227076
 40
0.2724603363112638
 40
0.2904810987943502
 40
0.3086494797280681
 40
0.3269658532753099
 40
0.3454306075076219
 40
0.4124544610593696
 40
0.4798462768353344
 40
0.5472531261327017
 40
0.5901697025059777
 40
0.6331094570625285
 40
0.6760401588521826
 40
0.7176539636110679
 40
0.7572048086866552
 40
0.7946943179464763
 40
0.8055398680253054
 40
0.8175431950976916
 40
0.8309500688913775
 40
0.8457604451267946
 40
0.8619743005985935
 40
0.8792647390940376
 40
0.8979092547120157
 40
0.9179095357581905
 40
0.9392660684243384
 40
0.9664590406875775
 40
0.9955744260905279
 40
1.0
 40
1.0
 40
1.0
 40
1.0
 10
-1006.310681537266
 20
445.3184150161226
 30
0.0
 10
-1006.02650564638
 20
440.7323068132098
 30
0.0
 10
-1005.475345019199
 20
431.8375259591616
 30
0.0
 10
-1004.843865863509
 20
418.9096933410305
 30
0.0
 10
-1004.360033189926
 20
406.8144396022022
 30
0.0
 10
-1004.012033087592
 20
395.5524392052312
 30
0.0
 10
-1003.776500492668
 20
385.179103200868
 30
0.0
 10
-1003.632451545314
 20
375.6850774618514
 30
0.0
 10
-1003.560473455876
 20
367.0607732649406
 30
0.0
 10
-1003.543948136193
 20
359.2419839711261
 30
0.0
 10
-1003.569912562945
 20
351.8521073834902
 30
0.0
 10
-1003.633893081234
 20
344.7152971482613
 30
0.0
 10
-1003.737448235336
 20
337.5441063018055
 30
0.0
 10
-1003.878629601969
 20
330.4277631558989
 30
0.0
 10
-1004.060001140713
 20
323.2554094581149
 30
0.0
 10
-1004.282534437044
 20
316.0271374627296
 30
0.0
 10
-1004.778512454305
 20
302.3773984153734
 30
0.0
 10
-1005.767794332498
 20
282.2932742318928
 30
0.0
 10
-1007.611082822386
 20
255.8282135222387
 30
0.0
 10
-1009.708384253683
 20
232.5756500447382
 30
0.0
 10
-1011.851283002853
 20
212.5650180359305
 30
0.0
 10
-1013.870199209589
 20
195.7803052162565
 30
0.0
 10
-1016.084386264125
 20
179.1976877715059
 30
0.0
 10
-1018.448595449304
 20
163.0901298855358
 30
0.0
 10
-1020.90166809068
 20
147.7227188513655
 30
0.0
 10
-1022.854664482948
 20
136.3656861391405
 30
0.0
 10
-1024.254346917827
 20
128.580096194007
 30
0.0
 10
-1025.112065477966
 20
123.9055695341727
 30
0.0
 10
-1026.084216565378
 20
118.7242636991521
 30
0.0
 10
-1027.183502206054
 20
113.0059932219456
 30
0.0
 10
-1028.409249358839
 20
106.7944821868804
 30
0.0
 10
-1029.767783092866
 20
100.0978309999655
 30
0.0
 10
-1031.265753922069
 20
92.9240416627102
 30
0.0
 10
-1032.920400818468
 20
85.23965073701669
 30
0.0
 10
-1034.866927447027
 20
76.47347250980401
 30
0.0
 10
-1037.159102833188
 20
66.56251586480529
 30
0.0
 10
-1038.993899414352
 20
58.82223242521719
 30
0.0
 10
-1040.063941136842
 20
54.5621041531948
 30
0.0
 10
-1040.205128175799
 20
53.99999999999952
 30
0.0
  0
SPLINE
  5
89
330
1F
100
AcDbEntity
  8
0
  6
Continuous
 62
     7
370
    15
100
AcDbSpline
210
0.0
220
0.0
230
1.0
 70
     8
 71
     3
 72
    42
 73
    38
 74
     0
 42
0.000000001
 43
0.00000001
 40
0.0
 40
0.0
 40
0.0
 40
0.0
 40
0.003762509448705
 40
0.0281803528461609
 40
0.0505411539918328
 40
0.0708452498393041
 40
0.0890930667404104
 40
0.1081838954619734
 40
0.1263849761094156
 40
0.1447377715597084
 40
0.1632423628650255
 40
0.1818988333793364
 40
0.200707268714908
 40
0.2690102351128021
 40
0.3377784224741975
 40
0.4065410245652942
 40
0.4502697328494931
 40
0.4939854546934312
 40
0.5376851431209027
 40
0.5801698575626159
 40
0.620558720054423
 40
0.6588595635011236
 40
0.6698576793965211
 40
0.6819001942087594
 40
0.6953874363313487
 40
0.7103185735457415
 40
0.7266927495093269
 40
0.7441783126410229
 40
0.7630542065599327
 40
0.7833196667482504
 40
0.8049739867409023
 40
0.832562940501503
 40
0.8621184889529037
 40
0.8936400200806078
 40
0.9271272619149414
 40
0.9625803674953929
 40
1.0
 40
1.0
 40
1.0
 40
1.0
 10
-1009.353089266377
 20
53.99999999999815
 30
0.0
 10
-1009.235592069323
 20
54.48150787138351
 30
0.0
 10
-1008.355564386588
 20
58.08789395461674
 30
0.0
 10
-1006.848808149329
 20
64.57334105741751
 30
0.0
 10
-1004.885889757815
 20
73.18974295121733
 30
0.0
 10
-1003.161983638705
 20
81.02693114259019
 30
0.0
 10
-1001.573823190024
 20
88.45277974918945
 30
0.0
 10
-1000.085618408121
 20
95.61637707807473
 30
0.0
 10
-998.6360253874252
 20
102.8021647279515
 30
0.0
 10
-997.2419325290358
 20
109.9206557229801
 30
0.0
 10
-995.8771424426228
 20
117.1062876127433
 30
0.0
 10
-994.5426211558262
 20
124.3590920832936
 30
0.0
 10
-992.0996549427945
 20
138.0801671911976
 30
0.0
 10
-988.7693026003817
 20
158.3528653917985
 30
0.0
 10
-984.9311109837189
 20
185.2162361779347
 30
0.0
 10
-982.0418095833564
 20
208.9455718661547
 30
0.0
 10
-979.8963634967357
 20
229.4403835752788
 30
0.0
 10
-978.3201609697192
 20
246.6740294129903
 30
0.0
 10
-976.9814855468641
 20
263.7685692607593
 30
0.0
 10
-975.8907139177755
 20
280.4461685052304
 30
0.0
 10
-975.0428427563636
 20
296.4293497622396
 30
0.0
 10
-974.5530692638067
 20
308.2698185592124
 30
0.0
 10
-974.2770200863831
 20
316.3719435341388
 30
0.0
 10
-974.1290324886904
 20
321.197487532753
 30
0.0
 10
-973.9852164035772
 20
326.543649960127
 30
0.0
 10
-973.8507575866398
 20
332.463427479268
 30
0.0
 10
-973.7339701449624
 20
338.9130718072714
 30
0.0
 10
-973.6423923176199
 20
345.885757162547
 30
0.0
 10
-973.5839681637966
 20
353.3746242915276
 30
0.0
 10
-973.5673044435684
 20
361.4165445650208
 30
0.0
 10
-973.6045805503271
 20
370.6128664022672
 30
0.0
 10
-973.7216759973713
 20
381.040374814222
 30
0.0
 10
-973.9511644445747
 20
392.7757106269723
 30
0.0
 10
-974.306795055876
 20
405.2933807761007
 30
0.0
 10
-974.8137090360923
 20
418.5925435515966
 30
0.0
 10
-975.4818608509099
 20
432.6725152819226
 30
0.0
 10
-976.0714969499252
 20
442.3178186629391
 30
0.0
 10
-976.3742708914071
 20
447.2706133210979
 30
0.0
  0
SPLINE
  5
8A
330
1F
100
AcDbEntity
  8
0
  6
Continuous
 62
     7
370
    15
100
AcDbSpline
210
0.0
220
0.0
230
1.0
 70
     8
 71
     3
 72
    42
 73
    38
 74
     0
 42
0.000000001
 43
0.00000001
 40
0.0
 40
0.0
 40
0.0
 40
0.0
 40
0.0343919265690127
 40
0.0667027239785347
 40
0.0969327038538711
 40
0.1250817443261019
 40
0.1511493757645101
 40
0.1747248121368701
 40
0.1962909221775406
 40
0.2158467127489425
 40
0.2333911156456819
 40
0.251751521429743
 40
0.2694275037226002
 40
0.2872491547174482
 40
0.30521683028774
 40
0.3233309002069467
 40
0.3415917484800106
 40
0.4078747960407937
 40
0.4745183580630325
 40
0.5411739275648878
 40
0.5836088511669948
 40
0.6260634524336339
 40
0.6685162959682589
 40
0.7096715663602523
 40
0.748785534993485
 40
0.7858592685714412
 40
0.7978968824254267
 40
0.8114258627509616
 40
0.826683032378039
 40
0.8436683945688839
 40
0.8623819843943875
 40
0.8828238799045133
 40
0.9049942494675483
 40
0.9288943339326137
 40
0.9557892401563036
 40
0.9845856441400088
 40
1.0
 40
1.0
 40
1.0
 40
1.0
 10
-1018.979365516318
 20
-451.2115553862573
 30
0.0
 10
-1018.265865694633
 20
-446.6771168942666
 30
0.0
 10
-1016.882041454106
 20
-437.8826284982194
 30
0.0
 10
-1015.032916185341
 20
-425.0848208059599
 30
0.0
 10
-1013.405397853814
 20
-413.1012352544823
 30
0.0
 10
-1011.988331205983
 20
-401.9335357313746
 30
0.0
 10
-1010.764746439321
 20
-391.638920667961
 30
0.0
 10
-1009.713675399634
 20
-382.2100030264593
 30
0.0
 10
-1008.815541312333
 20
-373.6390582032039
 30
0.0
 10
-1008.048217081914
 20
-365.8637316633632
 30
0.0
 10
-1007.363048628638
 20
-358.5105629443906
 30
0.0
 10
-1006.738762985581
 20
-351.403991370719
 30
0.0
 10
-1006.14934802723
 20
-344.2585713221371
 30
0.0
 10
-1005.601559828685
 20
-337.1635150553036
 30
0.0
 10
-1005.087284119388
 20
-330.0086953999813
 30
0.0
 10
-1004.607501793607
 20
-322.794107656223
 30
0.0
 10
-1003.774930081419
 20
-309.1626795019341
 30
0.0
 10
-1002.801684812245
 20
-289.0797274121884
 30
0.0
 10
-1002.044356662631
 20
-262.5629164279695
 30
0.0
 10
-1001.845025648505
 20
-239.2174941270208
 30
0.0
 10
-1002.00401019918
 20
-219.0935616494065
 30
0.0
 10
-1002.354349649068
 20
-202.1910538070012
 30
0.0
 10
-1002.915654668452
 20
-185.4681871470855
 30
0.0
 10
-1003.66910530692
 20
-169.2000800798522
 30
0.0
 10
-1004.580455513773
 20
-153.6579065812215
 30
0.0
 10
-1005.40234416562
 20
-141.9830663299985
 30
0.0
 10
-1006.048641576886
 20
-133.6994984674484
 30
0.0
 10
-1006.491181329056
 20
-128.3026121628695
 30
0.0
 10
-1007.014313270147
 20
-122.2540022177153
 30
0.0
 10
-1007.630351285766
 20
-115.5234138825471
 30
0.0
 10
-1008.350191249528
 20
-108.1121207831816
 30
0.0
 10
-1009.185773832976
 20
-100.0215881131186
 30
0.0
 10
-1010.150595142998
 20
-91.25344228125668
 30
0.0
 10
-1011.277192538766
 20
-81.64275644663658
 30
0.0
 10
-1012.594829216621
 20
-71.17072193164938
 30
0.0
 10
-1013.836744035503
 20
-61.82371727039764
 30
0.0
 10
-1014.680739514789
 20
-56.02259669823145
 30
0.0
 10
-1014.975003777786
 20
-54.0000000000018
 30
0.0
  0
SPLINE
  5
8B
330
1F
100
AcDbEntity
  8
0
  6
Continuous
 62
     7
370
    15
100
AcDbSpline
210
0.0
220
0.0
230
1.0
 70
     8
 71
     3
 72
    42
 73
    38
 74
     0
 42
0.000000001
 43
0.00000001
 40
0.0
 40
0.0
 40
0.0
 40
0.0
 40
0.0182025498840526
 40
0.0440794651996447
 40
0.0675009623212598
 40
0.0889484283378739
 40
0.1084228362799156
 40
0.1259251325529464
 40
0.1442372936966527
 40
0.1617020273954809
 40
0.17931250035564
 40
0.1970688152799722
 40
0.2149710773970038
 40
0.2330193943931426
 40
0.2985637307785217
 40
0.3645562729004191
 40
0.4305203124178543
 40
0.4724732901402661
 40
0.5144161968721167
 40
0.5563453771572558
 40
0.597106180366383
 40
0.6358564262795583
 40
0.6726030004560237
 40
0.6831571598771319
 40
0.6947188760531984
 40
0.7076663276954037
 40
0.7219987675889237
 40
0.7377154251896615
 40
0.7603886572105203
 40
0.7854325803491443
 40
0.8128456044328293
 40
0.8393223390097767
 40
0.8676857890191301
 40
0.8979353667564941
 40
0.9300707882338362
 40
0.9640921484008882
 40
1.0
 40
1.0
 40
1.0
 40
1.0
 10
-1045.301102668275
 20
-53.76556251803995
 30
0.0
 10
-1044.951464499073
 20
-56.12291209723112
 30
0.0
 10
-1044.104777435448
 20
-61.83149190617267
 30
0.0
 10
-1042.90780471473
 20
-70.58868818839343
 30
0.0
 10
-1041.71435834279
 20
-79.77568576524895
 30
0.0
 10
-1040.692073304651
 20
-88.14022271968163
 30
0.0
 10
-1039.812947581746
 20
-95.74200103682713
 30
0.0
 10
-1039.023539094799
 20
-102.9415042772574
 30
0.0
 10
-1038.302192321155
 20
-109.8846879315804
 30
0.0
 10
-1037.618794524681
 20
-116.8467628287436
 30
0.0
 10
-1036.980665398366
 20
-123.7405890917607
 30
0.0
 10
-1036.375945484205
 20
-130.6956806462453
 30
0.0
 10
-1035.805490546303
 20
-137.7119719771225
 30
0.0
 10
-1034.802024992241
 20
-150.9785918390092
 30
0.0
 10
-1033.577869654078
 20
-170.5552407292084
 30
0.0
 10
-1032.486627106866
 20
-196.4415497094345
 30
0.0
 10
-1031.982620257553
 20
-219.26149725618
 30
0.0
 10
-1031.869941778363
 20
-238.9374735163258
 30
0.0
 10
-1031.985402176766
 20
-255.463179173156
 30
0.0
 10
-1032.307709366089
 20
-271.8352729084987
 30
0.0
 10
-1032.821425040652
 20
-287.788745770113
 30
0.0
 10
-1033.496868507735
 20
-303.0601461822931
 30
0.0
 10
-1034.125758415867
 20
-314.3614720651409
 30
0.0
 10
-1034.611133307968
 20
-322.0904754068575
 30
0.0
 10
-1034.915639115412
 20
-326.6941990879359
 30
0.0
 10
-1035.271824444533
 20
-331.793519961996
 30
0.0
 10
-1035.689343771082
 20
-337.4375997478339
 30
0.0
 10
-1036.232664052262
 20
-344.3572277560823
 30
0.0
 10
-1036.934537476493
 20
-352.6807117438586
 30
0.0
 10
-1037.836652463389
 20
-362.5355074814387
 30
0.0
 10
-1038.866148630841
 20
-372.8846583358009
 30
0.0
 10
-1040.026205720697
 20
-383.6634657339289
 30
0.0
 10
-1041.318257239588
 20
-394.8075236965107
 30
0.0
 10
-1042.800680748839
 20
-406.6845993033039
 30
0.0
 10
-1044.497216326734
 20
-419.291638855929
 30
0.0
 10
-1046.417307916789
 20
-432.6270561622659
 30
0.0
 10
-1047.857302904438
 20
-441.7505635668322
 30
0.0
 10
-1048.596723884798
 20
-446.4353804219404
 30
0.0
  0
SPLINE
  5
8C
330
1F
100
AcDbEntity
  8
0
  6
Continuous
 62
     7
370
    15
100
AcDbSpline
210
0.0
220
0.0
230
1.0
 70
     8
 71
     3
 72
   266
 73
   262
 74
     0
 42
0.000000001
 43
0.00000001
 40
0.0
 40
0.0
 40
0.0
 40
0.0
 40
0.0054218477112002
 40
0.0103901082830786
 40
0.0149100380893239
 40
0.0189854930180096
 40
0.0226191596316416
 40
0.0258127773597256
 40
0.0285673488252451
 40
0.0310858858102377
 40
0.0331945365571327
 40
0.0351137008357995
 40
0.0368483904026419
 40
0.0383985687875093
 40
0.0398760214880353
 40
0.0426041569729728
 40
0.045854402979166
 40
0.0496303602129539
 40
0.0569939794627537
 40
0.0645971591051133
 40
0.0722816526720331
 40
0.0752791700691561
 40
0.0782277470778537
 40
0.0809325619607633
 40
0.0833122863308547
 40
0.0849556408770441
 40
0.0866664146059657
 40
0.0886515216892226
 40
0.0909111002247178
 40
0.0931534139962897
 40
0.0953510919903064
 40
0.0973773612399667
 40
0.0992323342635923
 40
0.1009160480058078
 40
0.1026543923611867
 40
0.1047138206364518
 40
0.1070956538066233
 40
0.1104299691728846
 40
0.1133243505070861
 40
0.1157599535952366
 40
0.1177920439232659
 40
0.1196241391361456
 40
0.1212740465398212
 40
0.1225921364123611
 40
0.1242818651035319
 40
0.1263571465808108
 40
0.1286763545417058
 40
0.1307985528878813
 40
0.132690706538507
 40
0.134693426364638
 40
0.13680674826921
 40
0.1392286460054988
 40
0.1419575478001024
 40
0.1447739823749956
 40
0.1472554324072205
 40
0.1493932189211346
 40
0.1512519746329576
 40
0.1531161964526999
 40
0.1552613776039488
 40
0.1576876521169115
 40
0.1602471397699696
 40
0.1625446349871205
 40
0.1645592299316768
 40
0.1662914303508557
 40
0.1687339448748237
 40
0.1715851387664486
 40
0.174803258236069
 40
0.1779250610003239
 40
0.1808237523743609
 40
0.1834546251201292
 40
0.1861999073763177
 40
0.1893271735895314
 40
0.1928391303777055
 40
0.1950926672264164
 40
0.197082341362765
 40
0.1987475240138908
 40
0.2000902022378217
 40
0.201137000254882
 40
0.2022621871539771
 40
0.2044379201381777
 40
0.2071102190603732
 40
0.2102773358784153
 40
0.2162838040431391
 40
0.2220697439544425
 40
0.2276412630481038
 40
0.2347755959775599
 40
0.2415431361585541
 40
0.2480243766006015
 40
0.2546820589122703
 40
0.2616886665900883
 40
0.2689133967012565
 40
0.2763607036580635
 40
0.2840406397861998
 40
0.291962814539446
 40
0.2983105745403088
 40
0.3044418364257834
 40
0.3103054407470353
 40
0.3159029564803623
 40
0.3212241726063019
 40
0.3275668609981385
 40
0.3334353106426295
 40
0.3388365954812236
 40
0.3439442549749851
 40
0.3492871359150395
 40
0.3548026351404961
 40
0.3605865906658626
 40
0.3666426647508843
 40
0.3729754191904712
 40
0.3797143811363954
 40
0.3867542621648081
 40
0.3940259796604626
 40
0.401254520725968
 40
0.4084116242634496
 40
0.4176861454050992
 40
0.426861596300756
 40
0.4359497182697536
 40
0.4461847194050323
 40
0.45633984744274
 40
0.4665058922869111
 40
0.4767122423975714
 40
0.4868789662306401
 40
0.4970056506007173
 40
0.5071074360461238
 40
0.5171989840951146
 40
0.5272938462024909
 40
0.5374061136986112
 40
0.5475508775099678
 40
0.5577443050528742
 40
0.5664917495898693
 40
0.575198170062038
 40
0.5839256086176849
 40
0.5928434394497502
 40
0.6019720012287247
 40
0.6113224173722632
 40
0.6209079511849114
 40
0.6273050804699475
 40
0.6338141336667529
 40
0.6404406141158998
 40
0.6471750808257553
 40
0.6536560584713482
 40
0.6597183357458689
 40
0.6650575450899935
 40
0.670037234623836
 40
0.6746618079682384
 40
0.678934695674551
 40
0.6828584812964339
 40
0.6861625577864848
 40
0.6896782133952295
 40
0.6935403401779133
 40
0.6977502882499974
 40
0.7023101685308994
 40
0.7072230474347241
 40
0.7124047240746213
 40
0.7220987489831137
 40
0.7320489556506562
 40
0.742202409209886
 40
0.7474936835019
 40
0.7523606800621223
 40
0.7568063342679711
 40
0.7608349166689479
 40
0.7631551220801464
 40
0.7653481295042659
 40
0.7677611356149633
 40
0.7704818083405093
 40
0.7735108382342082
 40
0.7758638440274821
 40
0.7783753358747131
 40
0.7810461485686897
 40
0.7838774975174817
 40
0.786829312435761
 40
0.7895600274567497
 40
0.791992440126689
 40
0.7936936596795898
 40
0.795209517009275
 40
0.7965394740638485
 40
0.7976830157374144
 40
0.7986396666285258
 40
0.7994487605249626
 40
0.800498358100317
 40
0.8019791926607015
 40
0.8038422552633716
 40
0.806083807855692
 40
0.8083636783757228
 40
0.8104836059577577
 40
0.8124394899310564
 40
0.8151734603932603
 40
0.8175609433600471
 40
0.8200779439052615
 40
0.8225138154289775
 40
0.8251274046765205
 40
0.8278157291349953
 40
0.8302455393440527
 40
0.8323921561126604
 40
0.8343365686276839
 40
0.836236566084945
 40
0.8384209114534562
 40
0.8408898271340651
 40
0.8434294561925507
 40
0.8456896458583137
 40
0.8476653525074532
 40
0.8493606834444949
 40
0.8513092204463347
 40
0.8535959824150543
 40
0.8562218959257449
 40
0.8590341478789727
 40
0.8615748560591707
 40
0.863617584560166
 40
0.8654122567645195
 40
0.8672615998246199
 40
0.8693839098233727
 40
0.8717808950451873
 40
0.8737519346239058
 40
0.8754666747843616
 40
0.8769014620988945
 40
0.8780552831737393
 40
0.8791422390856503
 40
0.8806752002352671
 40
0.8823708562228035
 40
0.884244304798059
 40
0.8863821624392458
 40
0.8887963905012727
 40
0.8914858368291602
 40
0.8942472897489768
 40
0.8966445038245626
 40
0.8986642565807349
 40
0.9005881059856337
 40
0.902734300926586
 40
0.9051029569082817
 40
0.9076789612517275
 40
0.9101147754892073
 40
0.9124648962805194
 40
0.9144707773768443
 40
0.9162980722526284
 40
0.9183579794165257
 40
0.9206701804983013
 40
0.9253434978965362
 40
0.9301833815867172
 40
0.9351380803571622
 40
0.9400423990850713
 40
0.9430605016767605
 40
0.9460276821943028
 40
0.9489449651654112
 40
0.9517568841794518
 40
0.9542251354158858
 40
0.9562224980994138
 40
0.9578904248371168
 40
0.9592298577836418
 40
0.9598778785045231
 40
0.9606644005847044
 40
0.9617709092373186
 40
0.963197056085754
 40
0.9649424559117182
 40
0.9672758544058243
 40
0.9700088451427068
 40
0.973141590472425
 40
0.976674602159473
 40
0.9806089347659039
 40
0.9848654173065868
 40
0.9895134147746638
 40
0.9945566278538993
 40
1.0
 40
1.0
 40
1.0
 40
1.0
 10
-976.3747034925692
 20
447.2771998976743
 30
0.0
 10
-976.5831900919196
 20
450.3022429044796
 30
0.0
 10
-976.982721480148
 20
456.099256409073
 30
0.0
 10
-977.6675262187036
 20
464.1441119936636
 30
0.0
 10
-978.3609030108728
 20
471.290397603749
 30
0.0
 10
-979.0512912366726
 20
477.5738488395917
 30
0.0
 10
-979.7189814407126
 20
483.0475323353731
 30
0.0
 10
-980.3474204119673
 20
487.7542522029935
 30
0.0
 10
-980.9351146961924
 20
491.830995318493
 30
0.0
 10
-981.4723659636522
 20
495.3176043941438
 30
0.0
 10
-981.968293386931
 20
498.3563232501832
 30
0.0
 10
-982.4225845217098
 20
501.0047655666878
 30
0.0
 10
-982.8476623763719
 20
503.3740930346142
 30
0.0
 10
-983.2497765347614
 20
505.5271788223193
 30
0.0
 10
-983.7515519535523
 20
508.1162326729703
 30
0.0
 10
-984.4268203514412
 20
511.4266062246215
 30
0.0
 10
-985.3576554379177
 20
515.670780724324
 30
0.0
 10
-986.8120522476033
 20
521.7659201055669
 30
0.0
 10
-988.8824832705607
 20
529.3732086262966
 30
0.0
 10
-991.6884745728041
 20
538.020129247406
 30
0.0
 10
-994.2168527643352
 20
544.5312833549721
 30
0.0
 10
-996.2642256109777
 20
549.1663513811112
 30
0.0
 10
-997.6228612841567
 20
552.0276103408193
 30
0.0
 10
-998.9343866753005
 20
554.6043281825872
 30
0.0
 10
-1000.071945326874
 20
556.702446522401
 30
0.0
 10
-1001.070930809559
 20
558.4538616545652
 30
0.0
 10
-1002.02570971128
 20
560.0575823891295
 30
0.0
 10
-1003.11724040185
 20
561.805501180333
 30
0.0
 10
-1004.338710177956
 20
563.6557607094489
 30
0.0
 10
-1005.631405066862
 20
565.5005593888147
 30
0.0
 10
-1006.919795074465
 20
567.232797515085
 30
0.0
 10
-1008.174889266596
 20
568.8249887562753
 30
0.0
 10
-1009.364279038907
 20
570.2530951401637
 30
0.0
 10
-1010.535880905634
 20
571.5888293908499
 30
0.0
 10
-1011.795294685537
 20
572.9515998603499
 30
0.0
 10
-1013.245755661954
 20
574.4303390740349
 30
0.0
 10
-1015.116290389684
 20
576.2062447787279
 30
0.0
 10
-1017.244757710912
 20
578.0443740369715
 30
0.0
 10
-1019.453313151731
 20
579.7566106201529
 30
0.0
 10
-1021.382196307052
 20
581.1133978510566
 30
0.0
 10
-1023.080347483645
 20
582.2091759517605
 30
0.0
 10
-1024.601795011785
 20
583.1165359706127
 30
0.0
 10
-1025.958624717084
 20
583.8674064292031
 30
0.0
 10
-1027.306603479921
 20
584.5645200837503
 30
0.0
 10
-1028.794071926098
 20
585.2802378645927
 30
0.0
 10
-1030.594325437647
 20
586.0678181197449
 30
0.0
 10
-1032.541232214594
 20
586.8234371883686
 30
0.0
 10
-1034.470230158907
 20
587.4790540458829
 30
0.0
 10
-1036.33182270501
 20
588.0327397810829
 30
0.0
 10
-1038.246875058925
 20
588.5235282200541
 30
0.0
 10
-1040.318642775489
 20
588.9666272907225
 30
0.0
 10
-1042.597099356632
 20
589.3534377017816
 30
0.0
 10
-1045.084921637111
 20
589.6558426805664
 30
0.0
 10
-1047.589091097632
 20
589.8368932039896
 30
0.0
 10
-1050.011708432711
 20
589.899040223563
 30
0.0
 10
-1052.193642530147
 20
589.8662921165982
 30
0.0
 10
-1054.286992539437
 20
589.755636909186
 30
0.0
 10
-1056.263206346966
 20
589.5848067750384
 30
0.0
 10
-1058.356267893322
 20
589.3368671259979
 30
0.0
 10
-1060.60839759901
 20
588.9904011791971
 30
0.0
 10
-1062.871253145872
 20
588.5591856631586
 30
0.0
 10
-1065.048474802817
 20
588.0666734481866
 30
0.0
 10
-1066.982017177193
 20
587.5684524114055
 30
0.0
 10
-1068.988401463879
 20
586.9971704865386
 30
0.0
 10
-1071.271350977609
 20
586.2786328156913
 30
0.0
 10
-1074.032064022761
 20
585.3071607768823
 30
0.0
 10
-1077.027440958767
 20
584.128457876838
 30
0.0
 10
-1080.046766777442
 20
582.8117010798926
 30
0.0
 10
-1082.874482654829
 20
581.4668255016991
 30
0.0
 10
-1085.568312172023
 20
580.0904432386585
 30
0.0
 10
-1088.329197055286
 20
578.5874522642863
 30
0.0
 10
-1091.386071801797
 20
576.8144207633807
 30
0.0
 10
-1094.294500717621
 20
575.0117939490655
 30
0.0
 10
-1096.842377316054
 20
573.3465861332246
 30
0.0
 10
-1098.790244359989
 20
572.0254676534545
 30
0.0
 10
-1100.440534568433
 20
570.8713838555051
 30
0.0
 10
-1101.779442325585
 20
569.9120995792955
 30
0.0
 10
-1102.935265347083
 20
569.0683932724501
 30
0.0
 10
-1104.356295773799
 20
568.0138917431567
 30
0.0
 10
-1106.303956344083
 20
566.5331250690332
 30
0.0
 10
-1108.918736110021
 20
564.4762228448411
 30
0.0
 10
-1112.793374847912
 20
561.3067714824676
 30
0.0
 10
-1117.717760343231
 20
557.0393390859006
 30
0.0
 10
-1123.473212390554
 20
551.6988596227925
 30
0.0
 10
-1129.631731643666
 20
545.6287943917245
 30
0.0
 10
-1136.140292118474
 20
538.7967430620952
 30
0.0
 10
-1142.962159331903
 20
531.1623408077228
 30
0.0
 10
-1149.616583581926
 20
523.2792870977573
 30
0.0
 10
-1156.341043607666
 20
514.8808936494083
 30
0.0
 10
-1163.294978198676
 20
505.7283137575799
 30
0.0
 10
-1170.480403501952
 20
495.7644316055184
 30
0.0
 10
-1177.843071213242
 20
485.0125686706198
 30
0.0
 10
-1185.372269482074
 20
473.4337294513269
 30
0.0
 10
-1192.466756660995
 20
461.943805219389
 30
0.0
 10
-1198.982005804123
 20
450.8865212394149
 30
0.0
 10
-1204.782600028084
 20
440.6383135677443
 30
0.0
 10
-1210.284075672324
 20
430.5382517190002
 30
0.0
 10
-1215.469848795443
 20
420.6646701656557
 30
0.0
 10
-1220.736404981828
 20
410.2824353479114
 30
0.0
 10
-1226.007053898918
 20
399.4968910863654
 30
0.0
 10
-1231.211693252276
 20
388.4182429544937
 30
0.0
 10
-1235.968940094657
 20
377.9123221147453
 30
0.0
 10
-1240.493873164494
 20
367.564434805619
 30
0.0
 10
-1244.95591522517
 20
356.9917553571191
 30
0.0
 10
-1249.503289827566
 20
345.8086100353136
 30
0.0
 10
-1254.128364175843
 20
333.9763747282397
 30
0.0
 10
-1258.838528650046
 20
321.4070539015072
 30
0.0
 10
-1263.645068733027
 20
307.9874624901536
 30
0.0
 10
-1268.525731259339
 20
293.6773350928236
 30
0.0
 10
-1273.436431040256
 20
278.4886488486652
 30
0.0
 10
-1278.244263532896
 20
262.7352525543772
 30
0.0
 10
-1282.851270611262
 20
246.6876188652417
 30
0.0
 10
-1287.629883203477
 20
228.9463287457895
 30
0.0
 10
-1292.47893159878
 20
209.5037491177101
 30
0.0
 10
-1297.28952255701
 20
188.3316511576963
 30
0.0
 10
-1301.84172694574
 20
166.1794043045834
 30
0.0
 10
-1306.073848622525
 20
143.0320290517802
 30
0.0
 10
-1309.925294141041
 20
118.8191348512707
 30
0.0
 10
-1313.228553568888
 20
94.44546389584572
 30
0.0
 10
-1315.979280165011
 20
69.91568136189858
 30
0.0
 10
-1318.165715821698
 20
45.30704953525624
 30
0.0
 10
-1319.783240795448
 20
20.70935082594282
 30
0.0
 10
-1320.836154533748
 20
-3.86476736947821
 30
0.0
 10
-1321.327467653973
 20
-28.41478164843394
 30
0.0
 10
-1321.257507452927
 20
-52.93914334288515
 30
0.0
 10
-1320.627944562457
 20
-77.43677860607
 30
0.0
 10
-1319.437214702301
 20
-101.907143647923
 30
0.0
 10
-1317.769550345344
 20
-125.1431975327255
 30
0.0
 10
-1315.722302279027
 20
-147.0761127085138
 30
0.0
 10
-1313.386736429426
 20
-167.6887001925964
 30
0.0
 10
-1310.643025063711
 20
-188.2520115453104
 30
0.0
 10
-1307.459470964523
 20
-208.9328847145872
 30
0.0
 10
-1303.798617472561
 20
-229.8472114587923
 30
0.0
 10
-1299.636051205904
 20
-250.9805208383677
 30
0.0
 10
-1295.508900302679
 20
-269.7593158702612
 30
0.0
 10
-1291.57898189452
 20
-286.1864893445713
 30
0.0
 10
-1287.984619309192
 20
-300.2701607201766
 30
0.0
 10
-1284.14644621626
 20
-314.3966701567479
 30
0.0
 10
-1280.134775465026
 20
-328.2860984475697
 30
0.0
 10
-1276.073100819377
 20
-341.5639025532655
 30
0.0
 10
-1272.164855529639
 20
-353.6784913979064
 30
0.0
 10
-1268.472940379138
 20
-364.6004960879682
 30
0.0
 10
-1265.015681064657
 20
-374.4125503261777
 30
0.0
 10
-1261.730639346462
 20
-383.3889364704504
 30
0.0
 10
-1258.634038033724
 20
-391.5627754031098
 30
0.0
 10
-1255.807237685353
 20
-398.7935877217394
 30
0.0
 10
-1253.1274535992
 20
-405.4631483898901
 30
0.0
 10
-1250.426835306906
 20
-412.0146827140113
 30
0.0
 10
-1247.456403030981
 20
-419.0245870265763
 30
0.0
 10
-1244.171756110023
 20
-426.5460514409939
 30
0.0
 10
-1240.561822204816
 20
-434.5469148048419
 30
0.0
 10
-1236.638896249194
 20
-442.9408158864062
 30
0.0
 10
-1231.26498140816
 20
-454.016361013907
 30
0.0
 10
-1224.385320989169
 20
-467.4328798997958
 30
0.0
 10
-1215.943826738517
 20
-482.7191096741965
 30
0.0
 10
-1208.617017114465
 20
-494.9929756321679
 30
0.0
 10
-1202.694175024387
 20
-504.3175143725472
 30
0.0
 10
-1198.409535182896
 20
-510.7849713201022
 30
0.0
 10
-1194.475562632613
 20
-516.4918832960823
 30
0.0
 10
-1191.278606123712
 20
-520.9591340982965
 30
0.0
 10
-1188.740171432834
 20
-524.4050520531474
 30
0.0
 10
-1186.676763239825
 20
-527.1478142035137
 30
0.0
 10
-1184.484682383285
 20
-529.9983298809237
 30
0.0
 10
-1182.034870240956
 20
-533.1051577771976
 30
0.0
 10
-1179.597091561994
 20
-536.1089746401531
 30
0.0
 10
-1177.218855234235
 20
-538.9594146618865
 30
0.0
 10
-1174.946673078466
 20
-541.6137772402931
 30
0.0
 10
-1172.529341652513
 20
-544.3597408065003
 30
0.0
 10
-1169.979394629423
 20
-547.1688300282351
 30
0.0
 10
-1167.413012565143
 20
-549.9029762155885
 30
0.0
 10
-1164.969119726795
 20
-552.4191379484178
 30
0.0
 10
-1162.903440139711
 20
-554.4783632409658
 30
0.0
 10
-1161.204014449797
 20
-556.1277722314104
 30
0.0
 10
-1159.836164506023
 20
-557.4272486979079
 30
0.0
 10
-1158.635418850519
 20
-558.5460597349825
 30
0.0
 10
-1157.601527597642
 20
-559.492936838682
 30
0.0
 10
-1156.722604023478
 20
-560.2859574724351
 30
0.0
 10
-1155.867591694911
 20
-561.0475996210029
 30
0.0
 10
-1154.844830226601
 20
-561.9462074471239
 30
0.0
 10
-1153.496492843671
 20
-563.1082981258673
 30
0.0
 10
-1151.780825231407
 20
-564.5488810235324
 30
0.0
 10
-1149.821543674608
 20
-566.1404026095624
 30
0.0
 10
-1147.78619436562
 20
-567.7321872448643
 30
0.0
 10
-1145.840283514701
 20
-569.1965456457493
 30
0.0
 10
-1143.756310612447
 20
-570.7075539292084
 30
0.0
 10
-1141.589508533024
 20
-572.2095417794163
 30
0.0
 10
-1139.244898559312
 20
-573.7520552239192
 30
0.0
 10
-1136.972544708163
 20
-575.168867281953
 30
0.0
 10
-1134.620151574408
 20
-576.5522884309545
 30
0.0
 10
-1132.208250001528
 20
-577.8825162465544
 30
0.0
 10
-1129.797450059797
 20
-579.1184193492129
 30
0.0
 10
-1127.530733584786
 20
-580.1944430668515
 30
0.0
 10
-1125.490710092076
 20
-581.0927743937585
 30
0.0
 10
-1123.604469159706
 20
-581.8647663867988
 30
0.0
 10
-1121.681640734849
 20
-582.594379743016
 30
0.0
 10
-1119.583712874343
 20
-583.3227864873712
 30
0.0
 10
-1117.280766211353
 20
-584.0369495747032
 30
0.0
 10
-1114.96031543719
 20
-584.6633109317002
 30
0.0
 10
-1112.791418168966
 20
-585.1640554547765
 30
0.0
 10
-1110.886006956945
 20
-585.5371880583268
 30
0.0
 10
-1109.053075482795
 20
-585.8388666527554
 30
0.0
 10
-1107.120555238921
 20
-586.095612518747
 30
0.0
 10
-1104.917330172641
 20
-586.3070835684014
 30
0.0
 10
-1102.475175318398
 20
-586.4367206712742
 30
0.0
 10
-1099.986149802517
 20
-586.4503377010077
 30
0.0
 10
-1097.64820363698
 20
-586.3506779526175
 30
0.0
 10
-1095.616694145076
 20
-586.1775100589763
 30
0.0
 10
-1093.768851568616
 20
-585.9517819334476
 30
0.0
 10
-1091.908554130461
 20
-585.6566554512182
 30
0.0
 10
-1089.896495800115
 20
-585.257459641817
 30
0.0
 10
-1087.875376849324
 20
-584.7644465713125
 30
0.0
 10
-1086.005169591761
 20
-584.2247593285988
 30
0.0
 10
-1084.434272903311
 20
-583.7108764658623
 30
0.0
 10
-1083.12076806237
 20
-583.2366289343622
 30
0.0
 10
-1082.000191322581
 20
-582.800287533756
 30
0.0
 10
-1080.864499408058
 20
-582.3297030780328
 30
0.0
 10
-1079.591747886246
 20
-581.765111991263
 30
0.0
 10
-1078.113951996022
 20
-581.0559208793827
 30
0.0
 10
-1076.490526610869
 20
-580.2107372280194
 30
0.0
 10
-1074.697887389637
 20
-579.1942654861616
 30
0.0
 10
-1072.714555632001
 20
-577.9628507972044
 30
0.0
 10
-1070.602191490757
 20
-576.520122176749
 30
0.0
 10
-1068.534840589273
 20
-574.966192122109
 30
0.0
 10
-1066.680799206861
 20
-573.4474093115974
 30
0.0
 10
-1065.071875108023
 20
-572.0327396017977
 30
0.0
 10
-1063.573864724367
 20
-570.6332202817492
 30
0.0
 10
-1062.049649853683
 20
-569.1225436084511
 30
0.0
 10
-1060.424054928255
 20
-567.4075295358846
 30
0.0
 10
-1058.788918096812
 20
-565.5659456782115
 30
0.0
 10
-1057.192246701425
 20
-563.6495506048026
 30
0.0
 10
-1055.749408648409
 20
-561.8118071767041
 30
0.0
 10
-1054.462972822375
 20
-560.0845951684882
 30
0.0
 10
-1053.263771589587
 20
-558.3998862897096
 30
0.0
 10
-1052.029951349002
 20
-556.5870027681633
 30
0.0
 10
-1050.269031814743
 20
-553.8688817116408
 30
0.0
 10
-1048.043900124497
 20
-550.1588956096867
 30
0.0
 10
-1045.458568730366
 20
-545.39186489399
 30
0.0
 10
-1042.965850515077
 20
-540.3183153916233
 30
0.0
 10
-1040.880786879393
 20
-535.6493437946997
 30
0.0
 10
-1039.181863329978
 20
-531.5510637612243
 30
0.0
 10
-1037.832291453735
 20
-528.1101899549536
 30
0.0
 10
-1036.551143941623
 20
-524.6639725804116
 30
0.0
 10
-1035.377125030027
 20
-521.3395855794956
 30
0.0
 10
-1034.359295725976
 20
-518.3198500053068
 30
0.0
 10
-1033.519360957825
 20
-515.7286480037859
 30
0.0
 10
-1032.846102511135
 20
-513.5846518416713
 30
0.0
 10
-1032.362048829578
 20
-512.0028607551169
 30
0.0
 10
-1031.998817146075
 20
-510.7956510663088
 30
0.0
 10
-1031.670100487192
 20
-509.6898128819926
 30
0.0
 10
-1031.245445005393
 20
-508.2383736255806
 30
0.0
 10
-1030.705012557355
 20
-506.3518476133115
 30
0.0
 10
-1030.019949541598
 20
-503.8969989780111
 30
0.0
 10
-1029.18803389798
 20
-500.814795209972
 30
0.0
 10
-1028.20944338336
 20
-497.0379007937024
 30
0.0
 10
-1027.117053938083
 20
-492.6200364364134
 30
0.0
 10
-1025.921706385792
 20
-487.5252080040849
 30
0.0
 10
-1024.643883390274
 20
-481.75282853923
 30
0.0
 10
-1023.295706260732
 20
-475.2705023255669
 30
0.0
 10
-1021.890845377492
 20
-468.037659973168
 30
0.0
 10
-1020.428300816019
 20
-459.9899309950459
 30
0.0
 10
-1019.475168838664
 20
-454.2154659783236
 30
0.0
 10
-1018.980417502017
 20
-451.2180591623548
 30
0.0
  0
SPLINE
  5
8D
330
1F
100
AcDbEntity
  8
0
  6
Continuous
 62
     7
370
    15
100
AcDbSpline
210
0.0
220
0.0
230
1.0
 70
     8
 71
     3
 72
   238
 73
   234
 74
     0
 42
0.000000001
 43
0.00000001
 40
0.0
 40
0.0
 40
0.0
 40
0.0
 40
0.005443295084745
 40
0.010430833451246
 40
0.0149703288972386
 40
0.0190677455123343
 40
0.0227275667835204
 40
0.0259530537376356
 40
0.0287464854648502
 40
0.0313169715205631
 40
0.0334527727018909
 40
0.0353928255744513
 40
0.0371522536440152
 40
0.0387311605636231
 40
0.0401938899132825
 40
0.0428516473588907
 40
0.0460148196853859
 40
0.0496846850129535
 40
0.0551192818096285
 40
0.0607325847667268
 40
0.066512213838573
 40
0.0722934607824335
 40
0.0762899215793714
 40
0.0801309607873054
 40
0.0834465233584874
 40
0.0851303322650348
 40
0.0867829428510553
 40
0.0887079529804293
 40
0.0909110769031517
 40
0.0934416872890913
 40
0.0959438825591016
 40
0.0982185223451632
 40
0.1002663041128887
 40
0.1021560889932158
 40
0.1043473603910767
 40
0.1069258669230588
 40
0.1101591392837291
 40
0.1130333118376505
 40
0.1155224499034527
 40
0.1176591893683663
 40
0.1195584981517913
 40
0.1212280252105611
 40
0.122896340495178
 40
0.1251286959509513
 40
0.1278579502831325
 40
0.1304150329584568
 40
0.1326295286607433
 40
0.1343849384921858
 40
0.136297184221792
 40
0.1384653515086058
 40
0.1408890579691317
 40
0.1434276930871381
 40
0.1456645524048488
 40
0.1476277859645455
 40
0.1493180856030871
 40
0.1510095894974892
 40
0.1530186161243381
 40
0.1553148236108451
 40
0.1578697131980164
 40
0.160269816196329
 40
0.162382091228657
 40
0.1642060103943024
 40
0.1658612769966424
 40
0.1680303190723295
 40
0.1704862813215062
 40
0.1731796113769622
 40
0.1757610819939676
 40
0.1781643087379297
 40
0.1803883625482171
 40
0.1828702647440565
 40
0.1855391079566222
 40
0.1884283684610335
 40
0.191512587491965
 40
0.1972709435982311
 40
0.2025736759650537
 40
0.207537346896251
 40
0.2122476668117199
 40
0.2167079069545794
 40
0.2211588349457976
 40
0.2257717309557592
 40
0.2308021870264343
 40
0.2362543334335746
 40
0.2421340399231346
 40
0.2484491918498204
 40
0.253790373059634
 40
0.2594199860855761
 40
0.2653233568502991
 40
0.2710839425124185
 40
0.2765388230186894
 40
0.2816951969192891
 40
0.2865587762236765
 40
0.2911339463615396
 40
0.2956212819386317
 40
0.2997985737844364
 40
0.3036678265685344
 40
0.3072304108277745
 40
0.3104871896891738
 40
0.3135098690025481
 40
0.3184317491033529
 40
0.323829271688539
 40
0.3297071418718
 40
0.3360718085258433
 40
0.3429317958948426
 40
0.3486788280015249
 40
0.354731157111903
 40
0.3608652659650927
 40
0.3669108439878399
 40
0.3728736309408267
 40
0.3839539153344396
 40
0.3947764039272765
 40
0.4053615193888057
 40
0.4157267418119418
 40
0.4259104809114055
 40
0.4361031144248217
 40
0.4483786265928612
 40
0.4605864881652607
 40
0.4727399359454779
 40
0.4848657355416887
 40
0.4969896428383139
 40
0.5091375076917063
 40
0.5213359930016553
 40
0.5335976545159312
 40
0.5458114055987352
 40
0.5580366544000935
 40
0.5668460274312503
 40
0.5757307982041014
 40
0.5847016478404948
 40
0.5937699894184049
 40
0.6029480884979385
 40
0.6122450575710819
 40
0.6213778207161834
 40
0.6299684675254996
 40
0.6382149662686545
 40
0.646129096881401
 40
0.6537195443952586
 40
0.6594610372339573
 40
0.6650298037402869
 40
0.6707782069965212
 40
0.6768386833816804
 40
0.6841143385421674
 40
0.691781197440402
 40
0.6997917773305609
 40
0.7079877048108326
 40
0.7163312140036217
 40
0.7248327572146204
 40
0.7334839218665499
 40
0.7422470626678164
 40
0.7488669538265855
 40
0.7555368509799227
 40
0.7621668285172755
 40
0.7683469865974643
 40
0.7740044450719201
 40
0.7791465557041442
 40
0.7846295607388776
 40
0.7901868789952733
 40
0.7959903236240011
 40
0.8020935657074949
 40
0.8057884489837501
 40
0.8096490448833341
 40
0.8134573082265506
 40
0.8170075588092532
 40
0.8203625750827752
 40
0.8231774089982707
 40
0.8262162524430778
 40
0.8294484198070955
 40
0.8324183187562574
 40
0.8349741277120997
 40
0.83693044645735
 40
0.8392379172535761
 40
0.8419387817545894
 40
0.8449202860809254
 40
0.8475922014247977
 40
0.8498697944736623
 40
0.8517001178117141
 40
0.853730587755553
 40
0.8561068204351009
 40
0.8588299447510664
 40
0.86156381135154
 40
0.864291878691254
 40
0.8666234136371963
 40
0.8689326359072432
 40
0.8716803931878195
 40
0.873630273685915
 40
0.8755328354721805
 40
0.8771446212217306
 40
0.8784671315324872
 40
0.8795412527365879
 40
0.8809662523705735
 40
0.8825293790503606
 40
0.8842337672945619
 40
0.8862136345823962
 40
0.888539358218894
 40
0.8912110213695947
 40
0.8941012236843153
 40
0.8963383703642812
 40
0.898245485130225
 40
0.8998936615231057
 40
0.9016605492603548
 40
0.9036019366594606
 40
0.9057184511070308
 40
0.9079819861584102
 40
0.9101000630905322
 40
0.9124475685186296
 40
0.9144429369231794
 40
0.9162700711034039
 40
0.9183347221915191
 40
0.9206527240092852
 40
0.9253160505785488
 40
0.9301187157060391
 40
0.9350176379573474
 40
0.9398670349398206
 40
0.9428669706044882
 40
0.9458304952779367
 40
0.9487584530066278
 40
0.9515702348725023
 40
0.9540231195142784
 40
0.9560007807728723
 40
0.9576431260974867
 40
0.9589503700489214
 40
0.9595884237630561
 40
0.9604205467515086
 40
0.961565989138211
 40
0.9630248050666131
 40
0.9647971358170334
 40
0.9671547061000081
 40
0.9699066254532929
 40
0.9730540714463963
 40
0.9765988459490638
 40
0.9805435575773638
 40
0.9848106120258988
 40
0.9894715024855314
 40
0.9945321425418134
 40
1.0
 40
1.0
 40
1.0
 40
1.0
 10
-1048.59831657326
 20
-446.4452479368537
 30
0.0
 10
-1049.055301192244
 20
-449.2377537482368
 30
0.0
 10
-1049.931007979438
 20
-454.5889541841286
 30
0.0
 10
-1051.26554661552
 20
-461.9933928370314
 30
0.0
 10
-1052.529635679734
 20
-468.5597498686516
 30
0.0
 10
-1053.716741140533
 20
-474.327252563768
 30
0.0
 10
-1054.814421908635
 20
-479.3521563998231
 30
0.0
 10
-1055.812246070937
 20
-483.6801906631438
 30
0.0
 10
-1056.722224507558
 20
-487.443753432066
 30
0.0
 10
-1057.536693137801
 20
-490.6710071713956
 30
0.0
 10
-1058.275154657439
 20
-493.4880689796478
 30
0.0
 10
-1058.931912595451
 20
-495.9121047883195
 30
0.0
 10
-1059.53285478293
 20
-498.064099853597
 30
0.0
 10
-1060.084228881668
 20
-499.9850368951604
 30
0.0
 10
-1060.742096247108
 20
-502.2201366215608
 30
0.0
 10
-1061.593393439324
 20
-505.0152616971476
 30
0.0
 10
-1062.723930645556
 20
-508.5504227108592
 30
0.0
 10
-1064.220236109589
 20
-512.9641037870485
 30
0.0
 10
-1066.070633401535
 20
-518.003544478037
 30
0.0
 10
-1068.253407419996
 20
-523.3832882070946
 30
0.0
 10
-1070.555802553699
 20
-528.4833147296205
 30
0.0
 10
-1072.698841234517
 20
-532.7182395549781
 30
0.0
 10
-1074.597772160751
 20
-536.1101603182208
 30
0.0
 10
-1076.165059032334
 20
-538.6834964365447
 30
0.0
 10
-1077.421639102887
 20
-540.5872082890917
 30
0.0
 10
-1078.368991483474
 20
-541.9411806012325
 30
0.0
 10
-1079.116187246278
 20
-542.9674219457899
 30
0.0
 10
-1079.938606127557
 20
-544.0487641806228
 30
0.0
 10
-1080.889651758326
 20
-545.236199238735
 30
0.0
 10
-1081.934263200513
 20
-546.4622989317264
 30
0.0
 10
-1082.985959133101
 20
-547.6145655698168
 30
0.0
 10
-1083.950347616174
 20
-548.6018284048484
 30
0.0
 10
-1084.80794316095
 20
-549.4256984082317
 30
0.0
 10
-1085.616039637978
 20
-550.1582813657529
 30
0.0
 10
-1086.488602954914
 20
-550.9030293401471
 30
0.0
 10
-1087.538713127441
 20
-551.7343135022659
 30
0.0
 10
-1088.688414830901
 20
-552.5582491976218
 30
0.0
 10
-1089.829827070591
 20
-553.2871740190465
 30
0.0
 10
-1090.824288345139
 20
-553.8552248638817
 30
0.0
 10
-1091.678329218547
 20
-554.2948808766387
 30
0.0
 10
-1092.41530264823
 20
-554.6386724273013
 30
0.0
 10
-1093.070529554821
 20
-554.9176291618566
 30
0.0
 10
-1093.750495989783
 20
-555.1829739872957
 30
0.0
 10
-1094.586116125728
 20
-555.4741220641632
 30
0.0
 10
-1095.565116779247
 20
-555.7614212220609
 30
0.0
 10
-1096.544533898136
 20
-555.9934932095024
 30
0.0
 10
-1097.39526090398
 20
-556.1526037773351
 30
0.0
 10
-1098.1327787363
 20
-556.2628588836336
 30
0.0
 10
-1098.92175206795
 20
-556.3527418003055
 30
0.0
 10
-1099.856554321051
 20
-556.419907456207
 30
0.0
 10
-1100.938654612712
 20
-556.4472453837604
 30
0.0
 10
-1102.085352843741
 20
-556.417678476276
 30
0.0
 10
-1103.10741009255
 20
-556.3438022828866
 30
0.0
 10
-1103.972107230111
 20
-556.2487793027499
 30
0.0
 10
-1104.675781816779
 20
-556.1529141629456
 30
0.0
 10
-1105.427077414697
 20
-556.0355508589961
 30
0.0
 10
-1106.421936107467
 20
-555.8468348973274
 30
0.0
 10
-1107.660862149716
 20
-555.5625024379873
 30
0.0
 10
-1109.087760006093
 20
-555.1714140916255
 30
0.0
 10
-1110.485789651142
 20
-554.7275284804919
 30
0.0
 10
-1111.743215702552
 20
-554.2808066627308
 30
0.0
 10
-1112.853523795089
 20
-553.8505576381441
 30
0.0
 10
-1113.976421080309
 20
-553.3845732541027
 30
0.0
 10
-1115.261153540892
 20
-552.8132895798899
 30
0.0
 10
-1116.788562003193
 20
-552.0793485080944
 30
0.0
 10
-1118.433363278096
 20
-551.2248235093666
 30
0.0
 10
-1120.097280673926
 20
-550.2952332988818
 30
0.0
 10
-1121.690971571482
 20
-549.3470654943646
 30
0.0
 10
-1123.294970969221
 20
-548.339551295225
 30
0.0
 10
-1125.000221253946
 20
-547.2113818480698
 30
0.0
 10
-1126.887464257056
 20
-545.8943443651599
 30
0.0
 10
-1128.947095186041
 20
-544.3780977055685
 30
0.0
 10
-1131.778114134348
 20
-542.1790355788518
 30
0.0
 10
-1135.258374794437
 20
-539.2708568001343
 30
0.0
 10
-1139.312897951134
 20
-535.586991227724
 30
0.0
 10
-1143.174512118552
 20
-531.8197669360069
 30
0.0
 10
-1146.863737833428
 20
-527.9919313751471
 30
0.0
 10
-1150.464406722939
 20
-524.0473840766027
 30
0.0
 10
-1154.079405795223
 20
-519.885841249375
 30
0.0
 10
-1157.870347518324
 20
-515.307448694017
 30
0.0
 10
-1161.950336345338
 20
-510.1343883857856
 30
0.0
 10
-1166.385729485087
 20
-504.2200278357046
 30
0.0
 10
-1171.174562501783
 20
-497.4943235519743
 30
0.0
 10
-1175.928633995515
 20
-490.4529522996477
 30
0.0
 10
-1180.601258283466
 20
-483.1880158484894
 30
0.0
 10
-1185.14307824423
 20
-475.805232941623
 30
0.0
 10
-1189.770168605127
 20
-467.9339436983786
 30
0.0
 10
-1194.313223164781
 20
-459.8509605810711
 30
0.0
 10
-1198.617841430044
 20
-451.8603745462432
 30
0.0
 10
-1202.64640680183
 20
-444.0805346599478
 30
0.0
 10
-1206.406669114011
 20
-436.5467199916254
 30
0.0
 10
-1209.956185471534
 20
-429.1851291475608
 30
0.0
 10
-1213.293200442039
 20
-422.0311447291787
 30
0.0
 10
-1216.415995784143
 20
-415.1208191945523
 30
0.0
 10
-1219.275470636637
 20
-408.6038535338454
 30
0.0
 10
-1221.879044292684
 20
-402.5058991625286
 30
0.0
 10
-1224.250909451179
 20
-396.8092831492773
 30
0.0
 10
-1226.923453521251
 20
-390.2398009786984
 30
0.0
 10
-1230.060509892072
 20
-382.2968813810134
 30
0.0
 10
-1233.791779381691
 20
-372.4735344281226
 30
0.0
 10
-1237.758200161399
 20
-361.5683471875113
 30
0.0
 10
-1241.932823042255
 20
-349.5257885094745
 30
0.0
 10
-1245.943068128202
 20
-337.327481873913
 30
0.0
 10
-1249.752725283018
 20
-325.1172279139849
 30
0.0
 10
-1253.289296392476
 20
-313.199101433315
 30
0.0
 10
-1256.747709703848
 20
-300.9000593232086
 30
0.0
 10
-1260.047505614768
 20
-288.4885321658497
 30
0.0
 10
-1264.063982251403
 20
-272.4870234725119
 30
0.0
 10
-1268.590082746472
 20
-252.8374666614674
 30
0.0
 10
-1273.3594544291
 20
-229.4738130546858
 30
0.0
 10
-1277.517624052636
 20
-206.2331977871125
 30
0.0
 10
-1281.090854496239
 20
-183.1286760083841
 30
0.0
 10
-1284.116808678113
 20
-160.0313609537732
 30
0.0
 10
-1286.787734671855
 20
-135.2427020201372
 30
0.0
 10
-1288.976084709764
 20
-108.662512763105
 30
0.0
 10
-1290.52570421401
 20
-80.35141271414521
 30
0.0
 10
-1291.302439658104
 20
-51.99225949541209
 30
0.0
 10
-1291.308147233885
 20
-23.5973660661527
 30
0.0
 10
-1290.539804826315
 20
4.832901101152109
 30
0.0
 10
-1288.994628110276
 20
33.29832089819551
 30
0.0
 10
-1286.666578005535
 20
61.78805982060174
 30
0.0
 10
-1283.560903975691
 20
90.18347170164613
 30
0.0
 10
-1279.691403305386
 20
118.3920790029801
 30
0.0
 10
-1275.509075006794
 20
143.7029341996689
 30
0.0
 10
-1271.236638750172
 20
166.2441328649691
 30
0.0
 10
-1267.055802435779
 20
186.1354678601303
 30
0.0
 10
-1262.463348674045
 20
205.9926236856076
 30
0.0
 10
-1257.453622478725
 20
225.8097059982996
 30
0.0
 10
-1252.021459359548
 20
245.5763756956495
 30
0.0
 10
-1246.221718552797
 20
265.0718503176823
 30
0.0
 10
-1240.216762211898
 20
283.8087154187471
 30
0.0
 10
-1234.159543543577
 20
301.4680801624743
 30
0.0
 10
-1228.14255632656
 20
317.9613509798943
 30
0.0
 10
-1222.157662294605
 20
333.4553368651217
 30
0.0
 10
-1216.635987614358
 20
347.0117777871021
 30
0.0
 10
-1211.604727084559
 20
358.8295208140605
 30
0.0
 10
-1206.982456958254
 20
369.295256562382
 30
0.0
 10
-1202.177259674337
 20
379.7804477415119
 30
0.0
 10
-1196.79257811832
 20
391.0869070882715
 30
0.0
 10
-1190.741166532605
 20
403.2560420792573
 30
0.0
 10
-1183.989442379099
 20
416.1974901259874
 30
0.0
 10
-1176.822600263735
 20
429.2619098626637
 30
0.0
 10
-1169.366864376208
 20
442.1692860872896
 30
0.0
 10
-1161.695026009416
 20
454.7599325107968
 30
0.0
 10
-1153.838016792175
 20
466.9623185806857
 30
0.0
 10
-1145.827886223576
 20
478.7026003051695
 30
0.0
 10
-1138.387440250051
 20
488.9628285754332
 30
0.0
 10
-1131.573250868747
 20
497.8449481071453
 30
0.0
 10
-1125.439623187091
 20
505.442165728749
 30
0.0
 10
-1119.475206208829
 20
512.4432015484629
 30
0.0
 10
-1113.864696454686
 20
518.6742321606632
 30
0.0
 10
-1108.756524365638
 20
524.0462012268499
 30
0.0
 10
-1103.913863130738
 20
528.8756612269558
 30
0.0
 10
-1099.170409920915
 20
533.3502807603587
 30
0.0
 10
-1094.324594605597
 20
537.64407123975
 30
0.0
 10
-1089.399497838937
 20
541.711024610309
 30
0.0
 10
-1085.09821596973
 20
544.9822401303812
 30
0.0
 10
-1081.448197263185
 20
547.5575491172452
 30
0.0
 10
-1078.477739462095
 20
549.5242229480563
 30
0.0
 10
-1075.608736131696
 20
551.2941421217246
 30
0.0
 10
-1072.931622063662
 20
552.8262101497953
 30
0.0
 10
-1070.559465249801
 20
554.0814197271491
 30
0.0
 10
-1068.390666327321
 20
555.1434133931607
 30
0.0
 10
-1066.311340176633
 20
556.0822058018811
 30
0.0
 10
-1064.255988240772
 20
556.923585403143
 30
0.0
 10
-1062.357535322843
 20
557.6189212058395
 30
0.0
 10
-1060.779682056188
 20
558.1341164613007
 30
0.0
 10
-1059.391719043113
 20
558.5412946714383
 30
0.0
 10
-1058.041097542859
 20
558.8950607672044
 30
0.0
 10
-1056.541601638752
 20
559.2321985198424
 30
0.0
 10
-1055.015720869019
 20
559.5084671197934
 30
0.0
 10
-1053.615760363205
 20
559.6983591903262
 30
0.0
 10
-1052.462338753972
 20
559.8068448767631
 30
0.0
 10
-1051.481718020441
 20
559.8656864111935
 30
0.0
 10
-1050.493578717161
 20
559.892492482982
 30
0.0
 10
-1049.367881969188
 20
559.8781966528152
 30
0.0
 10
-1048.122590055169
 20
559.8007744390123
 30
0.0
 10
-1046.883162974352
 20
559.6549049221134
 30
0.0
 10
-1045.777873192165
 20
559.4615918945299
 30
0.0
 10
-1044.828410803297
 20
559.2452992218498
 30
0.0
 10
-1043.91870055171
 20
558.9965161115979
 30
0.0
 10
-1043.028278591509
 20
558.7060685032313
 30
0.0
 10
-1042.199014899111
 20
558.3913722277283
 30
0.0
 10
-1041.523606080901
 20
558.1048447278001
 30
0.0
 10
-1040.940371008909
 20
557.8333800797391
 30
0.0
 10
-1040.462867723779
 20
557.5947855635128
 30
0.0
 10
-1040.008647413842
 20
557.3549386578319
 30
0.0
 10
-1039.514885187926
 20
557.0792242170872
 30
0.0
 10
-1038.937189013292
 20
556.7345008688501
 30
0.0
 10
-1038.287119839401
 20
556.318543427844
 30
0.0
 10
-1037.535618456682
 20
555.7998525296003
 30
0.0
 10
-1036.664216748585
 20
555.1451874957403
 30
0.0
 10
-1035.687723766671
 20
554.340282011034
 30
0.0
 10
-1034.735553319982
 20
553.4759323800024
 30
0.0
 10
-1033.888303937286
 20
552.6404842014558
 30
0.0
 10
-1033.194211826485
 20
551.9113537168829
 30
0.0
 10
-1032.555034701078
 20
551.2041210513131
 30
0.0
 10
-1031.888640926812
 20
550.4287961180985
 30
0.0
 10
-1031.151632052546
 20
549.5226545834928
 30
0.0
 10
-1030.343845754527
 20
548.4690088285445
 30
0.0
 10
-1029.509304781551
 20
547.309689850426
 30
0.0
 10
-1028.658620827807
 20
546.0527764601684
 30
0.0
 10
-1027.853185958465
 20
544.7882444459588
 30
0.0
 10
-1027.093233818308
 20
543.5243209926812
 30
0.0
 10
-1026.371878671308
 20
542.2632954990863
 30
0.0
 10
-1025.616209367133
 20
540.8742960362664
 30
0.0
 10
-1024.529820147907
 20
538.7628859820218
 30
0.0
 10
-1023.148627589116
 20
535.8356824881524
 30
0.0
 10
-1021.515598760146
 20
531.9518578630597
 30
0.0
 10
-1019.921892026214
 20
527.6917913756646
 30
0.0
 10
-1018.594950004953
 20
523.7103197775168
 30
0.0
 10
-1017.516815483143
 20
520.1651145498805
 30
0.0
 10
-1016.660020654208
 20
517.1447881309405
 30
0.0
 10
-1015.850201457527
 20
514.0868618674588
 30
0.0
 10
-1015.114659287394
 20
511.116272332598
 30
0.0
 10
-1014.487896539923
 20
508.4236249790818
 30
0.0
 10
-1013.978194861023
 20
506.1169131631329
 30
0.0
 10
-1013.574909161845
 20
504.2122231524609
 30
0.0
 10
-1013.287011264585
 20
502.8042038627898
 30
0.0
 10
-1013.066724589986
 20
501.7016163179782
 30
0.0
 10
-1012.860331360802
 20
500.6502162274875
 30
0.0
 10
-1012.592836762299
 20
499.2546300386635
 30
0.0
 10
-1012.258745777469
 20
497.455688759294
 30
0.0
 10
-1011.842979771889
 20
495.1269853517016
 30
0.0
 10
-1011.348233583931
 20
492.2116234940624
 30
0.0
 10
-1010.78011066892
 20
488.6449829948466
 30
0.0
 10
-1010.163803817447
 20
484.4766804170492
 30
0.0
 10
-1009.512031580822
 20
479.6706078099198
 30
0.0
 10
-1008.843402910872
 20
474.2235188878653
 30
0.0
 10
-1008.171815554362
 20
468.1018158925212
 30
0.0
 10
-1007.513520194046
 20
461.263585505956
 30
0.0
 10
-1006.873432112264
 20
453.6442884752747
 30
0.0
 10
-1006.50346987631
 20
448.170927825372
 30
0.0
 10
-1006.311334125855
 20
445.3283991730369
 30
0.0
  0
SPLINE
  5
90
330
1F
100
AcDbEntity
  8
0
  6
Continuous
 62
     7
370
    15
100
AcDbSpline
210
0.0
220
0.0
230
1.0
 70
     8
 71
     3
 72
    43
 73
    39
 74
     0
 42
0.000000001
 43
0.00000001
 40
0.0
 40
0.0
 40
0.0
 40
0.0
 40
0.0347848763879249
 40
0.0674654497487084
 40
0.0980420301043663
 40
0.1265144769594665
 40
0.1528822907099669
 40
0.17672990785917
 40
0.1985457254377921
 40
0.2183287134602173
 40
0.2360777666161142
 40
0.2546520578423957
 40
0.2725301416911668
 40
0.2905555211625022
 40
0.3087285569048813
 40
0.3270496231770578
 40
0.3455191081500022
 40
0.4125601334692941
 40
0.4799692152861302
 40
0.5473933344760151
 40
0.5903209062402466
 40
0.6332716621260921
 40
0.6762133629256888
 40
0.7178378293004616
 40
0.7573988074537774
 40
0.7948979216692109
 40
0.8057462504194374
 40
0.8177526527901128
 40
0.8311629614761251
 40
0.845977132186562
 40
0.8621951417101252
 40
0.8794900100820204
 40
0.8981393024961868
 40
0.918144707690836
 40
0.9395067119823086
 40
0.9667066511890126
 40
0.9958294960650245
 40
1.0
 40
1.0
 40
1.0
 40
1.0
 10
1032.61211904575
 20
-446.4844918028675
 30
0.0
 10
1032.058161188503
 20
-441.9231022033949
 30
0.0
 10
1030.983757026065
 20
-433.0762632100465
 30
0.0
 10
1029.591491655144
 20
-420.2081157418423
 30
0.0
 10
1028.395683017799
 20
-408.1623987118982
 30
0.0
 10
1027.384577485384
 20
-396.9404816468446
 30
0.0
 10
1026.538116177773
 20
-386.5990562751954
 30
0.0
 10
1025.834800434629
 20
-377.1300213825684
 30
0.0
 10
1025.254686109546
 20
-368.5249489775233
 30
0.0
 10
1024.777400069463
 20
-360.7207233821688
 30
0.0
 10
1024.36780729676
 20
-353.3421609278361
 30
0.0
 10
1024.011078652552
 20
-346.2139845471052
 30
0.0
 10
1023.691829686293
 20
-339.0491550359621
 30
0.0
 10
1023.413373907353
 20
-331.9368604464658
 30
0.0
 10
1023.171737542413
 20
-324.7662841050337
 30
0.0
 10
1022.967895925108
 20
-317.5374608465563
 30
0.0
 10
1022.658583550361
 20
-303.882216575238
 30
0.0
 10
1022.462516112736
 20
-283.7746985679888
 30
0.0
 10
1022.742919346487
 20
-257.2470050223907
 30
0.0
 10
1023.466218067165
 20
-233.9112551837951
 30
0.0
 10
1024.426093563147
 20
-213.8091148133431
 30
0.0
 10
1025.452317058748
 20
-196.9345934149203
 30
0.0
 10
1026.685382211853
 20
-180.2503081152847
 30
0.0
 10
1028.09620571544
 20
-164.0314153305473
 30
0.0
 10
1029.639357744452
 20
-148.5461459078786
 30
0.0
 10
1030.919648758452
 20
-137.0937556833975
 30
0.0
 10
1031.858065525722
 20
-129.2392095040464
 30
0.0
 10
1032.438806580443
 20
-124.5222591705499
 30
0.0
 10
1033.103914938961
 20
-119.2926665700699
 30
0.0
 10
1033.864291637712
 20
-113.5195501297204
 30
0.0
 10
1034.72184151122
 20
-107.2465975802004
 30
0.0
 10
1035.68335649014
 20
-100.4815225800764
 30
0.0
 10
1036.755945163815
 20
-93.2319209052032
 30
0.0
 10
1037.954852526794
 20
-85.46337289773392
 30
0.0
 10
1039.381350228261
 20
-76.59771079450482
 30
0.0
 10
1041.085567252235
 20
-66.56891630257816
 30
0.0
 10
1042.454874989554
 20
-58.76693285053473
 30
0.0
 10
1043.265627619536
 20
-54.48408134764338
 30
0.0
 10
1043.36718685447
 20
-53.9475883337646
 30
0.0
  0
SPLINE
  5
91
330
1F
100
AcDbEntity
  8
0
  6
Continuous
 62
     7
370
    15
100
AcDbSpline
210
0.0
220
0.0
230
1.0
 70
     8
 71
     3
 72
    42
 73
    38
 74
     0
 42
0.000000001
 43
0.00000001
 40
0.0
 40
0.0
 40
0.0
 40
0.0
 40
0.0080153478900032
 40
0.0323289539504399
 40
0.0545942990672102
 40
0.0748117187554778
 40
0.0929816375470235
 40
0.111990969425683
 40
0.1301143514759684
 40
0.1483888006737483
 40
0.1668143977251969
 40
0.1853912256284471
 40
0.2041193696303022
 40
0.2721307574800009
 40
0.3406053803113299
 40
0.409074441715321
 40
0.4526164765071622
 40
0.4961455802965589
 40
0.5396587191145459
 40
0.5819620705494868
 40
0.6221785170173695
 40
0.6603158579851035
 40
0.6712670240211497
 40
0.683258130539273
 40
0.6966877969710148
 40
0.7115551946504871
 40
0.7278594708907217
 40
0.7452703898981401
 40
0.7640657045093707
 40
0.784244653470258
 40
0.8058065333315579
 40
0.8332777126014151
 40
0.8627070913655682
 40
0.894094060222147
 40
0.9274383483624908
 40
0.9627401081727757
 40
0.9999999999999999
 40
0.9999999999999999
 40
0.9999999999999999
 40
0.9999999999999999
 10
1012.890559679366
 20
-53.99999999999828
 30
0.0
 10
1012.699905010474
 20
-55.04311055664276
 30
0.0
 10
1011.930922042343
 20
-59.25037312512539
 30
0.0
 10
1010.709538815366
 20
-66.36927675510191
 30
0.0
 10
1009.259173072357
 20
-75.08662915271525
 30
0.0
 10
1007.999825551284
 20
-83.0117348937864
 30
0.0
 10
1006.852130843085
 20
-90.51828603146336
 30
0.0
 10
1005.78866972835
 20
-97.75713405312676
 30
0.0
 10
1004.765085708594
 20
-105.015862788781
 30
0.0
 10
1003.792932899329
 20
-112.2041398388501
 30
0.0
 10
1002.85399051044
 20
-119.457714482128
 30
0.0
 10
1001.949222566963
 20
-126.7765610194667
 30
0.0
 10
1000.3191349315
 20
-140.6177604043441
 30
0.0
 10
998.1893142240098
 20
-161.051492386325
 30
0.0
 10
995.9409490555471
 20
-188.0943705432217
 30
0.0
 10
994.4551248398586
 20
-211.9527393300969
 30
0.0
 10
993.5212408898154
 20
-232.5383679742151
 30
0.0
 10
992.9634188365536
 20
-249.8349513889308
 30
0.0
 10
992.634513025297
 20
-266.9786722645796
 30
0.0
 10
992.5285083143341
 20
-283.6915673551152
 30
0.0
 10
992.6240573312094
 20
-299.6969364225917
 30
0.0
 10
992.8329366275959
 20
-311.5456894728344
 30
0.0
 10
993.0348546861943
 20
-319.650000754819
 30
0.0
 10
993.1715110109408
 20
-324.4758789402408
 30
0.0
 10
993.3430135188302
 20
-329.8212248276459
 30
0.0
 10
993.5576622365417
 20
-335.7386373515087
 30
0.0
 10
993.8211785764059
 20
-342.1839542873069
 30
0.0
 10
994.1406854074037
 20
-349.149917461707
 30
0.0
 10
994.5237087406409
 20
-356.6292113711256
 30
0.0
 10
994.9810133396415
 20
-364.6581360730101
 30
0.0
 10
995.5601970593004
 20
-373.836277010107
 30
0.0
 10
996.2916196493887
 20
-384.2387605606754
 30
0.0
 10
997.2123148738541
 20
-395.9401746585116
 30
0.0
 10
998.3050387983761
 20
-408.4151293084844
 30
0.0
 10
999.5948393249514
 20
-421.6613026017071
 30
0.0
 10
1001.091613326228
 20
-435.6774254023804
 30
0.0
 10
1002.248657084911
 20
-445.2712149446623
 30
0.0
 10
1002.842790822428
 20
-450.1975576131608
 30
0.0
  0
SPLINE
  5
92
330
1F
100
AcDbEntity
  8
0
  6
Continuous
 62
     7
370
    15
100
AcDbSpline
210
0.0
220
0.0
230
1.0
 70
     8
 71
     3
 72
    42
 73
    38
 74
     0
 42
0.000000001
 43
0.00000001
 40
0.0
 40
0.0
 40
0.0
 40
0.0
 40
0.0345268899804995
 40
0.0669644838763267
 40
0.0973130945356921
 40
0.1255725996114282
 40
0.1517425276298545
 40
0.1754104805209893
 40
0.1970612219293651
 40
0.2166937548200595
 40
0.2343070067957445
 40
0.2527394638792842
 40
0.2704848116049514
 40
0.2883763996767981
 40
0.3064145853648228
 40
0.3245997398935906
 40
0.3429322487749841
 40
0.4094754093074717
 40
0.4763804990596582
 40
0.5432976434121252
 40
0.5858990933658161
 40
0.6285202982046262
 40
0.6711397384135973
 40
0.7124565134448142
 40
0.751723976085803
 40
0.7889431972260857
 40
0.801028049999025
 40
0.8146101217771425
 40
0.8299271647485754
 40
0.8469791821883491
 40
0.8657662093049839
 40
0.8862883244547327
 40
0.908545696666605
 40
0.932539571659157
 40
0.9595400209174395
 40
0.988449429937731
 40
1.0
 40
1.0
 40
1.0
 40
1.0
 10
992.4230401342337
 20
449.2338351949095
 30
0.0
 10
991.9780112521322
 20
444.6652288727051
 30
0.0
 10
991.1148831390351
 20
435.8044723848394
 30
0.0
 10
990.0231927749928
 20
422.9199328844651
 30
0.0
 10
989.1047391278328
 20
410.8612604249005
 30
0.0
 10
988.3482882740109
 20
399.6294585824288
 30
0.0
 10
987.7335289963563
 20
389.2806262803944
 30
0.0
 10
987.2399649300958
 20
379.8061535914701
 30
0.0
 10
986.8485085656879
 20
371.1971756081763
 30
0.0
 10
986.5407460441847
 20
363.3901421442998
 30
0.0
 10
986.2901172228096
 20
356.0093744868717
 30
0.0
 10
986.085732532666
 20
348.8783634088907
 30
0.0
 10
985.9184473993412
 20
341.7106264335287
 30
0.0
 10
985.7897485553052
 20
334.5956189178945
 30
0.0
 10
985.6980260245632
 20
327.4229269000584
 30
0.0
 10
985.6442592734917
 20
320.1926034958818
 30
0.0
 10
985.6164838583203
 20
306.5358016115532
 30
0.0
 10
985.8284909560984
 20
286.4303987560147
 30
0.0
 10
986.6352103902005
 20
259.9150444409466
 30
0.0
 10
987.8120557382738
 20
236.5984514160297
 30
0.0
 10
989.1567398544757
 20
216.5188657858813
 30
0.0
 10
990.5025961084431
 20
199.666382881673
 30
0.0
 10
992.0484643513465
 20
183.005661888126
 30
0.0
 10
993.7593436224882
 20
166.8102339055805
 30
0.0
 10
995.5850661386318
 20
151.3487833414381
 30
0.0
 10
997.0935666904514
 20
139.7426719363888
 30
0.0
 10
998.2269213066124
 20
131.5115903441553
 30
0.0
 10
998.9867498151915
 20
126.1501647987525
 30
0.0
 10
999.8654390530342
 20
120.1428979989015
 30
0.0
 10
1000.877063478771
 20
113.4603132661954
 30
0.0
 10
1002.032429510615
 20
106.1043250852927
 30
0.0
 10
1003.343351269258
 20
98.07709578758991
 30
0.0
 10
1004.823287868477
 20
89.38106135413197
 30
0.0
 10
1006.514090838102
 20
79.8534269622713
 30
0.0
 10
1008.447586993132
 20
69.47745269446376
 30
0.0
 10
1010.136533472116
 20
60.72813936005257
 30
0.0
 10
1011.214917828437
 20
55.49419389613936
 30
0.0
 10
1011.522776466632
 20
54.00000000000158
 30
0.0
  0
SPLINE
  5
93
330
1F
100
AcDbEntity
  8
0
  6
Continuous
 62
     7
370
    15
100
AcDbSpline
210
0.0
220
0.0
230
1.0
 70
     8
 71
     3
 72
    42
 73
    38
 74
     0
 42
0.000000001
 43
0.00000001
 40
0.0
 40
0.0
 40
0.0
 40
0.0
 40
0.0182788156520699
 40
0.0441537208556773
 40
0.0675733986015489
 40
0.089019198584637
 40
0.1084920937597859
 40
0.1259930304590403
 40
0.144303769118878
 40
0.1617671461617806
 40
0.1793762511450269
 40
0.1971311867634802
 40
0.2150320582374937
 40
0.2330789732451096
 40
0.2986182181636555
 40
0.3646056340022156
 40
0.4305645494503891
 40
0.4725142682765116
 40
0.5144539168943864
 40
0.5563798401318149
 40
0.5971374770524555
 40
0.6358847128567079
 40
0.672628432568945
 40
0.6831817721457211
 40
0.6947425902107113
 40
0.707689036098275
 40
0.722020362651629
 40
0.7377357993865331
 40
0.7604072701566842
 40
0.7854492478899376
 40
0.812860142537113
 40
0.8393348204082747
 40
0.8676960671522811
 40
0.8979432951103927
 40
0.9300762203166364
 40
0.964094937713368
 40
1.0
 40
1.0
 40
1.0
 40
1.0
 10
1042.128153677713
 20
53.99999999999959
 30
0.0
 10
1041.63810497012
 20
56.34260037901601
 30
0.0
 10
1040.454359028772
 20
62.00131072329269
 30
0.0
 10
1038.741357057498
 20
70.68271384619919
 30
0.0
 10
1037.008574734464
 20
79.78341216461759
 30
0.0
 10
1035.495111263115
 20
88.07316317900033
 30
0.0
 10
1034.169514021985
 20
95.60991897840096
 30
0.0
 10
1032.957184758862
 20
102.7503860724712
 30
0.0
 10
1031.827904951851
 20
109.6389902542621
 30
0.0
 10
1030.735394780015
 20
116.5486893025228
 30
0.0
 10
1029.692096749262
 20
123.3929261882611
 30
0.0
 10
1028.678539273977
 20
130.3002908050583
 30
0.0
 10
1027.695580496705
 20
137.2707681860076
 30
0.0
 10
1025.912009321428
 20
150.4551915537742
 30
0.0
 10
1023.536259181272
 20
169.9256704727401
 30
0.0
 10
1020.921339798876
 20
195.7026757204414
 30
0.0
 10
1019.073347177487
 20
218.4532570803029
 30
0.0
 10
1017.801288323379
 20
238.0883940673781
 30
0.0
 10
1016.942628624381
 20
254.5921809686041
 30
0.0
 10
1016.299509101211
 20
270.9548131676743
 30
0.0
 10
1015.872136214459
 20
286.9108324881767
 30
0.0
 10
1015.646407010486
 20
302.1954960681461
 30
0.0
 10
1015.608175967824
 20
313.5142419180281
 30
0.0
 10
1015.637209198943
 20
321.2584164068718
 30
0.0
 10
1015.669871711428
 20
325.8720840020471
 30
0.0
 10
1015.724916592239
 20
330.9835330555342
 30
0.0
 10
1015.809084259392
 20
336.6424088114381
 30
0.0
 10
1015.943661571499
 20
343.5820296690596
 30
0.0
 10
1016.153782151827
 20
351.9324105789433
 30
0.0
 10
1016.473550533463
 20
361.8232426299438
 30
0.0
 10
1016.891344565626
 20
372.2150775935988
 30
0.0
 10
1017.414151383646
 20
383.0435167428335
 30
0.0
 10
1018.047197679148
 20
394.2443505237904
 30
0.0
 10
1018.827085707729
 20
406.1881472021129
 30
0.0
 10
1019.777694250607
 20
418.8732574754505
 30
0.0
 10
1020.908544316846
 20
432.2986544742752
 30
0.0
 10
1021.808355270527
 20
441.4911684488774
 30
0.0
 10
1022.270397918743
 20
446.2114193895936
 30
0.0
  0
SPLINE
  5
94
330
1F
100
AcDbEntity
  8
0
  6
Continuous
 62
     7
370
    15
100
AcDbSpline
210
0.0
220
0.0
230
1.0
 70
     8
 71
     3
 72
   266
 73
   262
 74
     0
 42
0.000000001
 43
0.00000001
 40
0.0
 40
0.0
 40
0.0
 40
0.0
 40
0.0054218477112001
 40
0.0103901082830787
 40
0.014910038089324
 40
0.0189854930180096
 40
0.0226191596316416
 40
0.0258127773597257
 40
0.0285673488252452
 40
0.031085885810238
 40
0.0331945365571327
 40
0.0351137008357996
 40
0.0368483904026421
 40
0.0383985687875096
 40
0.0398760214880356
 40
0.042604156972973
 40
0.0458544029791662
 40
0.0496303602129541
 40
0.0569939794627543
 40
0.0645971591051134
 40
0.0722816526720334
 40
0.0752791700691565
 40
0.0782277470778539
 40
0.0809325619607634
 40
0.0833122863308548
 40
0.0849556408770441
 40
0.0866664146059659
 40
0.0886515216892227
 40
0.0909111002247178
 40
0.0931534139962899
 40
0.0953510919903063
 40
0.0973773612399668
 40
0.0992323342635923
 40
0.1009160480058079
 40
0.1026543923611869
 40
0.1047138206364518
 40
0.1070956538066234
 40
0.1104299691728847
 40
0.1133243505070862
 40
0.1157599535952368
 40
0.1177920439232662
 40
0.1196241391361456
 40
0.1212740465398212
 40
0.1225921364123615
 40
0.124281865103532
 40
0.126357146580811
 40
0.128676354541706
 40
0.1307985528878815
 40
0.1326907065385073
 40
0.1346934263646381
 40
0.1368067482692102
 40
0.1392286460054991
 40
0.1419575478001026
 40
0.1447739823749958
 40
0.1472554324072206
 40
0.1493932189211347
 40
0.1512519746329576
 40
0.1531161964526999
 40
0.1552613776039488
 40
0.1576876521169116
 40
0.1602471397699699
 40
0.1625446349871207
 40
0.164559229931677
 40
0.1662914303508559
 40
0.168733944874824
 40
0.171585138766449
 40
0.1748032582360694
 40
0.1779250610003249
 40
0.1808237523743637
 40
0.1834546251201341
 40
0.1861999073763244
 40
0.1893271735895381
 40
0.1928391303777108
 40
0.19509266722642
 40
0.1970823413627669
 40
0.1987475240138917
 40
0.200090202237822
 40
0.2011370002548823
 40
0.2022621871539776
 40
0.2044379201381784
 40
0.2071102190603747
 40
0.2102773358784181
 40
0.2162838040431437
 40
0.2220697439544485
 40
0.2276412630481108
 40
0.2347755959775671
 40
0.2415431361585607
 40
0.2480243766006068
 40
0.2546820589122741
 40
0.2616886665900907
 40
0.2689133967012578
 40
0.276360703658064
 40
0.2840406397861994
 40
0.291962814539445
 40
0.2983105745403073
 40
0.3044418364257818
 40
0.3103054407470334
 40
0.3159029564803602
 40
0.3212241726062998
 40
0.3275668609981365
 40
0.3334353106426276
 40
0.338836595481222
 40
0.3439442549749839
 40
0.3492871359150387
 40
0.3548026351404956
 40
0.3605865906658623
 40
0.3666426647508844
 40
0.3729754191904714
 40
0.3797143811363957
 40
0.3867542621648085
 40
0.394025979660463
 40
0.4012545207259683
 40
0.40841162426345
 40
0.4176861454050996
 40
0.4268615963007565
 40
0.4359497182697539
 40
0.4461847194050326
 40
0.4563398474427403
 40
0.4665058922869114
 40
0.4767122423975718
 40
0.4868789662306405
 40
0.4970056506007177
 40
0.5071074360461242
 40
0.5171989840951148
 40
0.5272938462024912
 40
0.5374061136986114
 40
0.547550877509968
 40
0.5577443050528745
 40
0.5664917495898697
 40
0.5751981700620383
 40
0.5839256086176853
 40
0.5928434394497504
 40
0.601972001228725
 40
0.6113224173722634
 40
0.6209079511849116
 40
0.6273050804699479
 40
0.633814133666753
 40
0.6404406141158998
 40
0.6471750808257556
 40
0.6536560584713483
 40
0.6597183357458692
 40
0.6650575450899936
 40
0.6700372346238364
 40
0.6746618079682386
 40
0.6789346956745511
 40
0.6828584812964339
 40
0.6861625577864853
 40
0.6896782133952298
 40
0.6935403401779136
 40
0.697750288249998
 40
0.7023101685308997
 40
0.7072230474347247
 40
0.7124047240746216
 40
0.7220987489831141
 40
0.7320489556506565
 40
0.7422024092098867
 40
0.7474936835019006
 40
0.7523606800621226
 40
0.7568063342679716
 40
0.7608349166689482
 40
0.7631551220801469
 40
0.7653481295042662
 40
0.7677611356149636
 40
0.7704818083405097
 40
0.7735108382342084
 40
0.7758638440274823
 40
0.7783753358747133
 40
0.7810461485686897
 40
0.7838774975174818
 40
0.7868293124357612
 40
0.7895600274567497
 40
0.7919924401266889
 40
0.7936936596795898
 40
0.7952095170092752
 40
0.7965394740638488
 40
0.7976830157374146
 40
0.7986396666285259
 40
0.7994487605249627
 40
0.8004983581003173
 40
0.8019791926607023
 40
0.8038422552633729
 40
0.8060838078556942
 40
0.8083636783757259
 40
0.8104836059577613
 40
0.8124394899310602
 40
0.8151734603932635
 40
0.8175609433600489
 40
0.8200779439052622
 40
0.8225138154289776
 40
0.8251274046765201
 40
0.827815729134995
 40
0.8302455393440524
 40
0.8323921561126602
 40
0.8343365686276837
 40
0.8362365660849447
 40
0.8384209114534558
 40
0.8408898271340649
 40
0.8434294561925507
 40
0.8456896458583135
 40
0.8476653525074532
 40
0.8493606834444948
 40
0.8513092204463347
 40
0.8535959824150541
 40
0.8562218959257449
 40
0.8590341478789726
 40
0.8615748560591708
 40
0.8636175845601659
 40
0.8654122567645195
 40
0.8672615998246203
 40
0.8693839098233731
 40
0.871780895045188
 40
0.8737519346239063
 40
0.8754666747843624
 40
0.876901462098895
 40
0.8780552831737399
 40
0.879142239085651
 40
0.8806752002352675
 40
0.8823708562228041
 40
0.8842443047980597
 40
0.8863821624392464
 40
0.888796390501273
 40
0.8914858368291604
 40
0.8942472897489777
 40
0.8966445038245635
 40
0.8986642565807357
 40
0.9005881059856344
 40
0.9027343009265868
 40
0.9051029569082825
 40
0.9076789612517284
 40
0.910114775489208
 40
0.9124648962805203
 40
0.9144707773768452
 40
0.9162980722526292
 40
0.9183579794165266
 40
0.9206701804983024
 40
0.9253434978965368
 40
0.930183381586718
 40
0.935138080357163
 40
0.9400423990850719
 40
0.9430605016767611
 40
0.9460276821943032
 40
0.9489449651654114
 40
0.951756884179452
 40
0.954225135415886
 40
0.9562224980994141
 40
0.9578904248371172
 40
0.9592298577836419
 40
0.9598778785045234
 40
0.9606644005847048
 40
0.9617709092373189
 40
0.9631970560857543
 40
0.9649424559117185
 40
0.9672758544058243
 40
0.9700088451427069
 40
0.9731415904724252
 40
0.9766746021594732
 40
0.9806089347659042
 40
0.9848654173065874
 40
0.9895134147746639
 40
0.9945566278538995
 40
1.0
 40
1.0
 40
1.0
 40
1.0
 10
1002.843610842393
 20
-450.2041072468928
 30
0.0
 10
1003.230011763037
 20
-453.2116055733521
 30
0.0
 10
1003.970487633997
 20
-458.974997490196
 30
0.0
 10
1005.128214461139
 20
-466.965512335973
 30
0.0
 10
1006.241542474541
 20
-474.0585138255687
 30
0.0
 10
1007.301037175446
 20
-480.290356756379
 30
0.0
 10
1008.290150773458
 20
-485.7151770769798
 30
0.0
 10
1009.194881429247
 20
-490.376680042044
 30
0.0
 10
1010.02181141484
 20
-494.4117024459997
 30
0.0
 10
1010.763607331801
 20
-497.8605893082153
 30
0.0
 10
1011.437755443899
 20
-500.8647997898848
 30
0.0
 10
1012.047339231759
 20
-503.4818658464765
 30
0.0
 10
1012.611311270622
 20
-505.8220238266524
 30
0.0
 10
1013.139615624453
 20
-507.9476693086916
 30
0.0
 10
1013.793101187695
 20
-510.5026517021941
 30
0.0
 10
1014.662288153316
 20
-513.7674755074634
 30
0.0
 10
1015.841629864836
 20
-517.9494157592629
 30
0.0
 10
1017.65270733328
 20
-523.9482483590347
 30
0.0
 10
1020.167864689457
 20
-531.4202967215725
 30
0.0
 10
1023.478573118947
 20
-539.8868209854602
 30
0.0
 10
1026.386282534849
 20
-546.2376516432993
 30
0.0
 10
1028.703258122218
 20
-550.7440044155124
 30
0.0
 10
1030.228156663461
 20
-553.5202209355018
 30
0.0
 10
1031.689257770866
 20
-556.0151672759331
 30
0.0
 10
1032.948488915299
 20
-558.0425984531928
 30
0.0
 10
1034.048955274199
 20
-559.732095642512
 30
0.0
 10
1035.096587724042
 20
-561.2767603943842
 30
0.0
 10
1036.289232386449
 20
-562.9573132969537
 30
0.0
 10
1037.617621596528
 20
-564.7323712806748
 30
0.0
 10
1039.016790295799
 20
-566.4977803534298
 30
0.0
 10
1040.405027996844
 20
-568.1510782162484
 30
0.0
 10
1041.751774285857
 20
-569.6665348512835
 30
0.0
 10
1043.023260243366
 20
-571.0220640225066
 30
0.0
 10
1044.271545389521
 20
-572.286429917517
 30
0.0
 10
1045.609083165218
 20
-573.5726099671715
 30
0.0
 10
1047.144170535386
 20
-574.963298096177
 30
0.0
 10
1049.116114621325
 20
-576.6258797517746
 30
0.0
 10
1051.349210047658
 20
-578.3353759127643
 30
0.0
 10
1053.654835083553
 20
-579.9144783305346
 30
0.0
 10
1055.660326019198
 20
-581.1552312970316
 30
0.0
 10
1057.420103801222
 20
-582.1490266594891
 30
0.0
 10
1058.992380905707
 20
-582.9651452117889
 30
0.0
 10
1060.391103814839
 20
-583.6347477194286
 30
0.0
 10
1061.777823083013
 20
-584.2512084754289
 30
0.0
 10
1063.304885996388
 20
-584.8780203920228
 30
0.0
 10
1065.148425439551
 20
-585.5581363274698
 30
0.0
 10
1067.136479662789
 20
-586.1977038223047
 30
0.0
 10
1069.100762689805
 20
-586.7384983514918
 30
0.0
 10
1070.991750307084
 20
-587.1815113675203
 30
0.0
 10
1072.932398049491
 20
-587.5585858296037
 30
0.0
 10
1075.02667826188
 20
-587.8788180107119
 30
0.0
 10
1077.323970800227
 20
-588.1306784472868
 30
0.0
 10
1079.82529082391
 20
-588.2859414807707
 30
0.0
 10
1082.335777759088
 20
-588.319097586258
 30
0.0
 10
1084.757846902025
 20
-588.2383630143099
 30
0.0
 10
1086.934058625806
 20
-588.0770825835622
 30
0.0
 10
1089.017248882722
 20
-587.8432510420374
 30
0.0
 10
1090.979960206384
 20
-587.5562524222341
 30
0.0
 10
1093.05477183463
 20
-587.1853920526985
 30
0.0
 10
1095.282568636618
 20
-586.7068021733756
 30
0.0
 10
1097.516078039571
 20
-586.1429779151595
 30
0.0
 10
1099.660489957012
 20
-585.5230102113997
 30
0.0
 10
1101.561309688275
 20
-584.9117045069919
 30
0.0
 10
1103.530538984106
 20
-584.2231720647757
 30
0.0
 10
1105.767174498199
 20
-583.371340835155
 30
0.0
 10
1108.465836810881
 20
-582.2388585342001
 30
0.0
 10
1111.38654228438
 20
-580.8856759698728
 30
0.0
 10
1114.323019001222
 20
-579.3932680654874
 30
0.0
 10
1117.066561671977
 20
-577.8840825176488
 30
0.0
 10
1119.674593887276
 20
-576.3513354525095
 30
0.0
 10
1122.342103412185
 20
-574.6882479195734
 30
0.0
 10
1125.289173879881
 20
-572.7381454664995
 30
0.0
 10
1128.086312371388
 20
-570.7672475875061
 30
0.0
 10
1130.531623816861
 20
-568.9547785076575
 30
0.0
 10
1132.398247006845
 20
-567.5211614301062
 30
0.0
 10
1133.977654534298
 20
-566.2718259879641
 30
0.0
 10
1135.257701061018
 20
-565.2353023779194
 30
0.0
 10
1136.36179249726
 20
-564.3249456952675
 30
0.0
 10
1137.718207460487
 20
-563.1885305438067
 30
0.0
 10
1139.575215892004
 20
-561.5955549239322
 30
0.0
 10
1142.064230257195
 20
-559.3881293931106
 30
0.0
 10
1145.745347307338
 20
-555.9958404091391
 30
0.0
 10
1150.409678573879
 20
-551.4456134255945
 30
0.0
 10
1155.840393387063
 20
-545.7752266854491
 30
0.0
 10
1161.630477717016
 20
-539.3527680633617
 30
0.0
 10
1167.725088275567
 20
-532.1490185560198
 30
0.0
 10
1174.085175582939
 20
-524.1258483906918
 30
0.0
 10
1180.263457031984
 20
-515.864326967258
 30
0.0
 10
1186.481281699094
 20
-507.0842340543061
 30
0.0
 10
1192.883735156524
 20
-497.53774178239
 30
0.0
 10
1199.469464006008
 20
-487.1677147886856
 30
0.0
 10
1206.185688650766
 20
-476.0006310637901
 30
0.0
 10
1213.019417713049
 20
-463.9981941720207
 30
0.0
 10
1219.424431335545
 20
-452.1101368167112
 30
0.0
 10
1225.276710743115
 20
-440.6881043291661
 30
0.0
 10
1230.463259153848
 20
-430.1158590891122
 30
0.0
 10
1235.359939648963
 20
-419.709130316756
 30
0.0
 10
1239.954813644421
 20
-409.547093683243
 30
0.0
 10
1244.6003535237
 20
-398.8725270360599
 30
0.0
 10
1249.226210540512
 20
-387.7951107359924
 30
0.0
 10
1253.768899056673
 20
-376.4289901896722
 30
0.0
 10
1257.898725556969
 20
-365.6609679345004
 30
0.0
 10
1261.805955553957
 20
-355.064395620797
 30
0.0
 10
1265.637156041116
 20
-344.2471282718233
 30
0.0
 10
1269.517563799009
 20
-332.8154271431355
 30
0.0
 10
1273.437283040142
 20
-320.7311850833392
 30
0.0
 10
1277.398505405286
 20
-307.9061239609396
 30
0.0
 10
1281.405826358077
 20
-294.2265903432204
 30
0.0
 10
1285.434658425927
 20
-279.6537002732094
 30
0.0
 10
1289.441698900365
 20
-264.202008171759
 30
0.0
 10
1293.312770480422
 20
-248.1926498803025
 30
0.0
 10
1296.966025229415
 20
-231.901400972384
 30
0.0
 10
1300.690773945747
 20
-213.9093260389792
 30
0.0
 10
1304.385572916437
 20
-194.2147675646098
 30
0.0
 10
1307.940054541837
 20
-172.795963261602
 30
0.0
 10
1311.178834990142
 20
-150.4139413099174
 30
0.0
 10
1314.039442556364
 20
-127.05738421489
 30
0.0
 10
1316.457240742582
 20
-102.6595947642478
 30
0.0
 10
1318.318330484029
 20
-78.13361458678523
 30
0.0
 10
1319.618647530363
 20
-53.48435691949686
 30
0.0
 10
1320.35100755565
 20
-28.78964270666524
 30
0.0
 10
1320.516090047071
 20
-4.13937056606045
 30
0.0
 10
1320.118932335939
 20
20.45408747007826
 30
0.0
 10
1319.162570652893
 20
44.99038633543761
 30
0.0
 10
1317.64742299445
 20
69.4679993424915
 30
0.0
 10
1315.575220374405
 20
93.88595296728582
 30
0.0
 10
1312.944433278871
 20
118.2436121762358
 30
0.0
 10
1309.910283050873
 20
141.3409981092561
 30
0.0
 10
1306.574007528682
 20
163.1151400761256
 30
0.0
 10
1303.027727018213
 20
183.55425760032
 30
0.0
 10
1299.076914407559
 20
203.9201311529695
 30
0.0
 10
1294.680095210357
 20
224.3774406704329
 30
0.0
 10
1289.793047951406
 20
245.0396690241646
 30
0.0
 10
1284.392254506204
 20
265.8909316578623
 30
0.0
 10
1279.16557488864
 20
284.3938594695139
 30
0.0
 10
1274.274374494184
 20
300.5608766882572
 30
0.0
 10
1269.856257722472
 20
314.408240552992
 30
0.0
 10
1265.192229607699
 20
328.2839993898074
 30
0.0
 10
1260.368977436802
 20
341.9128643079914
 30
0.0
 10
1255.531853501411
 20
354.9282211924576
 30
0.0
 10
1250.916444716265
 20
366.7914267400932
 30
0.0
 10
1246.587273351913
 20
377.4768700732597
 30
0.0
 10
1242.557763351298
 20
387.0681212688055
 30
0.0
 10
1238.749420550052
 20
395.835306245158
 30
0.0
 10
1235.176487627547
 20
403.8124443860194
 30
0.0
 10
1231.928462687947
 20
410.8640953266523
 30
0.0
 10
1228.86027506558
 20
417.3641343241114
 30
0.0
 10
1225.778245166892
 20
423.7451242837033
 30
0.0
 10
1222.399856850994
 20
430.5677864301217
 30
0.0
 10
1218.677651943912
 20
437.8826017362249
 30
0.0
 10
1214.602472723876
 20
445.656812415872
 30
0.0
 10
1210.19168233371
 20
453.8049319261871
 30
0.0
 10
1204.174386063214
 20
464.5445225228104
 30
0.0
 10
1196.515999320502
 20
477.5322790263432
 30
0.0
 10
1187.188304558619
 20
492.2944521837318
 30
0.0
 10
1179.150886455594
 20
504.1151896843499
 30
0.0
 10
1172.688810143467
 20
513.0744670481268
 30
0.0
 10
1168.030466859101
 20
519.2781736647216
 30
0.0
 10
1163.767003029984
 20
524.7433232972361
 30
0.0
 10
1160.312331940498
 20
529.0144014179407
 30
0.0
 10
1157.575228922299
 20
532.3047309301903
 30
0.0
 10
1155.353766267313
 20
534.9211218140148
 30
0.0
 10
1152.997504290319
 20
537.6374957949931
 30
0.0
 10
1150.368853585933
 20
540.5945474658466
 30
0.0
 10
1147.758286241196
 20
543.4494763217679
 30
0.0
 10
1145.216196807614
 20
546.1548039654818
 30
0.0
 10
1142.791532764425
 20
548.6706451218968
 30
0.0
 10
1140.216573357864
 20
551.2693738850417
 30
0.0
 10
1137.505508630253
 20
553.9233030700308
 30
0.0
 10
1134.782454090338
 20
556.5014509025495
 30
0.0
 10
1132.194522488219
 20
558.8692118900321
 30
0.0
 10
1130.011075678515
 20
560.8031201068713
 30
0.0
 10
1128.217398134002
 20
562.349508984096
 30
0.0
 10
1126.775342810626
 20
563.5661145076709
 30
0.0
 10
1125.510748597456
 20
564.6122166737639
 30
0.0
 10
1124.422851464625
 20
565.4965170755866
 30
0.0
 10
1123.498719978383
 20
566.2363612287147
 30
0.0
 10
1122.600307424978
 20
566.9462906113715
 30
0.0
 10
1121.526365414645
 20
567.783061550558
 30
0.0
 10
1120.111885377226
 20
568.8636700215478
 30
0.0
 10
1118.314301014921
 20
570.2006385706231
 30
0.0
 10
1116.26463077126
 20
571.6739264141443
 30
0.0
 10
1114.139009485978
 20
573.1429939028402
 30
0.0
 10
1112.110180893611
 20
574.4901275668683
 30
0.0
 10
1109.940780969155
 20
575.8756935370701
 30
0.0
 10
1107.689227439195
 20
577.2473733303484
 30
0.0
 10
1105.25778674265
 20
578.6490294202935
 30
0.0
 10
1102.905884616542
 20
579.9294609185879
 30
0.0
 10
1100.476050170392
 20
581.1718425409367
 30
0.0
 10
1097.989945591386
 20
582.3576162381042
 30
0.0
 10
1095.5104996242
 20
583.4492940907767
 30
0.0
 10
1093.184308961511
 20
584.3898618022271
 30
0.0
 10
1091.094889320328
 20
585.1664058040423
 30
0.0
 10
1089.166430583174
 20
585.8258930225354
 30
0.0
 10
1087.203945471945
 20
586.4409190294759
 30
0.0
 10
1085.066736374579
 20
587.0444212807129
 30
0.0
 10
1082.725704247031
 20
587.6216221345559
 30
0.0
 10
1080.372372904657
 20
588.1101422854674
 30
0.0
 10
1078.17773470669
 20
588.4821955310177
 30
0.0
 10
1076.253645231531
 20
588.7423868419995
 30
0.0
 10
1074.406120559922
 20
588.9355198300166
 30
0.0
 10
1072.461828261059
 20
589.0779290617073
 30
0.0
 10
1070.24996985876
 20
589.1591885578277
 30
0.0
 10
1067.804419720796
 20
589.1446753485294
 30
0.0
 10
1065.318917868084
 20
589.0115814629717
 30
0.0
 10
1062.990908584335
 20
588.7743113359552
 30
0.0
 10
1060.973135458069
 20
588.481720245864
 30
0.0
 10
1059.141807580589
 20
588.1474844321033
 30
0.0
 10
1057.302136384523
 20
587.7432368727035
 30
0.0
 10
1055.317101251835
 20
587.2261570520147
 30
0.0
 10
1053.328550236376
 20
586.6148890585442
 30
0.0
 10
1051.493399292468
 20
585.9659217872075
 30
0.0
 10
1049.955517942202
 20
585.360353496349
 30
0.0
 10
1048.672245214881
 20
584.8095206763135
 30
0.0
 10
1047.579331316306
 20
584.3078980512855
 30
0.0
 10
1046.473346581311
 20
583.7712010970934
 30
0.0
 10
1045.2360806114
 20
583.1325834875353
 30
0.0
 10
1043.802648460577
 20
582.33753317761
 30
0.0
 10
1042.231854463438
 20
581.3981442250195
 30
0.0
 10
1040.502235364748
 20
580.2777925155342
 30
0.0
 10
1038.594922534307
 20
578.9316332516055
 30
0.0
 10
1036.571255082706
 20
577.3669229963733
 30
0.0
 10
1034.599076135004
 20
575.6938573781695
 30
0.0
 10
1032.837764600259
 20
574.0684490138556
 30
0.0
 10
1031.31500855147
 20
572.56141843702
 30
0.0
 10
1029.902080572151
 20
571.0760484622367
 30
0.0
 10
1028.469544555297
 20
569.4781700113912
 30
0.0
 10
1026.947847031564
 20
567.6703346270307
 30
0.0
 10
1025.424083400333
 20
565.7355871090033
 30
0.0
 10
1023.943127243226
 20
563.7284253110994
 30
0.0
 10
1022.611101826434
 20
561.8088444079406
 30
0.0
 10
1021.428692779548
 20
560.0088201576394
 30
0.0
 10
1020.330861841202
 20
558.256366211377
 30
0.0
 10
1019.206025860019
 20
556.3739201791616
 30
0.0
 10
1017.608355645708
 20
553.5567461393922
 30
0.0
 10
1015.60573430363
 20
549.7220733142497
 30
0.0
 10
1013.305834769282
 20
544.810965252542
 30
0.0
 10
1011.116451700457
 20
539.5993291915975
 30
0.0
 10
1009.310171434047
 20
534.8155923952304
 30
0.0
 10
1007.855727194187
 20
530.6243118734
 30
0.0
 10
1006.711284101775
 20
527.1098834976808
 30
0.0
 10
1005.635461361164
 20
523.5941533357997
 30
0.0
 10
1004.659401118175
 20
520.2063552693995
 30
0.0
 10
1003.821304803321
 20
517.1318839331798
 30
0.0
 10
1003.135538798218
 20
514.4956853037746
 30
0.0
 10
1002.589803962751
 20
512.3157380639177
 30
0.0
 10
1002.199812264404
 20
510.7081692525277
 30
0.0
 10
1001.908357131663
 20
509.4816512566337
 30
0.0
 10
1001.645382844893
 20
508.3583626667266
 30
0.0
 10
1001.307004003245
 20
506.8844196716274
 30
0.0
 10
1000.878690657957
 20
504.9693229889228
 30
0.0
 10
1000.339491427884
 20
502.4783678813215
 30
0.0
 10
999.6906671136699
 20
499.3524934892355
 30
0.0
 10
998.9363634879154
 20
495.5244918085772
 30
0.0
 10
998.1062333944843
 20
491.0499276725373
 30
0.0
 10
997.213220078723
 20
485.8935083971573
 30
0.0
 10
996.2778051951177
 20
480.0558551623653
 30
0.0
 10
995.3139981812363
 20
473.5053429111776
 30
0.0
 10
994.3378365574006
 20
466.2022784119374
 30
0.0
 10
993.3521157219184
 20
458.0823441305479
 30
0.0
 10
992.7409504215965
 20
452.2617441811187
 30
0.0
 10
992.4237070005064
 20
449.2403896641338
 30
0.0
  0
SPLINE
  5
95
330
1F
100
AcDbEntity
  8
0
  6
Continuous
 62
     7
370
    15
100
AcDbSpline
210
0.0
220
0.0
230
1.0
 70
     8
 71
     3
 72
   238
 73
   234
 74
     0
 42
0.000000001
 43
0.00000001
 40
0.0
 40
0.0
 40
0.0
 40
0.0
 40
0.0054432950847446
 40
0.0104308334512458
 40
0.0149703288972381
 40
0.0190677455123339
 40
0.02272756678352
 40
0.0259530537376354
 40
0.0287464854648502
 40
0.031316971520563
 40
0.0334527727018909
 40
0.0353928255744512
 40
0.0371522536440149
 40
0.0387311605636232
 40
0.0401938899132824
 40
0.042851647358891
 40
0.0460148196853871
 40
0.0496846850129557
 40
0.0551192818096316
 40
0.0607325847667302
 40
0.0665122138385751
 40
0.0722934607824343
 40
0.0762899215793713
 40
0.0801309607873053
 40
0.0834465233584871
 40
0.0851303322650347
 40
0.0867829428510551
 40
0.0887079529804291
 40
0.0909110769031516
 40
0.0934416872890912
 40
0.0959438825591015
 40
0.0982185223451632
 40
0.1002663041128887
 40
0.1021560889932156
 40
0.1043473603910763
 40
0.1069258669230579
 40
0.1101591392837279
 40
0.1130333118376495
 40
0.115522449903452
 40
0.1176591893683659
 40
0.1195584981517913
 40
0.1212280252105612
 40
0.1228963404951782
 40
0.1251286959509511
 40
0.1278579502831326
 40
0.1304150329584568
 40
0.1326295286607433
 40
0.1343849384921856
 40
0.1362971842217919
 40
0.1384653515086058
 40
0.1408890579691318
 40
0.143427693087138
 40
0.145664552404849
 40
0.1476277859645456
 40
0.1493180856030872
 40
0.1510095894974889
 40
0.1530186161243379
 40
0.1553148236108451
 40
0.1578697131980166
 40
0.1602698161963288
 40
0.1623820912286569
 40
0.1642060103943025
 40
0.1658612769966422
 40
0.1680303190723295
 40
0.1704862813215062
 40
0.1731796113769622
 40
0.1757610819939676
 40
0.1781643087379295
 40
0.1803883625482171
 40
0.1828702647440563
 40
0.1855391079566219
 40
0.1884283684610335
 40
0.191512587491965
 40
0.197270943598231
 40
0.2025736759650537
 40
0.2075373468962509
 40
0.2122476668117198
 40
0.2167079069545796
 40
0.2211588349457977
 40
0.2257717309557591
 40
0.2308021870264343
 40
0.2362543334335749
 40
0.2421340399231345
 40
0.2484491918498205
 40
0.2537903730596343
 40
0.2594199860855762
 40
0.2653233568502991
 40
0.2710839425124185
 40
0.2765388230186895
 40
0.2816951969192892
 40
0.2865587762236767
 40
0.2911339463615397
 40
0.2956212819386317
 40
0.2997985737844365
 40
0.3036678265685347
 40
0.3072304108277747
 40
0.3104871896891737
 40
0.313509869002548
 40
0.318431749103353
 40
0.3238292716885391
 40
0.3297071418717999
 40
0.3360718085258432
 40
0.3429317958948426
 40
0.3486788280015251
 40
0.3547311571119033
 40
0.3608652659650927
 40
0.3669108439878399
 40
0.3728736309408267
 40
0.3839539153344397
 40
0.3947764039272766
 40
0.4053615193888057
 40
0.4157267418119417
 40
0.4259104809114054
 40
0.4361031144248217
 40
0.4483786265928612
 40
0.4605864881652606
 40
0.4727399359454778
 40
0.4848657355416888
 40
0.4969896428383139
 40
0.5091375076917062
 40
0.5213359930016553
 40
0.5335976545159312
 40
0.5458114055987353
 40
0.5580366544000938
 40
0.5668460274312506
 40
0.5757307982041017
 40
0.5847016478404952
 40
0.5937699894184052
 40
0.6029480884979389
 40
0.6122450575710824
 40
0.6213778207161839
 40
0.6299684675255003
 40
0.6382149662686555
 40
0.6461290968814026
 40
0.6537195443952611
 40
0.6594610372339605
 40
0.6650298037402909
 40
0.6707782069965257
 40
0.676838683381685
 40
0.6841143385421717
 40
0.6917811974404058
 40
0.6997917773305633
 40
0.7079877048108341
 40
0.7163312140036224
 40
0.7248327572146208
 40
0.7334839218665504
 40
0.7422470626678174
 40
0.7488669538265872
 40
0.7555368509799251
 40
0.762166828517279
 40
0.7683469865974683
 40
0.774004445071924
 40
0.7791465557041473
 40
0.7846295607388795
 40
0.7901868789952741
 40
0.7959903236240015
 40
0.8020935657074952
 40
0.8057884489837505
 40
0.8096490448833346
 40
0.813457308226551
 40
0.8170075588092537
 40
0.8203625750827754
 40
0.8231774089982709
 40
0.826216252443078
 40
0.8294484198070956
 40
0.8324183187562576
 40
0.8349741277120998
 40
0.8369304464573503
 40
0.8392379172535762
 40
0.8419387817545897
 40
0.8449202860809258
 40
0.847592201424798
 40
0.8498697944736624
 40
0.8517001178117142
 40
0.8537305877555531
 40
0.8561068204351011
 40
0.8588299447510669
 40
0.8615638113515404
 40
0.8642918786912542
 40
0.8666234136371965
 40
0.8689326359072437
 40
0.8716803931878198
 40
0.8736302736859152
 40
0.8755328354721807
 40
0.8771446212217309
 40
0.8784671315324872
 40
0.8795412527365881
 40
0.8809662523705737
 40
0.8825293790503609
 40
0.8842337672945624
 40
0.8862136345823965
 40
0.8885393582188945
 40
0.8912110213695954
 40
0.8941012236843161
 40
0.896338370364282
 40
0.8982454851302257
 40
0.8998936615231062
 40
0.9016605492603555
 40
0.9036019366594615
 40
0.9057184511070318
 40
0.9079819861584107
 40
0.9101000630905325
 40
0.9124475685186298
 40
0.9144429369231794
 40
0.9162700711034039
 40
0.918334722191519
 40
0.9206527240092852
 40
0.9253160505785482
 40
0.9301187157060363
 40
0.9350176379573407
 40
0.9398670349398117
 40
0.9428669706044791
 40
0.9458304952779283
 40
0.9487584530066211
 40
0.9515702348724979
 40
0.954023119514276
 40
0.956000780772871
 40
0.9576431260974864
 40
0.9589503700489213
 40
0.9595884237630561
 40
0.9604205467515083
 40
0.961565989138211
 40
0.9630248050666131
 40
0.9647971358170335
 40
0.9671547061000081
 40
0.9699066254532926
 40
0.9730540714463964
 40
0.976598845949064
 40
0.9805435575773638
 40
0.984810612025899
 40
0.9894715024855314
 40
0.9945321425418137
 40
1.0
 40
1.0
 40
1.0
 40
1.0
 10
1022.27140631073
 20
446.221363616698
 30
0.0
 10
1022.563024211267
 20
449.0359475377568
 30
0.0
 10
1023.121843401582
 20
454.4294556349749
 30
0.0
 10
1024.017692216373
 20
461.899673840411
 30
0.0
 10
1024.89260507894
 20
468.5291152431158
 30
0.0
 10
1025.73774750918
 20
474.3565538730663
 30
0.0
 10
1026.537384703506
 20
479.437414232071
 30
0.0
 10
1027.278407888758
 20
483.8167313343457
 30
0.0
 10
1027.965004372897
 20
487.6273809822013
 30
0.0
 10
1028.587863680537
 20
490.8970250194865
 30
0.0
 10
1029.15902207459
 20
493.7527107053425
 30
0.0
 10
1029.671781334807
 20
496.2112384216639
 30
0.0
 10
1030.14485419942
 20
498.3949088039431
 30
0.0
 10
1030.582062211753
 20
500.3450015372152
 30
0.0
 10
1031.107063655628
 20
502.6149869427625
 30
0.0
 10
1031.792154413839
 20
505.4554238370911
 30
0.0
 10
1032.712386854318
 20
509.0510670372763
 30
0.0
 10
1033.945977457765
 20
513.5452593904249
 30
0.0
 10
1035.496166173529
 20
518.6849916365222
 30
0.0
 10
1037.358098628379
 20
524.1840236003836
 30
0.0
 10
1039.355929029034
 20
529.4108742365111
 30
0.0
 10
1041.245663515579
 20
533.764735354444
 30
0.0
 10
1042.941395798861
 20
537.2626714816718
 30
0.0
 10
1044.354302600953
 20
539.9239007623428
 30
0.0
 10
1045.496506012331
 20
541.8983585760932
 30
0.0
 10
1046.36241733412
 20
543.3058084465483
 30
0.0
 10
1047.047834296948
 20
544.3743010259799
 30
0.0
 10
1047.805096339168
 20
545.5022318946633
 30
0.0
 10
1048.684509132733
 20
546.7436516252749
 30
0.0
 10
1049.655046465073
 20
548.0291829585525
 30
0.0
 10
1050.637007222414
 20
549.2414270803821
 30
0.0
 10
1051.541536547943
 20
550.2838088487304
 30
0.0
 10
1052.349087880152
 20
551.1567880848731
 30
0.0
 10
1053.112606053459
 20
551.9357217822251
 30
0.0
 10
1053.939762088849
 20
552.730598615793
 30
0.0
 10
1054.939056496914
 20
553.6223247052642
 30
0.0
 10
1056.038202407971
 20
554.5125843882931
 30
0.0
 10
1057.13467259649
 20
555.3075098073685
 30
0.0
 10
1058.093928118121
 20
555.9331805139817
 30
0.0
 10
1058.920574073037
 20
556.4224040704738
 30
0.0
 10
1059.636005696997
 20
556.8090305799192
 30
0.0
 10
1060.273653830587
 20
557.1261173450166
 30
0.0
 10
1060.93680069177
 20
557.4310738493991
 30
0.0
 10
1061.753810034317
 20
557.7709619904907
 30
0.0
 10
1062.714177516088
 20
558.1154578332455
 30
0.0
 10
1063.678215475644
 20
558.4048470394422
 30
0.0
 10
1064.518086877362
 20
558.6138174675956
 30
0.0
 10
1065.247825102396
 20
558.7673455249098
 30
0.0
 10
1066.030129998774
 20
558.9035692594981
 30
0.0
 10
1066.959349162107
 20
559.0257094421974
 30
0.0
 10
1068.037957537583
 20
559.1167719254213
 30
0.0
 10
1069.184405182137
 20
559.1548354691087
 30
0.0
 10
1070.209039788362
 20
559.1413211981939
 30
0.0
 10
1071.077834046611
 20
559.0974230969624
 30
0.0
 10
1071.785935258032
 20
559.0431946603417
 30
0.0
 10
1072.542841675164
 20
558.9703119033225
 30
0.0
 10
1073.547092920623
 20
558.840554557633
 30
0.0
 10
1074.800622328167
 20
558.6297306737357
 30
0.0
 10
1076.248088346209
 20
558.3234143114536
 30
0.0
 10
1077.6698478618
 20
557.9626911433096
 30
0.0
 10
1078.951415314094
 20
557.5908504214289
 30
0.0
 10
1080.08514971147
 20
557.2267836697005
 30
0.0
 10
1081.233557433887
 20
556.827785596495
 30
0.0
 10
1082.549724713506
 20
556.3332087836976
 30
0.0
 10
1084.117732187684
 20
555.690559059119
 30
0.0
 10
1085.810034880122
 20
554.9344533756744
 30
0.0
 10
1087.525844331417
 20
554.1045395328999
 30
0.0
 10
1089.172644189386
 20
553.2519416849861
 30
0.0
 10
1090.833232127384
 20
552.3407081092281
 30
0.0
 10
1092.602005617442
 20
551.3149960756077
 30
0.0
 10
1094.563586179472
 20
550.1114697639512
 30
0.0
 10
1096.708995155722
 20
548.7192399621678
 30
0.0
 10
1099.664692182623
 20
546.6908421688344
 30
0.0
 10
1103.310293278221
 20
543.9928223907522
 30
0.0
 10
1107.574872766835
 20
540.5543073960084
 30
0.0
 10
1111.651791190268
 20
537.0212097451114
 30
0.0
 10
1115.560192829358
 20
533.417446700202
 30
0.0
 10
1119.387069806789
 20
529.6919558007421
 30
0.0
 10
1123.241040388629
 20
525.7506910608681
 30
0.0
 10
1127.295214273564
 20
521.4036700522213
 30
0.0
 10
1131.672978785659
 20
516.4800494679573
 30
0.0
 10
1136.449217379827
 20
510.8373623499187
 30
0.0
 10
1141.626096950158
 20
504.4055711772929
 30
0.0
 10
1146.786878808938
 20
497.6566130735035
 30
0.0
 10
1151.879530528158
 20
490.6796783710401
 30
0.0
 10
1156.848550387113
 20
483.5773932706496
 30
0.0
 10
1161.931481877774
 20
475.9924761966165
 30
0.0
 10
1166.942999512676
 20
468.1912806599216
 30
0.0
 10
1171.711049985013
 20
460.4682697002723
 30
0.0
 10
1176.191107339785
 20
452.9393697999479
 30
0.0
 10
1180.388828818151
 20
445.6402554356499
 30
0.0
 10
1184.366020867538
 20
438.5006455352396
 30
0.0
 10
1188.118845882419
 20
431.5557577478445
 30
0.0
 10
1191.643463906545
 20
424.8414806067685
 30
0.0
 10
1194.882037001605
 20
418.50436121679
 30
0.0
 10
1197.840459834922
 20
412.5704436544685
 30
0.0
 10
1200.543924585736
 20
407.0235114686906
 30
0.0
 10
1203.598986789179
 20
400.6229503425764
 30
0.0
 10
1207.19869554605
 20
392.8787143392826
 30
0.0
 10
1211.502404986366
 20
383.2923384644088
 30
0.0
 10
1216.10461375002
 20
372.639860956794
 30
0.0
 10
1220.981692139197
 20
360.8642589723036
 30
0.0
 10
1225.70385722643
 20
348.9234923589961
 30
0.0
 10
1230.226487122391
 20
336.9589778169291
 30
0.0
 10
1234.459289497007
 20
325.2699890634509
 30
0.0
 10
1238.636518650646
 20
313.196140627412
 30
0.0
 10
1242.662035245397
 20
301.0006547585767
 30
0.0
 10
1247.614557461633
 20
285.2636636632849
 30
0.0
 10
1253.290810389681
 20
265.9149990773568
 30
0.0
 10
1259.428796791746
 20
242.8730299984603
 30
0.0
 10
1264.94939236928
 20
219.9178650654274
 30
0.0
 10
1269.878044967018
 20
197.064084502955
 30
0.0
 10
1274.259947803148
 20
174.1852451753696
 30
0.0
 10
1278.387116516781
 20
149.5970785946464
 30
0.0
 10
1282.138129378786
 20
123.1920556002022
 30
0.0
 10
1285.353530695339
 20
95.02148760870314
 30
0.0
 10
1287.800223244523
 20
66.75740112420021
 30
0.0
 10
1289.479334344857
 20
38.41219709691965
 30
0.0
 10
1290.387825536485
 20
9.986063258243437
 30
0.0
 10
1290.522904303001
 20
-18.52094375814706
 30
0.0
 10
1289.877903603196
 20
-47.09836518231116
 30
0.0
 10
1288.451071530228
 20
-75.62745169606748
 30
0.0
 10
1286.250731352991
 20
-104.0150733721218
 30
0.0
 10
1283.567332292635
 20
-129.5284155731711
 30
0.0
 10
1280.630756045352
 20
-152.2822255569804
 30
0.0
 10
1277.629454510944
 20
-172.3853792716856
 30
0.0
 10
1274.215236657896
 20
-192.4786713235831
 30
0.0
 10
1270.38210995397
 20
-212.5565508832319
 30
0.0
 10
1266.124309564688
 20
-232.6090011804526
 30
0.0
 10
1261.483587869368
 20
-252.412390443667
 30
0.0
 10
1256.593299729913
 20
-271.4705828129532
 30
0.0
 10
1251.587339119064
 20
-289.4562276307097
 30
0.0
 10
1246.552817914099
 20
-306.2754343201862
 30
0.0
 10
1241.491442649301
 20
-322.0952015629191
 30
0.0
 10
1236.77829510646
 20
-335.9534922939258
 30
0.0
 10
1232.452241591824
 20
-348.0472052787149
 30
0.0
 10
1228.454788952871
 20
-358.7671576234598
 30
0.0
 10
1224.275873679844
 20
-369.5173121405418
 30
0.0
 10
1219.566881627794
 20
-381.1214584802503
 30
0.0
 10
1214.243158972459
 20
-393.6260738560874
 30
0.0
 10
1208.265856152268
 20
-406.9429318784196
 30
0.0
 10
1201.881404049897
 20
-420.407012252329
 30
0.0
 10
1195.199305159933
 20
-433.7313476223674
 30
0.0
 10
1188.282813368311
 20
-446.7522393961417
 30
0.0
 10
1181.15859098837
 20
-459.3964584356702
 30
0.0
 10
1173.854279921442
 20
-471.5884003045358
 30
0.0
 10
1167.031438397159
 20
-482.2692876261681
 30
0.0
 10
1160.752548054784
 20
-491.5375539348335
 30
0.0
 10
1155.077312628738
 20
-499.4830436608451
 30
0.0
 10
1149.535858658675
 20
-506.8234156089954
 30
0.0
 10
1144.302317605152
 20
-513.3742636634539
 30
0.0
 10
1139.519613511761
 20
-519.0379387330942
 30
0.0
 10
1134.969986774093
 20
-524.1444001572618
 30
0.0
 10
1130.498483600444
 20
-528.8907911747108
 30
0.0
 10
1125.91413932829
 20
-533.4627000042304
 30
0.0
 10
1121.237283074858
 20
-537.8128383312251
 30
0.0
 10
1117.136261768583
 20
-541.3318582150273
 30
0.0
 10
1113.644359386428
 20
-544.1177998313301
 30
0.0
 10
1110.794967703913
 20
-546.2561151833016
 30
0.0
 10
1108.035258693217
 20
-548.1920387787558
 30
0.0
 10
1105.453087997477
 20
-549.8792159105257
 30
0.0
 10
1103.159028244421
 20
-551.2720435675004
 30
0.0
 10
1101.056586017049
 20
-552.4600065270934
 30
0.0
 10
1099.036200354974
 20
-553.5197094119081
 30
0.0
 10
1097.034006350297
 20
-554.4807559151025
 30
0.0
 10
1095.179831770493
 20
-555.2867658329754
 30
0.0
 10
1093.63508327725
 20
-555.8940542117306
 30
0.0
 10
1092.273529156286
 20
-556.382322371819
 30
0.0
 10
1090.946103876555
 20
-556.815070582904
 30
0.0
 10
1089.469082982679
 20
-557.23999305788
 30
0.0
 10
1087.962135843964
 20
-557.6057071318228
 30
0.0
 10
1086.575799627435
 20
-557.877773871852
 30
0.0
 10
1085.430776227644
 20
-558.054046293798
 30
0.0
 10
1084.455327650283
 20
-558.1705770713893
 30
0.0
 10
1083.470485605848
 20
-558.2555711634519
 30
0.0
 10
1082.345902921411
 20
-558.307641548751
 30
0.0
 10
1081.098212673356
 20
-558.3037434444178
 30
0.0
 10
1079.852343218511
 20
-558.2311713691655
 30
0.0
 10
1078.737581901732
 20
-558.1033330499484
 30
0.0
 10
1077.777022862062
 20
-557.9433715563425
 30
0.0
 10
1076.854232088038
 20
-557.7486333598722
 30
0.0
 10
1075.948240641417
 20
-557.5111663536064
 30
0.0
 10
1075.101872102314
 20
-557.2458885494802
 30
0.0
 10
1074.410751110456
 20
-556.9996633384642
 30
0.0
 10
1073.812531366214
 20
-556.7630426674524
 30
0.0
 10
1073.321796792283
 20
-556.5530038414463
 30
0.0
 10
1072.854230917685
 20
-556.3403426530833
 30
0.0
 10
1072.345078051572
 20
-556.0942066185285
 30
0.0
 10
1071.748070178229
 20
-555.7841281507606
 30
0.0
 10
1071.074617014893
 20
-555.407204603654
 30
0.0
 10
1070.293853488554
 20
-554.9337039256296
 30
0.0
 10
1069.385384588991
 20
-554.3315316064752
 30
0.0
 10
1068.363152862822
 20
-553.5855733763736
 30
0.0
 10
1067.36169813913
 20
-552.7788409048536
 30
0.0
 10
1066.466685383407
 20
-551.9947762757502
 30
0.0
 10
1065.730829382654
 20
-551.3078184400994
 30
0.0
 10
1065.051083437232
 20
-550.6394840248722
 30
0.0
 10
1064.340155225253
 20
-549.9047796681023
 30
0.0
 10
1063.55102515509
 20
-549.0436476841159
 30
0.0
 10
1062.682547723568
 20
-548.0394390249572
 30
0.0
 10
1061.781134415232
 20
-546.9313175622284
 30
0.0
 10
1060.857854593597
 20
-545.7267226798214
 30
0.0
 10
1059.979296216156
 20
-544.5118557236705
 30
0.0
 10
1059.14617737927
 20
-543.2949158095017
 30
0.0
 10
1058.351759237497
 20
-542.0785941581203
 30
0.0
 10
1057.515544612422
 20
-540.7365432254803
 30
0.0
 10
1056.306610634327
 20
-538.6928278369228
 30
0.0
 10
1054.755308064338
 20
-535.8521107592617
 30
0.0
 10
1052.896229807367
 20
-532.071276868548
 30
0.0
 10
1051.054232010431
 20
-527.912537666957
 30
0.0
 10
1049.494953864914
 20
-524.0161877238
 30
0.0
 10
1048.209761517804
 20
-520.5406827555829
 30
0.0
 10
1047.176457154663
 20
-517.576099960491
 30
0.0
 10
1046.187830881243
 20
-514.5712142296
 30
0.0
 10
1045.278499602112
 20
-511.649136014788
 30
0.0
 10
1044.49413881147
 20
-508.9981061277196
 30
0.0
 10
1043.849380198775
 20
-506.7254421546086
 30
0.0
 10
1043.334545199113
 20
-504.8478297571634
 30
0.0
 10
1042.964168042646
 20
-503.4592246004302
 30
0.0
 10
1042.679284788017
 20
-502.371535745928
 30
0.0
 10
1042.411287491902
 20
-501.3341265862356
 30
0.0
 10
1042.062010898773
 20
-499.9567304804788
 30
0.0
 10
1041.622482500445
 20
-498.1806051189597
 30
0.0
 10
1041.070200248125
 20
-495.8804518097877
 30
0.0
 10
1040.404501190915
 20
-492.9993143058306
 30
0.0
 10
1039.627170743934
 20
-489.4723544997919
 30
0.0
 10
1038.766281993245
 20
-485.3476180143697
 30
0.0
 10
1037.832403412379
 20
-480.5883101077898
 30
0.0
 10
1036.843920293715
 20
-475.1900934441896
 30
0.0
 10
1035.812726191376
 20
-469.1186096169921
 30
0.0
 10
1034.752573439938
 20
-462.3310604462832
 30
0.0
 10
1033.664565247646
 20
-454.7627291792414
 30
0.0
 10
1032.972681164578
 20
-449.3206849607942
 30
0.0
 10
1032.613358902441
 20
-446.4944201469662
 30
0.0
  0
SPLINE
  5
98
330
1F
100
AcDbEntity
  8
0
  6
Continuous
 62
     7
370
    15
100
AcDbSpline
210
0.0
220
0.0
230
1.0
 70
     8
 71
     3
 72
    33
 73
    29
 74
     0
 42
0.000000001
 43
0.00000001
 40
0.0
 40
0.0
 40
0.0
 40
0.0
 40
0.0217646651942716
 40
0.0418670897255233
 40
0.0603066248889165
 40
0.0770825295543166
 40
0.0921940101124803
 40
0.1054147516467269
 40
0.1170284386685388
 40
0.1270482398021046
 40
0.1365080229925983
 40
0.1709678810273944
 40
0.206426746268448
 40
0.2701669004347429
 40
0.3339068777741593
 40
0.4097876786090656
 40
0.4856684727026318
 40
0.5615552517284969
 40
0.6581913108473697
 40
0.7547879122484459
 40
0.8513690934063394
 40
0.8832381611984671
 40
0.9150634892766591
 40
0.9453692596062071
 40
0.9734379223771575
 40
0.9836930184482744
 40
0.996098640117601
 40
1.0
 40
1.0
 40
1.0
 40
1.0
 10
-404.2808313606557
 20
-1093.126074476249
 30
0.0
 10
-401.780642026015
 20
-1092.412604944475
 30
0.0
 10
-396.9712112229284
 20
-1091.040155948059
 30
0.0
 10
-390.0286937163857
 20
-1089.126637703052
 30
0.0
 10
-383.6516547510823
 20
-1087.409799972027
 30
0.0
 10
-377.8418751804128
 20
-1085.88311251535
 30
0.0
 10
-372.6281794019494
 20
-1084.542429728351
 30
0.0
 10
-368.0059662266708
 20
-1083.377054878093
 30
0.0
 10
-363.9689145458246
 20
-1082.376764804929
 30
0.0
 10
-360.3638349076933
 20
-1081.497116291805
 30
0.0
 10
-354.105241759481
 20
-1079.991230149079
 30
0.0
 10
-344.8822083923754
 20
-1077.842356690463
 30
0.0
 10
-329.3192418168799
 20
-1074.403723662205
 30
0.0
 10
-310.2932857161217
 20
-1070.521957078125
 30
0.0
 10
-286.4707590328654
 20
-1066.172396395634
 30
0.0
 10
-261.1473995918284
 20
-1062.134785397476
 30
0.0
 10
-234.3208401616832
 20
-1058.521021230311
 30
0.0
 10
-204.9807365180366
 20
-1055.283171450793
 30
0.0
 10
-173.1292076401966
 20
-1052.63365640885
 30
0.0
 10
-138.7815511145755
 20
-1050.816166461137
 30
0.0
 10
-112.0931573687184
 20
-1050.212132551946
 30
0.0
 10
-93.08894733388927
 20
-1050.165139939614
 30
0.0
 10
-81.9447834719715
 20
-1050.249056225231
 30
0.0
 10
-71.25371373579321
 20
-1050.43463105401
 30
0.0
 10
-63.12170841330232
 20
-1050.649804042236
 30
0.0
 10
-57.1122393568716
 20
-1050.847202436421
 30
0.0
 10
-53.96589665441429
 20
-1050.957903132134
 30
0.0
 10
-52.03479025677066
 20
-1051.037032400875
 30
0.0
 10
-51.57278317075581
 20
-1051.055963663759
 30
0.0
  0
SPLINE
  5
99
330
1F
100
AcDbEntity
  8
0
  6
Continuous
 62
     7
370
    15
100
AcDbSpline
210
0.0
220
0.0
230
1.0
 70
     8
 71
     3
 72
    31
 73
    27
 74
     0
 42
0.000000001
 43
0.00000001
 40
0.0
 40
0.0
 40
0.0
 40
0.0
 40
0.0201753944214232
 40
0.0559646659644924
 40
0.1203583860603548
 40
0.1847528482002437
 40
0.2614176255085509
 40
0.3380959157336742
 40
0.41480865884221
 40
0.5123860092400057
 40
0.6099512053774278
 40
0.7075163146838153
 40
0.7397129458044095
 40
0.7718893870691671
 40
0.8026383412878326
 40
0.83110567829846
 40
0.8394433026108667
 40
0.849245458066138
 40
0.8605931795964129
 40
0.8734857457017072
 40
0.8879223896152993
 40
0.9039023173898713
 40
0.9247159634002746
 40
0.9476708709531125
 40
0.9727658758716243
 40
1.0
 40
1.0
 40
1.0
 40
1.0
 10
-53.99999999999831
 20
-1020.977426516404
 30
0.0
 10
-56.42840662202632
 20
-1020.887428667956
 30
0.0
 10
-63.16458052717919
 20
-1020.637783014408
 30
0.0
 10
-77.65942984022887
 20
-1020.303472024383
 30
0.0
 10
-97.48688688150216
 20
-1020.117570352693
 30
0.0
 10
-122.2449685226877
 20
-1020.395078702736
 30
0.0
 10
-148.4802455370389
 20
-1021.259191599552
 30
0.0
 10
-176.1829098600049
 20
-1022.835050896536
 30
0.0
 10
-206.3692925005633
 20
-1025.27720436567
 30
0.0
 10
-239.0096363313508
 20
-1028.809838068491
 30
0.0
 10
-274.0544084992168
 20
-1033.692521330657
 30
0.0
 10
-301.1716305369006
 20
-1038.327403873543
 30
0.0
 10
-320.4298137399225
 20
-1042.030002632162
 30
0.0
 10
-331.7239511348251
 20
-1044.321862507726
 30
0.0
 10
-342.5573015993953
 20
-1046.633820271373
 30
0.0
 10
-350.5515953889519
 20
-1048.419236803601
 30
0.0
 10
-356.0613137688766
 20
-1049.683912533588
 30
0.0
 10
-359.5461859211185
 20
-1050.494483203354
 30
0.0
 10
-363.5672817190733
 20
-1051.444165005813
 30
0.0
 10
-368.1328972728217
 20
-1052.54121721485
 30
0.0
 10
-373.2413546158596
 20
-1053.792436358281
 30
0.0
 10
-379.2786314277021
 20
-1055.302504955116
 30
0.0
 10
-386.3116823302174
 20
-1057.105925877589
 30
0.0
 10
-394.4056810576351
 20
-1059.244237719932
 30
0.0
 10
-403.2408848158186
 20
-1061.646753475863
 30
0.0
 10
-409.3671361933269
 20
-1063.385104906869
 30
0.0
 10
-412.5554768650625
 20
-1064.289810937966
 30
0.0
  0
SPLINE
  5
9A
330
1F
100
AcDbEntity
  8
0
  6
Continuous
 62
     7
370
    15
100
AcDbSpline
210
0.0
220
0.0
230
1.0
 70
     8
 71
     3
 72
    34
 73
    30
 74
     0
 42
0.000000001
 43
0.00000001
 40
0.0
 40
0.0
 40
0.0
 40
0.0
 40
0.0214796798557296
 40
0.041319481250165
 40
0.0595187709779896
 40
0.0760768389883592
 40
0.0909929335267924
 40
0.104043678021796
 40
0.1155091215287223
 40
0.1254015800170377
 40
0.1347367405371764
 40
0.1687426618240394
 40
0.2037348640842915
 40
0.2666384090920466
 40
0.3295421053415654
 40
0.4044276381878419
 40
0.4793133231599014
 40
0.5542018452132118
 40
0.6495623875804247
 40
0.744897503214561
 40
0.8402123341080369
 40
0.8716649393578503
 40
0.9030722423367479
 40
0.9329788941479619
 40
0.9606776363302131
 40
0.9707956177806004
 40
0.9830359175772232
 40
0.997423021783505
 40
1.0
 40
1.0
 40
1.0
 40
1.0
 10
413.0560641889803
 20
-1053.885760184057
 30
0.0
 10
410.5272356921091
 20
-1053.235073118462
 30
0.0
 10
405.6626435583732
 20
-1051.983376063982
 30
0.0
 10
398.6437683015329
 20
-1050.242078714672
 30
0.0
 10
392.1986529400589
 20
-1048.682233031178
 30
0.0
 10
386.3289297238674
 20
-1047.297527687908
 30
0.0
 10
381.063290087443
 20
-1046.083504882168
 30
0.0
 10
376.3968170062323
 20
-1045.029893617456
 30
0.0
 10
372.3226940073878
 20
-1044.126901997343
 30
0.0
 10
368.6874456632672
 20
-1043.334225364459
 30
0.0
 10
362.3799445438664
 20
-1041.979209249444
 30
0.0
 10
353.0875047010366
 20
-1040.050381056049
 30
0.0
 10
337.4137842811745
 20
-1036.977088545648
 30
0.0
 10
318.2622348185737
 20
-1033.532008290759
 30
0.0
 10
294.2978974327117
 20
-1029.714969295214
 30
0.0
 10
268.841101909208
 20
-1026.22877126141
 30
0.0
 10
241.8925675689892
 20
-1023.184961853732
 30
0.0
 10
212.4401610111046
 20
-1020.557661725578
 30
0.0
 10
180.4891600795341
 20
-1018.558883059984
 30
0.0
 10
146.0546505090029
 20
-1017.428201064408
 30
0.0
 10
119.3150227304271
 20
-1017.342047270737
 30
0.0
 10
100.2820084617134
 20
-1017.654043399653
 30
0.0
 10
89.12318417542721
 20
-1017.945506080596
 30
0.0
 10
78.4201956235402
 20
-1018.326535173124
 30
0.0
 10
70.28065000167129
 20
-1018.689335641633
 30
0.0
 10
64.26649046497775
 20
-1018.992059846183
 30
0.0
 10
59.85292373372357
 20
-1019.231413308695
 30
0.0
 10
56.34565922275308
 20
-1019.429865115398
 30
0.0
 10
54.30933391139651
 20
-1019.558474647744
 30
0.0
 10
54.00000000000161
 20
-1019.578011452331
 30
0.0
  0
SPLINE
  5
9B
330
1F
100
AcDbEntity
  8
0
  6
Continuous
 62
     7
370
    15
100
AcDbSpline
210
0.0
220
0.0
230
1.0
 70
     8
 71
     3
 72
    31
 73
    27
 74
     0
 42
0.000000001
 43
0.00000001
 40
0.0
 40
0.0
 40
0.0
 40
0.0
 40
0.0093309350397343
 40
0.0185661440830803
 40
0.052201333053335
 40
0.0868172737093162
 40
0.1491055934237643
 40
0.2113990082614196
 40
0.3226450995299014
 40
0.4339402556566379
 40
0.528324621244356
 40
0.6227019819495752
 40
0.7170797592996772
 40
0.7482246816327479
 40
0.7793504849008892
 40
0.80909739563699
 40
0.8366368261442695
 40
0.8464762224329864
 40
0.8583895723473405
 40
0.8724559577586928
 40
0.8886741391882053
 40
0.907042808050074
 40
0.9271753921714296
 40
0.9493798276408145
 40
0.9736550050570281
 40
1.0
 40
1.0
 40
1.0
 40
1.0
 10
52.30280013258098
 20
-1049.722685659268
 30
0.0
 10
53.40511274381191
 20
-1049.652562871641
 30
0.0
 10
55.59842934901383
 20
-1049.513036685567
 30
0.0
 10
61.76666401033542
 20
-1049.144504079384
 30
0.0
 10
70.92677116015227
 20
-1048.657266072443
 30
0.0
 10
86.36824923205806
 20
-1048.00436267527
 30
0.0
 10
105.2137681407606
 20
-1047.494907827338
 30
0.0
 10
133.1474552685285
 20
-1047.285887234516
 30
0.0
 10
166.8994377039402
 20
-1047.950287856467
 30
0.0
 10
204.4341110085233
 20
-1049.993463013742
 30
0.0
 10
239.9159455377271
 20
-1053.066764399475
 30
0.0
 10
273.3224435474269
 20
-1056.967950944457
 30
0.0
 10
299.1893181155492
 20
-1060.783201741769
 30
0.0
 10
317.5681749377996
 20
-1063.876507600419
 30
0.0
 10
328.3494853027177
 20
-1065.803276767159
 30
0.0
 10
338.6935265513316
 20
-1067.757845274333
 30
0.0
 10
346.536111471893
 20
-1069.315840325207
 30
0.0
 10
352.2890753177888
 20
-1070.495348688206
 30
0.0
 10
356.4659005895547
 20
-1071.367229869265
 30
0.0
 10
361.382424150616
 20
-1072.415390014139
 30
0.0
 10
367.0456118381362
 20
-1073.652178892537
 30
0.0
 10
373.4080588854049
 20
-1075.079657033326
 30
0.0
 10
380.4580779161121
 20
-1076.708439426797
 30
0.0
 10
388.1833092128498
 20
-1078.551946647121
 30
0.0
 10
396.6171657380511
 20
-1080.62850755743
 30
0.0
 10
402.4664657588025
 20
-1082.13653695404
 30
0.0
 10
405.5107023207244
 20
-1082.92138269786
 30
0.0
  0
SPLINE
  5
9C
330
1F
100
AcDbEntity
  8
0
  6
Continuous
 62
     7
370
    15
100
AcDbSpline
210
0.0
220
0.0
230
1.0
 70
     8
 71
     3
 72
   221
 73
   217
 74
     0
 42
0.000000001
 43
0.00000001
 40
0.0
 40
0.0
 40
0.0
 40
0.0
 40
0.004810110482883
 40
0.0090500877093808
 40
0.0127246841834098
 40
0.0158371234981634
 40
0.0185752197177758
 40
0.0213516872213222
 40
0.0241820959371638
 40
0.0322421486354736
 40
0.0403381339826499
 40
0.0460164349278715
 40
0.0516347389586107
 40
0.0572245615492487
 40
0.0626831359750387
 40
0.0677241158380599
 40
0.0708608701770877
 40
0.0742677341780366
 40
0.0779506460908792
 40
0.0815940634514011
 40
0.0848484726173761
 40
0.087254249387752
 40
0.0901125137050746
 40
0.0934479595078712
 40
0.0966117361515347
 40
0.0994022823540647
 40
0.1016236497554908
 40
0.1036523085367732
 40
0.105520270708415
 40
0.1072309120195251
 40
0.1091142471333621
 40
0.1113863430535123
 40
0.1139278855566877
 40
0.1182920721266562
 40
0.1224012071970222
 40
0.1270618340305953
 40
0.1314755624413237
 40
0.1361215566320156
 40
0.1408450650476532
 40
0.1451791453142576
 40
0.1491013812341371
 40
0.1523429209774902
 40
0.1560497858486295
 40
0.1600987623159541
 40
0.1638032659774748
 40
0.1670586607354366
 40
0.1705600074301807
 40
0.1736457647988352
 40
0.1767398553914766
 40
0.1798450313683347
 40
0.1829685769775763
 40
0.1862292872516694
 40
0.1896562938174902
 40
0.1932667727218314
 40
0.1972878301169517
 40
0.2017462700907988
 40
0.2066417869064341
 40
0.2092005580557615
 40
0.2114602568276831
 40
0.2133557798401993
 40
0.2148876177011278
 40
0.2161003966995371
 40
0.2169162011707994
 40
0.217493501499402
 40
0.2181984179227444
 40
0.2190456743599231
 40
0.2200353183330971
 40
0.2218783343334449
 40
0.2240736014203657
 40
0.2266218598295193
 40
0.2305896510322695
 40
0.2351967400791397
 40
0.2402062469090785
 40
0.2451830700617007
 40
0.2553687422173468
 40
0.2653536182246813
 40
0.2751658091681221
 40
0.2848251943484791
 40
0.2943483877652521
 40
0.3037794299354825
 40
0.3131886142001898
 40
0.3240971583305931
 40
0.3349546213402579
 40
0.3457813928006576
 40
0.3565957035957019
 40
0.3674414452582935
 40
0.3785482815918974
 40
0.3913078668092955
 40
0.4043396028204334
 40
0.4176671782804102
 40
0.4222263909017768
 40
0.4268005429318884
 40
0.4310489556146968
 40
0.434856944249394
 40
0.4382246166793249
 40
0.4411518613265724
 40
0.4436383216518828
 40
0.4456794438105461
 40
0.4472805785173866
 40
0.4488270301143671
 40
0.4507307975322452
 40
0.4529950827213982
 40
0.4565309390182029
 40
0.4607204376218435
 40
0.4655670174640337
 40
0.4704526986309612
 40
0.4758510269453248
 40
0.481752809676207
 40
0.4880905863043534
 40
0.4943456945343536
 40
0.5004103016404744
 40
0.509705000606553
 40
0.5185322400147596
 40
0.5268998961976128
 40
0.5306870478447759
 40
0.5343738138497232
 40
0.5379602431995845
 40
0.5412439355002858
 40
0.5440522007791492
 40
0.5463842947131448
 40
0.5482394416450703
 40
0.5496169219666858
 40
0.5507336943181333
 40
0.5522486183763587
 40
0.554168628579096
 40
0.5565178626786922
 40
0.5592874405450436
 40
0.5622421108672542
 40
0.57067011106472
 40
0.5796909491590024
 40
0.5892718521607349
 40
0.5994167010141958
 40
0.6099700526337684
 40
0.6204466663455579
 40
0.6305574149504826
 40
0.6405884850935952
 40
0.6505526955094191
 40
0.6604630884547362
 40
0.6703332629486363
 40
0.6800810839426817
 40
0.6894932179845606
 40
0.6985646109022773
 40
0.7073123963872227
 40
0.7157488514925511
 40
0.7238860094698186
 40
0.7321528889927512
 40
0.7408953788915197
 40
0.750135785847731
 40
0.7555212345009369
 40
0.7609826175795389
 40
0.7660606612549969
 40
0.7706462326178313
 40
0.774743428357745
 40
0.7783616727745977
 40
0.7818635173541266
 40
0.7851555852049048
 40
0.7887996186740688
 40
0.7929784417847603
 40
0.7976968449600693
 40
0.8026386168570684
 40
0.8074612110934074
 40
0.8124887842897393
 40
0.8175271176689457
 40
0.8228491127694608
 40
0.8284041859137998
 40
0.8338421531554656
 40
0.838717835356296
 40
0.8434961040396458
 40
0.8473169881207503
 40
0.8512140499201003
 40
0.8548588382380428
 40
0.8582826767087504
 40
0.8611713862576946
 40
0.8643355366620266
 40
0.8677098583185181
 40
0.8707469056799485
 40
0.8728694831953036
 40
0.8747424435366719
 40
0.8768943537307167
 40
0.8794619388944889
 40
0.8817709826870683
 40
0.8841776875890763
 40
0.8862308892418217
 40
0.8879021008327898
 40
0.8892139396338442
 40
0.8905043858642537
 40
0.8921973613464367
 40
0.8942921951770973
 40
0.8967585948829561
 40
0.8991516725775596
 40
0.9013217683720111
 40
0.903476924070246
 40
0.9053951029302022
 40
0.9075591095688624
 40
0.9101151674986352
 40
0.9129566542818236
 40
0.915506517298108
 40
0.9176786297219234
 40
0.9194734264237391
 40
0.9220614123650368
 40
0.9250298875241709
 40
0.9283870911710659
 40
0.931850613350845
 40
0.9372457218315483
 40
0.9423251252674264
 40
0.9473749977890439
 40
0.9525712262624607
 40
0.9579561573769269
 40
0.9637068443944745
 40
0.9678680350588081
 40
0.972262522006955
 40
0.9768922055639678
 40
0.9818995320603358
 40
0.9874155913496212
 40
0.9934463024501954
 40
1.0
 40
1.0
 40
1.0
 40
1.0
 10
-412.5679423971344
 20
-1064.29338995706
 30
0.0
 10
-414.5552453932655
 20
-1064.876416750408
 30
0.0
 10
-418.2943001372477
 20
-1065.973365279032
 30
0.0
 10
-423.3840570524461
 20
-1067.585843259671
 30
0.0
 10
-427.7024251711542
 20
-1069.02362238918
 30
0.0
 10
-431.3575542646588
 20
-1070.300517260348
 30
0.0
 10
-434.6142997163101
 20
-1071.485948780145
 30
0.0
 10
-437.7104638192536
 20
-1072.658490483038
 30
0.0
 10
-442.6901128592635
 20
-1074.623001530643
 30
0.0
 10
-449.3511958403391
 20
-1077.471014552297
 30
0.0
 10
-456.5609391121038
 20
-1080.967129403864
 30
0.0
 10
-462.6034087948224
 20
-1084.252418641147
 30
0.0
 10
-467.6045830700268
 20
-1087.250912207668
 30
0.0
 10
-472.2908461136161
 20
-1090.361868818736
 30
0.0
 10
-476.5567142870019
 20
-1093.511018469746
 30
0.0
 10
-479.9447475433645
 20
-1096.292727456138
 30
0.0
 10
-482.6823415747315
 20
-1098.74610054382
 30
0.0
 10
-485.0034459756513
 20
-1100.985500091046
 30
0.0
 10
-487.3130757146877
 20
-1103.409821948401
 30
0.0
 10
-489.4492435672461
 20
-1105.868168573664
 30
0.0
 10
-491.2077691773224
 20
-1108.086422471833
 30
0.0
 10
-492.7318135986495
 20
-1110.16839620072
 30
0.0
 10
-494.2004961891992
 20
-1112.339378859914
 30
0.0
 10
-495.6823870031802
 20
-1114.760260696003
 30
0.0
 10
-497.0196963090688
 20
-1117.205601547952
 30
0.0
 10
-498.0888838670471
 20
-1119.393087076757
 30
0.0
 10
-498.9324204410497
 20
-1121.306083543225
 30
0.0
 10
-499.6087031549383
 20
-1122.992345907905
 30
0.0
 10
-500.1804532378392
 20
-1124.558813204629
 30
0.0
 10
-500.6955578276853
 20
-1126.109720805981
 30
0.0
 10
-501.1993036359673
 20
-1127.792454654873
 30
0.0
 10
-501.7050576200225
 20
-1129.721755576358
 30
0.0
 10
-502.2896485594095
 20
-1132.379169695276
 30
0.0
 10
-502.8130854676802
 20
-1135.631387547469
 30
0.0
 10
-503.1628327641716
 20
-1139.602088170185
 30
0.0
 10
-503.2242286626903
 20
-1143.512098957584
 30
0.0
 10
-503.0012286613886
 20
-1147.549927674066
 30
0.0
 10
-502.5060258541862
 20
-1151.552686283355
 30
0.0
 10
-501.7274792584599
 20
-1155.587309073169
 30
0.0
 10
-500.728069849864
 20
-1159.436934703912
 30
0.0
 10
-499.6279161769671
 20
-1162.874362770557
 30
0.0
 10
-498.4396381293322
 20
-1166.070436599734
 30
0.0
 10
-497.1033815924466
 20
-1169.249455775699
 30
0.0
 10
-495.5534829942433
 20
-1172.526889668506
 30
0.0
 10
-493.8963998951091
 20
-1175.683713580742
 30
0.0
 10
-492.184889517244
 20
-1178.678075789724
 30
0.0
 10
-490.4567966628167
 20
-1181.48106542608
 30
0.0
 10
-488.6558042208438
 20
-1184.211424235813
 30
0.0
 10
-486.8329554639395
 20
-1186.81694314143
 30
0.0
 10
-484.9109430893382
 20
-1189.416005264384
 30
0.0
 10
-482.8639903827042
 20
-1192.044455390533
 30
0.0
 10
-480.6537579585631
 20
-1194.744483540082
 30
0.0
 10
-478.2299219732948
 20
-1197.562364163158
 30
0.0
 10
-475.5102613678411
 20
-1200.571542027812
 30
0.0
 10
-472.3988067674186
 20
-1203.845651834887
 30
0.0
 10
-468.7853329681453
 20
-1207.451519347454
 30
0.0
 10
-465.3998620128195
 20
-1210.647990253227
 30
0.0
 10
-462.5327296389218
 20
-1213.24394911057
 30
0.0
 10
-460.502630890049
 20
-1215.034501326726
 30
0.0
 10
-458.7486370612052
 20
-1216.54775518798
 30
0.0
 10
-457.2949915731108
 20
-1217.779701950168
 30
0.0
 10
-456.1668066728402
 20
-1218.72248466369
 30
0.0
 10
-455.3346747460446
 20
-1219.410772568128
 30
0.0
 10
-454.6652713943181
 20
-1219.960631459806
 30
0.0
 10
-453.9840464182303
 20
-1220.516679910447
 30
0.0
 10
-453.1669495830137
 20
-1221.178597562965
 30
0.0
 10
-451.9762204337512
 20
-1222.134653975386
 30
0.0
 10
-450.3317768772865
 20
-1223.437272928379
 30
0.0
 10
-448.1431733346639
 20
-1225.138215117644
 30
0.0
 10
-445.1943374577466
 20
-1227.380096268095
 30
0.0
 10
-441.3339971289163
 20
-1230.229395664715
 30
0.0
 10
-436.4686184358968
 20
-1233.687177879331
 30
0.0
 10
-431.0648010120696
 20
-1237.372971311415
 30
0.0
 10
-423.3508965799841
 20
-1242.420910172827
 30
0.0
 10
-413.2845792553196
 20
-1248.619774502607
 30
0.0
 10
-400.6203871467193
 20
-1255.836455518727
 30
0.0
 10
-387.5800773684687
 20
-1262.738449151933
 30
0.0
 10
-374.2067683817024
 20
-1269.333452068676
 30
0.0
 10
-360.5250509366855
 20
-1275.634141721125
 30
0.0
 10
-346.5192639515017
 20
-1281.663172055255
 30
0.0
 10
-331.3867420058655
 20
-1287.75482779667
 30
0.0
 10
-315.0648588449952
 20
-1293.861285604166
 30
0.0
 10
-297.523396702578
 20
-1299.918327590005
 30
0.0
 10
-279.5977238057041
 20
-1305.618149042343
 30
0.0
 10
-261.2846625547876
 20
-1310.965638349861
 30
0.0
 10
-242.4501007986872
 20
-1315.992138445901
 30
0.0
 10
-222.1379942012443
 20
-1320.913337046331
 30
0.0
 10
-200.1737166919924
 20
-1325.665601099194
 30
0.0
 10
-176.5128529812449
 20
-1330.139291154779
 30
0.0
 10
-157.5499114389073
 20
-1333.20896144808
 30
0.0
 10
-143.6671108250469
 20
-1335.204123806718
 30
0.0
 10
-135.3647321871442
 20
-1336.320988683765
 30
0.0
 10
-127.5018988935812
 20
-1337.309324670365
 30
0.0
 10
-120.3695681674652
 20
-1338.148671583118
 30
0.0
 10
-114.0468680811887
 20
-1338.847837945098
 30
0.0
 10
-108.5402651770792
 20
-1339.422604759607
 30
0.0
 10
-103.8578746043019
 20
-1339.886395210392
 30
0.0
 10
-100.0033610989606
 20
-1340.251037292775
 30
0.0
 10
-96.73668192487729
 20
-1340.548392754415
 30
0.0
 10
-93.55362453691691
 20
-1340.828314217849
 30
0.0
 10
-89.94939075361361
 20
-1341.133095343664
 30
0.0
 10
-85.08534247831328
 20
-1341.524576562956
 30
0.0
 10
-78.76919246864618
 20
-1341.997148053923
 30
0.0
 10
-70.80695129406217
 20
-1342.532919535936
 30
0.0
 10
-61.97440398478403
 20
-1343.049662206347
 30
0.0
 10
-52.35946746419632
 20
-1343.52148915396
 30
0.0
 10
-42.05922315236026
 20
-1343.924645750977
 30
0.0
 10
-30.82074959508493
 20
-1344.241892434743
 30
0.0
 10
-19.02465487812103
 20
-1344.435578535867
 30
0.0
 10
-7.117405704021651
 20
-1344.486607824557
 30
0.0
 10
6.679660576540059
 20
-1344.382301902905
 30
0.0
 10
22.11589984429773
 20
-1344.038090942773
 30
0.0
 10
39.00287389500135
 20
-1343.366561476144
 30
0.0
 10
52.35439623759434
 20
-1342.613690184211
 30
0.0
 10
62.41599477439965
 20
-1341.92795943363
 30
0.0
 10
69.4319427186831
 20
-1341.399001061182
 30
0.0
 10
76.11920830554985
 20
-1340.847557980934
 30
0.0
 10
82.24116124693994
 20
-1340.301733846786
 30
0.0
 10
87.56234480447331
 20
-1339.795623282227
 30
0.0
 10
91.97564354449324
 20
-1339.353643202032
 30
0.0
 10
95.4824959347345
 20
-1338.988033711228
 30
0.0
 10
98.22105127456376
 20
-1338.693826091024
 30
0.0
 10
100.7434702147538
 20
-1338.416651316465
 30
0.0
 10
103.6050296871454
 20
-1338.094798099574
 30
0.0
 10
107.2377646668312
 20
-1337.673912405446
 30
0.0
 10
111.6528092395903
 20
-1337.143796827379
 30
0.0
 10
116.7087562562718
 20
-1336.51115016287
 30
0.0
 10
125.554821953819
 20
-1335.354210933593
 30
0.0
 10
138.2586235207132
 20
-1333.548382923067
 30
0.0
 10
154.9726994405782
 20
-1330.880821038093
 30
0.0
 10
172.6001478222458
 20
-1327.733610387104
 30
0.0
 10
190.9813107135015
 20
-1324.078267598491
 30
0.0
 10
209.6808840888746
 20
-1319.953420508676
 30
0.0
 10
228.1053740060107
 20
-1315.472971481253
 30
0.0
 10
245.950618917232
 20
-1310.730499712043
 30
0.0
 10
263.2110766196424
 20
-1305.75103229506
 30
0.0
 10
280.0465626307034
 20
-1300.501417139738
 30
0.0
 10
296.4592088873944
 20
-1294.991091213983
 30
0.0
 10
312.3948027911501
 20
-1289.245672772226
 30
0.0
 10
327.6844335192388
 20
-1283.339830341305
 30
0.0
 10
342.1736452653532
 20
-1277.361549538238
 30
0.0
 10
355.7696780375663
 20
-1271.386941704195
 30
0.0
 10
368.4999330392834
 20
-1265.442978397454
 30
0.0
 10
380.4034043884213
 20
-1259.549471160965
 30
0.0
 10
391.7055904587958
 20
-1253.627260594179
 30
0.0
 10
402.7583987805307
 20
-1247.494113972851
 30
0.0
 10
413.852321785865
 20
-1240.950635806897
 30
0.0
 10
423.2816955448057
 20
-1235.007335373167
 30
0.0
 10
431.0530974352866
 20
-1229.826893313152
 30
0.0
 10
437.0105862780794
 20
-1225.680851977144
 30
0.0
 10
442.4751004125401
 20
-1221.710062729632
 30
0.0
 10
447.281725719459
 20
-1218.071098258983
 30
0.0
 10
451.4440600523539
 20
-1214.797163398428
 30
0.0
 10
455.1300935932486
 20
-1211.794173163644
 30
0.0
 10
458.461300439388
 20
-1208.988087664452
 30
0.0
 10
461.7102904981751
 20
-1206.159361906416
 30
0.0
 10
465.0731234995474
 20
-1203.126899266589
 30
0.0
 10
468.7352274996022
 20
-1199.684872021415
 30
0.0
 10
472.5978683991374
 20
-1195.869951211615
 30
0.0
 10
476.4315323789422
 20
-1191.8618621566
 30
0.0
 10
480.1312239818959
 20
-1187.749084966288
 30
0.0
 10
483.6276696775114
 20
-1183.596035295785
 30
0.0
 10
487.0037213263081
 20
-1179.280199388936
 30
0.0
 10
490.2544913430245
 20
-1174.762364108411
 30
0.0
 10
493.2987257263257
 20
-1170.094967729314
 30
0.0
 10
495.9530130236147
 20
-1165.542048124953
 30
0.0
 10
498.1945222479372
 20
-1161.207184989042
 30
0.0
 10
499.9754824735521
 20
-1157.285977845403
 30
0.0
 10
501.4368058722185
 20
-1153.599179123644
 30
0.0
 10
502.5929970773646
 20
-1150.229789320823
 30
0.0
 10
503.5393917852208
 20
-1146.969564580396
 30
0.0
 10
504.2531508065131
 20
-1143.989660095764
 30
0.0
 10
504.7995736137164
 20
-1141.165193572939
 30
0.0
 10
505.2151415684442
 20
-1138.374255773738
 30
0.0
 10
505.4965340718526
 20
-1135.576787199924
 30
0.0
 10
505.6279802384265
 20
-1133.075659731614
 30
0.0
 10
505.6548803318571
 20
-1131.002862318843
 30
0.0
 10
505.6210475980524
 20
-1129.174699321943
 30
0.0
 10
505.5208920907436
 20
-1127.214177572084
 30
0.0
 10
505.3339488485407
 20
-1125.125278859532
 30
0.0
 10
505.0529111541112
 20
-1122.962250479285
 30
0.0
 10
504.7117224909011
 20
-1120.954155475217
 30
0.0
 10
504.3348074605122
 20
-1119.147561617594
 30
0.0
 10
503.9791823701801
 20
-1117.675517868832
 30
0.0
 10
503.648574501043
 20
-1116.443911965918
 30
0.0
 10
503.2946031399015
 20
-1115.23049369693
 30
0.0
 10
502.8405556506124
 20
-1113.803924852354
 30
0.0
 10
502.2258475424326
 20
-1112.061006916867
 30
0.0
 10
501.4659506684523
 20
-1110.136876184636
 30
0.0
 10
500.6169714380895
 20
-1108.212365492921
 30
0.0
 10
499.7347497294546
 20
-1106.395473773719
 30
0.0
 10
498.8548536880097
 20
-1104.730807647146
 30
0.0
 10
497.9225974821163
 20
-1103.095045056154
 30
0.0
 10
496.8856269347505
 20
-1101.399897564449
 30
0.0
 10
495.6376729873954
 20
-1099.510658171755
 30
0.0
 10
494.2432664673412
 20
-1097.567870196995
 30
0.0
 10
492.8302581803744
 20
-1095.748301284185
 30
0.0
 10
491.5517251549618
 20
-1094.207474488855
 30
0.0
 10
490.2171682925562
 20
-1092.683257971903
 30
0.0
 10
488.67286455294
 20
-1091.017825028928
 30
0.0
 10
486.7237060483565
 20
-1089.056528471953
 30
0.0
 10
484.4817955028856
 20
-1086.964520842892
 30
0.0
 10
481.5446293060888
 20
-1084.429179663017
 30
0.0
 10
478.0018911161525
 20
-1081.653559105694
 30
0.0
 10
473.8266037055842
 20
-1078.717278974668
 30
0.0
 10
469.4844806345264
 20
-1075.952153882918
 30
0.0
 10
464.837266600061
 20
-1073.264746226
 30
0.0
 10
459.7524825047315
 20
-1070.591881707561
 30
0.0
 10
454.7673059042448
 20
-1068.213401519038
 30
0.0
 10
449.9196500251965
 20
-1066.084708974433
 30
0.0
 10
445.3077295196553
 20
-1064.195787741675
 30
0.0
 10
440.2388911953415
 20
-1062.26356041043
 30
0.0
 10
434.5909634844508
 20
-1060.265562404215
 30
0.0
 10
428.2144646793135
 20
-1058.186715811637
 30
0.0
 10
421.0188459839911
 20
-1056.020555166241
 30
0.0
 10
415.7910783141371
 20
-1054.618941997602
 30
0.0
 10
413.0685659481835
 20
-1053.889011093077
 30
0.0
  0
SPLINE
  5
9D
330
1F
100
AcDbEntity
  8
0
  6
Continuous
 62
     7
370
    15
100
AcDbSpline
210
0.0
220
0.0
230
1.0
 70
     8
 71
     3
 72
   196
 73
   192
 74
     0
 42
0.000000001
 43
0.00000001
 40
0.0
 40
0.0
 40
0.0
 40
0.0
 40
0.0048284153781934
 40
0.0090850927767382
 40
0.0127775478249273
 40
0.0159113862982177
 40
0.0186540757377561
 40
0.0214289548845774
 40
0.024257764626447
 40
0.0323126232514522
 40
0.040411182141875
 40
0.0474934813776141
 40
0.0544588180446959
 40
0.0612945870309188
 40
0.0676629996601777
 40
0.0706337145098025
 40
0.073829991306447
 40
0.0772531675075594
 40
0.0806728096782002
 40
0.0837461950535227
 40
0.0865943687051507
 40
0.0892200941887103
 40
0.0922548543668614
 40
0.0951834455312188
 40
0.0978254858331005
 40
0.1001837050090077
 40
0.1022926989605667
 40
0.1047473246038034
 40
0.107103400045579
 40
0.1103347310291015
 40
0.1138627791510554
 40
0.1169941633129334
 40
0.1199509661316765
 40
0.1233750711979629
 40
0.1272591099980888
 40
0.1310777651755128
 40
0.1349572873469277
 40
0.1387397033004614
 40
0.1422921056507405
 40
0.1456176749674434
 40
0.1490998456972604
 40
0.1527976198260574
 40
0.1567514147993287
 40
0.1603557350244931
 40
0.1635447954578555
 40
0.1663161587858883
 40
0.170738947411418
 40
0.1751305332009987
 40
0.1795289674985717
 40
0.1841945600220387
 40
0.1892172794376702
 40
0.1914165150591297
 40
0.1937526594213073
 40
0.1962257652337506
 40
0.198836009549206
 40
0.2015837112595277
 40
0.2044533922977008
 40
0.2070426847730135
 40
0.2091765362587192
 40
0.2109234645412025
 40
0.2121702358701047
 40
0.2129275086907419
 40
0.2136337710323408
 40
0.2145168984286436
 40
0.2155770029313724
 40
0.2181509357152564
 40
0.2213988801992634
 40
0.2253238298530663
 40
0.2299304993993029
 40
0.235074653394032
 40
0.2402411455501168
 40
0.2453883762629211
 40
0.2572180360527137
 40
0.2687731553678752
 40
0.2800873353962652
 40
0.2911875308595077
 40
0.3021522920294876
 40
0.3131307816451208
 40
0.326349041447801
 40
0.3394924324354022
 40
0.3525227833307965
 40
0.3655029130959655
 40
0.3787311318891331
 40
0.3913818662021883
 40
0.4043515301711031
 40
0.417667397364302
 40
0.4230007326257973
 40
0.4281378031263722
 40
0.4327728494231868
 40
0.4368963528603534
 40
0.4405070930490412
 40
0.4436091378267167
 40
0.4460977032166279
 40
0.4481470872276937
 40
0.4501596830658181
 40
0.4522896003886787
 40
0.4547373223866864
 40
0.4577074613065065
 40
0.4611991504081548
 40
0.4652116724933764
 40
0.4699734390659729
 40
0.4753064253459459
 40
0.4812114701943491
 40
0.4875709708096795
 40
0.4938303981995307
 40
0.49992144205969
 40
0.5063762477488979
 40
0.5126346796781788
 40
0.5186981942928817
 40
0.5245678229336419
 40
0.5302441998039258
 40
0.5357178608052705
 40
0.540907781610803
 40
0.5439975840857649
 40
0.5466243775802361
 40
0.5487895073699185
 40
0.5504939850411933
 40
0.5517385447792981
 40
0.5529118425775166
 40
0.554515300459366
 40
0.5565504191892718
 40
0.55976397157842
 40
0.5634514232780011
 40
0.5672849943310545
 40
0.5712622746371965
 40
0.5753837824455642
 40
0.5796501912350942
 40
0.5840623456936037
 40
0.5886212783420516
 40
0.596084804859031
 40
0.6039199034866937
 40
0.611942354421344
 40
0.6199371924247135
 40
0.6319535650866827
 40
0.6437940570169212
 40
0.6554718361066375
 40
0.6670078417755186
 40
0.6784172015029132
 40
0.6895376773734343
 40
0.6987855346497063
 40
0.707736117665209
 40
0.7163558666447157
 40
0.7246532722366203
 40
0.7327838465464775
 40
0.7413053414197173
 40
0.7502827121928184
 40
0.7555172817401099
 40
0.7609052212343095
 40
0.7663498753057731
 40
0.7713729252868982
 40
0.7759000421405025
 40
0.7799371275510399
 40
0.7835098400841511
 40
0.7867251644064754
 40
0.7900219853624869
 40
0.7936647349760426
 40
0.79781290891202
 40
0.8024673778244019
 40
0.8073345343874236
 40
0.8134354837447295
 40
0.8194555246911599
 40
0.825725409532587
 40
0.8323189034209174
 40
0.8384839957656557
 40
0.8439332992637207
 40
0.8491443934672962
 40
0.854681054021737
 40
0.8598090960086956
 40
0.8648837586395638
 40
0.8708220873408171
 40
0.8777631430365341
 40
0.8861033474553616
 40
0.8926227030722949
 40
0.9011610899213355
 40
0.9087768289538884
 40
0.9177707138331793
 40
0.9241957752070659
 40
0.9318184799331928
 40
0.9372650600859244
 40
0.9423341717770501
 40
0.9473598048629258
 40
0.9525427000653598
 40
0.9579318838754945
 40
0.9636856415835413
 40
0.9678408160054836
 40
0.9722241585516219
 40
0.9768389103305161
 40
0.9818383410457614
 40
0.987358180327035
 40
0.9934079392875409
 40
1.0
 40
1.0
 40
1.0
 40
1.0
 10
405.5233790820007
 20
-1082.924671704684
 30
0.0
 10
407.3405195977249
 20
-1083.404628673088
 30
0.0
 10
410.7596310205497
 20
-1084.30771037697
 30
0.0
 10
415.3871377365909
 20
-1085.639475830097
 30
0.0
 10
419.2954179509219
 20
-1086.82779749444
 30
0.0
 10
422.578582781165
 20
-1087.880391576082
 30
0.0
 10
425.4715702990264
 20
-1088.850342257331
 30
0.0
 10
428.1964564190635
 20
-1089.803808390799
 30
0.0
 10
432.5435657075296
 20
-1091.392883623
 30
0.0
 10
438.287254173584
 20
-1093.6814382693
 30
0.0
 10
444.7362521962302
 20
-1096.614232541513
 30
0.0
 10
450.342364322905
 20
-1099.518660294873
 30
0.0
 10
455.1184303599842
 20
-1102.329390898746
 30
0.0
 10
459.2210371419033
 20
-1105.086512199984
 30
0.0
 10
462.1420608306101
 20
-1107.336145465544
 30
0.0
 10
464.1853563141659
 20
-1109.080443539878
 30
0.0
 10
465.6280671821407
 20
-1110.403508057146
 30
0.0
 10
467.0175308823953
 20
-1111.784097347163
 30
0.0
 10
468.2757352123465
 20
-1113.149096835863
 30
0.0
 10
469.3620027582786
 20
-1114.437168182058
 30
0.0
 10
470.2689689084759
 20
-1115.610418829141
 30
0.0
 10
471.0738007986439
 20
-1116.742402721874
 30
0.0
 10
471.8095410508993
 20
-1117.87466526646
 30
0.0
 10
472.4788039777695
 20
-1119.016214950712
 30
0.0
 10
473.0358245083345
 20
-1120.072837429557
 30
0.0
 10
473.4858111923198
 20
-1121.020168445047
 30
0.0
 10
473.8810565403531
 20
-1121.940734026419
 30
0.0
 10
474.2315004196854
 20
-1122.855059271066
 30
0.0
 10
474.5809755136147
 20
-1123.891053026766
 30
0.0
 10
474.9250268481616
 20
-1125.096472339251
 30
0.0
 10
475.2198303141286
 20
-1126.430667585915
 30
0.0
 10
475.4279917263707
 20
-1127.719610016094
 30
0.0
 10
475.5698741742527
 20
-1128.990194145038
 30
0.0
 10
475.6555620715623
 20
-1130.475020661645
 30
0.0
 10
475.6455763591994
 20
-1132.164291553438
 30
0.0
 10
475.5126203123589
 20
-1134.044289178375
 30
0.0
 10
475.2543487655162
 20
-1135.955873027805
 30
0.0
 10
474.8843645488377
 20
-1137.844484135333
 30
0.0
 10
474.4251270852615
 20
-1139.669242673416
 30
0.0
 10
473.8851128200524
 20
-1141.461908683995
 30
0.0
 10
473.2205420176836
 20
-1143.369536278359
 30
0.0
 10
472.3717319760177
 20
-1145.498598635928
 30
0.0
 10
471.3628846364852
 20
-1147.731364753721
 30
0.0
 10
470.2774997540211
 20
-1149.887972933874
 30
0.0
 10
469.2082023227785
 20
-1151.839576911191
 30
0.0
 10
467.943607288884
 20
-1153.996263792955
 30
0.0
 10
466.3837332127827
 20
-1156.464287292931
 30
0.0
 10
464.4073559358325
 20
-1159.339361503638
 30
0.0
 10
462.1857215314922
 20
-1162.334337610661
 30
0.0
 10
459.6387343658059
 20
-1165.529260000927
 30
0.0
 10
457.2968067082398
 20
-1168.266701658418
 30
0.0
 10
455.3037707687788
 20
-1170.485282953746
 30
0.0
 10
453.7927698699431
 20
-1172.118666384752
 30
0.0
 10
452.1384536388773
 20
-1173.854039657941
 30
0.0
 10
450.3323924004836
 20
-1175.691385028583
 30
0.0
 10
448.3697266551553
 20
-1177.626796941699
 30
0.0
 10
446.3447402992275
 20
-1179.561792447014
 30
0.0
 10
444.4135278727511
 20
-1181.353575514822
 30
0.0
 10
442.725787451291
 20
-1182.881354568354
 30
0.0
 10
441.3602750838586
 20
-1184.093332397349
 30
0.0
 10
440.3451847288583
 20
-1184.980980792222
 30
0.0
 10
439.60130558962
 20
-1185.625101006826
 30
0.0
 10
438.9472346060024
 20
-1186.187411552823
 30
0.0
 10
438.2015034562274
 20
-1186.823571243585
 30
0.0
 10
436.915757660384
 20
-1187.910151976089
 30
0.0
 10
434.9202181117378
 20
-1189.567707547206
 30
0.0
 10
432.0164632740375
 20
-1191.914886172417
 30
0.0
 10
428.3964071196643
 20
-1194.747226825413
 30
0.0
 10
424.0458684577505
 20
-1198.025867671317
 30
0.0
 10
419.1224019569324
 20
-1201.586448508611
 30
0.0
 10
413.8291767857522
 20
-1205.257067422955
 30
0.0
 10
405.9803509473285
 20
-1210.483010241193
 30
0.0
 10
395.3212427881436
 20
-1217.139170025393
 30
0.0
 10
381.5066670358706
 20
-1225.066485248261
 30
0.0
 10
367.2192968376065
 20
-1232.63728156744
 30
0.0
 10
352.500191064844
 20
-1239.868941121307
 30
0.0
 10
337.3096388235836
 20
-1246.798942933907
 30
0.0
 10
320.5551036921121
 20
-1253.901170240775
 30
0.0
 10
302.1175799286094
 20
-1261.105719580516
 30
0.0
 10
281.9958401740877
 20
-1268.285089743483
 30
0.0
 10
261.3959412052268
 20
-1274.98000489043
 30
0.0
 10
240.2090995468122
 20
-1281.226245962728
 30
0.0
 10
218.7502030949537
 20
-1286.926562448799
 30
0.0
 10
196.8788440498553
 20
-1292.129212967002
 30
0.0
 10
174.5891923890724
 20
-1296.834264786906
 30
0.0
 10
156.2206440969934
 20
-1300.220402323847
 30
0.0
 10
142.2819354238557
 20
-1302.529396846933
 30
0.0
 10
133.3893066457063
 20
-1303.909898578052
 30
0.0
 10
125.1767348431536
 20
-1305.106198815061
 30
0.0
 10
117.8421307036782
 20
-1306.111715169988
 30
0.0
 10
111.3990230601206
 20
-1306.946209677875
 30
0.0
 10
105.9159587775494
 20
-1307.620669718012
 30
0.0
 10
101.3554017555701
 20
-1308.156930019203
 30
0.0
 10
97.43998288783814
 20
-1308.600144306762
 30
0.0
 10
93.73474146492624
 20
-1309.005030873861
 30
0.0
 10
89.78666894360185
 20
-1309.420682356111
 30
0.0
 10
85.25966939476142
 20
-1309.877335407342
 30
0.0
 10
79.90882386435952
 20
-1310.389244699663
 30
0.0
 10
73.60869607509862
 20
-1310.952961573865
 30
0.0
 10
66.21896738802668
 20
-1311.561186370451
 30
0.0
 10
57.70536294488818
 20
-1312.190811921889
 30
0.0
 10
48.03304808792639
 20
-1312.813458262545
 30
0.0
 10
37.37781385301116
 20
-1313.385759811219
 30
0.0
 10
26.14630819059922
 20
-1313.858450339307
 30
0.0
 10
14.79101803571054
 20
-1314.2007233594
 30
0.0
 10
3.371710625719372
 20
-1314.411672164486
 30
0.0
 10
-8.048770599049098
 20
-1314.487545772414
 30
0.0
 10
-19.44937441618074
 20
-1314.426414151813
 30
0.0
 10
-30.48726956627788
 20
-1314.238642044846
 30
0.0
 10
-41.16100742320643
 20
-1313.936558674375
 30
0.0
 10
-51.46332112932207
 20
-1313.532403532947
 30
0.0
 10
-61.33809414611508
 20
-1313.040818643078
 30
0.0
 10
-69.63428239848027
 20
-1312.543773476971
 30
0.0
 10
-76.20195999964524
 20
-1312.098467489129
 30
0.0
 10
-80.9421616322474
 20
-1311.751185495697
 30
0.0
 10
-84.84480142489369
 20
-1311.447370812273
 30
0.0
 10
-87.91417904716555
 20
-1311.197042245693
 30
0.0
 10
-90.38649232534203
 20
-1310.988413071529
 30
0.0
 10
-92.79690944536398
 20
-1310.779409525587
 30
0.0
 10
-95.67911683364696
 20
-1310.521803338141
 30
0.0
 10
-99.77929887305335
 20
-1310.140977471539
 30
0.0
 10
-105.118421833766
 20
-1309.618061874141
 30
0.0
 10
-111.5184469002565
 20
-1308.948568546313
 30
0.0
 10
-118.3568681512133
 20
-1308.183419620143
 30
0.0
 10
-125.4339301953749
 20
-1307.337784347184
 30
0.0
 10
-132.7453636510805
 20
-1306.406237555218
 30
0.0
 10
-140.2884363802117
 20
-1305.38298478218
 30
0.0
 10
-148.0603191376131
 20
-1304.262051572394
 30
0.0
 10
-157.6697798126149
 20
-1302.790446081345
 30
0.0
 10
-169.2134735103699
 20
-1300.883954339665
 30
0.0
 10
-182.6602971211317
 20
-1298.455430762323
 30
0.0
 10
-196.2853621672301
 20
-1295.773396789159
 30
0.0
 10
-212.1323023109216
 20
-1292.389986936615
 30
0.0
 10
-229.8837685026192
 20
-1288.223519384827
 30
0.0
 10
-249.3072452988643
 20
-1283.15963223351
 30
0.0
 10
-268.0572498476508
 20
-1277.772739614367
 30
0.0
 10
-286.1381273026627
 20
-1272.086951777852
 30
0.0
 10
-303.4599757069802
 20
-1266.151126898261
 30
0.0
 10
-319.1457139654788
 20
-1260.318532481122
 30
0.0
 10
-333.188392980024
 20
-1254.706098383727
 30
0.0
 10
-345.6586929952526
 20
-1249.39386879909
 30
0.0
 10
-357.3132934510698
 20
-1244.113643470315
 30
0.0
 10
-368.2290915843628
 20
-1238.865263857133
 30
0.0
 10
-378.7241808365612
 20
-1233.51668273329
 30
0.0
 10
-389.071680791514
 20
-1227.915554454909
 30
0.0
 10
-397.8310554988669
 20
-1222.856544797725
 30
0.0
 10
-405.0754349560847
 20
-1218.440296282066
 30
0.0
 10
-410.8200405250047
 20
-1214.789059786446
 30
0.0
 10
-416.2885511452085
 20
-1211.157982533395
 30
0.0
 10
-421.2683978307182
 20
-1207.702994660952
 30
0.0
 10
-425.6156816331925
 20
-1204.559433834448
 30
0.0
 10
-429.3609150106807
 20
-1201.744984059656
 30
0.0
 10
-432.5870764192065
 20
-1199.233344909641
 30
0.0
 10
-435.4914347214207
 20
-1196.897975610848
 30
0.0
 10
-438.3191077085665
 20
-1194.550276931909
 30
0.0
 10
-441.2873853879146
 20
-1191.997106808639
 30
0.0
 10
-444.4724148812663
 20
-1189.141993943674
 30
0.0
 10
-447.7933394044545
 20
-1186.015390240447
 30
0.0
 10
-451.3644502256344
 20
-1182.458019629881
 30
0.0
 10
-454.9550083566011
 20
-1178.624331263577
 30
0.0
 10
-458.496227248536
 20
-1174.509897047733
 30
0.0
 10
-461.7192867887024
 20
-1170.392848792998
 30
0.0
 10
-464.5382326995033
 20
-1166.368808807707
 30
0.0
 10
-466.8545468398465
 20
-1162.61353739002
 30
0.0
 10
-468.6776305503318
 20
-1159.219725804624
 30
0.0
 10
-470.1072703459556
 20
-1156.130415741505
 30
0.0
 10
-471.2226855330784
 20
-1153.255109153462
 30
0.0
 10
-472.0719399642858
 20
-1150.516603928956
 30
0.0
 10
-472.6976271742935
 20
-1147.847256524171
 30
0.0
 10
-473.132814440232
 20
-1144.872366096594
 30
0.0
 10
-473.2483783724642
 20
-1141.61278398746
 30
0.0
 10
-472.9631365491294
 20
-1138.642136551825
 30
0.0
 10
-472.2882236832182
 20
-1135.581624895578
 30
0.0
 10
-471.1699564768275
 20
-1132.502890806559
 30
0.0
 10
-469.445150169977
 20
-1129.209181947753
 30
0.0
 10
-467.1963704567424
 20
-1125.978225667908
 30
0.0
 10
-464.3946364819329
 20
-1122.772726448665
 30
0.0
 10
-461.4829399454385
 20
-1119.974218512894
 30
0.0
 10
-458.3653800347853
 20
-1117.392757179121
 30
0.0
 10
-455.3816454937313
 20
-1115.175619592949
 30
0.0
 10
-452.1687836613112
 20
-1113.013102883459
 30
0.0
 10
-448.6020565598261
 20
-1110.828208888466
 30
0.0
 10
-444.5666538583749
 20
-1108.575887727546
 30
0.0
 10
-440.4997824876646
 20
-1106.508446427513
 30
0.0
 10
-436.4774668429137
 20
-1104.62099539934
 30
0.0
 10
-432.603611116586
 20
-1102.920327207492
 30
0.0
 10
-428.2961047339198
 20
-1101.154358617061
 30
0.0
 10
-423.4249367242844
 20
-1099.294135511796
 30
0.0
 10
-417.8376611796077
 20
-1097.320308524061
 30
0.0
 10
-411.4498731550439
 20
-1095.228406152889
 30
0.0
 10
-406.7461961286324
 20
-1093.848990487144
 30
0.0
 10
-404.2934697544214
 20
-1093.129695951108
 30
0.0
  0
SPLINE
  5
A0
330
1F
100
AcDbEntity
  8
0
  6
Continuous
 62
     7
370
    15
100
AcDbSpline
210
0.0
220
0.0
230
1.0
 70
     8
 71
     3
 72
    33
 73
    29
 74
     0
 42
0.000000001
 43
0.00000001
 40
0.0
 40
0.0
 40
0.0
 40
0.0
 40
0.0217728293207016
 40
0.0418827944565976
 40
0.0603292464595138
 40
0.0771114439213096
 40
0.0922285929350516
 40
0.1054542936912499
 40
0.1170723371140609
 40
0.1270958967673437
 40
0.1365592284096647
 40
0.1710320126546874
 40
0.2065041788427746
 40
0.2702682425281323
 40
0.3340321293202819
 40
0.4099413937426688
 40
0.4858506514211856
 40
0.5617658962770053
 40
0.658438204471958
 40
0.7550710401481606
 40
0.8516884497969055
 40
0.8835694719699705
 40
0.9154067380219308
 40
0.9457238763251369
 40
0.9738030679100875
 40
0.9840620107622197
 40
0.9964722858945264
 40
1.0
 40
1.0
 40
1.0
 40
1.0
 10
404.6148885353219
 20
1090.55803265775
 30
0.0
 10
402.1102194698179
 20
1089.860452300997
 30
0.0
 10
397.2921713371132
 20
1088.518568144901
 30
0.0
 10
390.3376440147016
 20
1086.649169545227
 30
0.0
 10
383.9498326450855
 20
1084.972857024884
 30
0.0
 10
378.1304765824191
 20
1083.483089168453
 30
0.0
 10
372.9083733209841
 20
1082.175537436154
 30
0.0
 10
368.2788538462844
 20
1081.039534525635
 30
0.0
 10
364.2355322656874
 20
1080.064897618799
 30
0.0
 10
360.6249400260701
 20
1079.208157061144
 30
0.0
 10
354.3569115096074
 20
1077.742039812589
 30
0.0
 10
345.1204199240409
 20
1075.651770733824
 30
0.0
 10
329.5359336833912
 20
1072.312023086459
 30
0.0
 10
310.4857140756903
 20
1068.551138847474
 30
0.0
 10
286.6360503452962
 20
1064.352925458988
 30
0.0
 10
261.2875648154549
 20
1060.476184910126
 30
0.0
 10
234.4386007859859
 20
1057.03282711509
 30
0.0
 10
205.0785300564054
 20
1053.98133574291
 30
0.0
 10
173.2108203059942
 20
1051.534113273168
 30
0.0
 10
138.852316137407
 20
1049.9347485754
 30
0.0
 10
112.1606250459224
 20
1049.500182072441
 30
0.0
 10
93.15649979854444
 20
1049.573857998363
 30
0.0
 10
82.01309320114487
 20
1049.728527822015
 30
0.0
 10
71.32341796814325
 20
1049.981994949188
 30
0.0
 10
63.19294089351853
 20
1050.248759716172
 30
0.0
 10
57.1848495179615
 20
1050.484373470512
 30
0.0
 10
54.08367042078987
 20
1050.613050402647
 30
0.0
 10
52.19749429379976
 20
1050.702275271853
 30
0.0
 10
51.78000812102599
 20
1050.722024301982
 30
0.0
  0
SPLINE
  5
A1
330
1F
100
AcDbEntity
  8
0
  6
Continuous
 62
     7
370
    15
100
AcDbSpline
210
0.0
220
0.0
230
1.0
 70
     8
 71
     3
 72
    31
 73
    27
 74
     0
 42
0.000000001
 43
0.00000001
 40
0.0
 40
0.0
 40
0.0
 40
0.0
 40
0.0198577970250905
 40
0.0556586691948378
 40
0.1200732616771708
 40
0.1844885964440567
 40
0.2611782236423595
 40
0.3378813681375147
 40
0.4146189766835363
 40
0.5122279555097775
 40
0.6098247761360007
 40
0.707421509903044
 40
0.7396285771426704
 40
0.7718154479821816
 40
0.8025743690742488
 40
0.8310509334017483
 40
0.8393912602465866
 40
0.8491965929430016
 40
0.8605479926895533
 40
0.8734447377523908
 40
0.8878860611162569
 40
0.9038711685764852
 40
0.9246915610594139
 40
0.9476539091468439
 40
0.9727570482846621
 40
1.0
 40
1.0
 40
1.0
 40
1.0
 10
53.99999999999815
 20
1020.630042325704
 30
0.0
 10
56.38879598708251
 20
1020.526360248493
 30
0.0
 10
63.0842620275044
 20
1020.235753670651
 30
0.0
 10
77.53769413206813
 20
1019.810882908265
 30
0.0
 10
97.36356368470517
 20
1019.498928530783
 30
0.0
 10
122.1229107114091
 20
1019.619284855928
 30
0.0
 10
148.3631447390085
 20
1020.316784229566
 30
0.0
 10
176.0752566707314
 20
1021.716720227221
 30
0.0
 10
206.2765370543066
 20
1023.967156600017
 30
0.0
 10
238.9386531786396
 20
1027.292471762167
 30
0.0
 10
274.0137211988645
 20
1031.952541917922
 30
0.0
 10
301.159825504014
 20
1036.415151987623
 30
0.0
 10
320.4411299179591
 20
1039.995397499068
 30
0.0
 10
331.7495916654382
 20
1042.215499769733
 30
0.0
 10
342.5974033813064
 20
1044.458625260112
 30
0.0
 10
350.6028724114908
 20
1046.193246542744
 30
0.0
 10
356.1205097052302
 20
1047.422913173507
 30
0.0
 10
359.6104582767178
 20
1048.211340530046
 30
0.0
 10
363.6375029620669
 20
1049.135471497192
 30
0.0
 10
368.2099921458649
 20
1050.203512506729
 30
0.0
 10
373.3262910495481
 20
1051.422270603597
 30
0.0
 10
379.373034247134
 20
1052.89397545594
 30
0.0
 10
386.4173940846176
 20
1054.652704116372
 30
0.0
 10
394.5248067291246
 20
1056.739580525324
 30
0.0
 10
403.3750870092072
 20
1059.085949287924
 30
0.0
 10
409.5122524462414
 20
1060.7853674344
 30
0.0
 10
412.7062732211488
 20
1061.669811062455
 30
0.0
  0
SPLINE
  5
A2
330
1F
100
AcDbEntity
  8
0
  6
Continuous
 62
     7
370
    15
100
AcDbSpline
210
0.0
220
0.0
230
1.0
 70
     8
 71
     3
 72
    34
 73
    30
 74
     0
 42
0.000000001
 43
0.00000001
 40
0.0
 40
0.0
 40
0.0
 40
0.0
 40
0.0214723073836345
 40
0.0413052991615792
 40
0.0594983423458543
 40
0.0760507271293236
 40
0.0909617020155325
 40
0.104007967102545
 40
0.1154694753244543
 40
0.1253585384235156
 40
0.1346904948358242
 40
0.1686847442678244
 40
0.2036649361519239
 40
0.2665468907713041
 40
0.3294289965805373
 40
0.4042888264598741
 40
0.4791488084127784
 40
0.5540116264731623
 40
0.6493394382344121
 40
0.7446418319898055
 40
0.8399239479668698
 40
0.8713657577366724
 40
0.9027622807846615
 40
0.9326586677335775
 40
0.960347902874515
 40
0.9704624115293856
 40
0.9826985100870095
 40
0.9970806762064577
 40
1.0
 40
1.0
 40
1.0
 40
1.0
 10
-412.9546851172906
 20
1056.50813794496
 30
0.0
 10
-410.4300390923191
 20
1055.841407360304
 30
0.0
 10
-405.5734925891696
 20
1054.558848119354
 30
0.0
 10
-398.565815074583
 20
1052.773019969349
 30
0.0
 10
-392.1307337737841
 20
1051.172282879402
 30
0.0
 10
-386.2699209771451
 20
1049.750336015014
 30
0.0
 10
-381.0120958453295
 20
1048.502903837789
 30
0.0
 10
-376.352406667936
 20
1047.419684337925
 30
0.0
 10
-372.2840992825486
 20
1046.490842535624
 30
0.0
 10
-368.6539572671156
 20
1045.675100103513
 30
0.0
 10
-362.3551868820769
 20
1044.280062225988
 30
0.0
 10
-353.075181326882
 20
1042.292271158538
 30
0.0
 10
-337.421290531019
 20
1039.119521309326
 30
0.0
 10
-318.2920014406692
 20
1035.552908956022
 30
0.0
 10
-294.3523831709655
 20
1031.583786869382
 30
0.0
 10
-268.9182361948092
 20
1027.936022807915
 30
0.0
 10
-241.9895715537018
 20
1024.721166752744
 30
0.0
 10
-212.5544405689324
 20
1021.906913410262
 30
0.0
 10
-180.6167748179148
 20
1019.705304165623
 30
0.0
 10
-146.1901385733668
 20
1018.356005330151
 30
0.0
 10
-119.451596819121
 20
1018.100071437238
 30
0.0
 10
-100.4169852430811
 20
1018.291212780297
 30
0.0
 10
-89.25653520332352
 20
1018.51181630122
 30
0.0
 10
-78.55134331899215
 20
1018.824883415327
 30
0.0
 10
-70.40965754593707
 20
1019.135985106234
 30
0.0
 10
-64.39369819551597
 20
1019.400533257184
 30
0.0
 10
-59.97869688059382
 20
1019.611800134882
 30
0.0
 10
-56.42900754000146
 20
1019.790240958575
 30
0.0
 10
-54.35068121437463
 20
1019.908333868013
 30
0.0
 10
-54.00000000000174
 20
1019.928259980856
 30
0.0
  0
SPLINE
  5
A3
330
1F
100
AcDbEntity
  8
0
  6
Continuous
 62
     7
370
    15
100
AcDbSpline
210
0.0
220
0.0
230
1.0
 70
     8
 71
     3
 72
    31
 73
    27
 74
     0
 42
0.000000001
 43
0.00000001
 40
0.0
 40
0.0
 40
0.0
 40
0.0
 40
0.0096489671496106
 40
0.0188812114359843
 40
0.0525056025823313
 40
0.0871104305660485
 40
0.1493787540108642
 40
0.2116521709432108
 40
0.3228625491462785
 40
0.4341219764564254
 40
0.5284760420580138
 40
0.6228231050258636
 40
0.7171705845048427
 40
0.7483055084583217
 40
0.7794213194846181
 40
0.8091586806414311
 40
0.8366892702314973
 40
0.8465255078024624
 40
0.8584350332027151
 40
0.8724969029161536
 40
0.8887098778618451
 40
0.9070726498740793
 40
0.9271987708803221
 40
0.9493960781131335
 40
0.9736634625274623
 40
1.0
 40
1.0
 40
1.0
 40
1.0
 10
-52.12126808019154
 20
1050.061011152694
 30
0.0
 10
-53.26195449488723
 20
1049.995704442611
 30
0.0
 10
-55.49406297282869
 20
1049.86791151077
 30
0.0
 10
-61.70246833340067
 20
1049.536447197776
 30
0.0
 10
-70.86548751983571
 20
1049.107436888454
 30
0.0
 10
-86.31079861399456
 20
1048.552567293606
 30
0.0
 10
-105.1591729668239
 20
1048.162792013924
 30
0.0
 10
-133.0936239602967
 20
1048.131134789192
 30
0.0
 10
-166.8407075540256
 20
1049.009829885781
 30
0.0
 10
-204.3616511996146
 20
1051.291287326264
 30
0.0
 10
-239.8232567656553
 20
1054.589816535128
 30
0.0
 10
-273.2043110341015
 20
1058.703036840662
 30
0.0
 10
-299.0464394894033
 20
1062.682450811212
 30
0.0
 10
-317.4052850843422
 20
1065.892389695971
 30
0.0
 10
-328.1741442228239
 20
1067.887575266953
 30
0.0
 10
-338.5055665492677
 20
1069.907783205453
 30
0.0
 10
-346.3381009896145
 20
1071.51554284408
 30
0.0
 10
-352.0834596547374
 20
1072.73155550834
 30
0.0
 10
-356.2546647765403
 20
1073.629939600251
 30
0.0
 10
-361.1644340048353
 20
1074.709295769759
 30
0.0
 10
-366.8196546222954
 20
1075.982017766767
 30
0.0
 10
-373.1729097345912
 20
1077.449865085059
 30
0.0
 10
-380.2124448018008
 20
1079.123378292696
 30
0.0
 10
-387.925815142581
 20
1081.015899216084
 30
0.0
 10
-396.3463166678801
 20
1083.145968502358
 30
0.0
 10
-402.1859236425421
 20
1084.691107258357
 30
0.0
 10
-405.2251155110481
 20
1085.495266367578
 30
0.0
  0
SPLINE
  5
A4
330
1F
100
AcDbEntity
  8
0
  6
Continuous
 62
     7
370
    15
100
AcDbSpline
210
0.0
220
0.0
230
1.0
 70
     8
 71
     3
 72
   221
 73
   217
 74
     0
 42
0.000000001
 43
0.00000001
 40
0.0
 40
0.0
 40
0.0
 40
0.0
 40
0.0048101104828831
 40
0.0090500877093809
 40
0.0127246841834098
 40
0.0158371234981636
 40
0.0185752197177758
 40
0.0213516872213224
 40
0.0241820959371637
 40
0.0322421486354739
 40
0.04033813398265
 40
0.0460164349278718
 40
0.0516347389586109
 40
0.0572245615492482
 40
0.0626831359750376
 40
0.0677241158380592
 40
0.0708608701770875
 40
0.0742677341780367
 40
0.0779506460908796
 40
0.0815940634514013
 40
0.0848484726173763
 40
0.0872542493877523
 40
0.0901125137050747
 40
0.0934479595078709
 40
0.0966117361515343
 40
0.0994022823540643
 40
0.1016236497554908
 40
0.1036523085367731
 40
0.1055202707084145
 40
0.1072309120195239
 40
0.1091142471333605
 40
0.1113863430535108
 40
0.1139278855566872
 40
0.1182920721266568
 40
0.1224012071970234
 40
0.1270618340305963
 40
0.1314755624413242
 40
0.1361215566320156
 40
0.1408450650476523
 40
0.1451791453142566
 40
0.1491013812341367
 40
0.1523429209774902
 40
0.1560497858486298
 40
0.1600987623159544
 40
0.1638032659774747
 40
0.1670586607354365
 40
0.1705600074301806
 40
0.1736457647988354
 40
0.1767398553914769
 40
0.1798450313683351
 40
0.1829685769775768
 40
0.1862292872516699
 40
0.1896562938174907
 40
0.193266772721832
 40
0.1972878301169522
 40
0.2017462700907993
 40
0.2066417869064346
 40
0.209200558055762
 40
0.2114602568276837
 40
0.2133557798401997
 40
0.2148876177011283
 40
0.2161003966995374
 40
0.2169162011707997
 40
0.2174935014994024
 40
0.2181984179227449
 40
0.2190456743599234
 40
0.2200353183330976
 40
0.2218783343334453
 40
0.2240736014203661
 40
0.2266218598295198
 40
0.23058965103227
 40
0.2351967400791402
 40
0.240206246909079
 40
0.2451830700617011
 40
0.2553687422173473
 40
0.2653536182246817
 40
0.2751658091681226
 40
0.2848251943484796
 40
0.2943483877652525
 40
0.3037794299354831
 40
0.3131886142001903
 40
0.3240971583305937
 40
0.3349546213402584
 40
0.3457813928006581
 40
0.3565957035957023
 40
0.367441445258294
 40
0.378548281591898
 40
0.391307866809296
 40
0.404339602820434
 40
0.4176671782804107
 40
0.4222263909017775
 40
0.426800542931889
 40
0.4310489556146974
 40
0.4348569442493944
 40
0.4382246166793256
 40
0.4411518613265729
 40
0.4436383216518835
 40
0.4456794438105467
 40
0.4472805785173872
 40
0.4488270301143678
 40
0.4507307975322458
 40
0.4529950827213987
 40
0.4565309390182036
 40
0.460720437621844
 40
0.4655670174640344
 40
0.4704526986309617
 40
0.4758510269453253
 40
0.4817528096762075
 40
0.4880905863043539
 40
0.4943456945343541
 40
0.5004103016404748
 40
0.5097050006065534
 40
0.5185322400147602
 40
0.5268998961976133
 40
0.5306870478447765
 40
0.5343738138497235
 40
0.537960243199585
 40
0.5412439355002866
 40
0.5440522007791496
 40
0.5463842947131455
 40
0.5482394416450709
 40
0.5496169219666864
 40
0.5507336943181341
 40
0.5522486183763594
 40
0.5541686285790968
 40
0.556517862678693
 40
0.5592874405450443
 40
0.5622421108672551
 40
0.5706701110647207
 40
0.5796909491590031
 40
0.5892718521607353
 40
0.5994167010141963
 40
0.6099700526337689
 40
0.6204466663455585
 40
0.6305574149504828
 40
0.6405884850935956
 40
0.6505526955094194
 40
0.6604630884547367
 40
0.6703332629486365
 40
0.6800810839426821
 40
0.6894932179845612
 40
0.6985646109022778
 40
0.7073123963872233
 40
0.7157488514925516
 40
0.7238860094698195
 40
0.732152888992752
 40
0.7408953788915205
 40
0.7501357858477317
 40
0.7555212345009376
 40
0.7609826175795397
 40
0.7660606612549978
 40
0.7706462326178319
 40
0.7747434283577455
 40
0.7783616727745981
 40
0.781863517354127
 40
0.7851555852049052
 40
0.7887996186740702
 40
0.7929784417847638
 40
0.7976968449600761
 40
0.8026386168570782
 40
0.8074612110934175
 40
0.8124887842897465
 40
0.8175271176689487
 40
0.8228491127694614
 40
0.8284041859137999
 40
0.833842153155466
 40
0.8387178353562965
 40
0.8434961040396463
 40
0.847316988120751
 40
0.851214049920101
 40
0.8548588382380432
 40
0.8582826767087508
 40
0.8611713862576951
 40
0.864335536662027
 40
0.8677098583185188
 40
0.8707469056799492
 40
0.8728694831953042
 40
0.8747424435366723
 40
0.8768943537307168
 40
0.8794619388944888
 40
0.8817709826870681
 40
0.8841776875890767
 40
0.8862308892418218
 40
0.8879021008327899
 40
0.8892139396338444
 40
0.8905043858642542
 40
0.8921973613464368
 40
0.8942921951770975
 40
0.8967585948829564
 40
0.8991516725775601
 40
0.9013217683720113
 40
0.9034769240702464
 40
0.9053951029302024
 40
0.9075591095688631
 40
0.9101151674986354
 40
0.9129566542818235
 40
0.9155065172981074
 40
0.9176786297219227
 40
0.9194734264237386
 40
0.9220614123650365
 40
0.9250298875241711
 40
0.9283870911710659
 40
0.9318506133508453
 40
0.9372457218315486
 40
0.9423251252674267
 40
0.9473749977890443
 40
0.9525712262624603
 40
0.9579561573769256
 40
0.9637068443944724
 40
0.9678680350588058
 40
0.9722625220069528
 40
0.9768922055639664
 40
0.9818995320603352
 40
0.9874155913496211
 40
0.9934463024501953
 40
1.0
 40
1.0
 40
1.0
 40
1.0
 10
412.7187612266954
 20
1061.673310860302
 30
0.0
 10
414.7097260545261
 20
1062.243707647228
 30
0.0
 10
418.4556704319533
 20
1063.316893173672
 30
0.0
 10
423.5555630747436
 20
1064.897021562716
 30
0.0
 10
427.8829732313706
 20
1066.307352506237
 30
0.0
 10
431.5461362079271
 20
1067.561013628464
 30
0.0
 10
434.8103428324725
 20
1068.725742754595
 30
0.0
 10
437.9138895022153
 20
1069.878601924702
 30
0.0
 10
442.9059117009045
 20
1071.811455407418
 30
0.0
 10
449.5849436860533
 20
1074.617116896911
 30
0.0
 10
456.8167399833734
 20
1078.067383468378
 30
0.0
 10
462.8799475975848
 20
1081.314240204691
 30
0.0
 10
467.9000598037338
 20
1084.280918690323
 30
0.0
 10
472.6059812031489
 20
1087.362057462301
 30
0.0
 10
476.8917587109023
 20
1090.484057774791
 30
0.0
 10
480.2973859558147
 20
1093.244198586401
 30
0.0
 10
483.0505023393181
 20
1095.680140040298
 30
0.0
 10
485.3857788765505
 20
1097.904756741384
 30
0.0
 10
487.7107551356366
 20
1100.314364882589
 30
0.0
 10
489.8624890429662
 20
1102.759098491043
 30
0.0
 10
491.6350638667938
 20
1104.966142027534
 30
0.0
 10
493.1722969262566
 20
1107.03839696524
 30
0.0
 10
494.6547344274545
 20
1109.200010555443
 30
0.0
 10
496.1519666047473
 20
1111.611434420329
 30
0.0
 10
497.5047754893669
 20
1114.048234819115
 30
0.0
 10
498.5878307948842
 20
1116.228887514539
 30
0.0
 10
499.4434968142444
 20
1118.136489437295
 30
0.0
 10
500.1304727112314
 20
1119.818423796479
 30
0.0
 10
500.7121574532287
 20
1121.381229225804
 30
0.0
 10
501.2370990487294
 20
1122.928834940361
 30
0.0
 10
501.751519114
 20
1124.60833636698
 30
0.0
 10
502.2695128764921
 20
1126.53438714514
 30
0.0
 10
502.8709651135172
 20
1129.18803587329
 30
0.0
 10
503.4150412205958
 20
1132.436864638365
 30
0.0
 10
503.7899931777122
 20
1136.405264522006
 30
0.0
 10
503.8762142031634
 20
1140.314806662554
 30
0.0
 10
503.6788566334123
 20
1144.353969909302
 30
0.0
 10
503.2090790693775
 20
1148.359792090182
 30
0.0
 10
502.456165748014
 20
1152.399276882615
 30
0.0
 10
501.4812194382217
 20
1156.255170599497
 30
0.0
 10
500.4029136727305
 20
1159.6995147306
 30
0.0
 10
499.2349528455374
 20
1162.903069029527
 30
0.0
 10
497.9189082245913
 20
1166.090508599026
 30
0.0
 10
496.3898507268751
 20
1169.377717408201
 30
0.0
 10
494.7528450834482
 20
1172.544999229209
 30
0.0
 10
493.0603817181867
 20
1175.550168204385
 30
0.0
 10
491.3501211026663
 20
1178.36407375398
 30
0.0
 10
489.5665012042911
 20
1181.105812812325
 30
0.0
 10
487.7602327685393
 20
1183.72285325834
 30
0.0
 10
485.8547617170876
 20
1186.334066684925
 30
0.0
 10
483.8245394493898
 20
1188.975460822988
 30
0.0
 10
481.631495235659
 20
1191.689468275759
 30
0.0
 10
479.2256000633713
 20
1194.522682088615
 30
0.0
 10
476.52510086375
 20
1197.549067606495
 30
0.0
 10
473.4344977353927
 20
1200.842867397353
 30
0.0
 10
469.8439920022532
 20
1204.471605745114
 30
0.0
 10
466.4788850793198
 20
1207.689508049106
 30
0.0
 10
463.6282933761941
 20
1210.303619251893
 30
0.0
 10
461.6096045470872
 20
1212.107025357072
 30
0.0
 10
459.8652543840728
 20
1213.631385586485
 30
0.0
 10
458.4194603659087
 20
1214.872537344717
 30
0.0
 10
457.2972843462596
 20
1215.822464391936
 30
0.0
 10
456.4695394337003
 20
1216.516021990641
 30
0.0
 10
455.8036408697449
 20
1217.070120132292
 30
0.0
 10
455.1259602199379
 20
1217.630482768791
 30
0.0
 10
454.3130826596461
 20
1218.297575182785
 30
0.0
 10
453.1284479322702
 20
1219.261172782063
 30
0.0
 10
451.4923084203948
 20
1220.574206766684
 30
0.0
 10
449.3145490194983
 20
1222.289011067417
 30
0.0
 10
446.3800072664658
 20
1224.549570471955
 30
0.0
 10
442.5378361989927
 20
1227.423323417888
 30
0.0
 10
437.6945105496765
 20
1230.911928343194
 30
0.0
 10
432.3142047660419
 20
1234.63195867219
 30
0.0
 10
424.6325073962656
 20
1239.728774722927
 30
0.0
 10
414.6057522815353
 20
1245.991429537708
 30
0.0
 10
401.9876373127469
 20
1253.28837556234
 30
0.0
 10
388.9914141685388
 20
1260.273028682681
 30
0.0
 10
375.6602493103641
 20
1266.952811632118
 30
0.0
 10
362.0188134874638
 20
1273.34024546985
 30
0.0
 10
348.0515897734056
 20
1279.458083124256
 30
0.0
 10
332.9580514475117
 20
1285.64569905544
 30
0.0
 10
316.6752698661542
 20
1291.855668527638
 30
0.0
 10
299.1726201247555
 20
1298.023966813388
 30
0.0
 10
281.283499224739
 20
1303.837491288167
 30
0.0
 10
263.0047606690852
 20
1309.30115041808
 30
0.0
 10
244.2024940200283
 20
1314.447138041231
 30
0.0
 10
223.9220437086501
 20
1319.497207868319
 30
0.0
 10
201.9883831505617
 20
1324.388836907212
 30
0.0
 10
178.3564018026906
 20
1329.01266993035
 30
0.0
 10
159.4133331890192
 20
1332.202682335567
 30
0.0
 10
145.5434805792685
 20
1334.285952434549
 30
0.0
 10
137.2483607620935
 20
1335.455510222518
 30
0.0
 10
129.3919613429531
 20
1336.493750845736
 30
0.0
 10
122.265103769242
 20
1337.378367118864
 30
0.0
 10
115.9469704474567
 20
1338.117664968768
 30
0.0
 10
110.4441279900477
 20
1338.727384021729
 30
0.0
 10
105.7647766122472
 20
1339.220895664296
 30
0.0
 10
101.9126560773887
 20
1339.610004384354
 30
0.0
 10
98.6479307921835
 20
1339.928095423364
 30
0.0
 10
95.46671491140238
 20
1340.228221864395
 30
0.0
 10
91.8644889701425
 20
1340.555881699395
 30
0.0
 10
87.0030244287907
 20
1340.978238992085
 30
0.0
 10
80.69000230187311
 20
1341.490904949351
 30
0.0
 10
72.7313234760556
 20
1342.077221374728
 30
0.0
 10
63.90223523683811
 20
1342.650035325474
 30
0.0
 10
54.29048836809188
 20
1343.18290218931
 30
0.0
 10
43.99301150442675
 20
1343.651451404983
 30
0.0
 10
32.75677882850494
 20
1344.040049666022
 30
0.0
 10
20.9621516932993
 20
1344.308630415189
 30
0.0
 10
9.05546655124828
 20
1344.43526299573
 30
0.0
 10
-4.741983893597796
 20
1344.418562770546
 30
0.0
 10
-20.18009754516425
 20
1344.172370167374
 30
0.0
 10
-37.07099502396422
 20
1343.608077003886
 30
0.0
 10
-50.4270285365844
 20
1342.939995529255
 30
0.0
 10
-60.4927782566939
 20
1342.318164080829
 30
0.0
 10
-67.51194336188942
 20
1341.833763685822
 30
0.0
 10
-74.20257550042615
 20
1341.324792088556
 30
0.0
 10
-80.32787071184697
 20
1340.817849907476
 30
0.0
 10
-85.65216052243856
 20
1340.345536061227
 30
0.0
 10
-90.068176624116
 20
1339.931586849763
 30
0.0
 10
-93.57727973785234
 20
1339.588251264838
 30
0.0
 10
-96.31764792678034
 20
1339.311437858001
 30
0.0
 10
-98.84177592395005
 20
1339.050284609153
 30
0.0
 10
-101.705321299895
 20
1338.746607169811
 30
0.0
 10
-105.340655438283
 20
1338.3487957793
 30
0.0
 10
-109.7589769482403
 20
1337.846723931644
 30
0.0
 10
-114.8188389974941
 20
1337.246192433614
 30
0.0
 10
-123.6720722891363
 20
1336.145444056685
 30
0.0
 10
-136.3870837643742
 20
1334.420314427006
 30
0.0
 10
-153.1177602783461
 20
1331.858931275268
 30
0.0
 10
-170.7648363417742
 20
1328.823708426508
 30
0.0
 10
-189.1688380741628
 20
1325.285149345275
 30
0.0
 10
-207.8942249598571
 20
1321.279117154144
 30
0.0
 10
-226.346791804274
 20
1316.915743568681
 30
0.0
 10
-244.2217890158403
 20
1312.286674643972
 30
0.0
 10
-261.5135155954375
 20
1307.416901779662
 30
0.0
 10
-278.381994336076
 20
1302.274288291929
 30
0.0
 10
-294.8292972123318
 20
1296.868284495034
 30
0.0
 10
-310.8010500569763
 20
1291.224163907564
 30
0.0
 10
-326.127871349102
 20
1285.415521062682
 30
0.0
 10
-340.6547497368311
 20
1279.529359096495
 30
0.0
 10
-354.288443833965
 20
1273.641198842264
 30
0.0
 10
-367.0561830373663
 20
1267.77818529678
 30
0.0
 10
-378.9968348867851
 20
1261.960377194299
 30
0.0
 10
-390.3363958280403
 20
1256.110048517525
 30
0.0
 10
-401.4279233726299
 20
1250.047204630097
 30
0.0
 10
-412.56317014605
 20
1243.574298524518
 30
0.0
 10
-422.0300904365538
 20
1237.690989103399
 30
0.0
 10
-429.8342285591135
 20
1232.559995491579
 30
0.0
 10
-435.8179223370791
 20
1228.451864427039
 30
0.0
 10
-441.3075385920577
 20
1224.515851806767
 30
0.0
 10
-446.1371723808411
 20
1220.907480051251
 30
0.0
 10
-450.320210450869
 20
1217.660039663092
 30
0.0
 10
-454.025236984458
 20
1214.680514197485
 30
0.0
 10
-457.3741937417614
 20
1211.895636548779
 30
0.0
 10
-460.6410791219111
 20
1209.087597067355
 30
0.0
 10
-464.0230987641737
 20
1206.076547649554
 30
0.0
 10
-467.7069838768373
 20
1202.657842084512
 30
0.0
 10
-471.5937695105296
 20
1198.867523767858
 30
0.0
 10
-475.4528053180785
 20
1194.883857112744
 30
0.0
 10
-479.1785361600223
 20
1190.794653783549
 30
0.0
 10
-482.7012808991809
 20
1186.663888289023
 30
0.0
 10
-486.1046676192508
 20
1182.369575405242
 30
0.0
 10
-489.3840578148148
 20
1177.872471751918
 30
0.0
 10
-492.4578661689555
 20
1173.224498629998
 30
0.0
 10
-495.1410084345973
 20
1168.688524031012
 30
0.0
 10
-497.4099964123379
 20
1164.367980596828
 30
0.0
 10
-499.2158181926752
 20
1160.458160589946
 30
0.0
 10
-500.7005212279114
 20
1156.780714766087
 30
0.0
 10
-501.8780828527239
 20
1153.418734045444
 30
0.0
 10
-502.845159072684
 20
1150.164584097157
 30
0.0
 10
-503.5778244199059
 20
1147.189271648525
 30
0.0
 10
-504.142169982738
 20
1144.368331537762
 30
0.0
 10
-504.5754504423553
 20
1141.580088620204
 30
0.0
 10
-504.8745996220826
 20
1138.784463121193
 30
0.0
 10
-505.0219238885932
 20
1136.284220679361
 30
0.0
 10
-505.0619845349715
 20
1134.211635850209
 30
0.0
 10
-505.0397602877119
 20
1132.383294886399
 30
0.0
 10
-504.9520550073481
 20
1130.422176725474
 30
0.0
 10
-504.778378862898
 20
1128.332133136466
 30
0.0
 10
-504.5110808445705
 20
1126.167363927326
 30
0.0
 10
-504.182649330371
 20
1124.157143046492
 30
0.0
 10
-503.8172127504599
 20
1122.348192407971
 30
0.0
 10
-503.4709414768305
 20
1120.873920313615
 30
0.0
 10
-503.1481602753088
 20
1119.640240063641
 30
0.0
 10
-502.8019005715179
 20
1118.424598735966
 30
0.0
 10
-502.3569201429086
 20
1116.995175702361
 30
0.0
 10
-501.7532909723971
 20
1115.2483898504
 30
0.0
 10
-501.005626561896
 20
1113.319472987735
 30
0.0
 10
-500.1688840032521
 20
1111.389610550496
 30
0.0
 10
-499.2982163166204
 20
1109.567153845401
 30
0.0
 10
-498.4289077035888
 20
1107.896934431066
 30
0.0
 10
-497.5070564604213
 20
1106.255285512148
 30
0.0
 10
-496.4808700472442
 20
1104.553588012546
 30
0.0
 10
-495.2449368612232
 20
1102.656462898771
 30
0.0
 10
-493.8628940579876
 20
1100.70486039107
 30
0.0
 10
-492.4614674912233
 20
1098.876356350749
 30
0.0
 10
-491.1927436199504
 20
1097.327442651172
 30
0.0
 10
-489.8678915751008
 20
1095.794783175359
 30
0.0
 10
-488.3341935257968
 20
1094.119578345703
 30
0.0
 10
-486.3975274397171
 20
1092.145945266476
 30
0.0
 10
-484.1689451556372
 20
1090.039744939575
 30
0.0
 10
-481.247936153262
 20
1087.485805517033
 30
0.0
 10
-477.7228930033993
 20
1084.68774651975
 30
0.0
 10
-473.5663334814859
 20
1081.725014856318
 30
0.0
 10
-469.2418549241113
 20
1078.932375469635
 30
0.0
 10
-464.6117980914103
 20
1076.215514795521
 30
0.0
 10
-459.5440876775971
 20
1073.510418643486
 30
0.0
 10
-454.5741135761908
 20
1071.100333338652
 30
0.0
 10
-449.7400714133577
 20
1068.940903821612
 30
0.0
 10
-445.1402374594272
 20
1067.022737569882
 30
0.0
 10
-440.0837698665314
 20
1065.058364922026
 30
0.0
 10
-434.4486421669825
 20
1063.024546033809
 30
0.0
 10
-428.0854714025827
 20
1060.905254173191
 30
0.0
 10
-420.9037516547324
 20
1058.69344907023
 30
0.0
 10
-415.6849888191335
 20
1057.258670777167
 30
0.0
 10
-412.9671659830446
 20
1056.511468167573
 30
0.0
  0
SPLINE
  5
A5
330
1F
100
AcDbEntity
  8
0
  6
Continuous
 62
     7
370
    15
100
AcDbSpline
210
0.0
220
0.0
230
1.0
 70
     8
 71
     3
 72
   196
 73
   192
 74
     0
 42
0.000000001
 43
0.00000001
 40
0.0
 40
0.0
 40
0.0
 40
0.0
 40
0.0048284153781935
 40
0.0090850927767383
 40
0.0127775478249276
 40
0.0159113862982177
 40
0.0186540757377559
 40
0.0214289548845775
 40
0.0242577646264469
 40
0.0323126232514519
 40
0.0404111821418749
 40
0.0474934813776143
 40
0.0544588180446978
 40
0.0612945870309251
 40
0.0676629996601823
 40
0.0706337145098046
 40
0.0738299913064476
 40
0.0772531675075596
 40
0.0806728096782001
 40
0.0837461950535226
 40
0.0865943687051508
 40
0.0892200941887104
 40
0.0922548543668618
 40
0.0951834455312194
 40
0.097825485833101
 40
0.1001837050090081
 40
0.1022926989605666
 40
0.1047473246038043
 40
0.1071034000455807
 40
0.1103347310291029
 40
0.1138627791510557
 40
0.1169941633129333
 40
0.1199509661316757
 40
0.1233750711979625
 40
0.1272591099980888
 40
0.1310777651755127
 40
0.1349572873469272
 40
0.1387397033004605
 40
0.1422921056507394
 40
0.1456176749674431
 40
0.1490998456972606
 40
0.152797619826058
 40
0.1567514147993299
 40
0.1603557350244947
 40
0.1635447954578568
 40
0.1663161587858893
 40
0.1707389474114183
 40
0.1751305332009987
 40
0.1795289674985716
 40
0.1841945600220389
 40
0.1892172794376706
 40
0.1914165150591299
 40
0.1937526594213074
 40
0.1962257652337508
 40
0.1988360095492064
 40
0.201583711259528
 40
0.2044533922977011
 40
0.2070426847730135
 40
0.2091765362587192
 40
0.2109234645412025
 40
0.2121702358701044
 40
0.2129275086907416
 40
0.2136337710323407
 40
0.2145168984286435
 40
0.2155770029313724
 40
0.2181509357152564
 40
0.2213988801992635
 40
0.2253238298530666
 40
0.2299304993993031
 40
0.2350746533940323
 40
0.2402411455501171
 40
0.2453883762629215
 40
0.2572180360527138
 40
0.2687731553678755
 40
0.2800873353962655
 40
0.2911875308595079
 40
0.3021522920294879
 40
0.3131307816451209
 40
0.3263490414478012
 40
0.3394924324354026
 40
0.3525227833307967
 40
0.3655029130959657
 40
0.3787311318891333
 40
0.3913818662021885
 40
0.4043515301711034
 40
0.4176673973643022
 40
0.4230007326257975
 40
0.4281378031263725
 40
0.432772849423187
 40
0.4368963528603537
 40
0.4405070930490414
 40
0.4436091378267169
 40
0.4460977032166281
 40
0.4481470872276935
 40
0.4501596830658181
 40
0.4522896003886789
 40
0.4547373223866865
 40
0.4577074613065068
 40
0.4611991504081552
 40
0.4652116724933767
 40
0.4699734390659734
 40
0.4753064253459464
 40
0.4812114701943497
 40
0.4875709708096801
 40
0.4938303981995314
 40
0.4999214420596907
 40
0.5063762477488984
 40
0.5126346796781794
 40
0.518698194292882
 40
0.5245678229336423
 40
0.5302441998039261
 40
0.5357178608052708
 40
0.5409077816108034
 40
0.5439975840857653
 40
0.5466243775802362
 40
0.5487895073699186
 40
0.5504939850411932
 40
0.5517385447792981
 40
0.5529118425775164
 40
0.554515300459366
 40
0.556550419189272
 40
0.5597639715784201
 40
0.5634514232780012
 40
0.5672849943310547
 40
0.5712622746371966
 40
0.5753837824455645
 40
0.5796501912350944
 40
0.5840623456936038
 40
0.5886212783420517
 40
0.5960848048590315
 40
0.6039199034866941
 40
0.6119423544213445
 40
0.6199371924247138
 40
0.631953565086683
 40
0.6437940570169214
 40
0.655471836106638
 40
0.6670078417755191
 40
0.6784172015029134
 40
0.6895376773734346
 40
0.6987855346497066
 40
0.7077361176652094
 40
0.7163558666447162
 40
0.7246532722366207
 40
0.7327838465464778
 40
0.7413053414197175
 40
0.7502827121928187
 40
0.7555172817401105
 40
0.7609052212343099
 40
0.7663498753057736
 40
0.7713729252868987
 40
0.7759000421405029
 40
0.7799371275510402
 40
0.7835098400841515
 40
0.7867251644064757
 40
0.790021985362487
 40
0.7936647349760427
 40
0.7978129089120197
 40
0.8024673778244014
 40
0.807334534387423
 40
0.8134354837447286
 40
0.8194555246911595
 40
0.8257254095325871
 40
0.8323189034209173
 40
0.8384839957656559
 40
0.8439332992637208
 40
0.8491443934672963
 40
0.854681054021737
 40
0.8598090960086957
 40
0.8648837586395641
 40
0.8708220873408171
 40
0.8777631430365342
 40
0.8861033474553616
 40
0.8926227030722947
 40
0.9011610899213355
 40
0.9087768289538884
 40
0.9177707138331785
 40
0.9241957752070659
 40
0.9318184799331928
 40
0.9372650600859241
 40
0.9423341717770499
 40
0.9473598048629256
 40
0.952542700065359
 40
0.9579318838754926
 40
0.9636856415835386
 40
0.9678408160054811
 40
0.9722241585516197
 40
0.9768389103305143
 40
0.9818383410457604
 40
0.9873581803270345
 40
0.9934079392875406
 40
1.0
 40
1.0
 40
1.0
 40
1.0
 10
-405.2377711334486
 20
1085.498635798391
 30
0.0
 10
-407.0518275632716
 20
1085.990120909888
 30
0.0
 10
-410.4651360043002
 20
1086.914893839846
 30
0.0
 10
-415.0840934796931
 20
1088.276014506671
 30
0.0
 10
-418.9847497386568
 20
1089.489127593355
 30
0.0
 10
-422.2611650081745
 20
1090.562546702988
 30
0.0
 10
-425.1479355694652
 20
1091.55084667214
 30
0.0
 10
-427.8667127890839
 20
1092.521595076681
 30
0.0
 10
-432.2036447170591
 20
1094.138239970147
 30
0.0
 10
-437.9326863705515
 20
1096.463217668265
 30
0.0
 10
-444.3629328046081
 20
1099.436900323914
 30
0.0
 10
-449.9504904448861
 20
1102.376865182189
 30
0.0
 10
-454.7086136516205
 20
1105.217864454919
 30
0.0
 10
-458.7936315675568
 20
1108.000979419003
 30
0.0
 10
-461.7003124714512
 20
1110.269114190666
 30
0.0
 10
-463.7324914569497
 20
1112.026350878234
 30
0.0
 10
-465.1667725290279
 20
1113.358549126132
 30
0.0
 10
-466.5474422568528
 20
1114.7479328977
 30
0.0
 10
-467.7969542467367
 20
1116.120893759194
 30
0.0
 10
-468.8750213688238
 20
1117.41583632723
 30
0.0
 10
-469.7745197562292
 20
1118.594822047898
 30
0.0
 10
-470.5721479630447
 20
1119.731893351084
 30
0.0
 10
-471.3006841554053
 20
1120.868804607552
 30
0.0
 10
-471.9626853943206
 20
1122.014580722931
 30
0.0
 10
-472.5129857393821
 20
1123.074718668906
 30
0.0
 10
-472.956948334627
 20
1124.024887750017
 30
0.0
 10
-473.3463406428085
 20
1124.947944359915
 30
0.0
 10
-473.6909720080116
 20
1125.864476294809
 30
0.0
 10
-474.0338620808764
 20
1126.902668136934
 30
0.0
 10
-474.3702527469046
 20
1128.110247682771
 30
0.0
 10
-474.6565788824899
 20
1129.446287870732
 30
0.0
 10
-474.8565520407478
 20
1130.736526026204
 30
0.0
 10
-474.9903641355534
 20
1132.007985416443
 30
0.0
 10
-475.0666224941494
 20
1133.493326071953
 30
0.0
 10
-475.0459110651063
 20
1135.18249950799
 30
0.0
 10
-474.9010207731579
 20
1137.061615040219
 30
0.0
 10
-474.6306169525799
 20
1138.971520477439
 30
0.0
 10
-474.2486485780183
 20
1140.857744323357
 30
0.0
 10
-473.7778341835385
 20
1142.679550179151
 30
0.0
 10
-473.2264483851749
 20
1144.468751267202
 30
0.0
 10
-472.5497786191892
 20
1146.372120757853
 30
0.0
 10
-471.6874673418482
 20
1148.495750732735
 30
0.0
 10
-470.6644635322294
 20
1150.722066230763
 30
0.0
 10
-469.5654072824894
 20
1152.871739356077
 30
0.0
 10
-468.4837398208147
 20
1154.816514557249
 30
0.0
 10
-467.205476532429
 20
1156.965128499139
 30
0.0
 10
-465.6299633419996
 20
1159.42319792788
 30
0.0
 10
-463.6353708039699
 20
1162.285665301519
 30
0.0
 10
-461.3947647729566
 20
1165.266474909993
 30
0.0
 10
-458.8275429928216
 20
1168.445160964576
 30
0.0
 10
-456.4682813320284
 20
1171.167677520512
 30
0.0
 10
-454.461198827258
 20
1173.373559439158
 30
0.0
 10
-452.9398573228912
 20
1174.997315940625
 30
0.0
 10
-451.2745557972173
 20
1176.722150256801
 30
0.0
 10
-449.4568648577324
 20
1178.547991119626
 30
0.0
 10
-447.481949900859
 20
1180.470902197767
 30
0.0
 10
-445.4447182335918
 20
1182.39300117575
 30
0.0
 10
-443.5021679237466
 20
1184.17248601468
 30
0.0
 10
-441.8047609877199
 20
1185.689518071088
 30
0.0
 10
-440.4315807700552
 20
1186.89280123535
 30
0.0
 10
-439.4108748101528
 20
1187.773986485543
 30
0.0
 10
-438.6629208656449
 20
1188.41337050282
 30
0.0
 10
-438.0052927116986
 20
1188.971516731767
 30
0.0
 10
-437.2555373388267
 20
1189.602928626448
 30
0.0
 10
-435.9629182857066
 20
1190.681323694727
 30
0.0
 10
-433.9568944193343
 20
1192.326175301741
 30
0.0
 10
-431.0382948539228
 20
1194.654869406361
 30
0.0
 10
-427.4003279055457
 20
1197.46416764933
 30
0.0
 10
-423.0290594199435
 20
1200.715118936571
 30
0.0
 10
-418.0830844844206
 20
1204.244366763059
 30
0.0
 10
-412.7666596523196
 20
1207.881302689327
 30
0.0
 10
-404.8848102383523
 20
1213.057304543745
 30
0.0
 10
-394.183654081377
 20
1219.645650825327
 30
0.0
 10
-380.3190228183104
 20
1227.485091481217
 30
0.0
 10
-365.9838703338618
 20
1234.965018441846
 30
0.0
 10
-351.2191443050845
 20
1242.103074195898
 30
0.0
 10
-335.9848966677902
 20
1248.936484870128
 30
0.0
 10
-319.1856041320438
 20
1255.932187157143
 30
0.0
 10
-300.7027072025064
 20
1263.019523385276
 30
0.0
 10
-280.5357881057437
 20
1270.070987121991
 30
0.0
 10
-259.8937954495935
 20
1276.634969566784
 30
0.0
 10
-238.6677207628767
 20
1282.746560226009
 30
0.0
 10
-217.1730630801628
 20
1288.310509909095
 30
0.0
 10
-195.2691110169542
 20
1293.374184751225
 30
0.0
 10
-172.9500342412039
 20
1297.937615003258
 30
0.0
 10
-154.5603561553133
 20
1301.207054355019
 30
0.0
 10
-140.6072676431993
 20
1303.427499390447
 30
0.0
 10
-131.706052713696
 20
1304.751510113358
 30
0.0
 10
-123.4860506269451
 20
1305.895641033736
 30
0.0
 10
-116.1452098754222
 20
1306.854566517606
 30
0.0
 10
-109.6969335414716
 20
1307.648134102109
 30
0.0
 10
-104.2096973447378
 20
1308.287766179012
 30
0.0
 10
-99.64582730325411
 20
1308.795058703896
 30
0.0
 10
-95.72767320114336
 20
1309.213403354394
 30
0.0
 10
-92.0199356665429
 20
1309.594755565339
 30
0.0
 10
-88.0693035773451
 20
1309.985330633843
 30
0.0
 10
-83.53949579371739
 20
1310.413230584517
 30
0.0
 10
-78.18550778952755
 20
1310.891154704833
 30
0.0
 10
-71.8819277130479
 20
1311.414857955434
 30
0.0
 10
-64.48848610257615
 20
1311.976149879711
 30
0.0
 10
-55.9710555082526
 20
1312.551706149888
 30
0.0
 10
-46.29498217129941
 20
1313.112926191975
 30
0.0
 10
-35.63632893100873
 20
1313.617561472914
 30
0.0
 10
-24.40204835346127
 20
1314.018928742478
 30
0.0
 10
-13.04481385633244
 20
1314.289095171233
 30
0.0
 10
-1.624397229295068
 20
1314.427533558712
 30
0.0
 10
9.796335537494478
 20
1314.430892018799
 30
0.0
 10
21.19632139135755
 20
1314.297374222428
 30
0.0
 10
32.23280179391723
 20
1314.039521488078
 30
0.0
 10
42.90440643185548
 20
1313.669671988045
 30
0.0
 10
53.20394630789146
 20
1313.200111108601
 30
0.0
 10
63.07539898329539
 20
1312.6458368855
 30
0.0
 10
71.36826404550744
 20
1312.096125619678
 30
0.0
 10
77.93298181423779
 20
1311.609127557499
 30
0.0
 10
82.67088284954691
 20
1311.231754956076
 30
0.0
 10
86.5715149212828
 20
1310.903166834032
 30
0.0
 10
89.63924122613254
 20
1310.633354495757
 30
0.0
 10
92.1101799900711
 20
1310.409031731369
 30
0.0
 10
94.51922146650134
 20
1310.184727608462
 30
0.0
 10
97.39973510152522
 20
1309.908826221511
 30
0.0
 10
101.4974164603863
 20
1309.501974186748
 30
0.0
 10
106.8331115764397
 20
1308.945168708922
 30
0.0
 10
113.2287567267729
 20
1308.235052324989
 30
0.0
 10
120.0621818653064
 20
1307.426498702266
 30
0.0
 10
127.1337319436194
 20
1306.535945120668
 30
0.0
 10
134.4391032193263
 20
1305.557993625499
 30
0.0
 10
141.975526817817
 20
1304.48686721904
 30
0.0
 10
149.7401356165396
 20
1303.316609530156
 30
0.0
 10
159.3400587198761
 20
1301.784019044826
 30
0.0
 10
170.8714145733809
 20
1299.804269785827
 30
0.0
 10
184.3025473689373
 20
1297.290415412003
 30
0.0
 10
197.9103083587448
 20
1294.521924019946
 30
0.0
 10
213.7354463163777
 20
1291.037963232292
 30
0.0
 10
231.4600999558167
 20
1286.758867863291
 30
0.0
 10
250.8510323870164
 20
1281.571754659956
 30
0.0
 10
269.5664552438735
 20
1276.065918669055
 30
0.0
 10
287.6108666789843
 20
1270.265442065753
 30
0.0
 10
304.8946767695276
 20
1264.219752866218
 30
0.0
 10
320.5430651500022
 20
1258.287680425428
 30
0.0
 10
334.549825301038
 20
1252.586196366474
 30
0.0
 10
346.9861442780139
 20
1247.194894489134
 30
0.0
 10
358.6069833473326
 20
1241.840775454935
 30
0.0
 10
369.4892371891546
 20
1236.523192472695
 30
0.0
 10
379.9501544073667
 20
1231.108081263896
 30
0.0
 10
390.2618817713419
 20
1225.441365100219
 30
0.0
 10
398.9889580486145
 20
1220.326840329924
 30
0.0
 10
406.2051507857776
 20
1215.864683110335
 30
0.0
 10
411.9264572620097
 20
1212.177045208582
 30
0.0
 10
417.371802354839
 20
1208.511319190327
 30
0.0
 10
422.3296114317116
 20
1205.024781743634
 30
0.0
 10
426.6568477628703
 20
1201.853681482923
 30
0.0
 10
430.3841354747687
 20
1199.015508320586
 30
0.0
 10
433.5942843578723
 20
1196.483435493425
 30
0.0
 10
436.483755835729
 20
1194.129672232594
 30
0.0
 10
439.2964652597156
 20
1191.764066748675
 30
0.0
 10
442.2484719137597
 20
1189.192101201753
 30
0.0
 10
445.4153088463385
 20
1186.31682274782
 30
0.0
 10
448.7163142556065
 20
1183.16919607146
 30
0.0
 10
452.2647657925926
 20
1179.58922262914
 30
0.0
 10
455.8309097853509
 20
1175.7328135216
 30
0.0
 10
459.3459329557562
 20
1171.595977500122
 30
0.0
 10
462.5427865901356
 20
1167.458547624989
 30
0.0
 10
465.3361252913051
 20
1163.416690038209
 30
0.0
 10
467.6285488829135
 20
1159.64678702966
 30
0.0
 10
469.4300470533309
 20
1156.241468302346
 30
0.0
 10
470.8400426529078
 20
1153.143143106293
 30
0.0
 10
471.9371787795229
 20
1150.260812220607
 30
0.0
 10
472.7690281270054
 20
1147.516969911606
 30
0.0
 10
473.377753873101
 20
1144.843703554088
 30
0.0
 10
473.7940434892317
 20
1141.86610990014
 30
0.0
 10
473.8889085828782
 20
1138.605859731423
 30
0.0
 10
473.5848105726618
 20
1135.63708330252
 30
0.0
 10
472.8904787876617
 20
1132.58091865595
 30
0.0
 10
471.7526858970869
 20
1129.509346994092
 30
0.0
 10
470.0070011639774
 20
1126.226656077281
 30
0.0
 10
467.7377520301785
 20
1123.010043410254
 30
0.0
 10
464.9157214191729
 20
1119.822398238547
 30
0.0
 10
461.9863146283338
 20
1117.042434346514
 30
0.0
 10
458.8524267366849
 20
1114.48081979767
 30
0.0
 10
455.8546747674383
 20
1112.28267193677
 30
0.0
 10
452.6281469373244
 20
1110.140598680661
 30
0.0
 10
449.047618888167
 20
1107.978395435123
 30
0.0
 10
444.9979965620509
 20
1105.751742208726
 30
0.0
 10
440.9180800839217
 20
1103.710164924743
 30
0.0
 10
436.8838612703756
 20
1101.848291380655
 30
0.0
 10
432.9992853483404
 20
1100.172254270944
 30
0.0
 10
428.6806528907205
 20
1098.433671516203
 30
0.0
 10
423.7977717053099
 20
1096.604415080207
 30
0.0
 10
418.1980760994447
 20
1094.666103930954
 30
0.0
 10
411.7971344381935
 20
1092.614802581437
 30
0.0
 10
407.0847937159692
 20
1091.265280419572
 30
0.0
 10
404.6275496686484
 20
1090.561573812931
 30
0.0
  0
LWPOLYLINE
  5
A8
330
1F
100
AcDbEntity
  8
0
  6
Continuous
 62
     7
370
    15
100
AcDbPolyline
 90
       40
 70
   128
 43
0.0
 10
54.0
 20
1039.2304845413
 10
53.8248946392
 20
1037.057887186
 10
53.3007141824
 20
1034.8993799582
 10
52.430858141
 20
1032.7689616056
 10
51.2209678651
 20
1030.6804487087
 10
49.6788899576
 20
1028.6473860751
 10
47.8146253853
 20
1026.6829588962
 10
45.6402646194
 20
1024.7999072359
 10
43.1699092238
 20
1023.0104434069
 10
40.4195804012
 20
1021.3261727688
 10
37.4071150895
 20
1019.7580184631
 10
34.1520502821
 20
1018.316150572
 10
30.6754963235
 20
1017.0099201622
 10
27.0
 20
1015.8477986392
 10
23.1493983158
 20
1014.8373228069
 10
19.1486639003
 20
1013.9850459888
 10
15.0237430515
 20
1013.2964955273
 10
10.8013874639
 20
1012.7761369362
 10
6.5089807338
 20
1012.4273449407
 10
2.1743607659
 20
1012.2523815907
 10
-2.1743607659
 20
1012.2523815907
 10
-6.5089807338
 20
1012.4273449407
 10
-10.8013874639
 20
1012.7761369362
 10
-15.0237430515
 20
1013.2964955273
 10
-19.1486639003
 20
1013.9850459888
 10
-23.1493983158
 20
1014.8373228069
 10
-27.0
 20
1015.8477986392
 10
-30.6754963235
 20
1017.0099201622
 10
-34.1520502822
 20
1018.316150572
 10
-37.4071150895
 20
1019.7580184631
 10
-40.4195804012
 20
1021.3261727688
 10
-43.1699092238
 20
1023.0104434069
 10
-45.6402646194
 20
1024.7999072359
 10
-47.8146253853
 20
1026.6829588962
 10
-49.6788899576
 20
1028.6473860751
 10
-51.2209678651
 20
1030.6804487087
 10
-52.430858141
 20
1032.7689616056
 10
-53.3007141824
 20
1034.8993799582
 10
-53.8248946392
 20
1037.057887186
 10
-54.0
 20
1039.2304845413
  0
SPLINE
  5
A9
330
1F
100
AcDbEntity
  8
0
  6
Continuous
 62
     7
370
    15
100
AcDbSpline
210
0.0
220
0.0
230
1.0
 70
     8
 71
     3
 72
    19
 73
    15
 74
     0
 42
0.000000001
 43
0.00000001
 40
0.0
 40
0.0
 40
0.0
 40
0.0
 40
0.0513581182607538
 40
0.1346817215931219
 40
0.2179623997594029
 40
0.3142372207962452
 40
0.4129476715065521
 40
0.509350960717742
 40
0.6090399437067684
 40
0.6987048421368797
 40
0.7904117238219351
 40
0.8598074442031579
 40
0.9292241714811503
 40
1.0
 40
1.0
 40
1.0
 40
1.0
 10
-22.81412636754786
 20
50.01909356829517
 30
0.0
 10
-22.17275059318111
 20
50.31344710778634
 30
0.0
 10
-20.49080436140405
 20
51.08536093170058
 30
0.0
 10
-17.4986609592818
 20
52.18067020487184
 30
0.0
 10
-13.66525943835728
 20
53.33217722887535
 30
0.0
 10
-9.30620550594272
 20
54.27716399713752
 30
0.0
 10
-4.475692298484301
 20
54.89257393619538
 30
0.0
 10
0.5595715650053087
 20
55.07409230039184
 30
0.0
 10
5.424705018534649
 20
54.80175659023694
 30
0.0
 10
10.03774133004396
 20
54.13607868514133
 30
0.0
 10
13.93554929102614
 20
53.25186728388626
 30
0.0
 10
17.28598280881549
 20
52.2366621709027
 30
0.0
 10
20.20608293236787
 20
51.21168743423684
 30
0.0
 10
21.92035977195707
 20
50.38761298391609
 30
0.0
 10
22.78580774772851
 20
49.97158125062501
 30
0.0
  0
LWPOLYLINE
  5
AA
330
1F
100
AcDbEntity
  8
0
  6
Continuous
 62
     7
370
    15
100
AcDbPolyline
 90
       40
 70
   128
 43
0.0
 10
-1039.2304845413
 20
54.0
 10
-1037.057887186
 20
53.8248946392
 10
-1034.8993799582
 20
53.3007141824
 10
-1032.7689616056
 20
52.430858141
 10
-1030.6804487087
 20
51.2209678651
 10
-1028.6473860751
 20
49.6788899576
 10
-1026.6829588962
 20
47.8146253853
 10
-1024.7999072359
 20
45.6402646194
 10
-1023.0104434069
 20
43.1699092238
 10
-1021.3261727688
 20
40.4195804012
 10
-1019.7580184631
 20
37.4071150895
 10
-1018.316150572
 20
34.1520502821
 10
-1017.0099201622
 20
30.6754963235
 10
-1015.8477986392
 20
27.0
 10
-1014.8373228069
 20
23.1493983158
 10
-1013.9850459888
 20
19.1486639003
 10
-1013.2964955273
 20
15.0237430515
 10
-1012.7761369362
 20
10.8013874639
 10
-1012.4273449407
 20
6.5089807338
 10
-1012.2523815907
 20
2.1743607659
 10
-1012.2523815907
 20
-2.1743607659
 10
-1012.4273449407
 20
-6.5089807338
 10
-1012.7761369362
 20
-10.8013874639
 10
-1013.2964955273
 20
-15.0237430515
 10
-1013.9850459888
 20
-19.1486639003
 10
-1014.8373228069
 20
-23.1493983158
 10
-1015.8477986392
 20
-27.0
 10
-1017.0099201622
 20
-30.6754963235
 10
-1018.316150572
 20
-34.1520502822
 10
-1019.7580184631
 20
-37.4071150895
 10
-1021.3261727688
 20
-40.4195804012
 10
-1023.0104434069
 20
-43.1699092238
 10
-1024.7999072359
 20
-45.6402646194
 10
-1026.6829588962
 20
-47.8146253853
 10
-1028.6473860751
 20
-49.6788899576
 10
-1030.6804487087
 20
-51.2209678651
 10
-1032.7689616056
 20
-52.430858141
 10
-1034.8993799582
 20
-53.3007141824
 10
-1037.057887186
 20
-53.8248946392
 10
-1039.2304845413
 20
-54.0
  0
SPLINE
  5
AD
330
1F
100
AcDbEntity
  8
0
  6
Continuous
 62
     7
370
    15
100
AcDbSpline
210
0.0
220
0.0
230
1.0
 70
     8
 71
     3
 72
    70
 73
    66
 74
     0
 42
0.000000001
 43
0.00000001
 40
0.0
 40
0.0
 40
0.0
 40
0.0
 40
0.0625000000000018
 40
0.0625000000000018
 40
0.1250000000000037
 40
0.1250000000000037
 40
0.1875000000000056
 40
0.1875000000000056
 40
0.2187500000000079
 40
0.2187500000000079
 40
0.2500000000000103
 40
0.2500000000000103
 40
0.312500000000015
 40
0.312500000000015
 40
0.3281250000000169
 40
0.3281250000000169
 40
0.3437500000000187
 40
0.3437500000000187
 40
0.3750000000000201
 40
0.3750000000000201
 40
0.4062500000000214
 40
0.4062500000000214
 40
0.4140625000000213
 40
0.4140625000000213
 40
0.4218750000000212
 40
0.4218750000000212
 40
0.4375000000000196
 40
0.4375000000000196
 40
0.4687500000000163
 40
0.4687500000000163
 40
0.4843750000000143
 40
0.4843750000000143
 40
0.5000000000000123
 40
0.5000000000000123
 40
0.5312500000000083
 40
0.5312500000000083
 40
0.5468750000000067
 40
0.5468750000000067
 40
0.5625000000000051
 40
0.5625000000000051
 40
0.5781250000000034
 40
0.5781250000000034
 40
0.5937500000000018
 40
0.5937500000000018
 40
0.6249999999999983
 40
0.6249999999999983
 40
0.656249999999995
 40
0.656249999999995
 40
0.6718749999999944
 40
0.6718749999999944
 40
0.6874999999999939
 40
0.6874999999999939
 40
0.7499999999999967
 40
0.7499999999999967
 40
0.7812499999999982
 40
0.7812499999999982
 40
0.796874999999999
 40
0.796874999999999
 40
0.8124999999999998
 40
0.8124999999999998
 40
0.875
 40
0.875
 40
0.9375
 40
0.9375
 40
1.0
 40
1.0
 40
1.0
 40
1.0
 10
-22.99999999999836
 20
-49.95998398718833
 30
0.0
 10
-24.69312611531204
 20
-49.18052215505087
 30
0.0
 10
-26.39275774605654
 20
-48.29379614342346
 30
0.0
 10
-29.77494902964409
 20
-46.28521165195927
 30
0.0
 10
-31.45805339694319
 20
-45.16355692780303
 30
0.0
 10
-34.79032791708655
 20
-42.64960821997575
 30
0.0
 10
-36.43975151765911
 20
-41.25782493099685
 30
0.0
 10
-38.87618464690313
 20
-38.92182125076244
 30
0.0
 10
-39.68203265844315
 20
-38.10153105258106
 30
0.0
 10
-41.27853899639656
 20
-36.36581640468857
 30
0.0
 10
-42.06965481075697
 20
-35.44949309097932
 30
0.0
 10
-44.39077542729398
 20
-32.56606703576578
 30
0.0
 10
-45.87743555888292
 20
-30.45955725358715
 30
0.0
 10
-47.62928173047769
 20
-27.51221100593913
 30
0.0
 10
-47.97493217975802
 20
-26.90549296786415
 30
0.0
 10
-48.6505631309149
 20
-25.66363919129619
 30
0.0
 10
-48.98023141364212
 20
-25.0292032579288
 30
0.0
 10
-49.94294720719441
 20
-23.08242544668723
 30
0.0
 10
-50.54986960066815
 20
-21.72688376310106
 30
0.0
 10
-51.68088480657309
 20
-18.87943167337354
 30
0.0
 10
-52.20510949726726
 20
-17.38773626258572
 30
0.0
 10
-52.79634864688335
 20
-15.41800072737083
 30
0.0
 10
-52.91137137827668
 20
-15.01876005141385
 30
0.0
 10
-53.13454922042399
 20
-14.2090131168284
 30
0.0
 10
-53.24294400947738
 20
-13.79751855490003
 30
0.0
 10
-53.55488304404079
 20
-12.55407991115298
 30
0.0
 10
-53.74534806797025
 20
-11.71307053107323
 30
0.0
 10
-54.26120293280867
 20
-9.15181387142036
 30
0.0
 10
-54.53136748681541
 20
-7.393556050903551
 30
0.0
 10
-54.80911267115666
 20
-4.668495042888067
 30
0.0
 10
-54.88023665517472
 20
-3.742734450232246
 30
0.0
 10
-54.97478710399351
 20
-1.902950173684262
 30
0.0
 10
-54.99885646413738
 20
-0.984051587703527
 30
0.0
 10
-55.0021677808822
 20
1.76969459618427
 30
0.0
 10
-54.91268381061263
 20
3.601600075379729
 30
0.0
 10
-54.64067041956892
 20
6.343557968277441
 30
0.0
 10
-54.52816316968332
 20
7.244255713713573
 30
0.0
 10
-54.26380811044926
 20
9.01326516072955
 30
0.0
 10
-54.11182013350576
 20
9.882939943571095
 30
0.0
 10
-53.7710339110867
 20
11.59471828988861
 30
0.0
 10
-53.58223125566483
 20
12.43681855508509
 30
0.0
 10
-53.17008009105096
 20
14.09512487418531
 30
0.0
 10
-52.94633222520516
 20
14.91206570879086
 30
0.0
 10
-52.23798067773527
 20
17.2895510043732
 30
0.0
 10
-51.71339826727505
 20
18.79098828028134
 30
0.0
 10
-50.57957615309692
 20
21.658330431327
 30
0.0
 10
-49.97020526505495
 20
23.0240273534675
 30
0.0
 10
-49.00233664351439
 20
24.98605242784365
 30
0.0
 10
-48.66989561666903
 20
25.62699109914401
 30
0.0
 10
-47.99399697322291
 20
26.87150287325475
 30
0.0
 10
-47.65022106713743
 20
27.47588537679711
 30
0.0
 10
-45.90516276193122
 20
30.41712595850214
 30
0.0
 10
-44.42667744447552
 20
32.51609856313826
 30
0.0
 10
-42.12153512010131
 20
35.38760888724894
 30
0.0
 10
-41.33832312769893
 20
36.29780999303389
 30
0.0
 10
-40.14415047189487
 20
37.60045445489991
 30
0.0
 10
-39.74285937390773
 20
38.02420059510361
 30
0.0
 10
-38.93421557744963
 20
38.85178965607071
 30
0.0
 10
-38.52670122938825
 20
39.2557575832988
 30
0.0
 10
-36.48388227567927
 20
41.21972478086295
 30
0.0
 10
-34.82587573088693
 20
42.6210834082779
 30
0.0
 10
-31.47906094630024
 20
45.14938641064439
 30
0.0
 10
-29.78999761862266
 20
46.27577113228862
 30
0.0
 10
-26.39840607858976
 20
48.29094230303832
 30
0.0
 10
-24.69533357934009
 20
49.17950590827496
 30
0.0
 10
-23.00000000000207
 20
49.95998398718663
 30
0.0
  0
LWPOLYLINE
  5
AE
330
1F
100
AcDbEntity
  8
0
  6
Continuous
 62
     7
370
    15
100
AcDbPolyline
 90
       40
 70
   128
 43
0.0
 10
1039.2304845413
 20
-54.0
 10
1037.057887186
 20
-53.8248946392
 10
1034.8993799582
 20
-53.3007141824
 10
1032.7689616056
 20
-52.430858141
 10
1030.6804487087
 20
-51.2209678651
 10
1028.6473860751
 20
-49.6788899576
 10
1026.6829588962
 20
-47.8146253853
 10
1024.7999072359
 20
-45.6402646194
 10
1023.0104434069
 20
-43.1699092238
 10
1021.3261727688
 20
-40.4195804012
 10
1019.7580184631
 20
-37.4071150895
 10
1018.316150572
 20
-34.1520502821
 10
1017.0099201622
 20
-30.6754963235
 10
1015.8477986392
 20
-27.0
 10
1014.8373228069
 20
-23.1493983158
 10
1013.9850459888
 20
-19.1486639003
 10
1013.2964955273
 20
-15.0237430515
 10
1012.7761369362
 20
-10.8013874639
 10
1012.4273449407
 20
-6.5089807338
 10
1012.2523815907
 20
-2.1743607659
 10
1012.2523815907
 20
2.1743607659
 10
1012.4273449407
 20
6.5089807338
 10
1012.7761369362
 20
10.8013874639
 10
1013.2964955273
 20
15.0237430515
 10
1013.9850459888
 20
19.1486639003
 10
1014.8373228069
 20
23.1493983158
 10
1015.8477986392
 20
27.0
 10
1017.0099201622
 20
30.6754963235
 10
1018.316150572
 20
34.1520502822
 10
1019.7580184631
 20
37.4071150895
 10
1021.3261727688
 20
40.4195804012
 10
1023.0104434069
 20
43.1699092238
 10
1024.7999072359
 20
45.6402646194
 10
1026.6829588962
 20
47.8146253853
 10
1028.6473860751
 20
49.6788899576
 10
1030.6804487087
 20
51.2209678651
 10
1032.7689616056
 20
52.430858141
 10
1034.8993799582
 20
53.3007141824
 10
1037.057887186
 20
53.8248946392
 10
1039.2304845413
 20
54.0
  0
SPLINE
  5
B1
330
1F
100
AcDbEntity
  8
0
  6
Continuous
 62
     7
370
    15
100
AcDbSpline
210
0.0
220
0.0
230
1.0
 70
     8
 71
     3
 72
    70
 73
    66
 74
     0
 42
0.000000001
 43
0.00000001
 40
0.0
 40
0.0
 40
0.0
 40
0.0
 40
0.0625000000000031
 40
0.0625000000000031
 40
0.1250000000000062
 40
0.1250000000000062
 40
0.1875000000000092
 40
0.1875000000000092
 40
0.2187500000000123
 40
0.2187500000000123
 40
0.2500000000000153
 40
0.2500000000000153
 40
0.3125000000000214
 40
0.3125000000000214
 40
0.3281250000000235
 40
0.3281250000000235
 40
0.3437500000000256
 40
0.3437500000000256
 40
0.3750000000000276
 40
0.3750000000000276
 40
0.4062500000000296
 40
0.4062500000000296
 40
0.4140625000000298
 40
0.4140625000000298
 40
0.4218750000000299
 40
0.4218750000000299
 40
0.4375000000000286
 40
0.4375000000000286
 40
0.4687500000000274
 40
0.4687500000000274
 40
0.4843750000000271
 40
0.4843750000000271
 40
0.5000000000000268
 40
0.5000000000000268
 40
0.5312500000000262
 40
0.5312500000000262
 40
0.5468750000000256
 40
0.5468750000000256
 40
0.5625000000000251
 40
0.5625000000000251
 40
0.5781250000000245
 40
0.5781250000000245
 40
0.593750000000024
 40
0.593750000000024
 40
0.6250000000000226
 40
0.6250000000000226
 40
0.6562500000000214
 40
0.6562500000000214
 40
0.6718750000000197
 40
0.6718750000000197
 40
0.6875000000000179
 40
0.6875000000000179
 40
0.750000000000016
 40
0.750000000000016
 40
0.781250000000015
 40
0.781250000000015
 40
0.7968750000000145
 40
0.7968750000000145
 40
0.8125000000000141
 40
0.8125000000000141
 40
0.8750000000000093
 40
0.8750000000000093
 40
0.9375000000000047
 40
0.9375000000000047
 40
1.0
 40
1.0
 40
1.0
 40
1.0
 10
22.99999999999837
 20
49.95998398718833
 30
0.0
 10
24.69312611531205
 20
49.18052215505086
 30
0.0
 10
26.39275774605657
 20
48.29379614342346
 30
0.0
 10
29.7749490296441
 20
46.28521165195928
 30
0.0
 10
31.45805339694321
 20
45.16355692780303
 30
0.0
 10
34.79032791708657
 20
42.64960821997573
 30
0.0
 10
36.43975151765913
 20
41.25782493099685
 30
0.0
 10
38.87618464690313
 20
38.92182125076246
 30
0.0
 10
39.68203265844313
 20
38.10153105258108
 30
0.0
 10
41.27853899639655
 20
36.36581640468857
 30
0.0
 10
42.06965481075698
 20
35.44949309097933
 30
0.0
 10
44.39077542729397
 20
32.56606703576579
 30
0.0
 10
45.8774355588829
 20
30.45955725358722
 30
0.0
 10
47.62928173047766
 20
27.51221100593922
 30
0.0
 10
47.97493217975808
 20
26.90549296786413
 30
0.0
 10
48.65056313091495
 20
25.66363919129618
 30
0.0
 10
48.98023141364204
 20
25.02920325792898
 30
0.0
 10
49.94294720719432
 20
23.08242544668741
 30
0.0
 10
50.54986960066816
 20
21.72688376310105
 30
0.0
 10
51.68088480657308
 20
18.87943167337354
 30
0.0
 10
52.20510949726727
 20
17.38773626258571
 30
0.0
 10
52.79634864688333
 20
15.41800072737083
 30
0.0
 10
52.91137137827668
 20
15.01876005141389
 30
0.0
 10
53.13454922042397
 20
14.20901311682844
 30
0.0
 10
53.24294400947736
 20
13.79751855490009
 30
0.0
 10
53.55488304404078
 20
12.55407991115305
 30
0.0
 10
53.74534806797022
 20
11.71307053107335
 30
0.0
 10
54.26120293280867
 20
9.151813871420478
 30
0.0
 10
54.53136748681543
 20
7.393556050903677
 30
0.0
 10
54.80911267115668
 20
4.668495042888195
 30
0.0
 10
54.8802366551747
 20
3.742734450232279
 30
0.0
 10
54.97478710399354
 20
1.902950173684297
 30
0.0
 10
54.99885646413738
 20
0.9840515877035615
 30
0.0
 10
55.00216778088219
 20
-1.76969459618424
 30
0.0
 10
54.91268381061264
 20
-3.601600075379692
 30
0.0
 10
54.64067041956892
 20
-6.343557968277405
 30
0.0
 10
54.52816316968332
 20
-7.244255713713598
 30
0.0
 10
54.26380811044928
 20
-9.013265160729574
 30
0.0
 10
54.11182013350579
 20
-9.882939943571092
 30
0.0
 10
53.77103391108674
 20
-11.59471828988862
 30
0.0
 10
53.58223125566482
 20
-12.4368185550851
 30
0.0
 10
53.17008009105097
 20
-14.09512487418533
 30
0.0
 10
52.94633222520516
 20
-14.91206570879089
 30
0.0
 10
52.23798067773528
 20
-17.28955100437323
 30
0.0
 10
51.71339826727511
 20
-18.79098828028127
 30
0.0
 10
50.57957615309697
 20
-21.65833043132695
 30
0.0
 10
49.97020526505495
 20
-23.02402735346752
 30
0.0
 10
49.00233664351438
 20
-24.98605242784369
 30
0.0
 10
48.66989561666897
 20
-25.62699109914413
 30
0.0
 10
47.99399697322282
 20
-26.87150287325486
 30
0.0
 10
47.65022106713738
 20
-27.47588537679719
 30
0.0
 10
45.90516276193119
 20
-30.41712595850223
 30
0.0
 10
44.42667744447557
 20
-32.51609856313819
 30
0.0
 10
42.12153512010133
 20
-35.38760888724889
 30
0.0
 10
41.33832312769887
 20
-36.29780999303393
 30
0.0
 10
40.1441504718948
 20
-37.60045445489996
 30
0.0
 10
39.74285937390773
 20
-38.02420059510359
 30
0.0
 10
38.93421557744963
 20
-38.85178965607069
 30
0.0
 10
38.52670122938824
 20
-39.2557575832988
 30
0.0
 10
36.48388227567926
 20
-41.21972478086295
 30
0.0
 10
34.82587573088693
 20
-42.62108340827795
 30
0.0
 10
31.47906094630024
 20
-45.1493864106444
 30
0.0
 10
29.78999761862266
 20
-46.27577113228863
 30
0.0
 10
26.39840607858977
 20
-48.29094230303831
 30
0.0
 10
24.69533357934005
 20
-49.17950590827498
 30
0.0
 10
23.00000000000206
 20
-49.95998398718664
 30
0.0
  0
LWPOLYLINE
  5
B2
330
1F
100
AcDbEntity
  8
0
  6
Continuous
 62
     7
370
    15
100
AcDbPolyline
 90
       40
 70
   128
 43
0.0
 10
-54.0
 20
-1039.2304845413
 10
-53.8248946392
 20
-1037.057887186
 10
-53.3007141824
 20
-1034.8993799582
 10
-52.430858141
 20
-1032.7689616056
 10
-51.2209678651
 20
-1030.6804487087
 10
-49.6788899576
 20
-1028.6473860751
 10
-47.8146253853
 20
-1026.6829588962
 10
-45.6402646194
 20
-1024.7999072359
 10
-43.1699092238
 20
-1023.0104434069
 10
-40.4195804012
 20
-1021.3261727688
 10
-37.4071150895
 20
-1019.7580184631
 10
-34.1520502821
 20
-1018.316150572
 10
-30.6754963235
 20
-1017.0099201622
 10
-27.0
 20
-1015.8477986392
 10
-23.1493983158
 20
-1014.8373228069
 10
-19.1486639003
 20
-1013.9850459888
 10
-15.0237430515
 20
-1013.2964955273
 10
-10.8013874639
 20
-1012.7761369362
 10
-6.5089807338
 20
-1012.4273449407
 10
-2.1743607659
 20
-1012.2523815907
 10
2.1743607659
 20
-1012.2523815907
 10
6.5089807338
 20
-1012.4273449407
 10
10.8013874639
 20
-1012.7761369362
 10
15.0237430515
 20
-1013.2964955273
 10
19.1486639003
 20
-1013.9850459888
 10
23.1493983158
 20
-1014.8373228069
 10
27.0
 20
-1015.8477986392
 10
30.6754963235
 20
-1017.0099201622
 10
34.1520502822
 20
-1018.316150572
 10
37.4071150895
 20
-1019.7580184631
 10
40.4195804012
 20
-1021.3261727688
 10
43.1699092238
 20
-1023.0104434069
 10
45.6402646194
 20
-1024.7999072359
 10
47.8146253853
 20
-1026.6829588962
 10
49.6788899576
 20
-1028.6473860751
 10
51.2209678651
 20
-1030.6804487087
 10
52.430858141
 20
-1032.7689616056
 10
53.3007141824
 20
-1034.8993799582
 10
53.8248946392
 20
-1037.057887186
 10
54.0
 20
-1039.2304845413
  0
SPLINE
  5
B3
330
1F
100
AcDbEntity
  8
0
  6
Continuous
 62
     7
370
    15
100
AcDbSpline
210
0.0
220
0.0
230
1.0
 70
     8
 71
     3
 72
    19
 73
    15
 74
     0
 42
0.000000001
 43
0.00000001
 40
0.0
 40
0.0
 40
0.0
 40
0.0
 40
0.0513581182607548
 40
0.1346817215931213
 40
0.2179623997594032
 40
0.3142372207962443
 40
0.4129476715065538
 40
0.5093509607177429
 40
0.6090399437067712
 40
0.6987048421368819
 40
0.7904117238219391
 40
0.8598074442031615
 40
0.9292241714811533
 40
1.0
 40
1.0
 40
1.0
 40
1.0
 10
22.81412636754785
 20
-50.01909356829515
 30
0.0
 10
22.17275059318115
 20
-50.3134471077863
 30
0.0
 10
20.49080436140424
 20
-51.08536093170051
 30
0.0
 10
17.49866095928176
 20
-52.18067020487182
 30
0.0
 10
13.66525943835725
 20
-53.33217722887535
 30
0.0
 10
9.306205505942982
 20
-54.27716399713747
 30
0.0
 10
4.475692298484289
 20
-54.8925739361954
 30
0.0
 10
-0.5595715650052965
 20
-55.0740923003918
 30
0.0
 10
-5.424705018534551
 20
-54.80175659023699
 30
0.0
 10
-10.03774133004418
 20
-54.13607868514126
 30
0.0
 10
-13.93554929102603
 20
-53.25186728388628
 30
0.0
 10
-17.28598280881559
 20
-52.23666217090268
 30
0.0
 10
-20.20608293236805
 20
-51.21168743423676
 30
0.0
 10
-21.92035977195714
 20
-50.38761298391605
 30
0.0
 10
-22.78580774772851
 20
-49.97158125062501
 30
0.0
  0
CIRCLE
  5
B4
330
1F
100
AcDbEntity
  8
0
  6
Continuous
 62
     7
370
    15
100
AcDbCircle
 10
-0.0000000003
 20
0.0
 30
0.0
 40
2800.000000000001
  0
LWPOLYLINE
  5
B7
330
1F
100
AcDbEntity
  8
0
  6
Continuous
 62
     7
370
    15
100
AcDbPolyline
 90
       35
 70
   128
 43
0.0
 10
-49.6236863572
 20
1028.5828351256
 10
-47.7492124063
 20
1026.6208382876
 10
-45.5650664901
 20
1024.7406198444
 10
-43.085413633
 20
1022.9543737338
 10
-40.3263353352
 20
1021.2736844476
 10
-37.3057252783
 20
1019.7094519005
 10
-34.0431732775
 20
1018.2718207409
 10
-30.5598382346
 20
1016.9701145586
 10
-26.878310914
 20
1015.8127754177
 10
-23.0224674331
 20
1014.8073091065
 10
-19.0173144164
 20
1013.9602364599
 10
-14.8888268181
 20
1013.2770510692
 10
-10.6637794647
 20
1012.7621836537
 10
-6.3695734093
 20
1012.4189733261
 10
-2.0340582263
 20
1012.2496459372
 10
2.314648605
 20
1012.2552996401
 10
6.6483440518
 20
1012.4358977682
 10
10.9389224362
 20
1012.7902690736
 10
15.1585577111
 20
1013.3161153221
 10
19.2798839223
 20
1014.0100261993
 10
23.2761726881
 20
1014.8675014266
 10
27.1215065421
 20
1015.8829799483
 10
30.7909470189
 20
1017.0498759965
 10
34.2606963887
 20
1018.3606218025
 10
37.5082519956
 20
1019.8067166767
 10
40.5125521952
 20
1021.3787821391
 10
43.2541129479
 20
1023.0666227419
 10
45.7151541801
 20
1024.8592921909
 10
47.8797150951
 20
1026.7451643371
 10
49.7337576847
 20
1028.7120085758
 10
51.2652577714
 20
1030.7470691674
 10
52.4642829893
 20
1032.837147963
 10
53.3230571998
 20
1034.9686899997
 10
53.8360109227
 20
1037.1278714094
 10
54.0
 20
1039.2304845414
  0
LWPOLYLINE
  5
BB
330
1F
100
AcDbEntity
  8
0
  6
Continuous
 62
     7
370
    15
100
AcDbPolyline
 90
       41
 70
   128
 43
0.0
 10
-1039.2304845414
 20
-54.0
 10
-1038.7023180443
 20
-53.9896671652
 10
-1036.531849094
 20
-53.7295958192
 10
-1034.3788818302
 20
-53.1210674265
 10
-1032.2573790717
 20
-52.1680285274
 10
-1030.1810995779
 20
-50.8766599447
 10
-1028.1635088181
 20
-49.2553366994
 10
-1026.2176916427
 20
-47.3145736947
 10
-1024.3562674226
 20
-45.0669575234
 10
-1022.5913082083
 20
-42.5270648391
 10
-1020.9342604374
 20
-39.7113678203
 10
-1019.3958707007
 20
-36.6381273426
 10
-1017.986116046
 20
-33.32727455
 10
-1016.714139273
 20
-29.8002815931
 10
-1015.5881896394
 20
-26.0800223748
 10
-1014.6155693605
 20
-22.1906242037
 10
-1013.802586252
 20
-18.1573113194
 10
-1013.1545128215
 20
-14.0062413036
 10
-1012.6755520737
 20
-9.7643354384
 10
-1012.368810253
 20
-5.4591041109
 10
-1012.2362766976
 20
-1.1184683985
 10
-1012.2788109387
 20
3.2294210107
 10
-1012.4961371253
 20
7.5563663854
 10
-1012.8868458137
 20
11.8343058245
 10
-1013.4484031082
 20
16.0354952491
 10
-1014.1771670941
 20
20.1326883337
 10
-1015.0684114574
 20
24.099313209
 10
-1016.1163561364
 20
27.9096447903
 10
-1017.3142048078
 20
31.5389716154
 10
-1018.6541889632
 20
34.9637561071
 10
-1020.1276182912
 20
38.1617872238
 10
-1021.7249370372
 20
41.1123245064
 10
-1023.4357859762
 20
43.7962325884
 10
-1025.2490695963
 20
46.1961052962
 10
-1027.1530280574
 20
48.2963785342
 10
-1029.1353134584
 20
50.0834312245
 10
-1031.1830699176
 20
51.5456736448
 10
-1033.2830169488
 20
52.6736225918
 10
-1035.4215355895
 20
53.4599628837
 10
-1037.5847567257
 20
53.8995948021
 10
-1039.2304845414
 20
54.0
  0
LWPOLYLINE
  5
BD
330
1F
100
AcDbEntity
  8
0
  6
Continuous
 62
     7
370
    15
100
AcDbPolyline
 90
       41
 70
   128
 43
0.0
 10
54.0
 20
-1039.2304845414
 10
53.9063213852
 20
-1037.6407900176
 10
53.4756852681
 20
-1035.4771165501
 10
52.6982388117
 20
-1033.3377851143
 10
51.5790240546
 20
-1031.2366700955
 10
50.125299534
 20
-1029.1873980309
 10
48.3464932113
 20
-1027.2032592361
 10
46.254141328
 20
-1025.2971216127
 10
43.8618135891
 20
-1023.4813471945
 10
41.1850251578
 20
-1021.7677119755
 10
38.2411360344
 20
-1020.1673295376
 10
35.0492384695
 20
-1018.690578975
 10
31.6300331437
 20
-1017.3470375818
 10
28.0056949154
 20
-1016.1454187395
 10
24.1997290089
 20
-1015.0935154074
 10
20.2368185737
 20
-1014.1981495823
 10
16.1426646044
 20
-1013.465128055
 10
11.9438192608
 20
-1012.8992047516
 10
7.667513666
 20
-1012.5040499018
 10
3.3414813029
 20
-1012.2822262363
 10
-1.0062218488
 20
-1012.2351723669
 10
-5.3473992656
 20
-1012.3631934559
 10
-9.6538967462
 20
-1012.6654592373
 10
-13.8977850019
 20
-1013.1400094018
 10
-18.0515407889
 20
-1013.7837663092
 10
-22.0882254069
 20
-1014.5925549491
 10
-25.9816594072
 20
-1015.5611300167
 10
-29.7065923763
 20
-1016.6832099312
 10
-33.2388666944
 20
-1017.9515175735
 10
-36.5555742072
 20
-1019.3578274821
 10
-39.6352047938
 20
-1020.8930191975
 10
-42.457785868
 20
-1022.5471364122
 10
-45.0050119084
 20
-1024.3094515416
 10
-47.2603631768
 20
-1026.1685352956
 10
-49.2092128546
 20
-1028.1123308027
 10
-50.838921904
 20
-1030.1282318032
 10
-52.1389210364
 20
-1032.2031644056
 10
-53.1007792584
 20
-1034.3236718756
 10
-53.7182585506
 20
-1036.4760019087
 10
-53.9873543226
 20
-1038.6461958186
 10
-54.0
 20
-1039.2304845414
  0
CIRCLE
  5
BE
330
1F
100
AcDbEntity
  8
0
  6
Continuous
 62
     7
370
    15
100
AcDbCircle
 10
0.0
 20
0.0
 30
0.0
 40
53.99999999999999
  0
LWPOLYLINE
  5
BF
330
1F
100
AcDbEntity
  8
0
  6
Continuous
 62
     7
370
    15
100
AcDbPolyline
 90
        3
 70
   128
 43
0.0
 10
1042.6945861565
 20
54.0
 10
1042.6243816258
 20
53.9998174561
 10
1042.4267994525
 20
53.9973440192
  0
LWPOLYLINE
  5
C0
330
1F
100
AcDbEntity
  8
0
  6
Continuous
 62
     7
370
    15
100
AcDbPolyline
 90
       16
 70
   128
 43
0.0
 10
1014.4186413628
 20
-21.2952988315
 10
1015.3558783382
 20
-25.2192925074
 10
1016.4479512963
 20
-28.979729394
 10
1017.6877777249
 20
-32.552221615
 10
1019.0673168738
 20
-35.9136001876
 10
1020.5776219022
 20
-39.0420652817
 10
1022.2088979026
 20
-41.9173276009
 10
1023.950565424
 20
-44.5207399655
 10
1025.7913290844
 20
-46.8354182474
 10
1027.7192508248
 20
-48.8463508698
 10
1029.7218273332
 20
-50.5404961629
 10
1031.7860711323
 20
-51.9068669444
 10
1033.898594809
 20
-52.9366017754
 10
1036.0456978367
 20
-53.6230224305
 10
1038.2134554282
 20
-53.9616772083
 10
1039.2304845414
 20
-54.0
  0
LWPOLYLINE
  5
C1
330
1F
100
AcDbEntity
  8
0
  6
Continuous
 62
     7
370
    15
100
AcDbPolyline
 90
       26
 70
   128
 43
0.0
 10
1039.2304845414
 20
54.0
 10
1038.0731602389
 20
53.9503698026
 10
1035.9063125155
 20
53.5891735462
 10
1033.7610233233
 20
52.8804309356
 10
1031.6512056858
 20
51.8287384384
 10
1029.5905425802
 20
50.4409166842
 10
1027.5923981973
 20
48.7259662295
 10
1025.6697312703
 20
46.6950091861
 10
1023.8350110319
 20
44.3612170897
 10
1022.100136347
 20
41.7397254778
 10
1020.4763585436
 20
38.8475357292
 10
1018.9742084438
 20
35.7034048045
 10
1017.6034280674
 20
32.327723599
 10
1016.3729074513
 20
28.7423847009
 10
1015.2906269938
 20
24.9706404086
 10
1014.363605699
 20
21.0369519312
 10
1013.5978556557
 20
16.966830748
 10
1012.9983430467
 20
12.7866731567
 10
1012.5689559414
 20
8.5235890833
 10
1012.31247908
 20
4.205226264
 10
1012.2305758133
 20
-0.1404090614
 10
1012.3237773154
 20
-4.4851337801
 10
1012.5914791388
 20
-8.8007706851
 10
1013.0319451345
 20
-13.0593312151
 10
1013.6423187114
 20
-17.233196971
 10
1014.4186413628
 20
-21.2952988315
  0
SPLINE
  5
C2
330
1F
100
AcDbEntity
  8
0
  6
PHANTOM
 62
     8
370
     0
100
AcDbSpline
210
0.0
220
0.0
230
1.0
 70
     8
 71
     3
 72
    14
 73
    10
 74
     0
 42
0.000000001
 43
0.00000001
 40
0.0
 40
0.0
 40
0.0
 40
0.0
 40
0.2500000000000001
 40
0.2500000000000001
 40
0.5
 40
0.5
 40
0.75
 40
0.75
 40
1.0
 40
1.0
 40
1.0
 40
1.0
 10
-20.50658405995427
 20
1068.319522987906
 30
0.0
 10
-33.17980011437295
 20
1065.60025782598
 30
0.0
 10
-43.17429276707114
 20
1060.474755711362
 30
0.0
 10
-53.40568344674719
 20
1047.667817028157
 30
0.0
 10
-53.2243023715234
 20
1040.509952961303
 30
0.0
 10
-42.34724172382156
 20
1027.836736906884
 30
0.0
 10
-32.09623749458407
 20
1022.839490580535
 30
0.0
 10
-6.482360128173458
 20
1017.723795240697
 30
0.0
 10
7.833368005534387
 20
1017.814485778309
 30
0.0
 10
20.50658405995306
 20
1020.533750940235
 30
0.0
  0
SPLINE
  5
C3
330
1F
100
AcDbEntity
  8
0
  6
PHANTOM
 62
     8
370
     0
100
AcDbSpline
210
0.0
220
0.0
230
1.0
 70
     8
 71
     3
 72
    14
 73
    10
 74
     0
 42
0.000000001
 43
0.00000001
 40
0.0
 40
0.0
 40
0.0
 40
0.0
 40
0.2499999999999999
 40
0.2499999999999999
 40
0.5
 40
0.5
 40
0.75
 40
0.75
 40
1.0
 40
1.0
 40
1.0
 40
1.0
 10
20.50658405995306
 20
1020.533750940234
 30
0.0
 10
33.17980011437172
 20
1023.25301610216
 30
0.0
 10
43.17429276706999
 20
1028.378518216779
 30
0.0
 10
53.40568344674605
 20
1041.185456899984
 30
0.0
 10
53.22430237152227
 20
1048.343320966838
 30
0.0
 10
42.34724172382044
 20
1061.016537021256
 30
0.0
 10
32.09623749458289
 20
1066.013783347606
 30
0.0
 10
6.482360128172267
 20
1071.129478687443
 30
0.0
 10
-7.83336800553564
 20
1071.038788149832
 30
0.0
 10
-20.5065840599543
 20
1068.319522987906
 30
0.0
  0
LWPOLYLINE
  5
C4
330
1F
100
AcDbEntity
  8
0
  6
PHANTOM
 62
     8
370
     0
100
AcDbPolyline
 90
       41
 70
   128
 43
0.0
 10
-54.0
 20
1042.6945861565
 10
-53.9503698026
 20
1041.537261854
 10
-53.5891735462
 20
1039.3704141306
 10
-52.8804309356
 20
1037.2251249384
 10
-51.8287384384
 20
1035.115307301
 10
-50.4409166842
 20
1033.0546441953
 10
-48.7259662295
 20
1031.0564998125
 10
-46.6950091861
 20
1029.1338328854
 10
-44.3612170897
 20
1027.2991126471
 10
-41.7397254778
 20
1025.5642379621
 10
-38.8475357292
 20
1023.9404601587
 10
-35.7034048045
 20
1022.4383100589
 10
-32.327723599
 20
1021.0675296826
 10
-28.7423847009
 20
1019.8370090665
 10
-24.9706404086
 20
1018.754728609
 10
-21.0369519312
 20
1017.8277073141
 10
-16.966830748
 20
1017.0619572708
 10
-12.7866731567
 20
1016.4624446618
 10
-8.5235890833
 20
1016.0330575566
 10
-4.205226264
 20
1015.7765806952
 10
0.1404090614
 20
1015.6946774284
 10
4.4851337801
 20
1015.7878789305
 10
8.8007706851
 20
1016.055580754
 10
13.0593312151
 20
1016.4960467496
 10
17.233196971
 20
1017.1064203266
 10
21.2952988315
 20
1017.8827429779
 10
25.2192925074
 20
1018.8199799533
 10
28.979729394
 20
1019.9120529114
 10
32.552221615
 20
1021.15187934
 10
35.9136001876
 20
1022.5314184889
 10
39.0420652817
 20
1024.0417235174
 10
41.9173276009
 20
1025.6729995177
 10
44.5207399655
 20
1027.4146670392
 10
46.8354182474
 20
1029.2554306995
 10
48.8463508698
 20
1031.18335244
 10
50.5404961629
 20
1033.1859289483
 10
51.9068669444
 20
1035.2501727474
 10
52.9366017754
 20
1037.3626964242
 10
53.6230224305
 20
1039.5097994518
 10
53.9616772083
 20
1041.6775570434
 10
54.0
 20
1042.6945861565
  0
SPLINE
  5
C5
330
1F
100
AcDbEntity
  8
0
  6
PHANTOM
 62
     8
370
     0
100
AcDbSpline
210
0.0
220
0.0
230
1.0
 70
     8
 71
     3
 72
    14
 73
    10
 74
     0
 42
0.000000001
 43
0.00000001
 40
0.0
 40
0.0
 40
0.0
 40
0.0
 40
0.2499999999999999
 40
0.2499999999999999
 40
0.4999999999999999
 40
0.4999999999999999
 40
0.75
 40
0.75
 40
1.0
 40
1.0
 40
1.0
 40
1.0
 10
-1065.513711914055
 20
30.41941945887546
 30
0.0
 10
-1069.547463578334
 20
19.23445601284122
 30
0.0
 10
-1071.194528140731
 20
5.30170020496635
 30
0.0
 10
-1068.990150951585
 20
-21.92539941679981
 30
0.0
 10
-1065.228828416526
 20
-34.1066465714103
 30
0.0
 10
-1054.043864970492
 20
-50.24165322852679
 30
0.0
 10
-1047.077487066555
 20
-53.53578235332073
 30
0.0
 10
-1033.463937255671
 20
-49.12702797502889
 30
0.0
 10
-1027.373313678366
 20
-41.6043829049102
 30
0.0
 10
-1023.339562014087
 20
-30.4194194588759
 30
0.0
  0
SPLINE
  5
C6
330
1F
100
AcDbEntity
  8
0
  6
PHANTOM
 62
     8
370
     0
100
AcDbSpline
210
0.0
220
0.0
230
1.0
 70
     8
 71
     3
 72
    14
 73
    10
 74
     0
 42
0.000000001
 43
0.00000001
 40
0.0
 40
0.0
 40
0.0
 40
0.0
 40
0.2499999999999999
 40
0.2499999999999999
 40
0.4999999999999999
 40
0.4999999999999999
 40
0.75
 40
0.75
 40
1.0
 40
1.0
 40
1.0
 40
1.0
 10
-1023.339562014087
 20
-30.41941945887595
 30
0.0
 10
-1019.305810349808
 20
-19.23445601284165
 30
0.0
 10
-1017.658745787411
 20
-5.301700204966893
 30
0.0
 10
-1019.863122976557
 20
21.92539941679928
 30
0.0
 10
-1023.624445511616
 20
34.10664657140968
 30
0.0
 10
-1034.80940895765
 20
50.24165322852621
 30
0.0
 10
-1041.775786861588
 20
53.53578235332012
 30
0.0
 10
-1055.389336672471
 20
49.12702797502836
 30
0.0
 10
-1061.479960249776
 20
41.60438290490977
 30
0.0
 10
-1065.513711914055
 20
30.4194194588755
 30
0.0
  0
LWPOLYLINE
  5
C7
330
1F
100
AcDbEntity
  8
0
  6
PHANTOM
 62
     8
370
     0
100
AcDbPolyline
 90
       41
 70
   128
 43
0.0
 10
-1042.2417889118
 20
-53.9924059347
 10
-1041.0798756511
 20
-53.9033472053
 10
-1038.9164029638
 20
-53.4686948321
 10
-1036.7774332442
 20
-52.6872774553
 10
-1034.6768385319
 20
-51.5641628664
 10
-1032.6282419896
 20
-50.1066348946
 10
-1030.644929552
 20
-48.3241461679
 10
-1028.7397637613
 20
-46.2282568098
 10
-1026.9251003488
 20
-43.8325594671
 10
-1025.2127081029
 20
-41.1525911563
 10
-1023.6136925446
 20
-38.2057325004
 10
-1022.1384239033
 20
-35.0110950084
 10
-1020.7964698623
 20
-31.5893971304
 10
-1019.5965335084
 20
-27.9628298901
 10
-1018.5463968894
 20
-24.1549129679
 10
-1017.6528705442
 20
-20.190342166
 10
-1016.9217493341
 20
-16.0948292475
 10
-1016.3577748606
 20
-11.8949351852
 10
-1015.9646047146
 20
-7.6178979038
 10
-1015.7447887555
 20
-3.2914556312
 10
-1015.6997525739
 20
1.0563329941
 10
-1015.8297882469
 20
5.3972708946
 10
-1016.1340524432
 20
9.7032054223
 10
-1016.6105718928
 20
13.9462109394
 10
-1017.2562561841
 20
18.0987699269
 10
-1018.0669178068
 20
22.1339514464
 10
-1019.0372993092
 20
26.0255857973
 10
-1020.1611073948
 20
29.7484342375
 10
-1021.431053737
 20
33.2783526661
 10
-1022.8389022464
 20
36.5924482078
 10
-1024.3755224852
 20
39.6692276812
 10
-1026.0309488815
 20
42.4887369908
 10
-1027.7944453599
 20
45.0326905367
 10
-1029.6545749691
 20
47.284589804
 10
-1031.5992740546
 20
49.2298303618
 10
-1033.6159304968
 20
50.8557965787
 10
-1035.6914655047
 20
52.1519434398
 10
-1037.8124184373
 20
53.1098649353
 10
-1039.965034101
 20
53.7233485768
 10
-1042.1353519573
 20
53.9884156875
 10
-1042.5112666392
 20
53.9987553173
  0
LWPOLYLINE
  5
C8
330
1F
100
AcDbEntity
  8
0
  6
PHANTOM
 62
     8
370
     0
100
AcDbPolyline
 90
       41
 70
   128
 43
0.0
 10
53.9999963594
 20
-1042.7045005765
 10
53.990624349
 20
-1042.1914752321
 10
53.734582171
 20
-1040.0208865237
 10
53.130050608
 20
-1037.8676377834
 10
52.1809502792
 20
-1035.7456936555
 10
50.8934364643
 20
-1033.668815762
 10
49.2758591845
 20
-1031.650473453
 10
47.3387090492
 20
-1029.7037564529
 10
45.0945492204
 20
-1027.8412899684
 10
42.5579339357
 20
-1026.0751528093
 10
39.7453141185
 20
-1024.4167990529
 10
36.6749306878
 20
-1022.8769837596
 10
33.3666962583
 20
-1021.4656932225
 10
29.8420659996
 20
-1020.1920802023
 10
26.1238984916
 20
-1019.0644045681
 10
22.2363074773
 20
-1018.0899797292
 10
18.2045054763
 20
-1017.2751252045
 10
14.0546402716
 20
-1016.6251256383
 10
9.8136253315
 20
-1016.1441965273
 10
5.5089652654
 20
-1015.8354568812
 10
1.1685774455
 20
-1015.7009089952
 10
-3.1793890475
 20
-1015.7414254639
 10
-7.5067359825
 20
-1015.9567435225
 10
-11.7853988541
 20
-1016.3454667507
 10
-15.9876288917
 20
-1016.9050741292
 10
-20.086173021
 20
-1017.6319363895
 10
-24.0544506105
 20
-1018.5213395509
 10
-27.8667258574
 20
-1019.5675154925
 10
-31.4982746937
 20
-1020.763679362
 10
-34.9255451318
 20
-1022.1020735776
 10
-38.1263100076
 20
-1023.5740181393
 10
-41.0798111328
 20
-1025.1699669217
 10
-43.7668939192
 20
-1026.8795695847
 10
-46.1701316037
 20
-1028.6917386988
 10
-48.2739382679
 20
-1030.594721652
 10
-50.0646699182
 20
-1032.5761768697
 10
-51.5307129726
 20
-1034.6232538543
 10
-52.6625595795
 20
-1036.7226765261
 10
-53.4528692792
 20
-1038.8608293235
 10
-53.8965166101
 20
-1041.0238455051
 10
-54.0
 20
-1042.6945861565
  0
SPLINE
  5
C9
330
1F
100
AcDbEntity
  8
0
  6
PHANTOM
 62
     8
370
     0
100
AcDbSpline
210
0.0
220
0.0
230
1.0
 70
     8
 71
     3
 72
    14
 73
    10
 74
     0
 42
0.000000001
 43
0.00000001
 40
0.0
 40
0.0
 40
0.0
 40
0.0
 40
0.2499999999999999
 40
0.2499999999999999
 40
0.5
 40
0.5
 40
0.75
 40
0.75
 40
1.0
 40
1.0
 40
1.0
 40
1.0
 10
-51.99097159529929
 20
-1044.911114150511
 30
0.0
 10
-51.73399619052533
 20
-1051.805350527492
 30
0.0
 10
-46.00964600563554
 20
-1058.36669158808
 30
0.0
 10
-26.14638272994244
 20
-1067.934905123299
 30
0.0
 10
-12.81951838108124
 20
-1070.550610464108
 30
0.0
 10
14.75742712684344
 20
-1070.293635059334
 30
0.0
 10
27.88010924801965
 20
-1067.431459966889
 30
0.0
 10
47.01653631845734
 20
-1057.499828329043
 30
0.0
 10
52.24794700007446
 20
-1050.836396154612
 30
0.0
 10
51.99097159530042
 20
-1043.942159777631
 30
0.0
  0
SPLINE
  5
CA
330
1F
100
AcDbEntity
  8
0
  6
PHANTOM
 62
     8
370
     0
100
AcDbSpline
210
0.0
220
0.0
230
1.0
 70
     8
 71
     3
 72
    14
 73
    10
 74
     0
 42
0.000000001
 43
0.00000001
 40
0.0
 40
0.0
 40
0.0
 40
0.0
 40
0.25
 40
0.25
 40
0.5
 40
0.5
 40
0.75
 40
0.75
 40
1.0
 40
1.0
 40
1.0
 40
1.0
 10
51.99097159530044
 20
-1043.942159777631
 30
0.0
 10
51.7339961905264
 20
-1037.04792340065
 30
0.0
 10
46.00964600563662
 20
-1030.486582340061
 30
0.0
 10
26.14638272994344
 20
-1020.918368804843
 30
0.0
 10
12.81951838108237
 20
-1018.302663464034
 30
0.0
 10
-14.75742712684231
 20
-1018.559638868808
 30
0.0
 10
-27.8801092480184
 20
-1021.421813961253
 30
0.0
 10
-47.01653631845614
 20
-1031.3534455991
 30
0.0
 10
-52.24794700007325
 20
-1038.01687777353
 30
0.0
 10
-51.99097159529929
 20
-1044.911114150511
 30
0.0
  0
SPLINE
  5
CB
330
1F
100
AcDbEntity
  8
0
  6
PHANTOM
 62
     8
370
     0
100
AcDbSpline
210
0.0
220
0.0
230
1.0
 70
     8
 71
     3
 72
    14
 73
    10
 74
     0
 42
0.000000001
 43
0.00000001
 40
0.0
 40
0.0
 40
0.0
 40
0.0
 40
0.25
 40
0.25
 40
0.5
 40
0.5
 40
0.75
 40
0.75
 40
1.0
 40
1.0
 40
1.0
 40
1.0
 10
-20.50658405995387
 20
47.78577204767235
 30
0.0
 10
-33.17980011437253
 20
42.34724172382143
 30
0.0
 10
-43.17429276707072
 20
32.09623749458389
 30
0.0
 10
-53.40568344674665
 20
6.482360128173298
 30
0.0
 10
-53.22430237152286
 20
-7.83336800553456
 30
0.0
 10
-42.34724172382099
 20
-33.17980011437183
 30
0.0
 10
-32.09623749458346
 20
-43.17429276707002
 30
0.0
 10
-6.482360128172863
 20
-53.40568344674598
 30
0.0
 10
7.833368005534989
 20
-53.22430237152218
 30
0.0
 10
20.50658405995362
 20
-47.78577204767124
 30
0.0
  0
SPLINE
  5
CC
330
1F
100
AcDbEntity
  8
0
  6
PHANTOM
 62
     8
370
     0
100
AcDbSpline
210
0.0
220
0.0
230
1.0
 70
     8
 71
     3
 72
    14
 73
    10
 74
     0
 42
0.000000001
 43
0.00000001
 40
0.0
 40
0.0
 40
0.0
 40
0.0
 40
0.25
 40
0.25
 40
0.5
 40
0.5
 40
0.75
 40
0.75
 40
1.0
 40
1.0
 40
1.0
 40
1.0
 10
20.50658405995364
 20
-47.78577204767124
 30
0.0
 10
33.17980011437228
 20
-42.34724172382031
 30
0.0
 10
43.17429276707048
 20
-32.09623749458279
 30
0.0
 10
53.40568344674644
 20
-6.48236012817218
 30
0.0
 10
53.22430237152261
 20
7.833368005535676
 30
0.0
 10
42.34724172382075
 20
33.17980011437295
 30
0.0
 10
32.09623749458323
 20
43.17429276707116
 30
0.0
 10
6.482360128172621
 20
53.40568344674709
 30
0.0
 10
-7.833368005535228
 20
53.22430237152329
 30
0.0
 10
-20.50658405995387
 20
47.78577204767235
 30
0.0
  0
SPLINE
  5
CD
330
1F
100
AcDbEntity
  8
0
  6
PHANTOM
 62
     8
370
     0
100
AcDbSpline
210
0.0
220
0.0
230
1.0
 70
     8
 71
     3
 72
    14
 73
    10
 74
     0
 42
0.000000001
 43
0.00000001
 40
0.0
 40
0.0
 40
0.0
 40
0.0
 40
0.25
 40
0.25
 40
0.5
 40
0.5
 40
0.75
 40
0.75
 40
1.0
 40
1.0
 40
1.0
 40
1.0
 10
1034.173344934094
 20
47.78577204767171
 30
0.0
 10
1027.836736906884
 20
42.34724172382084
 30
0.0
 10
1022.839490580535
 20
32.09623749458339
 30
0.0
 10
1017.723795240697
 20
6.482360128172873
 30
0.0
 10
1017.814485778309
 20
-7.833368005534942
 30
0.0
 10
1023.25301610216
 20
-33.17980011437223
 30
0.0
 10
1028.378518216779
 20
-43.17429276707046
 30
0.0
 10
1041.185456899984
 20
-53.40568344674653
 30
0.0
 10
1048.343320966838
 20
-53.22430237152278
 30
0.0
 10
1054.679928994047
 20
-47.78577204767191
 30
0.0
  0
SPLINE
  5
CE
330
1F
100
AcDbEntity
  8
0
  6
PHANTOM
 62
     8
370
     0
100
AcDbSpline
210
0.0
220
0.0
230
1.0
 70
     8
 71
     3
 72
    14
 73
    10
 74
     0
 42
0.000000001
 43
0.00000001
 40
0.0
 40
0.0
 40
0.0
 40
0.0
 40
0.25
 40
0.25
 40
0.5
 40
0.5
 40
0.75
 40
0.75
 40
1.0
 40
1.0
 40
1.0
 40
1.0
 10
1054.679928994047
 20
-47.78577204767191
 30
0.0
 10
1061.016537021256
 20
-42.34724172382105
 30
0.0
 10
1066.013783347606
 20
-32.0962374945836
 30
0.0
 10
1071.129478687443
 20
-6.482360128173077
 30
0.0
 10
1071.038788149832
 20
7.833368005534738
 30
0.0
 10
1065.600257825981
 20
33.17980011437201
 30
0.0
 10
1060.474755711362
 20
43.17429276707021
 30
0.0
 10
1047.667817028157
 20
53.40568344674632
 30
0.0
 10
1040.509952961303
 20
53.22430237152256
 30
0.0
 10
1034.173344934094
 20
47.7857720476717
 30
0.0
  0
LWPOLYLINE
  5
CF
330
1F
100
AcDbEntity
  8
0
  6
PHANTOM
 62
     8
370
     0
100
AcDbPolyline
 90
       35
 70
   128
 43
0.0
 10
1032.0469367408
 20
49.6236863572
 10
1030.0849399028
 20
47.7492124063
 10
1028.2047214595
 20
45.5650664901
 10
1026.418475349
 20
43.085413633
 10
1024.7377860627
 20
40.3263353352
 10
1023.1735535156
 20
37.3057252783
 10
1021.7359223561
 20
34.0431732775
 10
1020.4342161738
 20
30.5598382346
 10
1019.2768770328
 20
26.878310914
 10
1018.2714107216
 20
23.0224674331
 10
1017.4243380751
 20
19.0173144164
 10
1016.7411526843
 20
14.8888268181
 10
1016.2262852688
 20
10.6637794647
 10
1015.8830749412
 20
6.3695734093
 10
1015.7137475524
 20
2.0340582263
 10
1015.7194012552
 20
-2.314648605
 10
1015.8999993834
 20
-6.6483440518
 10
1016.2543706887
 20
-10.9389224362
 10
1016.7802169373
 20
-15.1585577111
 10
1017.4741278144
 20
-19.2798839223
 10
1018.3316030418
 20
-23.2761726881
 10
1019.3470815635
 20
-27.1215065421
 10
1020.5139776116
 20
-30.7909470189
 10
1021.8247234176
 20
-34.2606963887
 10
1023.2708182919
 20
-37.5082519956
 10
1024.8428837543
 20
-40.5125521952
 10
1026.530724357
 20
-43.2541129479
 10
1028.3233938061
 20
-45.7151541801
 10
1030.2092659522
 20
-47.8797150951
 10
1032.1761101909
 20
-49.7337576847
 10
1034.2111707825
 20
-51.2652577714
 10
1036.3012495781
 20
-52.4642829893
 10
1038.4327916148
 20
-53.3230571998
 10
1040.5919730245
 20
-53.8360109227
 10
1042.6072012228
 20
-53.9997171798
  0
LWPOLYLINE
  5
D1
330
1F
100
AcDbEntity
  8
0
  6
PHANTOM
 62
     8
370
     0
100
AcDbPolyline
 90
       22
 70
   128
 43
0.0
 10
-1006.3108743946
 20
445.3213457264
 10
-1006.2469022076
 20
446.9888964955
 10
-1005.8222911171
 20
448.6875226623
 10
-1005.0441174078
 20
450.327786875
 10
-1003.9313824781
 20
451.8696372619
 10
-1002.5112570216
 20
453.2754250144
 10
-1000.8184175751
 20
454.5108236927
 10
-998.894199789
 20
455.5456674072
 10
-996.7855890959
 20
456.3546874072
 10
-994.5440734232
 20
456.9181290917
 10
-992.2243859641
 20
457.2222343759
 10
-989.8831687053
 20
457.2595776356
 10
-987.5775893473
 20
457.0292470252
 10
-985.3639453863
 20
456.5368667437
 10
-983.2962894456
 20
455.7944597027
 10
-981.4251094219
 20
454.8201539521
 10
-979.796095675
 20
453.6377400303
 10
-978.4490253632
 20
452.2760900483
 10
-977.4167911673
 20
450.7684526926
 10
-976.724598119
 20
449.15164136
 10
-976.3893481459
 20
447.4651352511
 10
-976.3742451663
 20
447.2702190086
  0
LWPOLYLINE
  5
D2
330
1F
100
AcDbEntity
  8
0
  6
PHANTOM
 62
     8
370
     0
100
AcDbPolyline
 90
       22
 70
   128
 43
0.0
 10
-1018.9792686535
 20
-451.2109548317
 10
-1019.0127691067
 20
-451.4036992225
 10
-1019.5061006818
 20
-453.05091486
 10
-1020.3481788415
 20
-454.5949726549
 10
-1021.5184417728
 20
-455.9981698981
 10
-1022.9883140665
 20
-457.2262434049
 10
-1024.7219044708
 20
-458.2492061511
 10
-1026.6768822807
 20
-459.0420794949
 10
-1028.8055109674
 20
-459.5855031033
 10
-1031.0558138051
 20
-459.8662076916
 10
-1033.3728430366
 20
-459.8773390324
 10
-1035.7000215831
 20
-459.6186253213
 10
-1037.9805245408
 20
-459.0963838139
 10
-1040.1586667275
 20
-458.3233665715
 10
-1042.1812624001
 20
-457.318449082
 10
-1043.9989239407
 20
-456.1061693594
 10
-1045.5672678006
 20
-454.7161287761
 10
-1046.847998255
 20
-453.1822692583
 10
-1047.8098425058
 20
-451.5420444942
 10
-1048.4293142987
 20
-449.8355053921
 10
-1048.6912874091
 20
-448.1043221198
 10
-1048.5964474063
 20
-446.4336754313
  0
SPLINE
  5
D5
330
1F
100
AcDbEntity
  8
0
  6
PHANTOM
 62
     8
370
     0
100
AcDbSpline
210
0.0
220
0.0
230
1.0
 70
    24
 71
     3
 72
    15
 73
    11
 74
     0
 42
0.000000001
 43
0.00000001
 40
0.0
 40
0.0
 40
0.0
 40
0.0
 40
0.1181659849193532
 40
0.2465459058168938
 40
0.374678002963624
 40
0.5024833358483897
 40
0.6276143367624831
 40
0.7522868501100118
 40
0.8764359269734934
 40
1.0
 40
1.0
 40
1.0
 40
1.0
 10
-1070.665871554321
 20
1.490633207350334
 30
0.0
 10
-1079.563258788602
 20
1.912538013694683
 30
0.0
 10
-1098.127098429736
 20
2.792815893320196
 30
0.0
 10
-1126.211910533107
 20
4.124568339255748
 30
0.0
 10
-1154.852781878637
 20
5.482688533464103
 30
0.0
 10
-1183.021299260827
 20
6.818410196263089
 30
0.0
 10
-1210.655343278705
 20
8.128787690563005
 30
0.0
 10
-1237.679363373675
 20
9.410238487813254
 30
0.0
 10
-1264.239471936988
 20
10.66969108494352
 30
0.0
 10
-1281.520886898638
 20
11.48915772619058
 30
0.0
 10
-1290.141188329025
 20
11.89792341322337
 30
0.0
  0
LWPOLYLINE
  5
D6
330
1F
100
AcDbEntity
  8
0
  6
PHANTOM
 62
     8
370
     0
100
AcDbPolyline
 90
       22
 70
   128
 43
0.0
 10
1032.6124842852
 20
-446.4874060536
 10
1032.6468980669
 20
-448.1558285719
 10
1032.3231311553
 20
-449.8765262268
 10
1031.6429766701
 20
-451.5598000861
 10
1030.6230425821
 20
-453.1645480712
 10
1029.2882335798
 20
-454.6515855437
 10
1027.671142948
 20
-455.9846021132
 10
1025.8112567071
 20
-457.1310482623
 10
1023.7539894461
 20
-458.062930139
 10
1021.5495753914
 20
-458.7574931082
 10
1019.2518417912
 20
-459.1977773738
 10
1016.9168945643
 20
-459.3730321014
 10
1014.60174831
 20
-459.2789779317
 10
1012.3629341281
 20
-458.9179114738
 10
1010.2551192471
 20
-458.2986492264
 10
1008.3297721622
 20
-457.4363122973
 10
1006.6339058811
 20
-456.3519571771
 10
1005.2089299633
 20
-455.0720615829
 10
1004.0896393839
 20
-453.6278779275
 10
1003.3033649121
 20
-452.0546701992
 10
1002.8693057499
 20
-450.3908528885
 10
1002.8427419037
 20
-450.1971655021
  0
LWPOLYLINE
  5
D7
330
1F
100
AcDbEntity
  8
0
  6
PHANTOM
 62
     8
370
     0
100
AcDbPolyline
 90
       22
 70
   128
 43
0.0
 10
992.4229788326
 20
449.2332299757
 10
992.445061937
 20
449.4276136609
 10
992.8404596983
 20
451.1010400888
 10
993.5900773531
 20
452.6920408659
 10
994.675610783
 20
454.1617670323
 10
996.070553499
 20
455.4743309038
 10
997.740843875
 20
456.5976823761
 10
999.6456968622
 20
457.5043915212
 10
1001.7385998765
 20
458.1723183705
 10
1003.9684485398
 20
458.5851535269
 10
1006.2807945433
 20
458.7328164069
 10
1008.6191751632
 20
458.611701387
 10
1010.9264919642
 20
458.2247658466
 10
1013.1464050251
 20
457.5814579541
 10
1015.2247086442
 20
456.6974859623
 10
1017.1106549304
 20
455.5944346455
 10
1018.7581929623
 20
454.2992382436
 10
1020.1270932565
 20
452.8435227832
 10
1021.1839300893
 20
451.2628338357
 10
1021.9028976831
 20
449.5957685677
 10
1022.2664403312
 20
447.883033277
 10
1022.2702224021
 20
446.2097010686
  0
SPLINE
  5
DA
330
1F
100
AcDbEntity
  8
0
  6
PHANTOM
 62
     8
370
     0
100
AcDbSpline
210
0.0
220
0.0
230
1.0
 70
    24
 71
     3
 72
    15
 73
    11
 74
     0
 42
0.000000001
 43
0.00000001
 40
0.0
 40
0.0
 40
0.0
 40
0.0
 40
0.1182121106189609
 40
0.2465853164050793
 40
0.3747107114031945
 40
0.502509359231259
 40
0.6276338149737417
 40
0.7522998071315643
 40
0.8764423901845023
 40
1.0
 40
1.0
 40
1.0
 40
1.0
 10
1070.687262263606
 20
0.3644214169162481
 30
0.0
 10
1079.597993558563
 20
0.4676507226302148
 30
0.0
 10
1098.185391112526
 20
0.6829825602775856
 30
0.0
 10
1126.303805580019
 20
1.008729606976154
 30
0.0
 10
1154.974933527808
 20
1.340879745288768
 30
0.0
 10
1183.173210698124
 20
1.667551987809313
 30
0.0
 10
1210.836449259094
 20
1.988025899088045
 30
0.0
 10
1237.889019576659
 20
2.301425322684292
 30
0.0
 10
1264.477188211113
 20
2.609444731808841
 30
0.0
 10
1281.776860549522
 20
2.809858491966076
 30
0.0
 10
1290.406269109815
 20
2.909828721671617
 30
0.0
  0
LWPOLYLINE
  5
DB
330
1F
100
AcDbEntity
  8
0
  6
PHANTOM
 62
     8
370
     0
100
AcDbPolyline
 90
       23
 70
   128
 43
0.0
 10
-404.2836565943
 20
-1093.1268858899
 10
-404.3740534745
 20
-1093.1522856467
 10
-406.1106548831
 20
-1093.4398619706
 10
-407.9037036931
 20
-1093.3677343963
 10
-409.7094161433
 20
-1092.9376641791
 10
-411.4836992437
 20
-1092.1601530364
 10
-413.1832274658
 20
-1091.0541867101
 10
-414.766500691
 20
-1089.6467713618
 10
-416.1948575866
 20
-1087.9722741192
 10
-417.4334196611
 20
-1086.0715838791
 10
-418.4519429493
 20
-1083.9911128568
 10
-419.2255565271
 20
-1081.7816632649
 10
-419.7353698256
 20
-1079.4971867932
 10
-419.9689339122
 20
-1077.193467184
 10
-419.9205454764
 20
-1074.9267580701
 10
-419.5913860966
 20
-1072.7524093395
 10
-418.9894933875
 20
-1070.7235155677
 10
-418.1295647332
 20
-1068.8896195226
 10
-417.0325983967
 20
-1067.2955023979
 10
-415.7253807723
 20
-1065.9800903198
 10
-414.2398322986
 20
-1064.9755038238
 10
-412.6122280058
 20
-1064.3062735168
 10
-412.5542555434
 20
-1064.2894613993
  0
LWPOLYLINE
  5
DC
330
1F
100
AcDbEntity
  8
0
  6
PHANTOM
 62
     8
370
     0
100
AcDbPolyline
 90
       23
 70
   128
 43
0.0
 10
413.0559882632
 20
-1053.8857405032
 10
413.1130946236
 20
-1053.9007569787
 10
414.7570461698
 20
-1054.5287601822
 10
416.2674377724
 20
-1055.4955927702
 10
417.6073877692
 20
-1056.7776460354
 10
418.744176445
 20
-1058.3436140203
 10
419.6500450014
 20
-1060.1552579647
 10
420.3028733882
 20
-1062.1683400432
 10
420.6867204441
 20
-1064.3337035913
 10
420.7922131578
 20
-1066.5984734428
 10
420.6167755442
 20
-1068.9073470678
 10
420.1646915455
 20
-1071.2039449837
 10
419.4470004245
 20
-1073.4321874636
 10
418.4812271999
 20
-1075.5376639252
 10
417.2909547108
 20
-1077.4689615617
 10
415.9052477558
 20
-1079.1789207709
 10
414.3579433716
 20
-1080.6257867273
 10
412.686824579
 20
-1081.7742289765
 10
410.9326977748
 20
-1082.596204156
 10
409.1383962959
 20
-1083.0716407753
 10
407.3477344888
 20
-1083.1889293333
 10
405.6044378242
 20
-1082.9452058066
 10
405.5091144956
 20
-1082.9209692488
  0
SPLINE
  5
DF
330
1F
100
AcDbEntity
  8
0
  6
PHANTOM
 62
     8
370
     0
100
AcDbSpline
210
0.0
220
0.0
230
1.0
 70
    24
 71
     3
 72
    17
 73
    13
 74
     0
 42
0.000000001
 43
0.00000001
 40
0.0
 40
0.0
 40
0.0
 40
0.0
 40
0.0903362808717509
 40
0.1969955286845854
 40
0.3033018691335672
 40
0.4091426266664023
 40
0.5144086353191921
 40
0.6130415340904471
 40
0.7109898166804889
 40
0.8081774442688031
 40
0.904535325638977
 40
1.0
 40
1.0
 40
1.0
 40
1.0
 10
0.3963997759530153
 20
-1070.686619584368
 30
0.0
 10
0.4928954349885079
 20
-1078.34399142417
 30
0.0
 10
0.7033226651558806
 20
-1095.042354466787
 30
0.0
 10
1.02586877467634
 20
-1120.637863329742
 30
0.0
 10
1.36298967881685
 20
-1147.38994879946
 30
0.0
 10
1.695946471172702
 20
-1173.811592955689
 30
0.0
 10
2.017569811529001
 20
-1199.333875865447
 30
0.0
 10
2.327202380883084
 20
-1223.904636259814
 30
0.0
 10
2.624396736506159
 20
-1247.488367512007
 30
0.0
 10
2.914363392865898
 20
-1270.498547773838
 30
0.0
 10
3.196957563787227
 20
-1292.923687600173
 30
0.0
 10
3.379266834542668
 20
-1307.390761973997
 30
0.0
 10
3.469997015356505
 20
-1314.590616750143
 30
0.0
  0
LWPOLYLINE
  5
E0
330
1F
100
AcDbEntity
  8
0
  6
PHANTOM
 62
     8
370
     0
100
AcDbPolyline
 90
       23
 70
   128
 43
0.0
 10
404.6177188641
 20
1090.5588261164
 10
404.7082751961
 20
1090.583651392
 10
406.4466675461
 20
1090.8601954788
 10
408.2392222427
 20
1090.7766845092
 10
410.04216759
 20
1090.3351577052
 10
411.8114781672
 20
1089.5463965378
 10
413.5039498676
 20
1088.4296614593
 10
415.0782548833
 20
1087.0122215889
 10
416.4959508726
 20
1085.3286888395
 10
417.7224196687
 20
1083.4201727421
 10
418.7277126073
 20
1081.3332766089
 10
419.4872818312
 20
1079.1189595447
 10
419.982579715
 20
1076.8312920961
 10
420.2015117725
 20
1074.5261359247
 10
420.1387319869
 20
1072.2597797422
 10
419.7957733534
 20
1070.0875648183
 10
419.1810104454
 20
1068.0625336242
 10
418.3094549192
 20
1066.2341346087
 10
417.2023889501
 20
1064.647014736
 10
415.8868455512
 20
1063.3399292688
 10
414.394948465
 20
1062.3447954186
 10
412.763127746
 20
1061.6859129716
 10
412.7050497048
 20
1061.6694692855
  0
LWPOLYLINE
  5
E1
330
1F
100
AcDbEntity
  8
0
  6
PHANTOM
 62
     8
370
     0
100
AcDbPolyline
 90
       23
 70
   128
 43
0.0
 10
-412.954609318
 20
1056.5081177824
 10
-413.0116191811
 20
1056.5234965484
 10
-414.6515501223
 20
1057.1619252584
 10
-416.1557724367
 20
1058.1383284924
 10
-417.4875551074
 20
1059.4288638413
 10
-418.614377854
 20
1061.002018227
 10
-419.5087252321
 20
1062.8193774072
 10
-420.1487585228
 20
1064.8365639985
 10
-420.5188490031
 20
1067.0043211099
 10
-420.6099595784
 20
1069.2697151277
 10
-420.4198654551
 20
1071.5774282808
 10
-419.9532084673
 20
1073.8711094236
 10
-419.2213837296
 20
1076.0947500528
 10
-418.2422613843
 20
1078.1940519568
 10
-417.0397502371
 20
1080.1177531031
 10
-415.6432139379
 20
1081.8188793851
 10
-414.0867539608
 20
1083.2558916651
 10
-412.4083768935
 20
1084.3937001017
 10
-410.6490663697
 20
1085.2045209956
 10
-408.8517823055
 20
1085.6685552281
 10
-407.0604118781
 20
1085.7744717287
 10
-405.3186978617
 20
1085.5196841638
 10
-405.2235303431
 20
1085.4948428451
  0
SPLINE
  5
E4
330
1F
100
AcDbEntity
  8
0
  6
PHANTOM
 62
     8
370
     0
100
AcDbSpline
210
0.0
220
0.0
230
1.0
 70
    24
 71
     3
 72
    17
 73
    13
 74
     0
 42
0.000000001
 43
0.00000001
 40
0.0
 40
0.0
 40
0.0
 40
0.0
 40
0.0903286528241821
 40
0.1969887950354619
 40
0.3032960269235596
 40
0.4091376719913337
 40
0.5144045633594657
 40
0.613038289223665
 40
0.7109873931657558
 40
0.8081758357275937
 40
0.9045345251133963
 40
1.0
 40
1.0
 40
1.0
 40
1.0
 10
-0.1966763814023565
 20
1070.690633488831
 30
0.0
 10
-0.2445456549248684
 20
1078.347752581058
 30
0.0
 10
-0.3489390031659494
 20
1095.046403742798
 30
0.0
 10
-0.5089571253073814
 20
1120.642735752626
 30
0.0
 10
-0.6762105725393793
 20
1147.396422821612
 30
0.0
 10
-0.8413981053412422
 20
1173.819648371928
 30
0.0
 10
-1.00096285228161
 20
1199.343458957206
 30
0.0
 10
-1.154578701371615
 20
1223.915690043658
 30
0.0
 10
-1.302023666198724
 20
1247.500832916141
 30
0.0
 10
-1.445882802940486
 20
1270.512390466073
 30
0.0
 10
-1.58608427985606
 20
1292.938872563065
 30
0.0
 10
-1.676532108032547
 20
1307.40681287252
 30
0.0
 10
-1.721545440435593
 20
1314.6070986004
 30
0.0
  0
LINE
  5
E5
330
1F
100
AcDbEntity
  8
0
  6
Continuous
 62
     7
370
    15
100
AcDbLine
 10
54.0
 20
54.0
 30
0.0
 11
54.0
 21
1042.6945861565
 31
0.0
  0
LINE
  5
E6
330
1F
100
AcDbEntity
  8
0
  6
Continuous
 62
     7
370
    15
100
AcDbLine
 10
-54.0
 20
1042.6945861565
 30
0.0
 11
-54.0
 21
54.0
 31
0.0
  0
LINE
  5
E7
330
1F
100
AcDbEntity
  8
0
  6
Continuous
 62
     7
370
    15
100
AcDbLine
 10
-23.0
 20
54.0
 30
0.0
 11
-1042.6945861565
 21
54.0
 31
0.0
  0
LINE
  5
E8
330
1F
100
AcDbEntity
  8
0
  6
Continuous
 62
     7
370
    15
100
AcDbLine
 10
-1042.6945861565
 20
-54.0
 30
0.0
 11
-23.0
 21
-54.0
 31
0.0
  0
LINE
  5
E9
330
1F
100
AcDbEntity
  8
0
  6
Continuous
 62
     7
370
    15
100
AcDbLine
 10
23.0
 20
-54.0
 30
0.0
 11
1042.6945861565
 21
-54.0
 31
0.0
  0
LINE
  5
EA
330
1F
100
AcDbEntity
  8
0
  6
Continuous
 62
     7
370
    15
100
AcDbLine
 10
1042.6945861565
 20
54.0
 30
0.0
 11
23.0
 21
54.0
 31
0.0
  0
LINE
  5
EB
330
1F
100
AcDbEntity
  8
0
  6
Continuous
 62
     7
370
    15
100
AcDbLine
 10
-54.0
 20
-54.0
 30
0.0
 11
-54.0
 21
-1042.6945861565
 31
0.0
  0
LINE
  5
EC
330
1F
100
AcDbEntity
  8
0
  6
Continuous
 62
     7
370
    15
100
AcDbLine
 10
54.0
 20
-1042.6945861565
 30
0.0
 11
54.0
 21
-54.0
 31
0.0
  0
LINE
  5
ED
330
1F
100
AcDbEntity
  8
0
  6
Continuous
 62
     7
370
    15
100
AcDbLine
 10
-53.9638597133
 20
-1042.8363930543
 30
0.0
 11
-53.9390881066
 21
-1043.6444754454
 31
0.0
  0
LINE
  5
EE
330
1F
100
AcDbEntity
  8
0
  6
Continuous
 62
     7
370
    15
100
AcDbLine
 10
-23.0
 20
-54.0
 30
0.0
 11
-23.0
 21
-49.9599839872
 31
0.0
  0
LINE
  5
EF
330
1F
100
AcDbEntity
  8
0
  6
Continuous
 62
     7
370
    15
100
AcDbLine
 10
-23.0
 20
49.9599839872
 30
0.0
 11
-23.0
 21
54.0
 31
0.0
  0
LINE
  5
F0
330
1F
100
AcDbEntity
  8
0
  6
Continuous
 62
     7
370
    15
100
AcDbLine
 10
23.0
 20
54.0
 30
0.0
 11
23.0
 21
49.9599839872
 31
0.0
  0
LINE
  5
F1
330
1F
100
AcDbEntity
  8
0
  6
Continuous
 62
     7
370
    15
100
AcDbLine
 10
23.0
 20
-49.9599839872
 30
0.0
 11
23.0
 21
-54.0
 31
0.0
  0
LINE
  5
F2
330
1F
100
AcDbEntity
  8
0
  6
Continuous
 62
     7
370
    15
100
AcDbLine
 10
-53.9976248034
 20
1042.9478230001
 30
0.0
 11
-54.0
 21
1042.6945861565
 31
0.0
  0
LINE
  5
F3
330
1F
100
AcDbEntity
  8
0
  6
Continuous
 62
     7
370
    15
100
AcDbLine
 10
54.0
 20
1042.6945861565
 30
0.0
 11
53.9941648012
 21
1043.0915015814
 31
0.0
  0
LINE
  5
F4
330
1F
100
AcDbEntity
  8
0
  6
Continuous
 62
     7
370
    15
100
AcDbLine
 10
-1042.6945861565
 20
-54.0
 30
0.0
 11
-1042.2417889118
 21
-53.9924059347
 31
0.0
  0
LINE
  5
F5
330
1F
100
AcDbEntity
  8
0
  6
Continuous
 62
     7
370
    15
100
AcDbLine
 10
-1042.5112666392
 20
53.9987553173
 30
0.0
 11
-1042.6945861565
 21
54.0
 31
0.0
  0
LINE
  5
F6
330
1F
100
AcDbEntity
  8
0
  6
Continuous
 62
     7
370
    15
100
AcDbLine
 10
-54.0
 20
-1042.6945861565
 30
0.0
 11
-53.9994006758
 21
-1042.8217933232
 31
0.0
  0
ARC
  5
F7
330
1F
100
AcDbEntity
  8
0
  6
Continuous
 62
     7
370
    15
100
AcDbCircle
 10
-1039.2304845413
 20
0.0
 30
0.0
 40
575.000000000009
100
AcDbArc
 50
5.3887620917
 51
87.3913658871
  0
ARC
  5
F8
330
1F
100
AcDbEntity
  8
0
  6
Continuous
 62
     7
370
    15
100
AcDbCircle
 10
-1039.2304845413
 20
0.0
 30
0.0
 40
575.0000000000088
100
AcDbArc
 50
267.1689700062
 51
354.6112379083
  0
ARC
  5
F9
330
1F
100
AcDbEntity
  8
0
  6
Continuous
 62
     7
370
    15
100
AcDbCircle
 10
1039.2304845413
 20
0.0
 30
0.0
 40
575.0000000000074
100
AcDbArc
 50
185.3887620917
 51
270.7810933062
  0
ARC
  5
FA
330
1F
100
AcDbEntity
  8
0
  6
Continuous
 62
     7
370
    15
100
AcDbCircle
 10
1039.2304845413
 20
0.0
 30
0.0
 40
575.0000000000086
100
AcDbArc
 50
90.5531368989
 51
174.6112379083
  0
ARC
  5
FB
330
1F
100
AcDbEntity
  8
0
  6
Continuous
 62
     7
370
    15
100
AcDbCircle
 10
0.0
 20
-1039.2304845413
 30
0.0
 40
499.9999999999995
100
AcDbArc
 50
352.9721618559
 51
83.7999628675
  0
ARC
  5
FC
330
1F
100
AcDbEntity
  8
0
  6
Continuous
 62
     7
370
    15
100
AcDbCircle
 10
0.0
 20
-1039.2304845413
 30
0.0
 40
499.9999999999974
100
AcDbArc
 50
96.2000371325
 51
188.4611126273
  0
ARC
  5
FD
330
1F
100
AcDbEntity
  8
0
  6
Continuous
 62
     7
370
    15
100
AcDbCircle
 10
0.0
 20
1039.2304845413
 30
0.0
 40
499.999999999999
100
AcDbArc
 50
172.6258254152
 51
263.7999628675
  0
ARC
  5
FE
330
1F
100
AcDbEntity
  8
0
  6
Continuous
 62
     7
370
    15
100
AcDbCircle
 10
0.0
 20
1039.2304845413
 30
0.0
 40
499.9999999999997
100
AcDbArc
 50
276.2000371325
 51
8.0915094448
  0
ARC
  5
FF
330
1F
100
AcDbEntity
  8
0
  6
Continuous
 62
     7
370
    15
100
AcDbCircle
 10
-37.7884840111
 20
1039.6704313145
 30
0.0
 40
16.21748450969744
100
AcDbArc
 50
181.5545065621
 51
223.1320125586
  0
ARC
  5
100
330
1F
100
AcDbEntity
  8
0
  6
PHANTOM
 62
     8
370
     0
100
AcDbCircle
 10
1043.313414628
 20
37.3892404493
 30
0.0
 40
16.63175248304441
100
AcDbArc
 50
93.05580538
 51
132.641405424
  0
ARC
  5
101
330
1F
100
AcDbEntity
  8
0
  6
PHANTOM
 62
     8
370
     0
100
AcDbCircle
 10
-1039.2304845413
 20
0.0
 30
0.0
 40
448.8592311348851
100
AcDbArc
 50
272.62516913
 51
353.0902959442
  0
ARC
  5
102
330
1F
100
AcDbEntity
  8
0
  6
PHANTOM
 62
     8
370
     0
100
AcDbCircle
 10
-1039.2304845413
 20
0.0
 30
0.0
 40
448.8592311348932
100
AcDbArc
 50
6.9097040558
 51
81.9450878031
  0
ARC
  5
103
330
1F
100
AcDbEntity
  8
0
  6
PHANTOM
 62
     8
370
     0
100
AcDbCircle
 10
1039.2304845413
 20
0.0
 30
0.0
 40
448.8592311348847
100
AcDbArc
 50
96.0037736637
 51
173.0902959442
  0
ARC
  5
104
330
1F
100
AcDbEntity
  8
0
  6
PHANTOM
 62
     8
370
     0
100
AcDbCircle
 10
1039.2304845413
 20
0.0
 30
0.0
 40
448.8592311348926
100
AcDbArc
 50
186.9097040558
 51
265.3236923369
  0
ARC
  5
105
330
1F
100
AcDbEntity
  8
0
  6
PHANTOM
 62
     8
370
     0
100
AcDbCircle
 10
0.0
 20
-1039.2304845413
 30
0.0
 40
410.3259033241451
100
AcDbArc
 50
97.5622164972
 51
183.407997252
  0
ARC
  5
106
330
1F
100
AcDbEntity
  8
0
  6
PHANTOM
 62
     8
370
     0
100
AcDbCircle
 10
0.0
 20
-1039.2304845413
 30
0.0
 40
410.3259033241401
100
AcDbArc
 50
358.0359738163
 51
82.4377835028
  0
ARC
  5
107
330
1F
100
AcDbEntity
  8
0
  6
PHANTOM
 62
     8
370
     0
100
AcDbCircle
 10
0.0
 20
1039.2304845413
 30
0.0
 40
410.3259033241446
100
AcDbArc
 50
277.5622164972
 51
3.0441989035
  0
ARC
  5
108
330
1F
100
AcDbEntity
  8
0
  6
PHANTOM
 62
     8
370
     0
100
AcDbCircle
 10
0.0
 20
1039.2304845413
 30
0.0
 40
410.32590332414
100
AcDbArc
 50
177.6721754679
 51
262.4377835028
  0
ENDSEC
  0
SECTION
  2
OBJECTS
  0
DICTIONARY
  5
C
330
0
100
AcDbDictionary
281
     1
  3
ACAD_GROUP
350
D
  3
ACAD_LAYOUT
350
1A
  3
ACAD_MLINESTYLE
350
17
  3
ACAD_PLOTSETTINGS
350
19
  3
ACAD_PLOTSTYLENAME
350
E
  3
ACAD_SCALELIST
350
47
  0
DICTIONARY
  5
D
102
{ACAD_REACTORS
330
C
102
}
330
C
100
AcDbDictionary
281
     1
  0
DICTIONARY
  5
1A
102
{ACAD_REACTORS
330
C
102
}
330
C
100
AcDbDictionary
281
     1
  3
Layout1
350
1E
  3
Layout2
350
26
  3
Model
350
22
  0
DICTIONARY
  5
17
102
{ACAD_REACTORS
330
C
102
}
330
C
100
AcDbDictionary
281
     1
  3
Standard
350
18
  0
DICTIONARY
  5
19
102
{ACAD_REACTORS
330
C
102
}
330
C
100
AcDbDictionary
281
     1
  0
ACDBDICTIONARYWDFLT
  5
E
102
{ACAD_REACTORS
330
C
102
}
330
C
100
AcDbDictionary
281
     1
  3
Normal
350
F
100
AcDbDictionaryWithDefault
340
F
  0
DICTIONARY
  5
47
102
{ACAD_REACTORS
330
C
102
}
330
C
100
AcDbDictionary
281
     1
  3
A0
350
48
  3
A1
350
49
  3
A2
350
4A
  3
A3
350
4B
  3
A4
350
4C
  3
A5
350
4D
  3
A6
350
4E
  3
A7
350
4F
  3
A8
350
50
  3
A9
350
51
  3
B0
350
52
  3
B1
350
53
  3
B2
350
54
  3
B3
350
55
  3
B4
350
56
  3
B5
350
57
  3
B6
350
58
  3
B7
350
59
  3
B8
350
5A
  3
B9
350
5B
  3
C0
350
5C
  3
C1
350
5D
  3
C2
350
5E
  3
C3
350
5F
  3
C4
350
60
  3
C5
350
61
  3
C6
350
62
  3
C7
350
63
  3
C8
350
64
  3
C9
350
65
  3
D0
350
66
  3
D1
350
67
  3
D2
350
68
  0
LAYOUT
  5
1E
102
{ACAD_REACTORS
330
1A
102
}
330
1A
100
AcDbPlotSettings
  1

  2
none_device
  4

  6

 40
0.0
 41
0.0
 42
0.0
 43
0.0
 44
0.0
 45
0.0
 46
0.0
 47
0.0
 48
0.0
 49
0.0
140
0.0
141
0.0
142
1.0
143
1.0
 70
   688
 72
     1
 73
     0
 74
     5
  7

 75
    16
147
1.0
148
0.0
149
0.0
100
AcDbLayout
  1
Layout1
 70
     1
 71
     1
 10
0.0
 20
0.0
 11
420.0
 21
297.0
 12
0.0
 22
0.0
 32
0.0
 14
1.0000000000E+20
 24
1.0000000000E+20
 34
1.0000000000E+20
 15
-1.0000000000E+20
 25
-1.0000000000E+20
 35
-1.0000000000E+20
146
0.0
 13
0.0
 23
0.0
 33
0.0
 16
1.0
 26
0.0
 36
0.0
 17
0.0
 27
1.0
 37
0.0
 76
     0
330
1B
  0
LAYOUT
  5
26
102
{ACAD_REACTORS
330
1A
102
}
330
1A
100
AcDbPlotSettings
  1

  2
none_device
  4

  6

 40
0.0
 41
0.0
 42
0.0
 43
0.0
 44
0.0
 45
0.0
 46
0.0
 47
0.0
 48
0.0
 49
0.0
140
0.0
141
0.0
142
1.0
143
1.0
 70
   688
 72
     1
 73
     0
 74
     5
  7

 75
    16
147
1.0
148
0.0
149
0.0
100
AcDbLayout
  1
Layout2
 70
     1
 71
     2
 10
0.0
 20
0.0
 11
0.0
 21
0.0
 12
0.0
 22
0.0
 32
0.0
 14
0.0
 24
0.0
 34
0.0
 15
0.0
 25
0.0
 35
0.0
146
0.0
 13
0.0
 23
0.0
 33
0.0
 16
1.0
 26
0.0
 36
0.0
 17
0.0
 27
1.0
 37
0.0
 76
     0
330
23
  0
LAYOUT
  5
22
102
{ACAD_REACTORS
330
1A
102
}
330
1A
100
AcDbPlotSettings
  1

  2
none_device
  4
ANSI_A_(11.00_x_8.50_Inches)
  6

 40
6.35
 41
19.05
 42
6.35000508
 43
19.05000254
 44
279.4
 45
215.9
 46
133.34999746
 47
88.89999873
 48
0.0
 49
0.0
140
0.0
141
0.0
142
0.0015026786
143
1.0
 70
  1696
 72
     0
 73
     0
 74
     0
  7

 75
     0
147
0.0179189148
148
-1300.4909072572
149
0.0
100
AcDbLayout
  1
Model
 70
     1
 71
     0
 10
0.0
 20
0.0
 11
420.0
 21
297.0
 12
0.0
 22
0.0
 32
0.0
 14
-2800.0000000003
 24
-2800.0
 34
0.0
 15
2799.9999999997
 25
2800.0
 35
0.0
146
0.0
 13
0.0
 23
0.0
 33
0.0
 16
1.0
 26
0.0
 36
0.0
 17
0.0
 27
1.0
 37
0.0
 76
     0
330
1F
331
29
  0
MLINESTYLE
  5
18
102
{ACAD_REACTORS
330
17
102
}
330
17
100
AcDbMlineStyle
  2
Standard
 70
     0
  3

 62
   256
 51
90.0
 52
90.0
 71
     2
 49
0.5
 62
   256
  6
BYLAYER
 49
-0.5
 62
   256
  6
BYLAYER
  0
ACDBPLACEHOLDER
  5
F
102
{ACAD_REACTORS
330
E
102
}
330
E
  0
SCALE
  5
48
102
{ACAD_REACTORS
330
47
102
}
330
47
100
AcDbScale
 70
     0
300
1:1
140
1.0
141
1.0
290
     1
  0
SCALE
  5
49
102
{ACAD_REACTORS
330
47
102
}
330
47
100
AcDbScale
 70
     0
300
1:2
140
1.0
141
2.0
290
     0
  0
SCALE
  5
4A
102
{ACAD_REACTORS
330
47
102
}
330
47
100
AcDbScale
 70
     0
300
1:4
140
1.0
141
4.0
290
     0
  0
SCALE
  5
4B
102
{ACAD_REACTORS
330
47
102
}
330
47
100
AcDbScale
 70
     0
300
1:5
140
1.0
141
5.0
290
     0
  0
SCALE
  5
4C
102
{ACAD_REACTORS
330
47
102
}
330
47
100
AcDbScale
 70
     0
300
1:8
140
1.0
141
8.0
290
     0
  0
SCALE
  5
4D
102
{ACAD_REACTORS
330
47
102
}
330
47
100
AcDbScale
 70
     0
300
1:10
140
1.0
141
10.0
290
     0
  0
SCALE
  5
4E
102
{ACAD_REACTORS
330
47
102
}
330
47
100
AcDbScale
 70
     0
300
1:16
140
1.0
141
16.0
290
     0
  0
SCALE
  5
4F
102
{ACAD_REACTORS
330
47
102
}
330
47
100
AcDbScale
 70
     0
300
1:20
140
1.0
141
20.0
290
     0
  0
SCALE
  5
50
102
{ACAD_REACTORS
330
47
102
}
330
47
100
AcDbScale
 70
     0
300
1:30
140
1.0
141
30.0
290
     0
  0
SCALE
  5
51
102
{ACAD_REACTORS
330
47
102
}
330
47
100
AcDbScale
 70
     0
300
1:40
140
1.0
141
40.0
290
     0
  0
SCALE
  5
52
102
{ACAD_REACTORS
330
47
102
}
330
47
100
AcDbScale
 70
     0
300
1:50
140
1.0
141
50.0
290
     0
  0
SCALE
  5
53
102
{ACAD_REACTORS
330
47
102
}
330
47
100
AcDbScale
 70
     0
300
1:100
140
1.0
141
100.0
290
     0
  0
SCALE
  5
54
102
{ACAD_REACTORS
330
47
102
}
330
47
100
AcDbScale
 70
     0
300
2:1
140
2.0
141
1.0
290
     0
  0
SCALE
  5
55
102
{ACAD_REACTORS
330
47
102
}
330
47
100
AcDbScale
 70
     0
300
4:1
140
4.0
141
1.0
290
     0
  0
SCALE
  5
56
102
{ACAD_REACTORS
330
47
102
}
330
47
100
AcDbScale
 70
     0
300
8:1
140
8.0
141
1.0
290
     0
  0
SCALE
  5
57
102
{ACAD_REACTORS
330
47
102
}
330
47
100
AcDbScale
 70
     0
300
10:1
140
10.0
141
1.0
290
     0
  0
SCALE
  5
58
102
{ACAD_REACTORS
330
47
102
}
330
47
100
AcDbScale
 70
     0
300
100:1
140
100.0
141
1.0
290
     0
  0
SCALE
  5
59
102
{ACAD_REACTORS
330
47
102
}
330
47
100
AcDbScale
 70
     0
300
1/128" = 1'-0"
140
0.0078125
141
12.0
290
     0
  0
SCALE
  5
5A
102
{ACAD_REACTORS
330
47
102
}
330
47
100
AcDbScale
 70
     0
300
1/64" = 1'-0"
140
0.015625
141
12.0
290
     0
  0
SCALE
  5
5B
102
{ACAD_REACTORS
330
47
102
}
330
47
100
AcDbScale
 70
     0
300
1/32" = 1'-0"
140
0.03125
141
12.0
290
     0
  0
SCALE
  5
5C
102
{ACAD_REACTORS
330
47
102
}
330
47
100
AcDbScale
 70
     0
300
1/16" = 1'-0"
140
0.0625
141
12.0
290
     0
  0
SCALE
  5
5D
102
{ACAD_REACTORS
330
47
102
}
330
47
100
AcDbScale
 70
     0
300
3/32" = 1'-0"
140
0.09375
141
12.0
290
     0
  0
SCALE
  5
5E
102
{ACAD_REACTORS
330
47
102
}
330
47
100
AcDbScale
 70
     0
300
1/8" = 1'-0"
140
0.125
141
12.0
290
     0
  0
SCALE
  5
5F
102
{ACAD_REACTORS
330
47
102
}
330
47
100
AcDbScale
 70
     0
300
3/16" = 1'-0"
140
0.1875
141
12.0
290
     0
  0
SCALE
  5
60
102
{ACAD_REACTORS
330
47
102
}
330
47
100
AcDbScale
 70
     0
300
1/4" = 1'-0"
140
0.25
141
12.0
290
     0
  0
SCALE
  5
61
102
{ACAD_REACTORS
330
47
102
}
330
47
100
AcDbScale
 70
     0
300
3/8" = 1'-0"
140
0.375
141
12.0
290
     0
  0
SCALE
  5
62
102
{ACAD_REACTORS
330
47
102
}
330
47
100
AcDbScale
 70
     0
300
1/2" = 1'-0"
140
0.5
141
12.0
290
     0
  0
SCALE
  5
63
102
{ACAD_REACTORS
330
47
102
}
330
47
100
AcDbScale
 70
     0
300
3/4" = 1'-0"
140
0.75
141
12.0
290
     0
  0
SCALE
  5
64
102
{ACAD_REACTORS
330
47
102
}
330
47
100
AcDbScale
 70
     0
300
1" = 1'-0"
140
1.0
141
12.0
290
     0
  0
SCALE
  5
65
102
{ACAD_REACTORS
330
47
102
}
330
47
100
AcDbScale
 70
     0
300
1-1/2" = 1'-0"
140
1.5
141
12.0
290
     0
  0
SCALE
  5
66
102
{ACAD_REACTORS
330
47
102
}
330
47
100
AcDbScale
 70
     0
300
3" = 1'-0"
140
3.0
141
12.0
290
     0
  0
SCALE
  5
67
102
{ACAD_REACTORS
330
47
102
}
330
47
100
AcDbScale
 70
     0
300
6" = 1'-0"
140
6.0
141
12.0
290
     0
  0
SCALE
  5
68
102
{ACAD_REACTORS
330
47
102
}
330
47
100
AcDbScale
 70
     0
300
1'-0" = 1'-0"
140
12.0
141
12.0
290
     0
  0
ENDSEC
  0
EOF
