  0
SECTION
  2
HEADER
  9
$ACADVER
  1
AC1015
  9
$ACADMAINTVER
 70
     6
  9
$DWGCODEPAGE
  3
ANSI_1251
  9
$INSBASE
 10
0.0
 20
0.0
 30
0.0
  9
$EXTMIN
 10
-1580.0
 20
-1580.0
 30
0.0
  9
$EXTMAX
 10
4520.0
 20
1580.0
 30
0.0
  9
$LIMMIN
 10
0.0
 20
0.0
  9
$LIMMAX
 10
420.0
 20
297.0
  9
$ORTHOMODE
 70
     0
  9
$REGENMODE
 70
     1
  9
$FILLMODE
 70
     1
  9
$QTEXTMODE
 70
     0
  9
$MIRRTEXT
 70
     1
  9
$LTSCALE
 40
1.0
  9
$ATTMODE
 70
     1
  9
$TEXTSIZE
 40
3.0
  9
$TRACEWID
 40
1.0
  9
$TEXTSTYLE
  7
Standard
  9
$CLAYER
  8
0
  9
$CELTYPE
  6
ByLayer
  9
$CECOLOR
 62
   256
  9
$CELTSCALE
 40
1.0
  9
$DISPSILH
 70
     0
  9
$DIMSCALE
 40
1.0
  9
$DIMASZ
 40
3.0
  9
$DIMEXO
 40
0.0
  9
$DIMDLI
 40
3.75
  9
$DIMRND
 40
0.0
  9
$DIMDLE
 40
0.0
  9
$DIMEXE
 40
2.0
  9
$DIMTP
 40
0.0
  9
$DIMTM
 40
0.0
  9
$DIMTXT
 40
3.0
  9
$DIMCEN
 40
2.5
  9
$DIMTSZ
 40
0.0
  9
$DIMTOL
 70
     0
  9
$DIMLIM
 70
     0
  9
$DIMTIH
 70
     1
  9
$DIMTOH
 70
     1
  9
$DIMSE1
 70
     0
  9
$DIMSE2
 70
     0
  9
$DIMTAD
 70
     1
  9
$DIMZIN
 70
     0
  9
$DIMBLK
  1

  9
$DIMASO
 70
     1
  9
$DIMSHO
 70
     1
  9
$DIMPOST
  1

  9
$DIMAPOST
  1

  9
$DIMALT
 70
     0
  9
$DIMALTD
 70
     3
  9
$DIMALTF
 40
0.0393700787
  9
$DIMLFAC
 40
1.0
  9
$DIMTOFL
 70
     1
  9
$DIMTVP
 40
0.0
  9
$DIMTIX
 70
     0
  9
$DIMSOXD
 70
     0
  9
$DIMSAH
 70
     0
  9
$DIMBLK1
  1

  9
$DIMBLK2
  1

  9
$DIMSTYLE
  2
ISO-25
  9
$DIMCLRD
 70
     0
  9
$DIMCLRE
 70
     0
  9
$DIMCLRT
 70
     0
  9
$DIMTFAC
 40
1.0
  9
$DIMGAP
 40
2.0
  9
$DIMJUST
 70
     0
  9
$DIMSD1
 70
     0
  9
$DIMSD2
 70
     0
  9
$DIMTOLJ
 70
     0
  9
$DIMTZIN
 70
     0
  9
$DIMALTZ
 70
     0
  9
$DIMALTTZ
 70
     0
  9
$DIMUPT
 70
     0
  9
$DIMDEC
 70
     2
  9
$DIMTDEC
 70
     2
  9
$DIMALTU
 70
     2
  9
$DIMALTTD
 70
     3
  9
$DIMTXSTY
  7
Standard
  9
$DIMAUNIT
 70
     0
  9
$DIMADEC
 70
     2
  9
$DIMALTRND
 40
0.0
  9
$DIMAZIN
 70
     0
  9
$DIMDSEP
 70
    44
  9
$DIMATFIT
 70
     3
  9
$DIMFRAC
 70
     0
  9
$DIMLDRBLK
  1

  9
$DIMLUNIT
 70
     2
  9
$DIMLWD
 70
    -2
  9
$DIMLWE
 70
    -2
  9
$DIMTMOVE
 70
     0
  9
$LUNITS
 70
     2
  9
$LUPREC
 70
     2
  9
$SKETCHINC
 40
1.0
  9
$FILLETRAD
 40
10.0
  9
$AUNITS
 70
     1
  9
$AUPREC
 70
     2
  9
$MENU
  1
.
  9
$ELEVATION
 40
0.0
  9
$PELEVATION
 40
0.0
  9
$THICKNESS
 40
0.0
  9
$LIMCHECK
 70
     0
  9
$CHAMFERA
 40
0.0
  9
$CHAMFERB
 40
0.0
  9
$CHAMFERC
 40
0.0
  9
$CHAMFERD
 40
0.0
  9
$SKPOLY
 70
     0
  9
$TDCREATE
 40
2459306.403434827
  9
$TDUCREATE
 40
2459306.278434827
  9
$TDUPDATE
 40
2459306.40346331
  9
$TDUUPDATE
 40
2459306.27846331
  9
$TDINDWG
 40
0.0000000116
  9
$TDUSRTIMER
 40
0.0000000116
  9
$USRTIMER
 70
     1
  9
$ANGBASE
 50
0.0
  9
$ANGDIR
 70
     0
  9
$PDMODE
 70
     0
  9
$PDSIZE
 40
-1.0
  9
$PLINEWID
 40
0.0
  9
$SPLFRAME
 70
     0
  9
$SPLINETYPE
 70
     6
  9
$SPLINESEGS
 70
     8
  9
$HANDSEED
  5
1FE
  9
$SURFTAB1
 70
     6
  9
$SURFTAB2
 70
     6
  9
$SURFTYPE
 70
     6
  9
$SURFU
 70
     6
  9
$SURFV
 70
     6
  9
$UCSBASE
  2

  9
$UCSNAME
  2

  9
$UCSORG
 10
0.0
 20
0.0
 30
0.0
  9
$UCSXDIR
 10
1.0
 20
0.0
 30
0.0
  9
$UCSYDIR
 10
0.0
 20
1.0
 30
0.0
  9
$UCSORTHOREF
  2

  9
$UCSORTHOVIEW
 70
     0
  9
$UCSORGTOP
 10
0.0
 20
0.0
 30
0.0
  9
$UCSORGBOTTOM
 10
0.0
 20
0.0
 30
0.0
  9
$UCSORGLEFT
 10
0.0
 20
0.0
 30
0.0
  9
$UCSORGRIGHT
 10
0.0
 20
0.0
 30
0.0
  9
$UCSORGFRONT
 10
0.0
 20
0.0
 30
0.0
  9
$UCSORGBACK
 10
0.0
 20
0.0
 30
0.0
  9
$PUCSBASE
  2

  9
$PUCSNAME
  2

  9
$PUCSORG
 10
0.0
 20
0.0
 30
0.0
  9
$PUCSXDIR
 10
1.0
 20
0.0
 30
0.0
  9
$PUCSYDIR
 10
0.0
 20
1.0
 30
0.0
  9
$PUCSORTHOREF
  2

  9
$PUCSORTHOVIEW
 70
     0
  9
$PUCSORGTOP
 10
0.0
 20
0.0
 30
0.0
  9
$PUCSORGBOTTOM
 10
0.0
 20
0.0
 30
0.0
  9
$PUCSORGLEFT
 10
0.0
 20
0.0
 30
0.0
  9
$PUCSORGRIGHT
 10
0.0
 20
0.0
 30
0.0
  9
$PUCSORGFRONT
 10
0.0
 20
0.0
 30
0.0
  9
$PUCSORGBACK
 10
0.0
 20
0.0
 30
0.0
  9
$USERI1
 70
     0
  9
$USERI2
 70
     0
  9
$USERI3
 70
     0
  9
$USERI4
 70
     0
  9
$USERI5
 70
     0
  9
$USERR1
 40
0.0
  9
$USERR2
 40
0.0
  9
$USERR3
 40
0.0
  9
$USERR4
 40
0.0
  9
$USERR5
 40
0.0
  9
$WORLDVIEW
 70
     1
  9
$SHADEDGE
 70
     3
  9
$SHADEDIF
 70
    70
  9
$TILEMODE
 70
     1
  9
$MAXACTVP
 70
    64
  9
$PINSBASE
 10
0.0
 20
0.0
 30
0.0
  9
$PLIMCHECK
 70
     0
  9
$PEXTMIN
 10
1.0000000000E+20
 20
1.0000000000E+20
 30
1.0000000000E+20
  9
$PEXTMAX
 10
-1.0000000000E+20
 20
-1.0000000000E+20
 30
-1.0000000000E+20
  9
$PLIMMIN
 10
0.0
 20
0.0
  9
$PLIMMAX
 10
420.0
 20
297.0
  9
$UNITMODE
 70
     0
  9
$VISRETAIN
 70
     1
  9
$PLINEGEN
 70
     0
  9
$PSLTSCALE
 70
     1
  9
$TREEDEPTH
 70
  3020
  9
$CMLSTYLE
  2
Standard
  9
$CMLJUST
 70
     0
  9
$CMLSCALE
 40
20.0
  9
$PROXYGRAPHICS
 70
     1
  9
$MEASUREMENT
 70
     1
  9
$CELWEIGHT
370
    -1
  9
$ENDCAPS
280
     0
  9
$JOINSTYLE
280
     0
  9
$LWDISPLAY
290
     1
  9
$INSUNITS
 70
     4
  9
$HYPERLINKBASE
  1

  9
$STYLESHEET
  1

  9
$XEDIT
290
     1
  9
$CEPSNTYPE
380
     0
  9
$PSTYLEMODE
290
     1
  9
$FINGERPRINTGUID
  2
{60BE7133-ACF2-467D-9AC1-18DD7894D7B1}
  9
$VERSIONGUID
  2
{FAEB1C32-E019-11D5-929B-00C0DF256EC4}
  9
$EXTNAMES
290
     1
  9
$PSVPSCALE
 40
0.0
  9
$OLESTARTUP
290
     0
  0
ENDSEC
  0
SECTION
  2
CLASSES
  0
CLASS
  1
ACDBDICTIONARYWDFLT
  2
AcDbDictionaryWithDefault
  3
ObjectDBX Classes
 90
        0
280
     0
281
     0
  0
CLASS
  1
VISUALSTYLE
  2
AcDbVisualStyle
  3
ObjectDBX Classes
 90
     4095
280
     0
281
     0
  0
CLASS
  1
MATERIAL
  2
AcDbMaterial
  3
ObjectDBX Classes
 90
     1153
280
     0
281
     0
  0
CLASS
  1
SCALE
  2
AcDbScale
  3
ObjectDBX Classes
 90
     1153
280
     0
281
     0
  0
CLASS
  1
SUN
  2
AcDbSun
  3
SCENEOE
 90
     1153
280
     0
281
     0
  0
CLASS
  1
ACDBPLACEHOLDER
  2
AcDbPlaceHolder
  3
ObjectDBX Classes
 90
        0
280
     0
281
     0
  0
CLASS
  1
LAYOUT
  2
AcDbLayout
  3
ObjectDBX Classes
 90
        0
280
     0
281
     0
  0
ENDSEC
  0
SECTION
  2
TABLES
  0
TABLE
  2
VPORT
  5
8
330
0
100
AcDbSymbolTable
 70
     1
  0
VPORT
  5
29
330
8
100
AcDbSymbolTableRecord
100
AcDbViewportTableRecord
  2
*Active
 70
     0
 10
0.0
 20
0.0
 11
1.0
 21
1.0
 12
1470.0
 22
0.0
 13
0.0
 23
0.0
 14
10.0
 24
10.0
 15
10.0
 25
10.0
 16
0.0
 26
0.0
 36
1.0
 17
0.0
 27
0.0
 37
0.0
 40
3223.2
 41
1.9303797468
 42
50.0
 43
0.0
 44
0.0
 50
0.0
 51
0.0
 71
     0
 72
   100
 73
     1
 74
     3
 75
     0
 76
     0
 77
     0
 78
     0
281
     0
 65
     1
110
0.0
120
0.0
130
0.0
111
1.0
121
0.0
131
0.0
112
0.0
122
1.0
132
0.0
 79
     0
146
0.0
  0
ENDTAB
  0
TABLE
  2
LTYPE
  5
5
330
0
100
AcDbSymbolTable
 70
     6
  0
LTYPE
  5
14
330
5
100
AcDbSymbolTableRecord
100
AcDbLinetypeTableRecord
  2
ByBlock
 70
     0
  3

 72
    65
 73
     0
 40
0.0
  0
LTYPE
  5
15
330
5
100
AcDbSymbolTableRecord
100
AcDbLinetypeTableRecord
  2
ByLayer
 70
     0
  3

 72
    65
 73
     0
 40
0.0
  0
LTYPE
  5
16
330
5
100
AcDbSymbolTableRecord
100
AcDbLinetypeTableRecord
  2
Continuous
 70
     0
  3
Solid line
 72
    65
 73
     0
 40
0.0
  0
LTYPE
  5
6A
330
5
100
AcDbSymbolTableRecord
100
AcDbLinetypeTableRecord
  2
HIDDEN
 70
     0
  3
Hidden __ __ __ __ __ __ __ __ __ __ __ __ __ __
 72
    65
 73
     2
 40
1.905
 49
1.27
 74
     0
 49
-0.635
 74
     0
  0
LTYPE
  5
6B
330
5
100
AcDbSymbolTableRecord
100
AcDbLinetypeTableRecord
  2
PHANTOM
 70
     0
  3
Phantom ______  __  __  ______  __  __  ______
 72
    65
 73
     6
 40
12.7
 49
6.35
 74
     0
 49
-1.27
 74
     0
 49
1.27
 74
     0
 49
-1.27
 74
     0
 49
1.27
 74
     0
 49
-1.27
 74
     0
  0
LTYPE
  5
6C
330
5
100
AcDbSymbolTableRecord
100
AcDbLinetypeTableRecord
  2
CENTER
 70
     0
  3
Center ____ _ ____ _ ____ _ ____ _ ____ _ ____
 72
    65
 73
     4
 40
10.16
 49
6.35
 74
     0
 49
-1.27
 74
     0
 49
1.27
 74
     0
 49
-1.27
 74
     0
  0
LTYPE
  5
6D
330
5
100
AcDbSymbolTableRecord
100
AcDbLinetypeTableRecord
  2
CENTERX2
 70
     0
  3
Center (2x) ________  __  ________  __  _____
 72
    65
 73
     4
 40
20.32
 49
12.7
 74
     0
 49
-2.54
 74
     0
 49
2.54
 74
     0
 49
-2.54
 74
     0
  0
LTYPE
  5
6E
330
5
100
AcDbSymbolTableRecord
100
AcDbLinetypeTableRecord
  2
DOT2
 70
     0
  3
Dot (.5x) ........................................
 72
    65
 73
     2
 40
0.635
 49
0.0
 74
     0
 49
-0.635
 74
     0
  0
ENDTAB
  0
TABLE
  2
LAYER
  5
2
330
0
100
AcDbSymbolTable
 70
     1
  0
LAYER
  5
10
330
2
100
AcDbSymbolTableRecord
100
AcDbLayerTableRecord
  2
0
 70
     0
 62
     7
  6
Continuous
370
    -3
390
F
  0
ENDTAB
  0
TABLE
  2
STYLE
  5
3
330
0
100
AcDbSymbolTable
 70
     1
  0
STYLE
  5
11
330
3
100
AcDbSymbolTableRecord
100
AcDbTextStyleTableRecord
  2
Standard
 70
     0
 40
0.0
 41
1.0
 50
0.0
 71
     0
 42
3.0
  3
txt
  4

  0
ENDTAB
  0
TABLE
  2
VIEW
  5
6
330
0
100
AcDbSymbolTable
 70
     0
  0
ENDTAB
  0
TABLE
  2
UCS
  5
7
330
0
100
AcDbSymbolTable
 70
     0
  0
ENDTAB
  0
TABLE
  2
APPID
  5
9
330
0
100
AcDbSymbolTable
 70
     1
  0
APPID
  5
12
330
9
100
AcDbSymbolTableRecord
100
AcDbRegAppTableRecord
  2
ACAD
 70
     0
  0
ENDTAB
  0
TABLE
  2
DIMSTYLE
  5
A
330
0
100
AcDbSymbolTable
 70
     1
100
AcDbDimStyleTable
  0
DIMSTYLE
105
27
330
A
100
AcDbSymbolTableRecord
100
AcDbDimStyleTableRecord
  2
ISO-25
 70
     0
 41
2.5
 42
0.625
 43
3.75
 44
1.25
 73
     0
 74
     0
 77
     1
 78
     8
140
2.5
141
2.5
143
0.0393700787
147
0.625
171
     3
172
     1
178
     0
271
     2
272
     2
274
     3
278
    44
283
     0
284
     8
340
11
  0
ENDTAB
  0
TABLE
  2
BLOCK_RECORD
  5
1
330
0
100
AcDbSymbolTable
 70
     1
  0
BLOCK_RECORD
  5
1F
330
1
100
AcDbSymbolTableRecord
100
AcDbBlockTableRecord
  2
*Model_Space
340
22
  0
BLOCK_RECORD
  5
1B
330
1
100
AcDbSymbolTableRecord
100
AcDbBlockTableRecord
  2
*Paper_Space
340
1E
  0
BLOCK_RECORD
  5
23
330
1
100
AcDbSymbolTableRecord
100
AcDbBlockTableRecord
  2
*Paper_Space0
340
26
  0
ENDTAB
  0
ENDSEC
  0
SECTION
  2
BLOCKS
  0
BLOCK
  5
20
330
1F
100
AcDbEntity
  8
0
100
AcDbBlockBegin
  2
*Model_Space
 70
     0
 10
0.0
 20
0.0
 30
0.0
  3
*Model_Space
  1
*Model_Space
  0
ENDBLK
  5
21
330
1F
100
AcDbEntity
  8
0
100
AcDbBlockEnd
  0
BLOCK
  5
1C
330
1B
100
AcDbEntity
 67
     1
  8
0
100
AcDbBlockBegin
  2
*Paper_Space
 70
     0
 10
0.0
 20
0.0
 30
0.0
  3
*Paper_Space
  1
*Paper_Space
  0
ENDBLK
  5
1D
330
1B
100
AcDbEntity
 67
     1
  8
0
100
AcDbBlockEnd
  0
BLOCK
  5
24
330
23
100
AcDbEntity
  8
0
100
AcDbBlockBegin
  2
*Paper_Space0
 70
     0
 10
0.0
 20
0.0
 30
0.0
  3
*Paper_Space0
  1
*Paper_Space0
  0
ENDBLK
  5
25
330
23
100
AcDbEntity
  8
0
100
AcDbBlockEnd
  0
ENDSEC
  0
SECTION
  2
ENTITIES
  0
SPLINE
  5
73
330
1F
100
AcDbEntity
  8
0
  6
Continuous
 62
     7
370
    15
100
AcDbSpline
210
0.0
220
0.0
230
1.0
 70
     8
 71
     3
 72
    20
 73
    16
 74
     0
 42
0.000000001
 43
0.00000001
 40
0.0
 40
0.0
 40
0.0
 40
0.0
 40
0.037767970259982
 40
0.1173542585604641
 40
0.1981666717702098
 40
0.2798911739461508
 40
0.3623176169189789
 40
0.445313607103358
 40
0.5288067968456758
 40
0.6127756936672704
 40
0.697249136017022
 40
0.7823162827016482
 40
0.8681528294532507
 40
0.9550781048341795
 40
1.0
 40
1.0
 40
1.0
 40
1.0
 10
1568.612476545978
 20
-12.87917092892239
 30
0.0
 10
1568.872804574499
 20
-12.6298358546793
 30
0.0
 10
1569.681707000532
 20
-11.85509120810455
 30
0.0
 10
1570.826236914951
 20
-10.33877852289238
 30
0.0
 10
1572.024759223759
 20
-8.361220689417802
 30
0.0
 10
1572.960368161754
 20
-6.212137002201426
 30
0.0
 10
1573.620648717257
 20
-3.943014956370009
 30
0.0
 10
1573.982692390913
 20
-1.589859785539751
 30
0.0
 10
1574.034918416792
 20
0.8050029299708575
 30
0.0
 10
1573.770759336214
 20
3.200359807233462
 30
0.0
 10
1573.188197419923
 20
5.553773185521637
 30
0.0
 10
1572.294002312743
 20
7.828380329739939
 30
0.0
 10
1571.081462418903
 20
9.97257044975127
 30
0.0
 10
1569.853848028404
 20
11.66153529847506
 30
0.0
 10
1568.954933046776
 20
12.54233794907369
 30
0.0
 10
1568.648662048314
 20
12.84243786147901
 30
0.0
  0
SPLINE
  5
76
330
1F
100
AcDbEntity
  8
0
  6
Continuous
 62
     7
370
    15
100
AcDbSpline
210
0.0
220
0.0
230
1.0
 70
     8
 71
     3
 72
    11
 73
     7
 74
     0
 42
0.000000001
 43
0.00000001
 40
0.0
 40
0.0
 40
0.0
 40
0.0
 40
0.1012879918371085
 40
0.5288877239076938
 40
0.9532579466448562
 40
1.0
 40
1.0
 40
1.0
 40
1.0
 10
1568.337723978427
 20
13.15890828079431
 30
0.0
 10
1568.21422594864
 20
13.28747162543117
 30
0.0
 10
1567.569365776209
 20
13.95878096318862
 30
0.0
 10
1566.207562562669
 20
14.94898537570526
 30
0.0
 10
1564.889240249249
 20
15.83574371533121
 30
0.0
 10
1564.13205335096
 20
16.17288628467138
 30
0.0
 10
1564.056928009941
 20
16.20633634904902
 30
0.0
  0
SPLINE
  5
77
330
1F
100
AcDbEntity
  8
0
  6
Continuous
 62
     7
370
    15
100
AcDbSpline
210
0.0
220
0.0
230
1.0
 70
     8
 71
     3
 72
    11
 73
     7
 74
     0
 42
0.000000001
 43
0.00000001
 40
0.0
 40
0.0
 40
0.0
 40
0.0
 40
0.0608576836061404
 40
0.4505522910163064
 40
0.8569146505169355
 40
1.0
 40
1.0
 40
1.0
 40
1.0
 10
1564.0186310071
 20
-16.22426107030272
 30
0.0
 10
1564.117014508628
 20
-16.17961420150845
 30
0.0
 10
1564.845384525119
 20
-15.84907666162847
 30
0.0
 10
1566.121861605149
 20
-15.0112488295431
 30
0.0
 10
1567.477048636431
 20
-14.03018130964051
 30
0.0
 10
1568.159986226673
 20
-13.33299618594007
 30
0.0
 10
1568.337834568157
 20
-13.15143754906162
 30
0.0
  0
SPLINE
  5
7A
330
1F
100
AcDbEntity
  8
0
  6
Continuous
 62
     7
370
    15
100
AcDbSpline
210
0.0
220
0.0
230
1.0
 70
     8
 71
     3
 72
    21
 73
    17
 74
     0
 42
0.000000001
 43
0.00000001
 40
0.0
 40
0.0
 40
0.0
 40
0.0
 40
0.0171943835534002
 40
0.092388055154859
 40
0.1692266764131939
 40
0.2475497198989859
 40
0.3272506226741408
 40
0.4082688508007304
 40
0.4905873547763133
 40
0.5742350450117985
 40
0.6592952291704741
 40
0.7459229665490252
 40
0.8250465615477881
 40
0.9040030138240255
 40
0.9826961173158422
 40
1.0
 40
1.0
 40
1.0
 40
1.0
 10
1369.371523900765
 20
12.88075064238818
 30
0.0
 10
1369.25074066205
 20
12.76973794481353
 30
0.0
 10
1368.60175382949
 20
12.1732497255899
 30
0.0
 10
1367.589494194747
 20
10.90444479713387
 30
0.0
 10
1366.368022356973
 20
9.076260619607925
 30
0.0
 10
1365.375086661663
 20
7.060297519813045
 30
0.0
 10
1364.622018267849
 20
4.90269019645311
 30
0.0
 10
1364.140212602679
 20
2.628746591193741
 30
0.0
 10
1363.95026583965
 20
0.2742537183964892
 30
0.0
 10
1364.070523851777
 20
-2.123752390987513
 30
0.0
 10
1364.51412202674
 20
-4.52584840993088
 30
0.0
 10
1365.264985062213
 20
-6.804264498205606
 30
0.0
 10
1366.27532622582
 20
-8.916676565001916
 30
0.0
 10
1367.514609200047
 20
-10.80637141164662
 30
0.0
 10
1368.55238990186
 20
-12.12655364945896
 30
0.0
 10
1369.228116297625
 20
-12.7448744973039
 30
0.0
 10
1369.34991897857
 20
-12.85632957353583
 30
0.0
  0
SPLINE
  5
7D
330
1F
100
AcDbEntity
  8
0
  6
Continuous
 62
     7
370
    15
100
AcDbSpline
210
0.0
220
0.0
230
1.0
 70
     8
 71
     3
 72
    10
 73
     6
 74
     0
 42
0.000000001
 43
0.00000001
 40
0.0
 40
0.0
 40
0.0
 40
0.0
 40
0.248285484677005
 40
0.6683630230588234
 40
1.0
 40
1.0
 40
1.0
 40
1.0
 10
1369.66659200346
 20
-13.15188002290777
 30
0.0
 10
1369.980800554304
 20
-13.45597024856429
 30
0.0
 10
1370.826622762504
 20
-14.27455480161149
 30
0.0
 10
1372.265128687993
 20
-15.30819128838112
 30
0.0
 10
1373.434532337552
 20
-15.92830122357197
 30
0.0
 10
1373.950442943584
 20
-16.20187766793466
 30
0.0
  0
SPLINE
  5
7E
330
1F
100
AcDbEntity
  8
0
  6
Continuous
 62
     7
370
    15
100
AcDbSpline
210
0.0
220
0.0
230
1.0
 70
     8
 71
     3
 72
    11
 73
     7
 74
     0
 42
0.000000001
 43
0.00000001
 40
0.0
 40
0.0
 40
0.0
 40
0.0
 40
0.0149079201822361
 40
0.3863391286465274
 40
0.7722125559757104
 40
1.0
 40
1.0
 40
1.0
 40
1.0
 10
1373.938702061884
 20
16.21457900099012
 30
0.0
 10
1373.914798554548
 20
16.20383175591446
 30
0.0
 10
1373.295338557257
 20
15.92531662790697
 30
0.0
 10
1372.146367395128
 20
15.19057214372127
 30
0.0
 10
1370.727461814262
 20
14.19095086999286
 30
0.0
 10
1369.953908703696
 20
13.43717414347512
 30
0.0
 10
1369.666770164972
 20
13.15737648663614
 30
0.0
  0
SPLINE
  5
81
330
1F
100
AcDbEntity
  8
0
  6
Continuous
 62
     7
370
    15
100
AcDbSpline
210
0.0
220
0.0
230
1.0
 70
     8
 71
     3
 72
    20
 73
    16
 74
     0
 42
0.000000001
 43
0.00000001
 40
0.0
 40
0.0
 40
0.0
 40
0.0
 40
0.0377679702599334
 40
0.1173542585604478
 40
0.1981666717702077
 40
0.2798911739461209
 40
0.3623176169189875
 40
0.4453136071033968
 40
0.5288067968457327
 40
0.6127756936673345
 40
0.697249136017111
 40
0.7823162827017407
 40
0.8681528294533508
 40
0.9550781048342768
 40
1.0
 40
1.0
 40
1.0
 40
1.0
 10
98.61247654597483
 20
-12.87917092895196
 30
0.0
 10
98.87280457449599
 20
-12.62983585470922
 30
0.0
 10
99.68170700052869
 20
-11.85509120813466
 30
0.0
 10
100.8262369149477
 20
-10.33877852292243
 30
0.0
 10
102.0247592237558
 20
-8.361220689447686
 30
0.0
 10
102.9603681617515
 20
-6.21213700223125
 30
0.0
 10
103.6206487172544
 20
-3.943014956399483
 30
0.0
 10
103.9826923909111
 20
-1.589859785568374
 30
0.0
 10
104.034918416789
 20
0.8050029299427526
 30
0.0
 10
103.7707593362116
 20
3.200359807205805
 30
0.0
 10
103.1881974199196
 20
5.55377318549425
 30
0.0
 10
102.294002312739
 20
7.828380329712672
 30
0.0
 10
101.0814624188992
 20
9.97257044972401
 30
0.0
 10
99.85384802839991
 20
11.66153529844678
 30
0.0
 10
98.9549330467725
 20
12.54233794904471
 30
0.0
 10
98.64866204831158
 20
12.84243786144937
 30
0.0
  0
SPLINE
  5
84
330
1F
100
AcDbEntity
  8
0
  6
Continuous
 62
     7
370
    15
100
AcDbSpline
210
0.0
220
0.0
230
1.0
 70
     8
 71
     3
 72
    11
 73
     7
 74
     0
 42
0.000000001
 43
0.00000001
 40
0.0
 40
0.0
 40
0.0
 40
0.0
 40
0.1012879918375703
 40
0.5288877239080759
 40
0.9532579466453102
 40
1.0
 40
1.0
 40
1.0
 40
1.0
 10
98.33772397842378
 20
13.15890828076468
 30
0.0
 10
98.21422594863604
 20
13.28747162540213
 30
0.0
 10
97.56936577620468
 20
13.95878096316008
 30
0.0
 10
96.20756256266505
 20
14.9489853756768
 30
0.0
 10
94.88924024924516
 20
15.8357437153023
 30
0.0
 10
94.13205335095665
 20
16.17288628464225
 30
0.0
 10
94.05692800993859
 20
16.20633634901957
 30
0.0
  0
SPLINE
  5
85
330
1F
100
AcDbEntity
  8
0
  6
Continuous
 62
     7
370
    15
100
AcDbSpline
210
0.0
220
0.0
230
1.0
 70
     8
 71
     3
 72
    11
 73
     7
 74
     0
 42
0.000000001
 43
0.00000001
 40
0.0
 40
0.0
 40
0.0
 40
0.0
 40
0.0608576836061233
 40
0.4505522910161689
 40
0.8569146505166859
 40
1.0
 40
1.0
 40
1.0
 40
1.0
 10
94.01863100709717
 20
-16.2242610703323
 30
0.0
 10
94.11701450862564
 20
-16.17961420153803
 30
0.0
 10
94.84538452511693
 20
-15.84907666165813
 30
0.0
 10
96.12186160514557
 20
-15.01124882957314
 30
0.0
 10
97.47704863642804
 20
-14.03018130967059
 30
0.0
 10
98.15998622667021
 20
-13.33299618596996
 30
0.0
 10
98.33783456815448
 20
-13.15143754909118
 30
0.0
  0
SPLINE
  5
88
330
1F
100
AcDbEntity
  8
0
  6
Continuous
 62
     7
370
    15
100
AcDbSpline
210
0.0
220
0.0
230
1.0
 70
     8
 71
     3
 72
    21
 73
    17
 74
     0
 42
0.000000001
 43
0.00000001
 40
0.0
 40
0.0
 40
0.0
 40
0.0
 40
0.0171943835529548
 40
0.0923880551543512
 40
0.1692266764126057
 40
0.2475497198983951
 40
0.3272506226735464
 40
0.4082688508001826
 40
0.4905873547756223
 40
0.5742350450111835
 40
0.6592952291698285
 40
0.7459229665483538
 40
0.8250465615471245
 40
0.904003013823351
 40
0.9826961173151334
 40
1.0
 40
1.0
 40
1.0
 40
1.0
 10
2839.371523900768
 20
12.88075064241749
 30
0.0
 10
2839.250740662057
 20
12.76973794484576
 30
0.0
 10
2838.6017538295
 20
12.17324972562564
 30
0.0
 10
2837.589494194759
 20
10.90444479717458
 30
0.0
 10
2836.368022356984
 20
9.076260619651347
 30
0.0
 10
2835.375086661673
 20
7.060297519857659
 30
0.0
 10
2834.622018267856
 20
4.902690196498468
 30
0.0
 10
2834.140212602685
 20
2.628746591240123
 30
0.0
 10
2833.950265839654
 20
0.2742537184433713
 30
0.0
 10
2834.070523851778
 20
-2.123752390939867
 30
0.0
 10
2834.514122026738
 20
-4.525848409883901
 30
0.0
 10
2835.26498506221
 20
-6.804264498159011
 30
0.0
 10
2836.275326225813
 20
-8.916676564956058
 30
0.0
 10
2837.514609200039
 20
-10.80637141160205
 30
0.0
 10
2838.552389901854
 20
-12.12655364942003
 30
0.0
 10
2839.228116297624
 20
-12.74487449726944
 30
0.0
 10
2839.349918978574
 20
-12.85632957350595
 30
0.0
  0
SPLINE
  5
8B
330
1F
100
AcDbEntity
  8
0
  6
Continuous
 62
     7
370
    15
100
AcDbSpline
210
0.0
220
0.0
230
1.0
 70
     8
 71
     3
 72
    10
 73
     6
 74
     0
 42
0.000000001
 43
0.00000001
 40
0.0
 40
0.0
 40
0.0
 40
0.0
 40
0.2482854846759778
 40
0.6683630230577091
 40
1.0
 40
1.0
 40
1.0
 40
1.0
 10
2839.666592003462
 20
-13.1518800228785
 30
0.0
 10
2839.980800554305
 20
-13.45597024853388
 30
0.0
 10
2840.826622762504
 20
-14.27455480158004
 30
0.0
 10
2842.265128687995
 20
-15.30819128834992
 30
0.0
 10
2843.434532337553
 20
-15.92830122354213
 30
0.0
 10
2843.950442943587
 20
-16.20187766790596
 30
0.0
  0
SPLINE
  5
8C
330
1F
100
AcDbEntity
  8
0
  6
Continuous
 62
     7
370
    15
100
AcDbSpline
210
0.0
220
0.0
230
1.0
 70
     8
 71
     3
 72
    11
 73
     7
 74
     0
 42
0.000000001
 43
0.00000001
 40
0.0
 40
0.0
 40
0.0
 40
0.0
 40
0.0149079201838522
 40
0.3863391286479738
 40
0.7722125559768135
 40
1.0
 40
1.0
 40
1.0
 40
1.0
 10
2843.938702061888
 20
16.21457900101889
 30
0.0
 10
2843.91479855455
 20
16.20383175594207
 30
0.0
 10
2843.295338557255
 20
15.92531662793357
 30
0.0
 10
2842.146367395126
 20
15.19057214374669
 30
0.0
 10
2840.727461814263
 20
14.19095087001902
 30
0.0
 10
2839.953908703697
 20
13.43717414350304
 30
0.0
 10
2839.666770164975
 20
13.15737648666541
 30
0.0
  0
CIRCLE
  5
8F
330
1F
100
AcDbEntity
  8
0
  6
Continuous
 62
     7
370
    15
100
AcDbCircle
 10
0.0
 20
0.0
 30
0.0
 40
84.99999999999997
  0
CIRCLE
  5
90
330
1F
100
AcDbEntity
  8
0
  6
Continuous
 62
     7
370
    15
100
AcDbCircle
 10
1470.0
 20
0.0
 30
0.0
 40
85.0000000000012
  0
CIRCLE
  5
91
330
1F
100
AcDbEntity
  8
0
  6
Continuous
 62
     7
370
    15
100
AcDbCircle
 10
2940.0
 20
0.0
 30
0.0
 40
84.9999999999968
  0
SPLINE
  5
AE
330
1F
100
AcDbEntity
  8
0
  6
Continuous
 62
     7
370
    15
100
AcDbSpline
210
0.0
220
0.0
230
1.0
 70
    24
 71
     3
 72
     8
 73
     4
 74
     0
 42
0.000000001
 43
0.00000001
 40
0.0
 40
0.0
 40
0.0
 40
0.0
 40
1.0
 40
1.0
 40
1.0
 40
1.0
 10
-42.13516210540447
 20
-34.12701150759839
 30
0.0
 10
-42.13516210540447
 20
-34.54367817426506
 30
0.0
 10
-42.13516210540447
 20
-34.96034484093173
 30
0.0
 10
-42.13516210540447
 20
-35.3770115075984
 30
0.0
  0
SPLINE
  5
B2
330
1F
100
AcDbEntity
  8
0
  6
Continuous
 62
     7
370
    15
100
AcDbSpline
210
0.0
220
0.0
230
1.0
 70
    24
 71
     3
 72
     8
 73
     4
 74
     0
 42
0.000000001
 43
0.00000001
 40
0.0
 40
0.0
 40
0.0
 40
0.0
 40
1.0
 40
1.0
 40
1.0
 40
1.0
 10
-47.13516210540458
 20
-35.3770115075984
 30
0.0
 10
-47.13516210540458
 20
-34.96034484093173
 30
0.0
 10
-47.13516210540458
 20
-34.54367817426506
 30
0.0
 10
-47.13516210540458
 20
-34.12701150759839
 30
0.0
  0
SPLINE
  5
B6
330
1F
100
AcDbEntity
  8
0
  6
Continuous
 62
     7
370
    15
100
AcDbSpline
210
0.0
220
0.0
230
1.0
 70
    11
 71
     3
 72
    70
 73
    66
 74
     0
 42
0.000000001
 43
0.00000001
 40
0.0
 40
0.0
 40
0.0
 40
0.0
 40
0.03125
 40
0.03125
 40
0.0625
 40
0.0625
 40
0.09375
 40
0.09375
 40
0.125
 40
0.125
 40
0.15625
 40
0.15625
 40
0.1875
 40
0.1875
 40
0.21875
 40
0.21875
 40
0.25
 40
0.25
 40
0.28125
 40
0.28125
 40
0.3125
 40
0.3125
 40
0.34375
 40
0.34375
 40
0.375
 40
0.375
 40
0.40625
 40
0.40625
 40
0.4375
 40
0.4375
 40
0.46875
 40
0.46875
 40
0.5
 40
0.5
 40
0.53125
 40
0.53125
 40
0.5625
 40
0.5625
 40
0.59375
 40
0.59375
 40
0.625
 40
0.625
 40
0.65625
 40
0.65625
 40
0.6875
 40
0.6875
 40
0.71875
 40
0.71875
 40
0.75
 40
0.75
 40
0.78125
 40
0.78125
 40
0.8125
 40
0.8125
 40
0.84375
 40
0.84375
 40
0.875
 40
0.875
 40
0.90625
 40
0.90625
 40
0.9375
 40
0.9375
 40
0.96875
 40
0.96875
 40
1.0
 40
1.0
 40
1.0
 40
1.0
 10
-44.63516210540453
 20
-38.2520115075984
 30
0.0
 10
-44.40395644017214
 20
-38.2520115075984
 30
0.0
 10
-44.1766140303863
 20
-38.22932689221693
 30
0.0
 10
-43.72933972109983
 20
-38.14044395185643
 30
0.0
 10
-43.50709264795305
 20
-38.07316789466505
 30
0.0
 10
-43.08326459550283
 20
-37.89752173122659
 30
0.0
 10
-42.88224725428469
 20
-37.79003624703395
 30
0.0
 10
-42.50181013648091
 20
-37.53609379255131
 30
0.0
 10
-42.32168083455123
 20
-37.38828330145336
 30
0.0
 10
-41.99881010351625
 20
-37.06540137612554
 30
0.0
 10
-41.85392742701421
 20
-36.88922522604644
 30
0.0
 10
-41.59805583087017
 20
-36.50670073700267
 30
0.0
 10
-41.48931022651614
 20
-36.30300015936918
 30
0.0
 10
-41.31472721374352
 20
-35.88190618059568
 30
0.0
 10
-41.24753428363314
 20
-35.66141692888077
 30
0.0
 10
-41.15757906525097
 20
-35.20967588018312
 30
0.0
 10
-41.13531712906094
 20
-34.98260859627353
 30
0.0
 10
-41.13500867991515
 20
-34.52614456938493
 30
0.0
 10
-41.15767966074868
 20
-34.29432707429643
 30
0.0
 10
-41.24687003519512
 20
-33.84545977695467
 30
0.0
 10
-41.31287975407361
 20
-33.627293864774
 30
0.0
 10
-41.48796233616259
 20
-33.20356602566215
 30
0.0
 10
-41.59749801497536
 20
-32.99855644318336
 30
0.0
 10
-41.85071838243503
 20
-32.61920093400737
 30
0.0
 10
-41.9952747469634
 20
-32.44239216590425
 30
0.0
 10
-42.32167498817652
 20
-32.11551304804922
 30
0.0
 10
-42.49878774612803
 20
-31.97030737964052
 30
0.0
 10
-42.8776871031551
 20
-31.7166771149918
 30
0.0
 10
-43.08209379012262
 20
-31.60706731193772
 30
0.0
 10
-43.50616567423926
 20
-31.43115886946934
 30
0.0
 10
-43.72429626460983
 20
-31.3648921183133
 30
0.0
 10
-44.17259409685981
 20
-31.27519037692906
 30
0.0
 10
-44.40395644017214
 20
-31.25201150759841
 30
0.0
 10
-44.86636777063691
 20
-31.2520115075984
 30
0.0
 10
-45.09371018042252
 20
-31.2746961229798
 30
0.0
 10
-45.540984489709
 20
-31.36357906334032
 30
0.0
 10
-45.763231562856
 20
-31.43085512053172
 30
0.0
 10
-46.18705961530623
 20
-31.60650128397016
 30
0.0
 10
-46.38807695652436
 20
-31.71398676816279
 30
0.0
 10
-46.76851407432814
 20
-31.96792922264543
 30
0.0
 10
-46.94864337625781
 20
-32.11573971374339
 30
0.0
 10
-47.2715141072928
 20
-32.43862163907121
 30
0.0
 10
-47.41639678379484
 20
-32.61479778915034
 30
0.0
 10
-47.67226837993888
 20
-32.99732227819409
 30
0.0
 10
-47.78101398429291
 20
-33.2010228558276
 30
0.0
 10
-47.95559699706553
 20
-33.6221168346011
 30
0.0
 10
-48.0227899271759
 20
-33.84260608631602
 30
0.0
 10
-48.11274514555808
 20
-34.29434713501367
 30
0.0
 10
-48.13500708174811
 20
-34.52141441892329
 30
0.0
 10
-48.1353155308939
 20
-34.97787844581187
 30
0.0
 10
-48.11264455006037
 20
-35.20969594090038
 30
0.0
 10
-48.02345417561394
 20
-35.65856323824215
 30
0.0
 10
-47.95744445673522
 20
-35.87672915042282
 30
0.0
 10
-47.78236187464646
 20
-36.30045698953468
 30
0.0
 10
-47.67282619583413
 20
-36.50546657201383
 30
0.0
 10
-47.41960582837446
 20
-36.88482208118982
 30
0.0
 10
-47.27504946384586
 20
-37.06163084929287
 30
0.0
 10
-46.94864922263275
 20
-37.38850996714793
 30
0.0
 10
-46.77153646468102
 20
-37.53371563555629
 30
0.0
 10
-46.39263710765395
 20
-37.78734590020501
 30
0.0
 10
-46.18823042068642
 20
-37.89695570325912
 30
0.0
 10
-45.76415853656979
 20
-38.07286414572746
 30
0.0
 10
-45.54602794619922
 20
-38.13913089688351
 30
0.0
 10
-45.09773011394902
 20
-38.22883263826773
 30
0.0
 10
-44.86636777063691
 20
-38.25201150759841
 30
0.0
 10
-44.63516210540453
 20
-38.2520115075984
 30
0.0
  0
SPLINE
  5
B7
330
1F
100
AcDbEntity
  8
0
  6
Continuous
 62
     7
370
    15
100
AcDbSpline
210
0.0
220
0.0
230
1.0
 70
    24
 71
     3
 72
     8
 73
     4
 74
     0
 42
0.000000001
 43
0.00000001
 40
0.0
 40
0.0
 40
0.0
 40
0.0
 40
1.0
 40
1.0
 40
1.0
 40
1.0
 10
-45.26016210540451
 20
-37.2520115075984
 30
0.0
 10
-45.26016210540451
 20
-36.66125676770301
 30
0.0
 10
-45.26016210540451
 20
-36.03625676770304
 30
0.0
 10
-45.26016210540451
 20
-35.3770115075984
 30
0.0
  0
SPLINE
  5
B8
330
1F
100
AcDbEntity
  8
0
  6
Continuous
 62
     7
370
    15
100
AcDbSpline
210
0.0
220
0.0
230
1.0
 70
    24
 71
     3
 72
     8
 73
     4
 74
     0
 42
0.000000001
 43
0.00000001
 40
0.0
 40
0.0
 40
0.0
 40
0.0
 40
1.0
 40
1.0
 40
1.0
 40
1.0
 10
-44.01016210540454
 20
-32.25201150759839
 30
0.0
 10
-44.01016210540454
 20
-32.84276624749378
 30
0.0
 10
-44.01016210540454
 20
-33.46776624749375
 30
0.0
 10
-44.01016210540454
 20
-34.12701150759839
 30
0.0
  0
SPLINE
  5
B9
330
1F
100
AcDbEntity
  8
0
  6
Continuous
 62
     7
370
    15
100
AcDbSpline
210
0.0
220
0.0
230
1.0
 70
    24
 71
     3
 72
     8
 73
     4
 74
     0
 42
0.000000001
 43
0.00000001
 40
0.0
 40
0.0
 40
0.0
 40
0.0
 40
1.0
 40
1.0
 40
1.0
 40
1.0
 10
-45.26016210540451
 20
-34.12701150759839
 30
0.0
 10
-45.26016210540451
 20
-33.46776624749375
 30
0.0
 10
-45.26016210540451
 20
-32.84276624749377
 30
0.0
 10
-45.26016210540451
 20
-32.25201150759839
 30
0.0
  0
SPLINE
  5
BA
330
1F
100
AcDbEntity
  8
0
  6
Continuous
 62
     7
370
    15
100
AcDbSpline
210
0.0
220
0.0
230
1.0
 70
    24
 71
     3
 72
     8
 73
     4
 74
     0
 42
0.000000001
 43
0.00000001
 40
0.0
 40
0.0
 40
0.0
 40
0.0
 40
1.0
 40
1.0
 40
1.0
 40
1.0
 10
-44.01016210540454
 20
-35.3770115075984
 30
0.0
 10
-44.01016210540454
 20
-36.03625676770304
 30
0.0
 10
-44.01016210540454
 20
-36.66125676770302
 30
0.0
 10
-44.01016210540454
 20
-37.2520115075984
 30
0.0
  0
CIRCLE
  5
BB
330
1F
100
AcDbEntity
  8
0
  6
Continuous
 62
     7
370
    15
100
AcDbCircle
 10
-44.6351621054
 20
-34.7520115076
 30
0.0
 40
5.499999999999972
  0
SPLINE
  5
BC
330
1F
100
AcDbEntity
  8
0
  6
Continuous
 62
     7
370
    15
100
AcDbSpline
210
0.0
220
0.0
230
1.0
 70
    24
 71
     3
 72
     8
 73
     4
 74
     0
 42
0.000000001
 43
0.00000001
 40
0.0
 40
0.0
 40
0.0
 40
0.0
 40
1.0
 40
1.0
 40
1.0
 40
1.0
 10
47.13516210540569
 20
35.37701150760063
 30
0.0
 10
47.13516210540569
 20
34.96034484093396
 30
0.0
 10
47.13516210540569
 20
34.54367817426731
 30
0.0
 10
47.13516210540569
 20
34.12701150760063
 30
0.0
  0
SPLINE
  5
C0
330
1F
100
AcDbEntity
  8
0
  6
Continuous
 62
     7
370
    15
100
AcDbSpline
210
0.0
220
0.0
230
1.0
 70
    24
 71
     3
 72
     8
 73
     4
 74
     0
 42
0.000000001
 43
0.00000001
 40
0.0
 40
0.0
 40
0.0
 40
0.0
 40
1.0
 40
1.0
 40
1.0
 40
1.0
 10
42.13516210540558
 20
34.12701150760063
 30
0.0
 10
42.13516210540558
 20
34.54367817426731
 30
0.0
 10
42.13516210540558
 20
34.96034484093396
 30
0.0
 10
42.13516210540558
 20
35.37701150760063
 30
0.0
  0
SPLINE
  5
C4
330
1F
100
AcDbEntity
  8
0
  6
Continuous
 62
     7
370
    15
100
AcDbSpline
210
0.0
220
0.0
230
1.0
 70
    11
 71
     3
 72
    70
 73
    66
 74
     0
 42
0.000000001
 43
0.00000001
 40
0.0
 40
0.0
 40
0.0
 40
0.0
 40
0.03125
 40
0.03125
 40
0.0625
 40
0.0625
 40
0.09375
 40
0.09375
 40
0.125
 40
0.125
 40
0.15625
 40
0.15625
 40
0.1875
 40
0.1875
 40
0.21875
 40
0.21875
 40
0.25
 40
0.25
 40
0.28125
 40
0.28125
 40
0.3125
 40
0.3125
 40
0.34375
 40
0.34375
 40
0.375
 40
0.375
 40
0.40625
 40
0.40625
 40
0.4375
 40
0.4375
 40
0.46875
 40
0.46875
 40
0.5
 40
0.5
 40
0.53125
 40
0.53125
 40
0.5625
 40
0.5625
 40
0.59375
 40
0.59375
 40
0.625
 40
0.625
 40
0.65625
 40
0.65625
 40
0.6875
 40
0.6875
 40
0.71875
 40
0.71875
 40
0.75
 40
0.75
 40
0.78125
 40
0.78125
 40
0.8125
 40
0.8125
 40
0.84375
 40
0.84375
 40
0.875
 40
0.875
 40
0.90625
 40
0.90625
 40
0.9375
 40
0.9375
 40
0.96875
 40
0.96875
 40
1.0
 40
1.0
 40
1.0
 40
1.0
 10
44.63516210540563
 20
31.25201150760063
 30
0.0
 10
44.86636777063801
 20
31.25201150760062
 30
0.0
 10
45.09371018042386
 20
31.27469612298208
 30
0.0
 10
45.54098448971033
 20
31.36357906334261
 30
0.0
 10
45.76323156285733
 20
31.430855120534
 30
0.0
 10
46.18705961530733
 20
31.60650128397242
 30
0.0
 10
46.38807695652569
 20
31.71398676816506
 30
0.0
 10
46.76851407432925
 20
31.96792922264767
 30
0.0
 10
46.94864337625893
 20
32.11573971374567
 30
0.0
 10
47.27151410729391
 20
32.43862163907349
 30
0.0
 10
47.41639678379595
 20
32.6147977891526
 30
0.0
 10
47.67226837993999
 20
32.99732227819634
 30
0.0
 10
47.78101398429402
 20
33.20102285582986
 30
0.0
 10
47.95559699706664
 20
33.62211683460334
 30
0.0
 10
48.02278992717702
 20
33.84260608631826
 30
0.0
 10
48.11274514555919
 20
34.29434713501593
 30
0.0
 10
48.13500708174922
 20
34.52141441892551
 30
0.0
 10
48.13531553089501
 20
34.9778784458141
 30
0.0
 10
48.1126445500617
 20
35.20969594090262
 30
0.0
 10
48.02345417561504
 20
35.65856323824438
 30
0.0
 10
47.95744445673655
 20
35.87672915042501
 30
0.0
 10
47.78236187464757
 20
36.30045698953688
 30
0.0
 10
47.67282619583479
 20
36.50546657201565
 30
0.0
 10
47.41960582837513
 20
36.88482208119166
 30
0.0
 10
47.27504946384676
 20
37.06163084929476
 30
0.0
 10
46.94864922263364
 20
37.38850996714982
 30
0.0
 10
46.77153646468213
 20
37.53371563555849
 30
0.0
 10
46.39263710765506
 20
37.78734590020723
 30
0.0
 10
46.18823042068754
 20
37.89695570326133
 30
0.0
 10
45.7641585365709
 20
38.07286414572969
 30
0.0
 10
45.54602794620033
 20
38.13913089688575
 30
0.0
 10
45.09773011395035
 20
38.22883263826997
 30
0.0
 10
44.86636777063801
 20
38.25201150760062
 30
0.0
 10
44.40395644017325
 20
38.25201150760061
 30
0.0
 10
44.17661403038764
 20
38.22932689221922
 30
0.0
 10
43.72933972110116
 20
38.14044395185871
 30
0.0
 10
43.50709264795416
 20
38.07316789466731
 30
0.0
 10
43.08326459550393
 20
37.89752173122887
 30
0.0
 10
42.8822472542858
 20
37.79003624703621
 30
0.0
 10
42.50181013648202
 20
37.5360937925536
 30
0.0
 10
42.32168083455235
 20
37.38828330145562
 30
0.0
 10
41.99881010351736
 20
37.0654013761278
 30
0.0
 10
41.85392742701532
 20
36.88922522604871
 30
0.0
 10
41.59805583087128
 20
36.50670073700491
 30
0.0
 10
41.48931022651747
 20
36.30300015937142
 30
0.0
 10
41.31472721374485
 20
35.88190618059794
 30
0.0
 10
41.24753428363426
 20
35.66141692888301
 30
0.0
 10
41.15757906525208
 20
35.20967588018537
 30
0.0
 10
41.13531712906205
 20
34.98260859627576
 30
0.0
 10
41.13500867991626
 20
34.52614456938716
 30
0.0
 10
41.15767966074979
 20
34.29432707429866
 30
0.0
 10
41.24687003519622
 20
33.84545977695688
 30
0.0
 10
41.31287975407494
 20
33.62729386477624
 30
0.0
 10
41.48796233616392
 20
33.20356602566437
 30
0.0
 10
41.59749801497603
 20
32.99855644318516
 30
0.0
 10
41.8507183824357
 20
32.61920093400919
 30
0.0
 10
41.9952747469643
 20
32.44239216590616
 30
0.0
 10
42.32167498817741
 20
32.11551304805111
 30
0.0
 10
42.49878774612914
 20
31.97030737964274
 30
0.0
 10
42.87768710315643
 20
31.71667711499402
 30
0.0
 10
43.08209379012374
 20
31.60706731193989
 30
0.0
 10
43.50616567424037
 20
31.43115886947155
 30
0.0
 10
43.72429626461094
 20
31.36489211831552
 30
0.0
 10
44.17259409686114
 20
31.27519037693128
 30
0.0
 10
44.40395644017325
 20
31.25201150760064
 30
0.0
 10
44.63516210540563
 20
31.25201150760063
 30
0.0
  0
SPLINE
  5
C5
330
1F
100
AcDbEntity
  8
0
  6
Continuous
 62
     7
370
    15
100
AcDbSpline
210
0.0
220
0.0
230
1.0
 70
    24
 71
     3
 72
     8
 73
     4
 74
     0
 42
0.000000001
 43
0.00000001
 40
0.0
 40
0.0
 40
0.0
 40
0.0
 40
1.0
 40
1.0
 40
1.0
 40
1.0
 10
45.26016210540562
 20
34.12701150760063
 30
0.0
 10
45.26016210540562
 20
33.46776624749599
 30
0.0
 10
45.26016210540562
 20
32.84276624749601
 30
0.0
 10
45.26016210540562
 20
32.25201150760063
 30
0.0
  0
SPLINE
  5
C6
330
1F
100
AcDbEntity
  8
0
  6
Continuous
 62
     7
370
    15
100
AcDbSpline
210
0.0
220
0.0
230
1.0
 70
    24
 71
     3
 72
     8
 73
     4
 74
     0
 42
0.000000001
 43
0.00000001
 40
0.0
 40
0.0
 40
0.0
 40
0.0
 40
1.0
 40
1.0
 40
1.0
 40
1.0
 10
45.26016210540562
 20
37.25201150760063
 30
0.0
 10
45.26016210540562
 20
36.66125676770525
 30
0.0
 10
45.26016210540562
 20
36.03625676770528
 30
0.0
 10
45.26016210540562
 20
35.37701150760063
 30
0.0
  0
SPLINE
  5
C7
330
1F
100
AcDbEntity
  8
0
  6
Continuous
 62
     7
370
    15
100
AcDbSpline
210
0.0
220
0.0
230
1.0
 70
    24
 71
     3
 72
     8
 73
     4
 74
     0
 42
0.000000001
 43
0.00000001
 40
0.0
 40
0.0
 40
0.0
 40
0.0
 40
1.0
 40
1.0
 40
1.0
 40
1.0
 10
44.01016210540565
 20
32.25201150760063
 30
0.0
 10
44.01016210540565
 20
32.84276624749602
 30
0.0
 10
44.01016210540565
 20
33.46776624749599
 30
0.0
 10
44.01016210540565
 20
34.12701150760063
 30
0.0
  0
SPLINE
  5
C8
330
1F
100
AcDbEntity
  8
0
  6
Continuous
 62
     7
370
    15
100
AcDbSpline
210
0.0
220
0.0
230
1.0
 70
    24
 71
     3
 72
     8
 73
     4
 74
     0
 42
0.000000001
 43
0.00000001
 40
0.0
 40
0.0
 40
0.0
 40
0.0
 40
1.0
 40
1.0
 40
1.0
 40
1.0
 10
44.01016210540565
 20
35.37701150760063
 30
0.0
 10
44.01016210540565
 20
36.03625676770528
 30
0.0
 10
44.01016210540565
 20
36.66125676770525
 30
0.0
 10
44.01016210540565
 20
37.25201150760063
 30
0.0
  0
CIRCLE
  5
C9
330
1F
100
AcDbEntity
  8
0
  6
Continuous
 62
     7
370
    15
100
AcDbCircle
 10
44.6351621054
 20
34.7520115076
 30
0.0
 40
5.499999999999964
  0
SPLINE
  5
CA
330
1F
100
AcDbEntity
  8
0
  6
Continuous
 62
     7
370
    15
100
AcDbSpline
210
0.0
220
0.0
230
1.0
 70
    24
 71
     3
 72
     8
 73
     4
 74
     0
 42
0.000000001
 43
0.00000001
 40
0.0
 40
0.0
 40
0.0
 40
0.0
 40
1.0
 40
1.0
 40
1.0
 40
1.0
 10
37.25201150759894
 20
-44.01016210540376
 30
0.0
 10
37.25201150759894
 20
-44.42682877207043
 30
0.0
 10
37.25201150759894
 20
-44.84349543873709
 30
0.0
 10
37.25201150759894
 20
-45.26016210540377
 30
0.0
  0
SPLINE
  5
CE
330
1F
100
AcDbEntity
  8
0
  6
Continuous
 62
     7
370
    15
100
AcDbSpline
210
0.0
220
0.0
230
1.0
 70
    24
 71
     3
 72
     8
 73
     4
 74
     0
 42
0.000000001
 43
0.00000001
 40
0.0
 40
0.0
 40
0.0
 40
0.0
 40
1.0
 40
1.0
 40
1.0
 40
1.0
 10
32.25201150759904
 20
-45.26016210540377
 30
0.0
 10
32.25201150759904
 20
-44.84349543873709
 30
0.0
 10
32.25201150759904
 20
-44.42682877207043
 30
0.0
 10
32.25201150759904
 20
-44.01016210540376
 30
0.0
  0
SPLINE
  5
D2
330
1F
100
AcDbEntity
  8
0
  6
Continuous
 62
     7
370
    15
100
AcDbSpline
210
0.0
220
0.0
230
1.0
 70
    11
 71
     3
 72
    70
 73
    66
 74
     0
 42
0.000000001
 43
0.00000001
 40
0.0
 40
0.0
 40
0.0
 40
0.0
 40
0.03125
 40
0.03125
 40
0.0625
 40
0.0625
 40
0.09375
 40
0.09375
 40
0.125
 40
0.125
 40
0.15625
 40
0.15625
 40
0.1875
 40
0.1875
 40
0.21875
 40
0.21875
 40
0.25
 40
0.25
 40
0.28125
 40
0.28125
 40
0.3125
 40
0.3125
 40
0.34375
 40
0.34375
 40
0.375
 40
0.375
 40
0.40625
 40
0.40625
 40
0.4375
 40
0.4375
 40
0.46875
 40
0.46875
 40
0.5
 40
0.5
 40
0.53125
 40
0.53125
 40
0.5625
 40
0.5625
 40
0.59375
 40
0.59375
 40
0.625
 40
0.625
 40
0.65625
 40
0.65625
 40
0.6875
 40
0.6875
 40
0.71875
 40
0.71875
 40
0.75
 40
0.75
 40
0.78125
 40
0.78125
 40
0.8125
 40
0.8125
 40
0.84375
 40
0.84375
 40
0.875
 40
0.875
 40
0.90625
 40
0.90625
 40
0.9375
 40
0.9375
 40
0.96875
 40
0.96875
 40
1.0
 40
1.0
 40
1.0
 40
1.0
 10
34.7520115075991
 20
-48.13516210540377
 30
0.0
 10
34.98321717283148
 20
-48.13516210540376
 30
0.0
 10
35.21055958261709
 20
-48.11247749002231
 30
0.0
 10
35.65783389190358
 20
-48.02359454966177
 30
0.0
 10
35.88008096505057
 20
-47.95631849247042
 30
0.0
 10
36.30390901750058
 20
-47.78067232903196
 30
0.0
 10
36.50492635871893
 20
-47.67318684483932
 30
0.0
 10
36.88536347652271
 20
-47.41924439035667
 30
0.0
 10
37.06549277845239
 20
-47.27143389925874
 30
0.0
 10
37.38836350948738
 20
-46.94855197393092
 30
0.0
 10
37.53324618598941
 20
-46.77237582385181
 30
0.0
 10
37.78911778213345
 20
-46.38985133480803
 30
0.0
 10
37.89786338648726
 20
-46.18615075717455
 30
0.0
 10
38.07244639925989
 20
-45.76505677840106
 30
0.0
 10
38.13963932937048
 20
-45.54456752668614
 30
0.0
 10
38.22959454775265
 20
-45.09282647798847
 30
0.0
 10
38.25185648394269
 20
-44.86575919407889
 30
0.0
 10
38.25216493308847
 20
-44.40929516719029
 30
0.0
 10
38.22949395225494
 20
-44.17747767210179
 30
0.0
 10
38.14030357780851
 20
-43.72861037476005
 30
0.0
 10
38.0742938589298
 20
-43.51044446257936
 30
0.0
 10
37.89921127684082
 20
-43.08671662346752
 30
0.0
 10
37.78967559802826
 20
-42.88170704098874
 30
0.0
 10
37.53645523056836
 20
-42.50235153181274
 30
0.0
 10
37.39189886604022
 20
-42.32554276370963
 30
0.0
 10
37.06549862482689
 20
-41.99866364585457
 30
0.0
 10
36.88838586687559
 20
-41.85345797744588
 30
0.0
 10
36.50948650984853
 20
-41.59982771279716
 30
0.0
 10
36.30507982288101
 20
-41.49021790974305
 30
0.0
 10
35.88100793876436
 20
-41.31430946727468
 30
0.0
 10
35.66287734839379
 20
-41.24804271611867
 30
0.0
 10
35.21457951614359
 20
-41.15834097473441
 30
0.0
 10
34.98321717283148
 20
-41.13516210540379
 30
0.0
 10
34.52080584236672
 20
-41.13516210540376
 30
0.0
 10
34.29346343258089
 20
-41.15784672078518
 30
0.0
 10
33.8461891232944
 20
-41.24672966114568
 30
0.0
 10
33.62394205014763
 20
-41.31400571833709
 30
0.0
 10
33.2001139976974
 20
-41.48965188177553
 30
0.0
 10
32.99909665647927
 20
-41.59713736596818
 30
0.0
 10
32.61865953867549
 20
-41.85107982045079
 30
0.0
 10
32.43853023674581
 20
-41.99889031154878
 30
0.0
 10
32.11565950571082
 20
-42.32177223687659
 30
0.0
 10
31.97077682920879
 20
-42.4979483869557
 30
0.0
 10
31.71490523306475
 20
-42.88047287599944
 30
0.0
 10
31.60615962871072
 20
-43.08417345363295
 30
0.0
 10
31.43157661593809
 20
-43.50526743240647
 30
0.0
 10
31.36438368582773
 20
-43.72575668412138
 30
0.0
 10
31.27442846744555
 20
-44.17749773281904
 30
0.0
 10
31.25216653125529
 20
-44.40456501672865
 30
0.0
 10
31.25185808210951
 20
-44.86102904361722
 30
0.0
 10
31.27452906294304
 20
-45.09284653870575
 30
0.0
 10
31.36371943738969
 20
-45.54171383604751
 30
0.0
 10
31.42972915626818
 20
-45.75987974822819
 30
0.0
 10
31.60481173835716
 20
-46.18360758734005
 30
0.0
 10
31.7143474171695
 20
-46.38861716981921
 30
0.0
 10
31.96756778462917
 20
-46.76797267899519
 30
0.0
 10
32.11212414915754
 20
-46.94478144709825
 30
0.0
 10
32.43852439037087
 20
-47.2716605649533
 30
0.0
 10
32.61563714832261
 20
-47.41686623336165
 30
0.0
 10
32.99453650534967
 20
-47.67049649801037
 30
0.0
 10
33.1989431923172
 20
-47.78010630106448
 30
0.0
 10
33.62301507643384
 20
-47.95601474353283
 30
0.0
 10
33.84114566680441
 20
-48.02228149468888
 30
0.0
 10
34.28944349905439
 20
-48.11198323607312
 30
0.0
 10
34.52080584236672
 20
-48.13516210540377
 30
0.0
 10
34.7520115075991
 20
-48.13516210540377
 30
0.0
  0
SPLINE
  5
D3
330
1F
100
AcDbEntity
  8
0
  6
Continuous
 62
     7
370
    15
100
AcDbSpline
210
0.0
220
0.0
230
1.0
 70
    24
 71
     3
 72
     8
 73
     4
 74
     0
 42
0.000000001
 43
0.00000001
 40
0.0
 40
0.0
 40
0.0
 40
0.0
 40
1.0
 40
1.0
 40
1.0
 40
1.0
 10
34.12701150759911
 20
-44.01016210540376
 30
0.0
 10
34.12701150759911
 20
-43.35091684529912
 30
0.0
 10
34.12701150759911
 20
-42.72591684529914
 30
0.0
 10
34.12701150759911
 20
-42.13516210540376
 30
0.0
  0
SPLINE
  5
D4
330
1F
100
AcDbEntity
  8
0
  6
Continuous
 62
     7
370
    15
100
AcDbSpline
210
0.0
220
0.0
230
1.0
 70
    24
 71
     3
 72
     8
 73
     4
 74
     0
 42
0.000000001
 43
0.00000001
 40
0.0
 40
0.0
 40
0.0
 40
0.0
 40
1.0
 40
1.0
 40
1.0
 40
1.0
 10
34.12701150759911
 20
-47.13516210540377
 30
0.0
 10
34.12701150759911
 20
-46.54440736550838
 30
0.0
 10
34.12701150759911
 20
-45.91940736550841
 30
0.0
 10
34.12701150759911
 20
-45.26016210540377
 30
0.0
  0
SPLINE
  5
D5
330
1F
100
AcDbEntity
  8
0
  6
Continuous
 62
     7
370
    15
100
AcDbSpline
210
0.0
220
0.0
230
1.0
 70
    24
 71
     3
 72
     8
 73
     4
 74
     0
 42
0.000000001
 43
0.00000001
 40
0.0
 40
0.0
 40
0.0
 40
0.0
 40
1.0
 40
1.0
 40
1.0
 40
1.0
 10
35.37701150759909
 20
-42.13516210540376
 30
0.0
 10
35.37701150759909
 20
-42.72591684529915
 30
0.0
 10
35.37701150759909
 20
-43.35091684529912
 30
0.0
 10
35.37701150759909
 20
-44.01016210540376
 30
0.0
  0
SPLINE
  5
D6
330
1F
100
AcDbEntity
  8
0
  6
Continuous
 62
     7
370
    15
100
AcDbSpline
210
0.0
220
0.0
230
1.0
 70
    24
 71
     3
 72
     8
 73
     4
 74
     0
 42
0.000000001
 43
0.00000001
 40
0.0
 40
0.0
 40
0.0
 40
0.0
 40
1.0
 40
1.0
 40
1.0
 40
1.0
 10
35.37701150759909
 20
-45.26016210540377
 30
0.0
 10
35.37701150759909
 20
-45.91940736550841
 30
0.0
 10
35.37701150759909
 20
-46.54440736550838
 30
0.0
 10
35.37701150759909
 20
-47.13516210540377
 30
0.0
  0
CIRCLE
  5
D7
330
1F
100
AcDbEntity
  8
0
  6
Continuous
 62
     7
370
    15
100
AcDbCircle
 10
34.7520115076
 20
-44.6351621054
 30
0.0
 40
5.500000000000043
  0
SPLINE
  5
E0
330
1F
100
AcDbEntity
  8
0
  6
Continuous
 62
     7
370
    15
100
AcDbSpline
210
0.0
220
0.0
230
1.0
 70
    24
 71
     3
 72
     8
 73
     4
 74
     0
 42
0.000000001
 43
0.00000001
 40
0.0
 40
0.0
 40
0.0
 40
0.0
 40
1.0
 40
1.0
 40
1.0
 40
1.0
 10
1423.05318461691
 20
-35.61757924620203
 30
0.0
 10
1423.05318461691
 20
-35.20091257953536
 30
0.0
 10
1423.05318461691
 20
-34.7842459128687
 30
0.0
 10
1423.05318461691
 20
-34.36757924620203
 30
0.0
  0
SPLINE
  5
E4
330
1F
100
AcDbEntity
  8
0
  6
Continuous
 62
     7
370
    15
100
AcDbSpline
210
0.0
220
0.0
230
1.0
 70
    24
 71
     3
 72
     8
 73
     4
 74
     0
 42
0.000000001
 43
0.00000001
 40
0.0
 40
0.0
 40
0.0
 40
0.0
 40
1.0
 40
1.0
 40
1.0
 40
1.0
 10
1428.05318461691
 20
-34.36757924620203
 30
0.0
 10
1428.05318461691
 20
-34.7842459128687
 30
0.0
 10
1428.05318461691
 20
-35.20091257953536
 30
0.0
 10
1428.05318461691
 20
-35.61757924620203
 30
0.0
  0
SPLINE
  5
E8
330
1F
100
AcDbEntity
  8
0
  6
Continuous
 62
     7
370
    15
100
AcDbSpline
210
0.0
220
0.0
230
1.0
 70
    11
 71
     3
 72
    70
 73
    66
 74
     0
 42
0.000000001
 43
0.00000001
 40
0.0
 40
0.0
 40
0.0
 40
0.0
 40
0.03125
 40
0.03125
 40
0.0625
 40
0.0625
 40
0.09375
 40
0.09375
 40
0.125
 40
0.125
 40
0.15625
 40
0.15625
 40
0.1875
 40
0.1875
 40
0.21875
 40
0.21875
 40
0.25
 40
0.25
 40
0.28125
 40
0.28125
 40
0.3125
 40
0.3125
 40
0.34375
 40
0.34375
 40
0.375
 40
0.375
 40
0.40625
 40
0.40625
 40
0.4375
 40
0.4375
 40
0.46875
 40
0.46875
 40
0.5
 40
0.5
 40
0.53125
 40
0.53125
 40
0.5625
 40
0.5625
 40
0.59375
 40
0.59375
 40
0.625
 40
0.625
 40
0.65625
 40
0.65625
 40
0.6875
 40
0.6875
 40
0.71875
 40
0.71875
 40
0.75
 40
0.75
 40
0.78125
 40
0.78125
 40
0.8125
 40
0.8125
 40
0.84375
 40
0.84375
 40
0.875
 40
0.875
 40
0.90625
 40
0.90625
 40
0.9375
 40
0.9375
 40
0.96875
 40
0.96875
 40
1.0
 40
1.0
 40
1.0
 40
1.0
 10
1425.55318461691
 20
-31.49257924620201
 30
0.0
 10
1425.321978951677
 20
-31.492579246202
 30
0.0
 10
1425.094636541893
 20
-31.51526386158395
 30
0.0
 10
1424.647362232605
 20
-31.60414680194447
 30
0.0
 10
1424.425115159459
 20
-31.67142285913537
 30
0.0
 10
1424.001287107008
 20
-31.84706902257378
 30
0.0
 10
1423.800269765791
 20
-31.95455450676691
 30
0.0
 10
1423.419832647986
 20
-32.20849696124953
 30
0.0
 10
1423.239703346057
 20
-32.35630745234706
 30
0.0
 10
1422.916832615021
 20
-32.67918937767487
 30
0.0
 10
1422.77194993852
 20
-32.85536552775399
 30
0.0
 10
1422.516078342375
 20
-33.23789001679775
 30
0.0
 10
1422.407332738022
 20
-33.44159059443143
 30
0.0
 10
1422.232749725249
 20
-33.86268457320494
 30
0.0
 10
1422.165556795139
 20
-34.08317382491964
 30
0.0
 10
1422.075601576756
 20
-34.53491487361731
 30
0.0
 10
1422.053339640566
 20
-34.76198215752693
 30
0.0
 10
1422.053031191421
 20
-35.2184461844155
 30
0.0
 10
1422.075702172254
 20
-35.45026367950404
 30
0.0
 10
1422.1648925467
 20
-35.89913097684578
 30
0.0
 10
1422.230902265579
 20
-36.11729688902646
 30
0.0
 10
1422.405984847668
 20
-36.5410247281383
 30
0.0
 10
1422.51552052648
 20
-36.74603431061745
 30
0.0
 10
1422.76874089394
 20
-37.12538981979342
 30
0.0
 10
1422.913297258469
 20
-37.30219858789643
 30
0.0
 10
1423.239697499682
 20
-37.62907770575149
 30
0.0
 10
1423.416810257633
 20
-37.77428337415989
 30
0.0
 10
1423.79570961466
 20
-38.02791363880859
 30
0.0
 10
1424.000116301627
 20
-38.1375234418628
 30
0.0
 10
1424.424188185745
 20
-38.31343188433114
 30
0.0
 10
1424.642318776115
 20
-38.37969863548716
 30
0.0
 10
1425.090616608366
 20
-38.46940037687139
 30
0.0
 10
1425.321978951678
 20
-38.49257924620203
 30
0.0
 10
1425.784390282142
 20
-38.49257924620201
 30
0.0
 10
1426.011732691928
 20
-38.46989463082011
 30
0.0
 10
1426.459007001215
 20
-38.38101169045953
 30
0.0
 10
1426.681254074362
 20
-38.31373563326873
 30
0.0
 10
1427.105082126812
 20
-38.13808946983026
 30
0.0
 10
1427.306099468029
 20
-38.03060398563715
 30
0.0
 10
1427.686536585834
 20
-37.77666153115452
 30
0.0
 10
1427.866665887764
 20
-37.628851040057
 30
0.0
 10
1428.189536618799
 20
-37.30596911472919
 30
0.0
 10
1428.3344192953
 20
-37.12979296465008
 30
0.0
 10
1428.590290891444
 20
-36.7472684756063
 30
0.0
 10
1428.699036495797
 20
-36.54356789797262
 30
0.0
 10
1428.87361950857
 20
-36.1224739191991
 30
0.0
 10
1428.940812438681
 20
-35.90198466748443
 30
0.0
 10
1429.030767657064
 20
-35.45024361878676
 30
0.0
 10
1429.053029593254
 20
-35.22317633487714
 30
0.0
 10
1429.053338042399
 20
-34.76671230798854
 30
0.0
 10
1429.030667061566
 20
-34.53489481290001
 30
0.0
 10
1428.94147668712
 20
-34.08602751555825
 30
0.0
 10
1428.875466968241
 20
-33.86786160337758
 30
0.0
 10
1428.700384386152
 20
-33.44413376426571
 30
0.0
 10
1428.590848707339
 20
-33.23912418178702
 30
0.0
 10
1428.33762833988
 20
-32.85976867261101
 30
0.0
 10
1428.193071975352
 20
-32.68295990450758
 30
0.0
 10
1427.866671734138
 20
-32.35608078665253
 30
0.0
 10
1427.689558976186
 20
-32.21087511824418
 30
0.0
 10
1427.31065961916
 20
-31.95724485359544
 30
0.0
 10
1427.106252932192
 20
-31.84763505054124
 30
0.0
 10
1426.682181048075
 20
-31.67172660807289
 30
0.0
 10
1426.464050457705
 20
-31.6054598569169
 30
0.0
 10
1426.015752625455
 20
-31.51575811553267
 30
0.0
 10
1425.784390282142
 20
-31.49257924620202
 30
0.0
 10
1425.55318461691
 20
-31.49257924620201
 30
0.0
  0
SPLINE
  5
E9
330
1F
100
AcDbEntity
  8
0
  6
Continuous
 62
     7
370
    15
100
AcDbSpline
210
0.0
220
0.0
230
1.0
 70
    24
 71
     3
 72
     8
 73
     4
 74
     0
 42
0.000000001
 43
0.00000001
 40
0.0
 40
0.0
 40
0.0
 40
0.0
 40
1.0
 40
1.0
 40
1.0
 40
1.0
 10
1424.92818461691
 20
-34.36757924620203
 30
0.0
 10
1424.92818461691
 20
-33.70833398609739
 30
0.0
 10
1424.92818461691
 20
-33.08333398609741
 30
0.0
 10
1424.92818461691
 20
-32.49257924620203
 30
0.0
  0
SPLINE
  5
EA
330
1F
100
AcDbEntity
  8
0
  6
Continuous
 62
     7
370
    15
100
AcDbSpline
210
0.0
220
0.0
230
1.0
 70
    24
 71
     3
 72
     8
 73
     4
 74
     0
 42
0.000000001
 43
0.00000001
 40
0.0
 40
0.0
 40
0.0
 40
0.0
 40
1.0
 40
1.0
 40
1.0
 40
1.0
 10
1426.17818461691
 20
-32.49257924620203
 30
0.0
 10
1426.17818461691
 20
-33.08333398609741
 30
0.0
 10
1426.17818461691
 20
-33.70833398609739
 30
0.0
 10
1426.17818461691
 20
-34.36757924620203
 30
0.0
  0
SPLINE
  5
EB
330
1F
100
AcDbEntity
  8
0
  6
Continuous
 62
     7
370
    15
100
AcDbSpline
210
0.0
220
0.0
230
1.0
 70
    24
 71
     3
 72
     8
 73
     4
 74
     0
 42
0.000000001
 43
0.00000001
 40
0.0
 40
0.0
 40
0.0
 40
0.0
 40
1.0
 40
1.0
 40
1.0
 40
1.0
 10
1426.17818461691
 20
-35.61757924620203
 30
0.0
 10
1426.17818461691
 20
-36.27682450630667
 30
0.0
 10
1426.17818461691
 20
-36.90182450630665
 30
0.0
 10
1426.17818461691
 20
-37.49257924620203
 30
0.0
  0
SPLINE
  5
EC
330
1F
100
AcDbEntity
  8
0
  6
Continuous
 62
     7
370
    15
100
AcDbSpline
210
0.0
220
0.0
230
1.0
 70
    24
 71
     3
 72
     8
 73
     4
 74
     0
 42
0.000000001
 43
0.00000001
 40
0.0
 40
0.0
 40
0.0
 40
0.0
 40
1.0
 40
1.0
 40
1.0
 40
1.0
 10
1424.92818461691
 20
-37.49257924620203
 30
0.0
 10
1424.92818461691
 20
-36.90182450630664
 30
0.0
 10
1424.92818461691
 20
-36.27682450630667
 30
0.0
 10
1424.92818461691
 20
-35.61757924620203
 30
0.0
  0
CIRCLE
  5
ED
330
1F
100
AcDbEntity
  8
0
  6
Continuous
 62
     7
370
    15
100
AcDbCircle
 10
1425.5531846169
 20
-34.9925792462
 30
0.0
 40
5.50000000000033
  0
SPLINE
  5
EE
330
1F
100
AcDbEntity
  8
0
  6
Continuous
 62
     7
370
    15
100
AcDbSpline
210
0.0
220
0.0
230
1.0
 70
    24
 71
     3
 72
     8
 73
     4
 74
     0
 42
0.000000001
 43
0.00000001
 40
0.0
 40
0.0
 40
0.0
 40
0.0
 40
1.0
 40
1.0
 40
1.0
 40
1.0
 10
1432.507420753794
 20
43.82181538308828
 30
0.0
 10
1432.507420753794
 20
44.23848204975494
 30
0.0
 10
1432.507420753794
 20
44.65514871642161
 30
0.0
 10
1432.507420753794
 20
45.07181538308828
 30
0.0
  0
SPLINE
  5
F2
330
1F
100
AcDbEntity
  8
0
  6
Continuous
 62
     7
370
    15
100
AcDbSpline
210
0.0
220
0.0
230
1.0
 70
    24
 71
     3
 72
     8
 73
     4
 74
     0
 42
0.000000001
 43
0.00000001
 40
0.0
 40
0.0
 40
0.0
 40
0.0
 40
1.0
 40
1.0
 40
1.0
 40
1.0
 10
1437.507420753793
 20
45.07181538308828
 30
0.0
 10
1437.507420753793
 20
44.65514871642161
 30
0.0
 10
1437.507420753793
 20
44.23848204975494
 30
0.0
 10
1437.507420753793
 20
43.82181538308828
 30
0.0
  0
SPLINE
  5
F6
330
1F
100
AcDbEntity
  8
0
  6
Continuous
 62
     7
370
    15
100
AcDbSpline
210
0.0
220
0.0
230
1.0
 70
    11
 71
     3
 72
    70
 73
    66
 74
     0
 42
0.000000001
 43
0.00000001
 40
0.0
 40
0.0
 40
0.0
 40
0.0
 40
0.03125
 40
0.03125
 40
0.0625
 40
0.0625
 40
0.09375
 40
0.09375
 40
0.125
 40
0.125
 40
0.15625
 40
0.15625
 40
0.1875
 40
0.1875
 40
0.21875
 40
0.21875
 40
0.25
 40
0.25
 40
0.28125
 40
0.28125
 40
0.3125
 40
0.3125
 40
0.34375
 40
0.34375
 40
0.375
 40
0.375
 40
0.40625
 40
0.40625
 40
0.4375
 40
0.4375
 40
0.46875
 40
0.46875
 40
0.5
 40
0.5
 40
0.53125
 40
0.53125
 40
0.5625
 40
0.5625
 40
0.59375
 40
0.59375
 40
0.625
 40
0.625
 40
0.65625
 40
0.65625
 40
0.6875
 40
0.6875
 40
0.71875
 40
0.71875
 40
0.75
 40
0.75
 40
0.78125
 40
0.78125
 40
0.8125
 40
0.8125
 40
0.84375
 40
0.84375
 40
0.875
 40
0.875
 40
0.90625
 40
0.90625
 40
0.9375
 40
0.9375
 40
0.96875
 40
0.96875
 40
1.0
 40
1.0
 40
1.0
 40
1.0
 10
1435.007420753794
 20
47.94681538308827
 30
0.0
 10
1434.776215088561
 20
47.94681538308826
 30
0.0
 10
1434.548872678776
 20
47.92413076770635
 30
0.0
 10
1434.101598369489
 20
47.83524782734582
 30
0.0
 10
1433.879351296342
 20
47.76797177015494
 30
0.0
 10
1433.455523243891
 20
47.59232560671649
 30
0.0
 10
1433.254505902674
 20
47.48484012252343
 30
0.0
 10
1432.874068784869
 20
47.23089766804075
 30
0.0
 10
1432.69393948294
 20
47.08308717694327
 30
0.0
 10
1432.371068751905
 20
46.76020525161542
 30
0.0
 10
1432.226186075404
 20
46.58402910153634
 30
0.0
 10
1431.970314479259
 20
46.20150461249255
 30
0.0
 10
1431.861568874906
 20
45.99780403485888
 30
0.0
 10
1431.686985862133
 20
45.57671005608535
 30
0.0
 10
1431.619792932022
 20
45.35622080437069
 30
0.0
 10
1431.52983771364
 20
44.904479755673
 30
0.0
 10
1431.50757577745
 20
44.67741247176338
 30
0.0
 10
1431.507267328304
 20
44.22094844487479
 30
0.0
 10
1431.529938309138
 20
43.98913094978626
 30
0.0
 10
1431.619128683584
 20
43.54026365244451
 30
0.0
 10
1431.685138402463
 20
43.32209774026384
 30
0.0
 10
1431.860220984552
 20
42.898369901152
 30
0.0
 10
1431.969756663364
 20
42.69336031867284
 30
0.0
 10
1432.222977030823
 20
42.31400480949687
 30
0.0
 10
1432.367533395352
 20
42.13719604139387
 30
0.0
 10
1432.693933636565
 20
41.81031692353881
 30
0.0
 10
1432.871046394517
 20
41.6651112551304
 30
0.0
 10
1433.249945751544
 20
41.41148099048171
 30
0.0
 10
1433.454352438512
 20
41.30187118742749
 30
0.0
 10
1433.878424322628
 20
41.12596274495917
 30
0.0
 10
1434.096554912999
 20
41.05969599380315
 30
0.0
 10
1434.544852745249
 20
40.96999425241891
 30
0.0
 10
1434.776215088561
 20
40.94681538308828
 30
0.0
 10
1435.238626419026
 20
40.94681538308828
 30
0.0
 10
1435.465968828812
 20
40.96949999847021
 30
0.0
 10
1435.913243138098
 20
41.05838293883075
 30
0.0
 10
1436.135490211245
 20
41.12565899602158
 30
0.0
 10
1436.559318263695
 20
41.30130515946002
 30
0.0
 10
1436.760335604913
 20
41.40879064365314
 30
0.0
 10
1437.140772722717
 20
41.66273309813577
 30
0.0
 10
1437.320902024647
 20
41.8105435892333
 30
0.0
 10
1437.643772755682
 20
42.13342551456112
 30
0.0
 10
1437.788655432184
 20
42.30960166464023
 30
0.0
 10
1438.044527028328
 20
42.69212615368399
 30
0.0
 10
1438.153272632682
 20
42.8958267313177
 30
0.0
 10
1438.327855645454
 20
43.3169207100912
 30
0.0
 10
1438.395048575566
 20
43.53740996180588
 30
0.0
 10
1438.485003793947
 20
43.98915101050355
 30
0.0
 10
1438.507265730137
 20
44.21621829441317
 30
0.0
 10
1438.507574179283
 20
44.67268232130178
 30
0.0
 10
1438.484903198449
 20
44.90449981639031
 30
0.0
 10
1438.395712824003
 20
45.35336711373207
 30
0.0
 10
1438.329703105124
 20
45.57153302591272
 30
0.0
 10
1438.154620523035
 20
45.99526086502458
 30
0.0
 10
1438.045084844223
 20
46.20027044750329
 30
0.0
 10
1437.791864476763
 20
46.57962595667931
 30
0.0
 10
1437.647308112235
 20
46.75643472478272
 30
0.0
 10
1437.320907871022
 20
47.08331384263777
 30
0.0
 10
1437.14379511307
 20
47.22851951104614
 30
0.0
 10
1436.764895756043
 20
47.48214977569488
 30
0.0
 10
1436.560489069075
 20
47.59175957874908
 30
0.0
 10
1436.136417184958
 20
47.76766802121742
 30
0.0
 10
1435.918286594588
 20
47.83393477237342
 30
0.0
 10
1435.469988762339
 20
47.92363651375764
 30
0.0
 10
1435.238626419027
 20
47.94681538308828
 30
0.0
 10
1435.007420753794
 20
47.94681538308827
 30
0.0
  0
SPLINE
  5
F7
330
1F
100
AcDbEntity
  8
0
  6
Continuous
 62
     7
370
    15
100
AcDbSpline
210
0.0
220
0.0
230
1.0
 70
    24
 71
     3
 72
     8
 73
     4
 74
     0
 42
0.000000001
 43
0.00000001
 40
0.0
 40
0.0
 40
0.0
 40
0.0
 40
1.0
 40
1.0
 40
1.0
 40
1.0
 10
1434.382420753793
 20
45.07181538308828
 30
0.0
 10
1434.382420753793
 20
45.73106064319292
 30
0.0
 10
1434.382420753793
 20
46.3560606431929
 30
0.0
 10
1434.382420753793
 20
46.94681538308828
 30
0.0
  0
SPLINE
  5
F8
330
1F
100
AcDbEntity
  8
0
  6
Continuous
 62
     7
370
    15
100
AcDbSpline
210
0.0
220
0.0
230
1.0
 70
    24
 71
     3
 72
     8
 73
     4
 74
     0
 42
0.000000001
 43
0.00000001
 40
0.0
 40
0.0
 40
0.0
 40
0.0
 40
1.0
 40
1.0
 40
1.0
 40
1.0
 10
1435.632420753794
 20
46.94681538308828
 30
0.0
 10
1435.632420753794
 20
46.35606064319289
 30
0.0
 10
1435.632420753794
 20
45.73106064319292
 30
0.0
 10
1435.632420753794
 20
45.07181538308828
 30
0.0
  0
SPLINE
  5
F9
330
1F
100
AcDbEntity
  8
0
  6
Continuous
 62
     7
370
    15
100
AcDbSpline
210
0.0
220
0.0
230
1.0
 70
    24
 71
     3
 72
     8
 73
     4
 74
     0
 42
0.000000001
 43
0.00000001
 40
0.0
 40
0.0
 40
0.0
 40
0.0
 40
1.0
 40
1.0
 40
1.0
 40
1.0
 10
1435.632420753794
 20
43.82181538308828
 30
0.0
 10
1435.632420753794
 20
43.16257012298364
 30
0.0
 10
1435.632420753794
 20
42.53757012298365
 30
0.0
 10
1435.632420753794
 20
41.94681538308827
 30
0.0
  0
SPLINE
  5
FA
330
1F
100
AcDbEntity
  8
0
  6
Continuous
 62
     7
370
    15
100
AcDbSpline
210
0.0
220
0.0
230
1.0
 70
    24
 71
     3
 72
     8
 73
     4
 74
     0
 42
0.000000001
 43
0.00000001
 40
0.0
 40
0.0
 40
0.0
 40
0.0
 40
1.0
 40
1.0
 40
1.0
 40
1.0
 10
1434.382420753793
 20
41.94681538308827
 30
0.0
 10
1434.382420753793
 20
42.53757012298366
 30
0.0
 10
1434.382420753793
 20
43.16257012298364
 30
0.0
 10
1434.382420753793
 20
43.82181538308828
 30
0.0
  0
CIRCLE
  5
FB
330
1F
100
AcDbEntity
  8
0
  6
Continuous
 62
     7
370
    15
100
AcDbCircle
 10
1435.0074207538
 20
44.4468153831
 30
0.0
 40
5.500000000000377
  0
SPLINE
  5
FC
330
1F
100
AcDbEntity
  8
0
  6
Continuous
 62
     7
370
    15
100
AcDbSpline
210
0.0
220
0.0
230
1.0
 70
    24
 71
     3
 72
     8
 73
     4
 74
     0
 42
0.000000001
 43
0.00000001
 40
0.0
 40
0.0
 40
0.0
 40
0.0
 40
1.0
 40
1.0
 40
1.0
 40
1.0
 10
1511.946815383084
 20
34.36757924620389
 30
0.0
 10
1511.946815383084
 20
34.78424591287055
 30
0.0
 10
1511.946815383084
 20
35.20091257953722
 30
0.0
 10
1511.946815383084
 20
35.61757924620389
 30
0.0
  0
SPLINE
  5
100
330
1F
100
AcDbEntity
  8
0
  6
Continuous
 62
     7
370
    15
100
AcDbSpline
210
0.0
220
0.0
230
1.0
 70
    24
 71
     3
 72
     8
 73
     4
 74
     0
 42
0.000000001
 43
0.00000001
 40
0.0
 40
0.0
 40
0.0
 40
0.0
 40
1.0
 40
1.0
 40
1.0
 40
1.0
 10
1516.946815383084
 20
35.61757924620389
 30
0.0
 10
1516.946815383084
 20
35.20091257953722
 30
0.0
 10
1516.946815383084
 20
34.78424591287055
 30
0.0
 10
1516.946815383084
 20
34.36757924620389
 30
0.0
  0
SPLINE
  5
104
330
1F
100
AcDbEntity
  8
0
  6
Continuous
 62
     7
370
    15
100
AcDbSpline
210
0.0
220
0.0
230
1.0
 70
    11
 71
     3
 72
    70
 73
    66
 74
     0
 42
0.000000001
 43
0.00000001
 40
0.0
 40
0.0
 40
0.0
 40
0.0
 40
0.03125
 40
0.03125
 40
0.0625
 40
0.0625
 40
0.09375
 40
0.09375
 40
0.125
 40
0.125
 40
0.15625
 40
0.15625
 40
0.1875
 40
0.1875
 40
0.21875
 40
0.21875
 40
0.25
 40
0.25
 40
0.28125
 40
0.28125
 40
0.3125
 40
0.3125
 40
0.34375
 40
0.34375
 40
0.375
 40
0.375
 40
0.40625
 40
0.40625
 40
0.4375
 40
0.4375
 40
0.46875
 40
0.46875
 40
0.5
 40
0.5
 40
0.53125
 40
0.53125
 40
0.5625
 40
0.5625
 40
0.59375
 40
0.59375
 40
0.625
 40
0.625
 40
0.65625
 40
0.65625
 40
0.6875
 40
0.6875
 40
0.71875
 40
0.71875
 40
0.75
 40
0.75
 40
0.78125
 40
0.78125
 40
0.8125
 40
0.8125
 40
0.84375
 40
0.84375
 40
0.875
 40
0.875
 40
0.90625
 40
0.90625
 40
0.9375
 40
0.9375
 40
0.96875
 40
0.96875
 40
1.0
 40
1.0
 40
1.0
 40
1.0
 10
1514.446815383084
 20
38.49257924620389
 30
0.0
 10
1514.215609717851
 20
38.49257924620387
 30
0.0
 10
1513.988267308066
 20
38.46989463082196
 30
0.0
 10
1513.540992998779
 20
38.38101169046142
 30
0.0
 10
1513.318745925632
 20
38.31373563327055
 30
0.0
 10
1512.894917873181
 20
38.1380894698321
 30
0.0
 10
1512.693900531965
 20
38.03060398563902
 30
0.0
 10
1512.31346341416
 20
37.77666153115636
 30
0.0
 10
1512.133334112231
 20
37.62885104005885
 30
0.0
 10
1511.810463381195
 20
37.30596911473104
 30
0.0
 10
1511.665580704694
 20
37.12979296465192
 30
0.0
 10
1511.409709108549
 20
36.74726847560817
 30
0.0
 10
1511.300963504195
 20
36.54356789797447
 30
0.0
 10
1511.126380491423
 20
36.12247391920096
 30
0.0
 10
1511.059187561313
 20
35.90198466748629
 30
0.0
 10
1510.96923234293
 20
35.4502436187886
 30
0.0
 10
1510.94697040674
 20
35.22317633487898
 30
0.0
 10
1510.946661957594
 20
34.76671230799042
 30
0.0
 10
1510.969332938427
 20
34.53489481290188
 30
0.0
 10
1511.058523312874
 20
34.08602751556013
 30
0.0
 10
1511.124533031753
 20
33.86786160337946
 30
0.0
 10
1511.299615613842
 20
33.4441337642676
 30
0.0
 10
1511.409151292654
 20
33.23912418178847
 30
0.0
 10
1511.662371660114
 20
32.85976867261247
 30
0.0
 10
1511.806928024642
 20
32.68295990450947
 30
0.0
 10
1512.133328265856
 20
32.35608078665441
 30
0.0
 10
1512.310441023807
 20
32.21087511824604
 30
0.0
 10
1512.689340380835
 20
31.95724485359731
 30
0.0
 10
1512.893747067802
 20
31.84763505054312
 30
0.0
 10
1513.317818951918
 20
31.67172660807477
 30
0.0
 10
1513.535949542289
 20
31.60545985691876
 30
0.0
 10
1513.984247374539
 20
31.51575811553452
 30
0.0
 10
1514.215609717852
 20
31.49257924620389
 30
0.0
 10
1514.678021048315
 20
31.4925792462039
 30
0.0
 10
1514.905363458102
 20
31.51526386158582
 30
0.0
 10
1515.352637767388
 20
31.60414680194636
 30
0.0
 10
1515.574884840535
 20
31.67142285913719
 30
0.0
 10
1515.998712892985
 20
31.84706902257564
 30
0.0
 10
1516.199730234204
 20
31.95455450676877
 30
0.0
 10
1516.580167352007
 20
32.20849696125139
 30
0.0
 10
1516.760296653938
 20
32.35630745234889
 30
0.0
 10
1517.083167384972
 20
32.67918937767673
 30
0.0
 10
1517.228050061474
 20
32.85536552775582
 30
0.0
 10
1517.483921657618
 20
33.2378900167996
 30
0.0
 10
1517.592667261972
 20
33.44159059443329
 30
0.0
 10
1517.767250274744
 20
33.86268457320682
 30
0.0
 10
1517.834443204855
 20
34.08317382492148
 30
0.0
 10
1517.924398423237
 20
34.53491487361917
 30
0.0
 10
1517.946660359427
 20
34.76198215752879
 30
0.0
 10
1517.946968808573
 20
35.21844618441737
 30
0.0
 10
1517.92429782774
 20
35.45026367950589
 30
0.0
 10
1517.835107453293
 20
35.89913097684768
 30
0.0
 10
1517.769097734415
 20
36.11729688902833
 30
0.0
 10
1517.594015152326
 20
36.54102472814019
 30
0.0
 10
1517.484479473512
 20
36.7460343106189
 30
0.0
 10
1517.231259106053
 20
37.12538981979489
 30
0.0
 10
1517.086702741525
 20
37.30219858789833
 30
0.0
 10
1516.760302500312
 20
37.62907770575337
 30
0.0
 10
1516.58318974236
 20
37.77428337416175
 30
0.0
 10
1516.204290385333
 20
38.02791363881047
 30
0.0
 10
1515.999883698366
 20
38.13752344186468
 30
0.0
 10
1515.575811814249
 20
38.31343188433301
 30
0.0
 10
1515.357681223878
 20
38.37969863548902
 30
0.0
 10
1514.909383391629
 20
38.46940037687326
 30
0.0
 10
1514.678021048317
 20
38.4925792462039
 30
0.0
 10
1514.446815383084
 20
38.49257924620389
 30
0.0
  0
SPLINE
  5
105
330
1F
100
AcDbEntity
  8
0
  6
Continuous
 62
     7
370
    15
100
AcDbSpline
210
0.0
220
0.0
230
1.0
 70
    24
 71
     3
 72
     8
 73
     4
 74
     0
 42
0.000000001
 43
0.00000001
 40
0.0
 40
0.0
 40
0.0
 40
0.0
 40
1.0
 40
1.0
 40
1.0
 40
1.0
 10
1513.821815383084
 20
35.61757924620389
 30
0.0
 10
1513.821815383084
 20
36.27682450630853
 30
0.0
 10
1513.821815383084
 20
36.90182450630851
 30
0.0
 10
1513.821815383084
 20
37.49257924620389
 30
0.0
  0
SPLINE
  5
106
330
1F
100
AcDbEntity
  8
0
  6
Continuous
 62
     7
370
    15
100
AcDbSpline
210
0.0
220
0.0
230
1.0
 70
    24
 71
     3
 72
     8
 73
     4
 74
     0
 42
0.000000001
 43
0.00000001
 40
0.0
 40
0.0
 40
0.0
 40
0.0
 40
1.0
 40
1.0
 40
1.0
 40
1.0
 10
1515.071815383084
 20
34.36757924620389
 30
0.0
 10
1515.071815383084
 20
33.70833398609924
 30
0.0
 10
1515.071815383084
 20
33.08333398609926
 30
0.0
 10
1515.071815383084
 20
32.49257924620388
 30
0.0
  0
SPLINE
  5
107
330
1F
100
AcDbEntity
  8
0
  6
Continuous
 62
     7
370
    15
100
AcDbSpline
210
0.0
220
0.0
230
1.0
 70
    24
 71
     3
 72
     8
 73
     4
 74
     0
 42
0.000000001
 43
0.00000001
 40
0.0
 40
0.0
 40
0.0
 40
0.0
 40
1.0
 40
1.0
 40
1.0
 40
1.0
 10
1515.071815383084
 20
37.49257924620389
 30
0.0
 10
1515.071815383084
 20
36.9018245063085
 30
0.0
 10
1515.071815383084
 20
36.27682450630853
 30
0.0
 10
1515.071815383084
 20
35.61757924620389
 30
0.0
  0
SPLINE
  5
108
330
1F
100
AcDbEntity
  8
0
  6
Continuous
 62
     7
370
    15
100
AcDbSpline
210
0.0
220
0.0
230
1.0
 70
    24
 71
     3
 72
     8
 73
     4
 74
     0
 42
0.000000001
 43
0.00000001
 40
0.0
 40
0.0
 40
0.0
 40
0.0
 40
1.0
 40
1.0
 40
1.0
 40
1.0
 10
1513.821815383084
 20
32.49257924620388
 30
0.0
 10
1513.821815383084
 20
33.08333398609927
 30
0.0
 10
1513.821815383084
 20
33.70833398609924
 30
0.0
 10
1513.821815383084
 20
34.36757924620389
 30
0.0
  0
CIRCLE
  5
109
330
1F
100
AcDbEntity
  8
0
  6
Continuous
 62
     7
370
    15
100
AcDbCircle
 10
1514.4468153831
 20
34.9925792462
 30
0.0
 40
5.499999999999829
  0
SPLINE
  5
10A
330
1F
100
AcDbEntity
  8
0
  6
Continuous
 62
     7
370
    15
100
AcDbSpline
210
0.0
220
0.0
230
1.0
 70
    24
 71
     3
 72
     8
 73
     4
 74
     0
 42
0.000000001
 43
0.00000001
 40
0.0
 40
0.0
 40
0.0
 40
0.0
 40
1.0
 40
1.0
 40
1.0
 40
1.0
 10
1502.4925792462
 20
-45.07181538308623
 30
0.0
 10
1502.4925792462
 20
-44.65514871641956
 30
0.0
 10
1502.4925792462
 20
-44.2384820497529
 30
0.0
 10
1502.4925792462
 20
-43.82181538308623
 30
0.0
  0
SPLINE
  5
10E
330
1F
100
AcDbEntity
  8
0
  6
Continuous
 62
     7
370
    15
100
AcDbSpline
210
0.0
220
0.0
230
1.0
 70
    24
 71
     3
 72
     8
 73
     4
 74
     0
 42
0.000000001
 43
0.00000001
 40
0.0
 40
0.0
 40
0.0
 40
0.0
 40
1.0
 40
1.0
 40
1.0
 40
1.0
 10
1507.4925792462
 20
-43.82181538308623
 30
0.0
 10
1507.4925792462
 20
-44.2384820497529
 30
0.0
 10
1507.4925792462
 20
-44.65514871641956
 30
0.0
 10
1507.4925792462
 20
-45.07181538308623
 30
0.0
  0
SPLINE
  5
112
330
1F
100
AcDbEntity
  8
0
  6
Continuous
 62
     7
370
    15
100
AcDbSpline
210
0.0
220
0.0
230
1.0
 70
    11
 71
     3
 72
    70
 73
    66
 74
     0
 42
0.000000001
 43
0.00000001
 40
0.0
 40
0.0
 40
0.0
 40
0.0
 40
0.03125
 40
0.03125
 40
0.0625
 40
0.0625
 40
0.09375
 40
0.09375
 40
0.125
 40
0.125
 40
0.15625
 40
0.15625
 40
0.1875
 40
0.1875
 40
0.21875
 40
0.21875
 40
0.25
 40
0.25
 40
0.28125
 40
0.28125
 40
0.3125
 40
0.3125
 40
0.34375
 40
0.34375
 40
0.375
 40
0.375
 40
0.40625
 40
0.40625
 40
0.4375
 40
0.4375
 40
0.46875
 40
0.46875
 40
0.5
 40
0.5
 40
0.53125
 40
0.53125
 40
0.5625
 40
0.5625
 40
0.59375
 40
0.59375
 40
0.625
 40
0.625
 40
0.65625
 40
0.65625
 40
0.6875
 40
0.6875
 40
0.71875
 40
0.71875
 40
0.75
 40
0.75
 40
0.78125
 40
0.78125
 40
0.8125
 40
0.8125
 40
0.84375
 40
0.84375
 40
0.875
 40
0.875
 40
0.90625
 40
0.90625
 40
0.9375
 40
0.9375
 40
0.96875
 40
0.96875
 40
1.0
 40
1.0
 40
1.0
 40
1.0
 10
1504.992579246199
 20
-40.94681538308623
 30
0.0
 10
1504.761373580967
 20
-40.94681538308622
 30
0.0
 10
1504.534031171182
 20
-40.96949999846817
 30
0.0
 10
1504.086756861895
 20
-41.05838293882866
 30
0.0
 10
1503.864509788748
 20
-41.12565899601957
 30
0.0
 10
1503.440681736297
 20
-41.301305159458
 30
0.0
 10
1503.23966439508
 20
-41.40879064365112
 30
0.0
 10
1502.859227277276
 20
-41.66273309813374
 30
0.0
 10
1502.679097975346
 20
-41.81054358923127
 30
0.0
 10
1502.356227244311
 20
-42.1334255145591
 30
0.0
 10
1502.21134456781
 20
-42.3096016646382
 30
0.0
 10
1501.955472971665
 20
-42.69212615368196
 30
0.0
 10
1501.846727367312
 20
-42.89582673131566
 30
0.0
 10
1501.672144354539
 20
-43.31692071008914
 30
0.0
 10
1501.604951424428
 20
-43.53740996180385
 30
0.0
 10
1501.514996206046
 20
-43.98915101050151
 30
0.0
 10
1501.492734269856
 20
-44.21621829441114
 30
0.0
 10
1501.49242582071
 20
-44.67268232129971
 30
0.0
 10
1501.515096801544
 20
-44.90449981638825
 30
0.0
 10
1501.60428717599
 20
-45.35336711372999
 30
0.0
 10
1501.670296894868
 20
-45.57153302591068
 30
0.0
 10
1501.845379476957
 20
-45.99526086502252
 30
0.0
 10
1501.95491515577
 20
-46.20027044750164
 30
0.0
 10
1502.208135523229
 20
-46.57962595667762
 30
0.0
 10
1502.352691887758
 20
-46.75643472478065
 30
0.0
 10
1502.679092128972
 20
-47.0833138426357
 30
0.0
 10
1502.856204886923
 20
-47.22851951104409
 30
0.0
 10
1503.23510424395
 20
-47.48214977569281
 30
0.0
 10
1503.439510930918
 20
-47.59175957874703
 30
0.0
 10
1503.863582815034
 20
-47.76766802121535
 30
0.0
 10
1504.081713405405
 20
-47.83393477237133
 30
0.0
 10
1504.530011237655
 20
-47.9236365137556
 30
0.0
 10
1504.761373580968
 20
-47.94681538308622
 30
0.0
 10
1505.223784911432
 20
-47.94681538308622
 30
0.0
 10
1505.451127321218
 20
-47.92413076770432
 30
0.0
 10
1505.898401630504
 20
-47.83524782734374
 30
0.0
 10
1506.120648703651
 20
-47.76797177015293
 30
0.0
 10
1506.544476756101
 20
-47.59232560671447
 30
0.0
 10
1506.745494097319
 20
-47.48484012252135
 30
0.0
 10
1507.125931215123
 20
-47.23089766803874
 30
0.0
 10
1507.306060517053
 20
-47.08308717694122
 30
0.0
 10
1507.628931248088
 20
-46.76020525161339
 30
0.0
 10
1507.77381392459
 20
-46.58402910153431
 30
0.0
 10
1508.029685520734
 20
-46.20150461249052
 30
0.0
 10
1508.138431125088
 20
-45.99780403485682
 30
0.0
 10
1508.31301413786
 20
-45.57671005608331
 30
0.0
 10
1508.380207067971
 20
-45.35622080436863
 30
0.0
 10
1508.470162286354
 20
-44.90447975567094
 30
0.0
 10
1508.492424222543
 20
-44.67741247176134
 30
0.0
 10
1508.492732671689
 20
-44.22094844487273
 30
0.0
 10
1508.470061690856
 20
-43.98913094978422
 30
0.0
 10
1508.380871316409
 20
-43.54026365244246
 30
0.0
 10
1508.31486159753
 20
-43.3220977402618
 30
0.0
 10
1508.139779015441
 20
-42.89836990114992
 30
0.0
 10
1508.030243336629
 20
-42.69336031867122
 30
0.0
 10
1507.777022969169
 20
-42.31400480949522
 30
0.0
 10
1507.632466604641
 20
-42.13719604139178
 30
0.0
 10
1507.306066363428
 20
-41.81031692353674
 30
0.0
 10
1507.128953605476
 20
-41.66511125512835
 30
0.0
 10
1506.750054248449
 20
-41.41148099047964
 30
0.0
 10
1506.545647561481
 20
-41.30187118742543
 30
0.0
 10
1506.121575677365
 20
-41.1259627449571
 30
0.0
 10
1505.903445086994
 20
-41.05969599380111
 30
0.0
 10
1505.455147254744
 20
-40.96999425241686
 30
0.0
 10
1505.223784911431
 20
-40.94681538308624
 30
0.0
 10
1504.992579246199
 20
-40.94681538308623
 30
0.0
  0
SPLINE
  5
113
330
1F
100
AcDbEntity
  8
0
  6
Continuous
 62
     7
370
    15
100
AcDbSpline
210
0.0
220
0.0
230
1.0
 70
    24
 71
     3
 72
     8
 73
     4
 74
     0
 42
0.000000001
 43
0.00000001
 40
0.0
 40
0.0
 40
0.0
 40
0.0
 40
1.0
 40
1.0
 40
1.0
 40
1.0
 10
1505.6175792462
 20
-45.07181538308623
 30
0.0
 10
1505.6175792462
 20
-45.73106064319087
 30
0.0
 10
1505.6175792462
 20
-46.35606064319085
 30
0.0
 10
1505.6175792462
 20
-46.94681538308623
 30
0.0
  0
SPLINE
  5
114
330
1F
100
AcDbEntity
  8
0
  6
Continuous
 62
     7
370
    15
100
AcDbSpline
210
0.0
220
0.0
230
1.0
 70
    24
 71
     3
 72
     8
 73
     4
 74
     0
 42
0.000000001
 43
0.00000001
 40
0.0
 40
0.0
 40
0.0
 40
0.0
 40
1.0
 40
1.0
 40
1.0
 40
1.0
 10
1505.6175792462
 20
-41.94681538308622
 30
0.0
 10
1505.6175792462
 20
-42.53757012298161
 30
0.0
 10
1505.6175792462
 20
-43.16257012298158
 30
0.0
 10
1505.6175792462
 20
-43.82181538308623
 30
0.0
  0
SPLINE
  5
115
330
1F
100
AcDbEntity
  8
0
  6
Continuous
 62
     7
370
    15
100
AcDbSpline
210
0.0
220
0.0
230
1.0
 70
    24
 71
     3
 72
     8
 73
     4
 74
     0
 42
0.000000001
 43
0.00000001
 40
0.0
 40
0.0
 40
0.0
 40
0.0
 40
1.0
 40
1.0
 40
1.0
 40
1.0
 10
1504.3675792462
 20
-46.94681538308623
 30
0.0
 10
1504.3675792462
 20
-46.35606064319084
 30
0.0
 10
1504.3675792462
 20
-45.73106064319087
 30
0.0
 10
1504.3675792462
 20
-45.07181538308623
 30
0.0
  0
SPLINE
  5
116
330
1F
100
AcDbEntity
  8
0
  6
Continuous
 62
     7
370
    15
100
AcDbSpline
210
0.0
220
0.0
230
1.0
 70
    24
 71
     3
 72
     8
 73
     4
 74
     0
 42
0.000000001
 43
0.00000001
 40
0.0
 40
0.0
 40
0.0
 40
0.0
 40
1.0
 40
1.0
 40
1.0
 40
1.0
 10
1504.3675792462
 20
-43.82181538308623
 30
0.0
 10
1504.3675792462
 20
-43.16257012298158
 30
0.0
 10
1504.3675792462
 20
-42.53757012298161
 30
0.0
 10
1504.3675792462
 20
-41.94681538308622
 30
0.0
  0
CIRCLE
  5
117
330
1F
100
AcDbEntity
  8
0
  6
Continuous
 62
     7
370
    15
100
AcDbCircle
 10
1504.9925792462
 20
-44.4468153831
 30
0.0
 40
5.5
  0
SPLINE
  5
118
330
1F
100
AcDbEntity
  8
0
  6
Continuous
 62
     7
370
    15
100
AcDbSpline
210
0.0
220
0.0
230
1.0
 70
    24
 71
     3
 72
     8
 73
     4
 74
     0
 42
0.000000001
 43
0.00000001
 40
0.0
 40
0.0
 40
0.0
 40
0.0
 40
1.0
 40
1.0
 40
1.0
 40
1.0
 10
2900.726802817615
 20
42.36025292452682
 30
0.0
 10
2900.726802817615
 20
42.77691959119349
 30
0.0
 10
2900.726802817615
 20
43.19358625786015
 30
0.0
 10
2900.726802817615
 20
43.61025292452682
 30
0.0
  0
SPLINE
  5
11C
330
1F
100
AcDbEntity
  8
0
  6
Continuous
 62
     7
370
    15
100
AcDbSpline
210
0.0
220
0.0
230
1.0
 70
    24
 71
     3
 72
     8
 73
     4
 74
     0
 42
0.000000001
 43
0.00000001
 40
0.0
 40
0.0
 40
0.0
 40
0.0
 40
1.0
 40
1.0
 40
1.0
 40
1.0
 10
2905.726802817615
 20
43.61025292452682
 30
0.0
 10
2905.726802817615
 20
43.19358625786015
 30
0.0
 10
2905.726802817615
 20
42.77691959119349
 30
0.0
 10
2905.726802817615
 20
42.36025292452682
 30
0.0
  0
SPLINE
  5
120
330
1F
100
AcDbEntity
  8
0
  6
Continuous
 62
     7
370
    15
100
AcDbSpline
210
0.0
220
0.0
230
1.0
 70
    11
 71
     3
 72
    70
 73
    66
 74
     0
 42
0.000000001
 43
0.00000001
 40
0.0
 40
0.0
 40
0.0
 40
0.0
 40
0.03125
 40
0.03125
 40
0.0625
 40
0.0625
 40
0.09375
 40
0.09375
 40
0.125
 40
0.125
 40
0.15625
 40
0.15625
 40
0.1875
 40
0.1875
 40
0.21875
 40
0.21875
 40
0.25
 40
0.25
 40
0.28125
 40
0.28125
 40
0.3125
 40
0.3125
 40
0.34375
 40
0.34375
 40
0.375
 40
0.375
 40
0.40625
 40
0.40625
 40
0.4375
 40
0.4375
 40
0.46875
 40
0.46875
 40
0.5
 40
0.5
 40
0.53125
 40
0.53125
 40
0.5625
 40
0.5625
 40
0.59375
 40
0.59375
 40
0.625
 40
0.625
 40
0.65625
 40
0.65625
 40
0.6875
 40
0.6875
 40
0.71875
 40
0.71875
 40
0.75
 40
0.75
 40
0.78125
 40
0.78125
 40
0.8125
 40
0.8125
 40
0.84375
 40
0.84375
 40
0.875
 40
0.875
 40
0.90625
 40
0.90625
 40
0.9375
 40
0.9375
 40
0.96875
 40
0.96875
 40
1.0
 40
1.0
 40
1.0
 40
1.0
 10
2903.226802817616
 20
46.48525292452683
 30
0.0
 10
2902.995597152383
 20
46.4852529245268
 30
0.0
 10
2902.768254742597
 20
46.46256830914496
 30
0.0
 10
2902.32098043331
 20
46.37368536878439
 30
0.0
 10
2902.098733360164
 20
46.30640931159369
 30
0.0
 10
2901.674905307713
 20
46.13076314815527
 30
0.0
 10
2901.473887966496
 20
46.02327766396226
 30
0.0
 10
2901.093450848692
 20
45.76933520947961
 30
0.0
 10
2900.913321546763
 20
45.62152471838189
 30
0.0
 10
2900.590450815727
 20
45.29864279305409
 30
0.0
 10
2900.445568139226
 20
45.12246664297511
 30
0.0
 10
2900.18969654308
 20
44.73994215393133
 30
0.0
 10
2900.080950938728
 20
44.53624157629764
 30
0.0
 10
2899.906367925954
 20
44.11514759752411
 30
0.0
 10
2899.839174995844
 20
43.89465834580925
 30
0.0
 10
2899.749219777461
 20
43.44291729711156
 30
0.0
 10
2899.726957841272
 20
43.21585001320192
 30
0.0
 10
2899.726649392126
 20
42.75938598631333
 30
0.0
 10
2899.74932037296
 20
42.52756849122481
 30
0.0
 10
2899.838510747406
 20
42.07870119388301
 30
0.0
 10
2899.904520466284
 20
41.86053528170247
 30
0.0
 10
2900.079603048373
 20
41.43680744259058
 30
0.0
 10
2900.189138727186
 20
41.23179786011154
 30
0.0
 10
2900.442359094645
 20
40.85244235093554
 30
0.0
 10
2900.586915459175
 20
40.67563358283269
 30
0.0
 10
2900.913315700386
 20
40.3487544649776
 30
0.0
 10
2901.090428458338
 20
40.20354879656897
 30
0.0
 10
2901.469327815365
 20
39.94991853192025
 30
0.0
 10
2901.673734502334
 20
39.84030872886607
 30
0.0
 10
2902.09780638645
 20
39.6644002863977
 30
0.0
 10
2902.31593697682
 20
39.59813353524176
 30
0.0
 10
2902.764234809069
 20
39.5084317938575
 30
0.0
 10
2902.995597152384
 20
39.48525292452683
 30
0.0
 10
2903.458008482847
 20
39.48525292452681
 30
0.0
 10
2903.685350892635
 20
39.50793753990865
 30
0.0
 10
2904.13262520192
 20
39.59682048026919
 30
0.0
 10
2904.354872275068
 20
39.66409653746006
 30
0.0
 10
2904.778700327518
 20
39.8397427008985
 30
0.0
 10
2904.979717668735
 20
39.94722818509136
 30
0.0
 10
2905.360154786539
 20
40.20117063957399
 30
0.0
 10
2905.540284088468
 20
40.34898113067181
 30
0.0
 10
2905.863154819503
 20
40.67186305599961
 30
0.0
 10
2906.008037496006
 20
40.84803920607854
 30
0.0
 10
2906.26390909215
 20
41.23056369512227
 30
0.0
 10
2906.372654696504
 20
41.43426427275599
 30
0.0
 10
2906.547237709276
 20
41.85535825152951
 30
0.0
 10
2906.614430639387
 20
42.07584750324438
 30
0.0
 10
2906.704385857768
 20
42.52758855194206
 30
0.0
 10
2906.726647793958
 20
42.75465583585171
 30
0.0
 10
2906.726956243104
 20
43.2111198627403
 30
0.0
 10
2906.704285262273
 20
43.44293735782883
 30
0.0
 10
2906.615094887824
 20
43.89180465517064
 30
0.0
 10
2906.549085168946
 20
44.10997056735119
 30
0.0
 10
2906.374002586858
 20
44.53369840646306
 30
0.0
 10
2906.264466908045
 20
44.73870798894214
 30
0.0
 10
2906.011246540585
 20
45.11806349811813
 30
0.0
 10
2905.866690176057
 20
45.294872266221
 30
0.0
 10
2905.540289934843
 20
45.62175138407606
 30
0.0
 10
2905.363177176892
 20
45.76695705248466
 30
0.0
 10
2904.984277819864
 20
46.02058731713343
 30
0.0
 10
2904.779871132897
 20
46.1301971201876
 30
0.0
 10
2904.355799248781
 20
46.30610556265596
 30
0.0
 10
2904.13766865841
 20
46.37237231381189
 30
0.0
 10
2903.68937082616
 20
46.46207405519615
 30
0.0
 10
2903.458008482849
 20
46.48525292452685
 30
0.0
 10
2903.226802817616
 20
46.48525292452683
 30
0.0
  0
SPLINE
  5
121
330
1F
100
AcDbEntity
  8
0
  6
Continuous
 62
     7
370
    15
100
AcDbSpline
210
0.0
220
0.0
230
1.0
 70
    24
 71
     3
 72
     8
 73
     4
 74
     0
 42
0.000000001
 43
0.00000001
 40
0.0
 40
0.0
 40
0.0
 40
0.0
 40
1.0
 40
1.0
 40
1.0
 40
1.0
 10
2902.601802817615
 20
40.48525292452682
 30
0.0
 10
2902.601802817615
 20
41.0760076644222
 30
0.0
 10
2902.601802817615
 20
41.70100766442218
 30
0.0
 10
2902.601802817615
 20
42.36025292452682
 30
0.0
  0
SPLINE
  5
122
330
1F
100
AcDbEntity
  8
0
  6
Continuous
 62
     7
370
    15
100
AcDbSpline
210
0.0
220
0.0
230
1.0
 70
    24
 71
     3
 72
     8
 73
     4
 74
     0
 42
0.000000001
 43
0.00000001
 40
0.0
 40
0.0
 40
0.0
 40
0.0
 40
1.0
 40
1.0
 40
1.0
 40
1.0
 10
2903.851802817615
 20
42.36025292452682
 30
0.0
 10
2903.851802817615
 20
41.70100766442218
 30
0.0
 10
2903.851802817615
 20
41.07600766442219
 30
0.0
 10
2903.851802817615
 20
40.48525292452682
 30
0.0
  0
SPLINE
  5
123
330
1F
100
AcDbEntity
  8
0
  6
Continuous
 62
     7
370
    15
100
AcDbSpline
210
0.0
220
0.0
230
1.0
 70
    24
 71
     3
 72
     8
 73
     4
 74
     0
 42
0.000000001
 43
0.00000001
 40
0.0
 40
0.0
 40
0.0
 40
0.0
 40
1.0
 40
1.0
 40
1.0
 40
1.0
 10
2902.601802817615
 20
43.61025292452682
 30
0.0
 10
2902.601802817615
 20
44.26949818463146
 30
0.0
 10
2902.601802817615
 20
44.89449818463144
 30
0.0
 10
2902.601802817615
 20
45.48525292452682
 30
0.0
  0
SPLINE
  5
124
330
1F
100
AcDbEntity
  8
0
  6
Continuous
 62
     7
370
    15
100
AcDbSpline
210
0.0
220
0.0
230
1.0
 70
    24
 71
     3
 72
     8
 73
     4
 74
     0
 42
0.000000001
 43
0.00000001
 40
0.0
 40
0.0
 40
0.0
 40
0.0
 40
1.0
 40
1.0
 40
1.0
 40
1.0
 10
2903.851802817615
 20
45.48525292452682
 30
0.0
 10
2903.851802817615
 20
44.89449818463143
 30
0.0
 10
2903.851802817615
 20
44.26949818463146
 30
0.0
 10
2903.851802817615
 20
43.61025292452682
 30
0.0
  0
CIRCLE
  5
125
330
1F
100
AcDbEntity
  8
0
  6
Continuous
 62
     7
370
    15
100
AcDbCircle
 10
2903.2268028176
 20
42.9852529245
 30
0.0
 40
5.500000000000178
  0
SPLINE
  5
126
330
1F
100
AcDbEntity
  8
0
  6
Continuous
 62
     7
370
    15
100
AcDbSpline
210
0.0
220
0.0
230
1.0
 70
    24
 71
     3
 72
     8
 73
     4
 74
     0
 42
0.000000001
 43
0.00000001
 40
0.0
 40
0.0
 40
0.0
 40
0.0
 40
1.0
 40
1.0
 40
1.0
 40
1.0
 10
2980.485252924527
 20
36.14819718238342
 30
0.0
 10
2980.485252924527
 20
36.56486384905009
 30
0.0
 10
2980.485252924527
 20
36.98153051571676
 30
0.0
 10
2980.485252924527
 20
37.39819718238342
 30
0.0
  0
SPLINE
  5
12A
330
1F
100
AcDbEntity
  8
0
  6
Continuous
 62
     7
370
    15
100
AcDbSpline
210
0.0
220
0.0
230
1.0
 70
    24
 71
     3
 72
     8
 73
     4
 74
     0
 42
0.000000001
 43
0.00000001
 40
0.0
 40
0.0
 40
0.0
 40
0.0
 40
1.0
 40
1.0
 40
1.0
 40
1.0
 10
2985.485252924527
 20
37.39819718238342
 30
0.0
 10
2985.485252924527
 20
36.98153051571676
 30
0.0
 10
2985.485252924527
 20
36.56486384905009
 30
0.0
 10
2985.485252924527
 20
36.14819718238342
 30
0.0
  0
SPLINE
  5
12E
330
1F
100
AcDbEntity
  8
0
  6
Continuous
 62
     7
370
    15
100
AcDbSpline
210
0.0
220
0.0
230
1.0
 70
    11
 71
     3
 72
    70
 73
    66
 74
     0
 42
0.000000001
 43
0.00000001
 40
0.0
 40
0.0
 40
0.0
 40
0.0
 40
0.03125
 40
0.03125
 40
0.0625
 40
0.0625
 40
0.09375
 40
0.09375
 40
0.125
 40
0.125
 40
0.15625
 40
0.15625
 40
0.1875
 40
0.1875
 40
0.21875
 40
0.21875
 40
0.25
 40
0.25
 40
0.28125
 40
0.28125
 40
0.3125
 40
0.3125
 40
0.34375
 40
0.34375
 40
0.375
 40
0.375
 40
0.40625
 40
0.40625
 40
0.4375
 40
0.4375
 40
0.46875
 40
0.46875
 40
0.5
 40
0.5
 40
0.53125
 40
0.53125
 40
0.5625
 40
0.5625
 40
0.59375
 40
0.59375
 40
0.625
 40
0.625
 40
0.65625
 40
0.65625
 40
0.6875
 40
0.6875
 40
0.71875
 40
0.71875
 40
0.75
 40
0.75
 40
0.78125
 40
0.78125
 40
0.8125
 40
0.8125
 40
0.84375
 40
0.84375
 40
0.875
 40
0.875
 40
0.90625
 40
0.90625
 40
0.9375
 40
0.9375
 40
0.96875
 40
0.96875
 40
1.0
 40
1.0
 40
1.0
 40
1.0
 10
2982.985252924528
 20
40.27319718238343
 30
0.0
 10
2982.754047259294
 20
40.27319718238341
 30
0.0
 10
2982.526704849508
 20
40.25051256700156
 30
0.0
 10
2982.079430540221
 20
40.16162962664099
 30
0.0
 10
2981.857183467076
 20
40.09435356945029
 30
0.0
 10
2981.433355414625
 20
39.91870740601189
 30
0.0
 10
2981.232338073408
 20
39.81122192181888
 30
0.0
 10
2980.851900955603
 20
39.55727946733622
 30
0.0
 10
2980.671771653675
 20
39.4094689762385
 30
0.0
 10
2980.348900922639
 20
39.08658705091069
 30
0.0
 10
2980.204018246137
 20
38.91041090083171
 30
0.0
 10
2979.948146649992
 20
38.52788641178793
 30
0.0
 10
2979.839401045639
 20
38.32418583415423
 30
0.0
 10
2979.664818032866
 20
37.90309185538072
 30
0.0
 10
2979.597625102757
 20
37.68260260366587
 30
0.0
 10
2979.507669884373
 20
37.23086155496818
 30
0.0
 10
2979.485407948185
 20
37.00379427105854
 30
0.0
 10
2979.485099499037
 20
36.54733024416993
 30
0.0
 10
2979.507770479871
 20
36.3155127490814
 30
0.0
 10
2979.596960854316
 20
35.86664545173961
 30
0.0
 10
2979.662970573197
 20
35.64847953955908
 30
0.0
 10
2979.838053155284
 20
35.22475170044719
 30
0.0
 10
2979.947588834098
 20
35.01974211796815
 30
0.0
 10
2980.200809201558
 20
34.64038660879214
 30
0.0
 10
2980.345365566086
 20
34.4635778406893
 30
0.0
 10
2980.671765807298
 20
34.13669872283421
 30
0.0
 10
2980.848878565251
 20
33.9914930544256
 30
0.0
 10
2981.227777922278
 20
33.73786278977685
 30
0.0
 10
2981.432184609246
 20
33.62825298672266
 30
0.0
 10
2981.856256493361
 20
33.45234454425432
 30
0.0
 10
2982.074387083732
 20
33.38607779309838
 30
0.0
 10
2982.522684915981
 20
33.2963760517141
 30
0.0
 10
2982.754047259295
 20
33.27319718238344
 30
0.0
 10
2983.216458589759
 20
33.27319718238342
 30
0.0
 10
2983.443800999545
 20
33.29588179776528
 30
0.0
 10
2983.891075308832
 20
33.3847647381258
 30
0.0
 10
2984.113322381979
 20
33.45204079531668
 30
0.0
 10
2984.537150434429
 20
33.6276869587551
 30
0.0
 10
2984.738167775647
 20
33.73517244294796
 30
0.0
 10
2985.11860489345
 20
33.9891148974306
 30
0.0
 10
2985.29873419538
 20
34.13692538852844
 30
0.0
 10
2985.621604926416
 20
34.45980731385623
 30
0.0
 10
2985.766487602918
 20
34.63598346393513
 30
0.0
 10
2986.022359199062
 20
35.01850795297887
 30
0.0
 10
2986.131104803414
 20
35.2222085306126
 30
0.0
 10
2986.305687816188
 20
35.6433025093861
 30
0.0
 10
2986.372880746298
 20
35.86379176110099
 30
0.0
 10
2986.462835964681
 20
36.31553280979866
 30
0.0
 10
2986.48509790087
 20
36.54260009370832
 30
0.0
 10
2986.485406350017
 20
36.99906412059691
 30
0.0
 10
2986.462735369183
 20
37.23088161568545
 30
0.0
 10
2986.373544994736
 20
37.67974891302724
 30
0.0
 10
2986.307535275857
 20
37.89791482520781
 30
0.0
 10
2986.13245269377
 20
38.32164266431966
 30
0.0
 10
2986.022917014956
 20
38.52665224679873
 30
0.0
 10
2985.769696647496
 20
38.90600775597473
 30
0.0
 10
2985.625140282968
 20
39.08281652407757
 30
0.0
 10
2985.298740041755
 20
39.40969564193266
 30
0.0
 10
2985.121627283804
 20
39.55490131034129
 30
0.0
 10
2984.742727926776
 20
39.80853157499001
 30
0.0
 10
2984.53832123981
 20
39.9181413780442
 30
0.0
 10
2984.114249355693
 20
40.09404982051252
 30
0.0
 10
2983.896118765322
 20
40.16031657166849
 30
0.0
 10
2983.447820933072
 20
40.25001831305274
 30
0.0
 10
2983.216458589761
 20
40.27319718238344
 30
0.0
 10
2982.985252924528
 20
40.27319718238343
 30
0.0
  0
SPLINE
  5
12F
330
1F
100
AcDbEntity
  8
0
  6
Continuous
 62
     7
370
    15
100
AcDbSpline
210
0.0
220
0.0
230
1.0
 70
    24
 71
     3
 72
     8
 73
     4
 74
     0
 42
0.000000001
 43
0.00000001
 40
0.0
 40
0.0
 40
0.0
 40
0.0
 40
1.0
 40
1.0
 40
1.0
 40
1.0
 10
2982.360252924527
 20
37.39819718238342
 30
0.0
 10
2982.360252924527
 20
38.05744244248806
 30
0.0
 10
2982.360252924527
 20
38.68244244248805
 30
0.0
 10
2982.360252924527
 20
39.27319718238343
 30
0.0
  0
SPLINE
  5
130
330
1F
100
AcDbEntity
  8
0
  6
Continuous
 62
     7
370
    15
100
AcDbSpline
210
0.0
220
0.0
230
1.0
 70
    24
 71
     3
 72
     8
 73
     4
 74
     0
 42
0.000000001
 43
0.00000001
 40
0.0
 40
0.0
 40
0.0
 40
0.0
 40
1.0
 40
1.0
 40
1.0
 40
1.0
 10
2983.610252924527
 20
39.27319718238343
 30
0.0
 10
2983.610252924527
 20
38.68244244248804
 30
0.0
 10
2983.610252924527
 20
38.05744244248806
 30
0.0
 10
2983.610252924527
 20
37.39819718238342
 30
0.0
  0
SPLINE
  5
131
330
1F
100
AcDbEntity
  8
0
  6
Continuous
 62
     7
370
    15
100
AcDbSpline
210
0.0
220
0.0
230
1.0
 70
    24
 71
     3
 72
     8
 73
     4
 74
     0
 42
0.000000001
 43
0.00000001
 40
0.0
 40
0.0
 40
0.0
 40
0.0
 40
1.0
 40
1.0
 40
1.0
 40
1.0
 10
2982.360252924527
 20
34.27319718238342
 30
0.0
 10
2982.360252924527
 20
34.86395192227881
 30
0.0
 10
2982.360252924527
 20
35.48895192227878
 30
0.0
 10
2982.360252924527
 20
36.14819718238342
 30
0.0
  0
SPLINE
  5
132
330
1F
100
AcDbEntity
  8
0
  6
Continuous
 62
     7
370
    15
100
AcDbSpline
210
0.0
220
0.0
230
1.0
 70
    24
 71
     3
 72
     8
 73
     4
 74
     0
 42
0.000000001
 43
0.00000001
 40
0.0
 40
0.0
 40
0.0
 40
0.0
 40
1.0
 40
1.0
 40
1.0
 40
1.0
 10
2983.610252924527
 20
36.14819718238342
 30
0.0
 10
2983.610252924527
 20
35.48895192227878
 30
0.0
 10
2983.610252924527
 20
34.8639519222788
 30
0.0
 10
2983.610252924527
 20
34.27319718238342
 30
0.0
  0
CIRCLE
  5
133
330
1F
100
AcDbEntity
  8
0
  6
Continuous
 62
     7
370
    15
100
AcDbCircle
 10
2982.9852529245
 20
36.7731971824
 30
0.0
 40
5.500000000000576
  0
SPLINE
  5
134
330
1F
100
AcDbEntity
  8
0
  6
Continuous
 62
     7
370
    15
100
AcDbSpline
210
0.0
220
0.0
230
1.0
 70
    24
 71
     3
 72
     8
 73
     4
 74
     0
 42
0.000000001
 43
0.00000001
 40
0.0
 40
0.0
 40
0.0
 40
0.0
 40
1.0
 40
1.0
 40
1.0
 40
1.0
 10
2975.098019496522
 20
-41.02708931522499
 30
0.0
 10
2975.470875658211
 20
-40.8411070746704
 30
0.0
 10
2975.843731819899
 20
-40.65512483411587
 30
0.0
 10
2976.216587981589
 20
-40.46914259356129
 30
0.0
  0
SPLINE
  5
136
330
1F
100
AcDbEntity
  8
0
  6
Continuous
 62
     7
370
    15
100
AcDbSpline
210
0.0
220
0.0
230
1.0
 70
    24
 71
     3
 72
     8
 73
     4
 74
     0
 42
0.000000001
 43
0.00000001
 40
0.0
 40
0.0
 40
0.0
 40
0.0
 40
1.0
 40
1.0
 40
1.0
 40
1.0
 10
2974.257086851417
 20
-43.5418621253208
 30
0.0
 10
2974.785726558978
 20
-43.27817438897524
 30
0.0
 10
2975.345010801511
 20
-42.99920102814345
 30
0.0
 10
2975.934939579017
 20
-42.70494204282525
 30
0.0
  0
SPLINE
  5
138
330
1F
100
AcDbEntity
  8
0
  6
Continuous
 62
     7
370
    15
100
AcDbSpline
210
0.0
220
0.0
230
1.0
 70
    24
 71
     3
 72
     8
 73
     4
 74
     0
 42
0.000000001
 43
0.00000001
 40
0.0
 40
0.0
 40
0.0
 40
0.0
 40
1.0
 40
1.0
 40
1.0
 40
1.0
 10
2976.492886300681
 20
-43.8235105278921
 30
0.0
 10
2975.902957523175
 20
-44.11776951321023
 30
0.0
 10
2975.343673280642
 20
-44.39674287404213
 30
0.0
 10
2974.815033573081
 20
-44.66043061038764
 30
0.0
  0
SPLINE
  5
13A
330
1F
100
AcDbEntity
  8
0
  6
Continuous
 62
     7
370
    15
100
AcDbSpline
210
0.0
220
0.0
230
1.0
 70
    24
 71
     3
 72
     8
 73
     4
 74
     0
 42
0.000000001
 43
0.00000001
 40
0.0
 40
0.0
 40
0.0
 40
0.0
 40
1.0
 40
1.0
 40
1.0
 40
1.0
 10
2978.448374868243
 20
-44.94341653382866
 30
0.0
 10
2978.075518706554
 20
-45.12939877438325
 30
0.0
 10
2977.702662544866
 20
-45.31538101493778
 30
0.0
 10
2977.329806383176
 20
-45.50136325549236
 30
0.0
  0
SPLINE
  5
13C
330
1F
100
AcDbEntity
  8
0
  6
Continuous
 62
     7
370
    15
100
AcDbSpline
210
0.0
220
0.0
230
1.0
 70
    24
 71
     3
 72
     8
 73
     4
 74
     0
 42
0.000000001
 43
0.00000001
 40
0.0
 40
0.0
 40
0.0
 40
0.0
 40
1.0
 40
1.0
 40
1.0
 40
1.0
 10
2979.289307513348
 20
-42.42864372373285
 30
0.0
 10
2978.760667805787
 20
-42.69233146007841
 30
0.0
 10
2978.201383563254
 20
-42.97130482091021
 30
0.0
 10
2977.611454785748
 20
-43.2655638062284
 30
0.0
  0
SPLINE
  5
13E
330
1F
100
AcDbEntity
  8
0
  6
Continuous
 62
     7
370
    15
100
AcDbSpline
210
0.0
220
0.0
230
1.0
 70
    24
 71
     3
 72
     8
 73
     4
 74
     0
 42
0.000000001
 43
0.00000001
 40
0.0
 40
0.0
 40
0.0
 40
0.0
 40
1.0
 40
1.0
 40
1.0
 40
1.0
 10
2977.053508064084
 20
-42.14699532116155
 30
0.0
 10
2977.64343684159
 20
-41.85273633584341
 30
0.0
 10
2978.202721084123
 20
-41.57376297501152
 30
0.0
 10
2978.731360791684
 20
-41.310075238666
 30
0.0
  0
SPLINE
  5
140
330
1F
100
AcDbEntity
  8
0
  6
Continuous
 62
     7
370
    15
100
AcDbSpline
210
0.0
220
0.0
230
1.0
 70
    11
 71
     3
 72
    70
 73
    66
 74
     0
 42
0.000000001
 43
0.00000001
 40
0.0
 40
0.0
 40
0.0
 40
0.0
 40
0.03125
 40
0.03125
 40
0.0625
 40
0.0625
 40
0.09375
 40
0.09375
 40
0.125
 40
0.125
 40
0.15625
 40
0.15625
 40
0.1875
 40
0.1875
 40
0.21875
 40
0.21875
 40
0.25
 40
0.25
 40
0.28125
 40
0.28125
 40
0.3125
 40
0.3125
 40
0.34375
 40
0.34375
 40
0.375
 40
0.375
 40
0.40625
 40
0.40625
 40
0.4375
 40
0.4375
 40
0.46875
 40
0.46875
 40
0.5
 40
0.5
 40
0.53125
 40
0.53125
 40
0.5625
 40
0.5625
 40
0.59375
 40
0.59375
 40
0.625
 40
0.625
 40
0.65625
 40
0.65625
 40
0.6875
 40
0.6875
 40
0.71875
 40
0.71875
 40
0.75
 40
0.75
 40
0.78125
 40
0.78125
 40
0.8125
 40
0.8125
 40
0.84375
 40
0.84375
 40
0.875
 40
0.875
 40
0.90625
 40
0.90625
 40
0.9375
 40
0.9375
 40
0.96875
 40
0.96875
 40
1.0
 40
1.0
 40
1.0
 40
1.0
 10
2979.90518894057
 20
-41.42300210386846
 30
0.0
 10
2979.801988586213
 20
-41.21610660731018
 30
0.0
 10
2979.680213187736
 20
-41.02279360881352
 30
0.0
 10
2979.401031675336
 20
-40.66222160772404
 30
0.0
 10
2979.241627752749
 20
-40.4933719146319
 30
0.0
 10
2978.895271164461
 20
-40.19250831343614
 30
0.0
 10
2978.709361691061
 20
-40.06060392199153
 30
0.0
 10
2978.312309155633
 20
-39.83351703354743
 30
0.0
 10
2978.099638187162
 20
-39.73830376839526
 30
0.0
 10
2977.666590017586
 20
-39.59350207818312
 30
0.0
 10
2977.444268494642
 20
-39.54249064570639
 30
0.0
 10
2976.987754449485
 20
-39.48426535046438
 30
0.0
 10
2976.756932609506
 20
-39.4778770813227
 30
0.0
 10
2976.302188230671
 20
-39.50960904040545
 30
0.0
 10
2976.074890307999
 20
-39.54789812929741
 30
0.0
 10
2975.630495492258
 20
-39.66903922114707
 30
0.0
 10
2975.417366466589
 20
-39.75047117827972
 30
0.0
 10
2975.008759768001
 20
-39.95394124697264
 30
0.0
 10
2974.811436132114
 20
-40.07770193184792
 30
0.0
 10
2974.449575863508
 20
-40.35786959508076
 30
0.0
 10
2974.2838129774
 20
-40.51431867246182
 30
0.0
 10
2973.982787493896
 20
-40.860126206317
 30
0.0
 10
2973.848225745738
 20
-41.04965227252808
 30
0.0
 10
2973.621784431082
 20
-41.44557586093391
 30
0.0
 10
2973.528090058124
 20
-41.65385271389535
 30
0.0
 10
2973.381271870025
 20
-42.09183843831686
 30
0.0
 10
2973.330389468527
 20
-42.31514225911941
 30
0.0
 10
2973.272551735086
 20
-42.76741190268589
 30
0.0
 10
2973.265705310709
 20
-42.99925134945014
 30
0.0
 10
2973.297580412701
 20
-43.45725213646137
 30
0.0
 10
2973.335645491375
 20
-43.68202599292539
 30
0.0
 10
2973.455476503267
 20
-44.12322648861466
 30
0.0
 10
2973.538005069837
 20
-44.34060824862686
 30
0.0
 10
2973.744405778552
 20
-44.75439924174349
 30
0.0
 10
2973.86618117703
 20
-44.94771224024034
 30
0.0
 10
2974.145362689429
 20
-45.30828424132986
 30
0.0
 10
2974.304766612016
 20
-45.47713393442147
 30
0.0
 10
2974.651123200304
 20
-45.77799753561722
 30
0.0
 10
2974.837032673704
 20
-45.90990192706225
 30
0.0
 10
2975.23408520913
 20
-46.13698881550636
 30
0.0
 10
2975.446756177604
 20
-46.23220208065858
 30
0.0
 10
2975.879804347181
 20
-46.37700377087067
 30
0.0
 10
2976.102125870123
 20
-46.4280152033473
 30
0.0
 10
2976.558639915281
 20
-46.4862404985893
 30
0.0
 10
2976.789461755261
 20
-46.49262876773156
 30
0.0
 10
2977.244206134094
 20
-46.46089680864876
 30
0.0
 10
2977.471504056765
 20
-46.42260771975625
 30
0.0
 10
2977.915898872508
 20
-46.30146662790658
 30
0.0
 10
2978.129027898176
 20
-46.220034670774
 30
0.0
 10
2978.537634596763
 20
-46.01656460208108
 30
0.0
 10
2978.734958232651
 20
-45.89280391720532
 30
0.0
 10
2979.096818501257
 20
-45.61263625397247
 30
0.0
 10
2979.262581387366
 20
-45.45618717659189
 30
0.0
 10
2979.563606870868
 20
-45.11037964273672
 30
0.0
 10
2979.698168619027
 20
-44.92085357652541
 30
0.0
 10
2979.924609933682
 20
-44.52492998811956
 30
0.0
 10
2980.018304306643
 20
-44.31665313515839
 30
0.0
 10
2980.16512249474
 20
-43.87866741073692
 30
0.0
 10
2980.216004896237
 20
-43.65536358993424
 30
0.0
 10
2980.273842629678
 20
-43.20309394636777
 30
0.0
 10
2980.280689054056
 20
-42.97125449960373
 30
0.0
 10
2980.248813952064
 20
-42.51325371259249
 30
0.0
 10
2980.210748873391
 20
-42.28847985612822
 30
0.0
 10
2980.090917861499
 20
-41.84727936043897
 30
0.0
 10
2980.008389294927
 20
-41.62989760042674
 30
0.0
 10
2979.90518894057
 20
-41.42300210386846
 30
0.0
  0
CIRCLE
  5
141
330
1F
100
AcDbEntity
  8
0
  6
Continuous
 62
     7
370
    15
100
AcDbCircle
 10
2976.7731971824
 20
-42.9852529245
 30
0.0
 40
5.500000000000055
  0
SPLINE
  5
142
330
1F
100
AcDbEntity
  8
0
  6
Continuous
 62
     7
370
    15
100
AcDbSpline
210
0.0
220
0.0
230
1.0
 70
    24
 71
     3
 72
     8
 73
     4
 74
     0
 42
0.000000001
 43
0.00000001
 40
0.0
 40
0.0
 40
0.0
 40
0.0
 40
1.0
 40
1.0
 40
1.0
 40
1.0
 10
2894.514747075474
 20
-37.39819718238399
 30
0.0
 10
2894.514747075474
 20
-36.98153051571732
 30
0.0
 10
2894.514747075474
 20
-36.56486384905066
 30
0.0
 10
2894.514747075474
 20
-36.14819718238399
 30
0.0
  0
SPLINE
  5
146
330
1F
100
AcDbEntity
  8
0
  6
Continuous
 62
     7
370
    15
100
AcDbSpline
210
0.0
220
0.0
230
1.0
 70
    24
 71
     3
 72
     8
 73
     4
 74
     0
 42
0.000000001
 43
0.00000001
 40
0.0
 40
0.0
 40
0.0
 40
0.0
 40
1.0
 40
1.0
 40
1.0
 40
1.0
 10
2899.514747075474
 20
-36.14819718238399
 30
0.0
 10
2899.514747075474
 20
-36.56486384905066
 30
0.0
 10
2899.514747075474
 20
-36.98153051571732
 30
0.0
 10
2899.514747075474
 20
-37.39819718238399
 30
0.0
  0
SPLINE
  5
14A
330
1F
100
AcDbEntity
  8
0
  6
Continuous
 62
     7
370
    15
100
AcDbSpline
210
0.0
220
0.0
230
1.0
 70
    11
 71
     3
 72
    70
 73
    66
 74
     0
 42
0.000000001
 43
0.00000001
 40
0.0
 40
0.0
 40
0.0
 40
0.0
 40
0.03125
 40
0.03125
 40
0.0625
 40
0.0625
 40
0.09375
 40
0.09375
 40
0.125
 40
0.125
 40
0.15625
 40
0.15625
 40
0.1875
 40
0.1875
 40
0.21875
 40
0.21875
 40
0.25
 40
0.25
 40
0.28125
 40
0.28125
 40
0.3125
 40
0.3125
 40
0.34375
 40
0.34375
 40
0.375
 40
0.375
 40
0.40625
 40
0.40625
 40
0.4375
 40
0.4375
 40
0.46875
 40
0.46875
 40
0.5
 40
0.5
 40
0.53125
 40
0.53125
 40
0.5625
 40
0.5625
 40
0.59375
 40
0.59375
 40
0.625
 40
0.625
 40
0.65625
 40
0.65625
 40
0.6875
 40
0.6875
 40
0.71875
 40
0.71875
 40
0.75
 40
0.75
 40
0.78125
 40
0.78125
 40
0.8125
 40
0.8125
 40
0.84375
 40
0.84375
 40
0.875
 40
0.875
 40
0.90625
 40
0.90625
 40
0.9375
 40
0.9375
 40
0.96875
 40
0.96875
 40
1.0
 40
1.0
 40
1.0
 40
1.0
 10
2897.014747075475
 20
-33.27319718238398
 30
0.0
 10
2896.783541410241
 20
-33.27319718238397
 30
0.0
 10
2896.556199000456
 20
-33.29588179776586
 30
0.0
 10
2896.108924691167
 20
-33.3847647381264
 30
0.0
 10
2895.886677618023
 20
-33.45204079531713
 30
0.0
 10
2895.462849565572
 20
-33.62768695875551
 30
0.0
 10
2895.261832224354
 20
-33.73517244294855
 30
0.0
 10
2894.881395106549
 20
-33.98911489743116
 30
0.0
 10
2894.701265804621
 20
-34.13692538852893
 30
0.0
 10
2894.378395073586
 20
-34.45980731385672
 30
0.0
 10
2894.233512397084
 20
-34.63598346393572
 30
0.0
 10
2893.977640800939
 20
-35.01850795297946
 30
0.0
 10
2893.868895196586
 20
-35.2222085306132
 30
0.0
 10
2893.694312183813
 20
-35.64330250938668
 30
0.0
 10
2893.627119253703
 20
-35.86379176110156
 30
0.0
 10
2893.53716403532
 20
-36.31553280979923
 30
0.0
 10
2893.514902099132
 20
-36.54260009370887
 30
0.0
 10
2893.514593649984
 20
-36.99906412059747
 30
0.0
 10
2893.537264630819
 20
-37.23088161568602
 30
0.0
 10
2893.626455005264
 20
-37.67974891302778
 30
0.0
 10
2893.692464724144
 20
-37.89791482520833
 30
0.0
 10
2893.867547306231
 20
-38.32164266432023
 30
0.0
 10
2893.977082985046
 20
-38.52665224679928
 30
0.0
 10
2894.230303352505
 20
-38.90600775597525
 30
0.0
 10
2894.374859717032
 20
-39.08281652407811
 30
0.0
 10
2894.701259958245
 20
-39.40969564193319
 30
0.0
 10
2894.878372716197
 20
-39.55490131034185
 30
0.0
 10
2895.257272073224
 20
-39.80853157499057
 30
0.0
 10
2895.461678760194
 20
-39.91814137804476
 30
0.0
 10
2895.885750644307
 20
-40.09404982051309
 30
0.0
 10
2896.103881234678
 20
-40.16031657166904
 30
0.0
 10
2896.552179066929
 20
-40.2500183130533
 30
0.0
 10
2896.783541410241
 20
-40.273197182384
 30
0.0
 10
2897.245952740706
 20
-40.27319718238397
 30
0.0
 10
2897.473295150492
 20
-40.25051256700215
 30
0.0
 10
2897.920569459779
 20
-40.16162962664162
 30
0.0
 10
2898.142816532927
 20
-40.09435356945075
 30
0.0
 10
2898.566644585375
 20
-39.91870740601232
 30
0.0
 10
2898.767661926594
 20
-39.81122192181946
 30
0.0
 10
2899.148099044397
 20
-39.55727946733684
 30
0.0
 10
2899.328228346328
 20
-39.40946897623898
 30
0.0
 10
2899.651099077362
 20
-39.08658705091119
 30
0.0
 10
2899.795981753865
 20
-38.91041090083228
 30
0.0
 10
2900.051853350009
 20
-38.52788641178854
 30
0.0
 10
2900.160598954363
 20
-38.3241858341548
 30
0.0
 10
2900.335181967135
 20
-37.90309185538131
 30
0.0
 10
2900.402374897246
 20
-37.68260260366642
 30
0.0
 10
2900.492330115628
 20
-37.23086155496875
 30
0.0
 10
2900.514592051817
 20
-37.0037942710591
 30
0.0
 10
2900.514900500963
 20
-36.5473302441705
 30
0.0
 10
2900.492229520131
 20
-36.31551274908198
 30
0.0
 10
2900.403039145684
 20
-35.86664545174018
 30
0.0
 10
2900.337029426805
 20
-35.64847953955962
 30
0.0
 10
2900.161946844716
 20
-35.22475170044774
 30
0.0
 10
2900.052411165904
 20
-35.01974211796869
 30
0.0
 10
2899.799190798444
 20
-34.64038660879268
 30
0.0
 10
2899.654634433916
 20
-34.46357784068984
 30
0.0
 10
2899.328234192702
 20
-34.13669872283475
 30
0.0
 10
2899.151121434751
 20
-33.99149305442614
 30
0.0
 10
2898.772222077723
 20
-33.73786278977739
 30
0.0
 10
2898.567815390756
 20
-33.6282529867232
 30
0.0
 10
2898.14374350664
 20
-33.45234454425487
 30
0.0
 10
2897.925612916269
 20
-33.38607779309891
 30
0.0
 10
2897.477315084019
 20
-33.29637605171467
 30
0.0
 10
2897.245952740708
 20
-33.273197182384
 30
0.0
 10
2897.014747075475
 20
-33.27319718238398
 30
0.0
  0
SPLINE
  5
14B
330
1F
100
AcDbEntity
  8
0
  6
Continuous
 62
     7
370
    15
100
AcDbSpline
210
0.0
220
0.0
230
1.0
 70
    24
 71
     3
 72
     8
 73
     4
 74
     0
 42
0.000000001
 43
0.00000001
 40
0.0
 40
0.0
 40
0.0
 40
0.0
 40
1.0
 40
1.0
 40
1.0
 40
1.0
 10
2896.389747075474
 20
-36.14819718238399
 30
0.0
 10
2896.389747075474
 20
-35.48895192227935
 30
0.0
 10
2896.389747075474
 20
-34.86395192227937
 30
0.0
 10
2896.389747075474
 20
-34.27319718238399
 30
0.0
  0
SPLINE
  5
14C
330
1F
100
AcDbEntity
  8
0
  6
Continuous
 62
     7
370
    15
100
AcDbSpline
210
0.0
220
0.0
230
1.0
 70
    24
 71
     3
 72
     8
 73
     4
 74
     0
 42
0.000000001
 43
0.00000001
 40
0.0
 40
0.0
 40
0.0
 40
0.0
 40
1.0
 40
1.0
 40
1.0
 40
1.0
 10
2897.639747075474
 20
-34.27319718238399
 30
0.0
 10
2897.639747075474
 20
-34.86395192227938
 30
0.0
 10
2897.639747075474
 20
-35.48895192227935
 30
0.0
 10
2897.639747075474
 20
-36.14819718238399
 30
0.0
  0
SPLINE
  5
14D
330
1F
100
AcDbEntity
  8
0
  6
Continuous
 62
     7
370
    15
100
AcDbSpline
210
0.0
220
0.0
230
1.0
 70
    24
 71
     3
 72
     8
 73
     4
 74
     0
 42
0.000000001
 43
0.00000001
 40
0.0
 40
0.0
 40
0.0
 40
0.0
 40
1.0
 40
1.0
 40
1.0
 40
1.0
 10
2897.639747075474
 20
-37.39819718238399
 30
0.0
 10
2897.639747075474
 20
-38.05744244248864
 30
0.0
 10
2897.639747075474
 20
-38.68244244248861
 30
0.0
 10
2897.639747075474
 20
-39.273197182384
 30
0.0
  0
SPLINE
  5
14E
330
1F
100
AcDbEntity
  8
0
  6
Continuous
 62
     7
370
    15
100
AcDbSpline
210
0.0
220
0.0
230
1.0
 70
    24
 71
     3
 72
     8
 73
     4
 74
     0
 42
0.000000001
 43
0.00000001
 40
0.0
 40
0.0
 40
0.0
 40
0.0
 40
1.0
 40
1.0
 40
1.0
 40
1.0
 10
2896.389747075474
 20
-39.273197182384
 30
0.0
 10
2896.389747075474
 20
-38.68244244248861
 30
0.0
 10
2896.389747075474
 20
-38.05744244248864
 30
0.0
 10
2896.389747075474
 20
-37.39819718238399
 30
0.0
  0
CIRCLE
  5
14F
330
1F
100
AcDbEntity
  8
0
  6
Continuous
 62
     7
370
    15
100
AcDbCircle
 10
2897.0147470755
 20
-36.7731971824
 30
0.0
 40
5.500000000000174
  0
SPLINE
  5
150
330
1F
100
AcDbEntity
  8
0
  6
Continuous
 62
     7
370
    15
100
AcDbSpline
210
0.0
220
0.0
230
1.0
 70
    24
 71
     3
 72
     8
 73
     4
 74
     0
 42
0.000000001
 43
0.00000001
 40
0.0
 40
0.0
 40
0.0
 40
0.0
 40
1.0
 40
1.0
 40
1.0
 40
1.0
 10
-32.25201150759771
 20
45.26016210540597
 30
0.0
 10
-32.25201150759771
 20
44.8434954387393
 30
0.0
 10
-32.25201150759771
 20
44.42682877207264
 30
0.0
 10
-32.25201150759771
 20
44.01016210540597
 30
0.0
  0
SPLINE
  5
154
330
1F
100
AcDbEntity
  8
0
  6
Continuous
 62
     7
370
    15
100
AcDbSpline
210
0.0
220
0.0
230
1.0
 70
    24
 71
     3
 72
     8
 73
     4
 74
     0
 42
0.000000001
 43
0.00000001
 40
0.0
 40
0.0
 40
0.0
 40
0.0
 40
1.0
 40
1.0
 40
1.0
 40
1.0
 10
-37.25201150759783
 20
44.01016210540597
 30
0.0
 10
-37.25201150759783
 20
44.42682877207264
 30
0.0
 10
-37.25201150759783
 20
44.8434954387393
 30
0.0
 10
-37.25201150759783
 20
45.26016210540597
 30
0.0
  0
SPLINE
  5
158
330
1F
100
AcDbEntity
  8
0
  6
Continuous
 62
     7
370
    15
100
AcDbSpline
210
0.0
220
0.0
230
1.0
 70
    11
 71
     3
 72
    70
 73
    66
 74
     0
 42
0.000000001
 43
0.00000001
 40
0.0
 40
0.0
 40
0.0
 40
0.0
 40
0.03125
 40
0.03125
 40
0.0625
 40
0.0625
 40
0.09375
 40
0.09375
 40
0.125
 40
0.125
 40
0.15625
 40
0.15625
 40
0.1875
 40
0.1875
 40
0.21875
 40
0.21875
 40
0.25
 40
0.25
 40
0.28125
 40
0.28125
 40
0.3125
 40
0.3125
 40
0.34375
 40
0.34375
 40
0.375
 40
0.375
 40
0.40625
 40
0.40625
 40
0.4375
 40
0.4375
 40
0.46875
 40
0.46875
 40
0.5
 40
0.5
 40
0.53125
 40
0.53125
 40
0.5625
 40
0.5625
 40
0.59375
 40
0.59375
 40
0.625
 40
0.625
 40
0.65625
 40
0.65625
 40
0.6875
 40
0.6875
 40
0.71875
 40
0.71875
 40
0.75
 40
0.75
 40
0.78125
 40
0.78125
 40
0.8125
 40
0.8125
 40
0.84375
 40
0.84375
 40
0.875
 40
0.875
 40
0.90625
 40
0.90625
 40
0.9375
 40
0.9375
 40
0.96875
 40
0.96875
 40
1.0
 40
1.0
 40
1.0
 40
1.0
 10
-34.75201150759777
 20
41.13516210540597
 30
0.0
 10
-34.52080584236539
 20
41.13516210540595
 30
0.0
 10
-34.29346343257955
 20
41.15784672078742
 30
0.0
 10
-33.84618912329307
 20
41.24672966114793
 30
0.0
 10
-33.6239420501463
 20
41.31400571833932
 30
0.0
 10
-33.20011399769606
 20
41.48965188177776
 30
0.0
 10
-32.99909665647793
 20
41.5971373659704
 30
0.0
 10
-32.61865953867415
 20
41.85107982045301
 30
0.0
 10
-32.43853023674448
 20
41.99889031155099
 30
0.0
 10
-32.11565950570949
 20
42.32177223687883
 30
0.0
 10
-31.97077682920746
 20
42.49794838695794
 30
0.0
 10
-31.71490523306342
 20
42.88047287600167
 30
0.0
 10
-31.60615962870938
 20
43.0841734536352
 30
0.0
 10
-31.43157661593676
 20
43.50526743240868
 30
0.0
 10
-31.36438368582639
 20
43.72575668412359
 30
0.0
 10
-31.27442846744422
 20
44.17749773282124
 30
0.0
 10
-31.25216653125418
 20
44.40456501673084
 30
0.0
 10
-31.2518580821084
 20
44.86102904361941
 30
0.0
 10
-31.2745290629417
 20
45.09284653870792
 30
0.0
 10
-31.36371943738836
 20
45.54171383604969
 30
0.0
 10
-31.42972915626685
 20
45.75987974823035
 30
0.0
 10
-31.60481173835583
 20
46.18360758734221
 30
0.0
 10
-31.71434741716861
 20
46.388617169821
 30
0.0
 10
-31.96756778462828
 20
46.76797267899698
 30
0.0
 10
-32.11212414915665
 20
46.9447814471001
 30
0.0
 10
-32.43852439036976
 20
47.27166056495514
 30
0.0
 10
-32.61563714832128
 20
47.41686623336383
 30
0.0
 10
-32.99453650534834
 20
47.67049649801255
 30
0.0
 10
-33.19894319231587
 20
47.78010630106665
 30
0.0
 10
-33.62301507643251
 20
47.95601474353501
 30
0.0
 10
-33.84114566680307
 20
48.02228149469108
 30
0.0
 10
-34.28944349905305
 20
48.1119832360753
 30
0.0
 10
-34.52080584236539
 20
48.13516210540597
 30
0.0
 10
-34.98321717283015
 20
48.13516210540595
 30
0.0
 10
-35.21055958261577
 20
48.11247749002456
 30
0.0
 10
-35.65783389190224
 20
48.02359454966403
 30
0.0
 10
-35.88008096504925
 20
47.95631849247266
 30
0.0
 10
-36.30390901749925
 20
47.78067232903421
 30
0.0
 10
-36.5049263587176
 20
47.67318684484158
 30
0.0
 10
-36.88536347652138
 20
47.41924439035895
 30
0.0
 10
-37.06549277845106
 20
47.27143389926096
 30
0.0
 10
-37.38836350948604
 20
46.94855197393314
 30
0.0
 10
-37.53324618598808
 20
46.77237582385403
 30
0.0
 10
-37.78911778213212
 20
46.38985133481027
 30
0.0
 10
-37.89786338648615
 20
46.18615075717678
 30
0.0
 10
-38.07244639925855
 20
45.76505677840327
 30
0.0
 10
-38.13963932936915
 20
45.54456752668835
 30
0.0
 10
-38.22959454775132
 20
45.09282647799068
 30
0.0
 10
-38.25185648394136
 20
44.86575919408109
 30
0.0
 10
-38.25216493308714
 20
44.40929516719249
 30
0.0
 10
-38.22949395225361
 20
44.17747767210397
 30
0.0
 10
-38.14030357780717
 20
43.72861037476223
 30
0.0
 10
-38.07429385892846
 20
43.51044446258155
 30
0.0
 10
-37.89921127683948
 20
43.08671662346971
 30
0.0
 10
-37.78967559802737
 20
42.88170704099051
 30
0.0
 10
-37.53645523056748
 20
42.50235153181453
 30
0.0
 10
-37.39189886603911
 20
42.32554276371147
 30
0.0
 10
-37.065498624826
 20
41.99866364585642
 30
0.0
 10
-36.88838586687426
 20
41.85345797744808
 30
0.0
 10
-36.50948650984698
 20
41.59982771279935
 30
0.0
 10
-36.30507982287967
 20
41.49021790974525
 30
0.0
 10
-35.88100793876303
 20
41.31430946727689
 30
0.0
 10
-35.66287734839246
 20
41.24804271612086
 30
0.0
 10
-35.21457951614227
 20
41.15834097473663
 30
0.0
 10
-34.98321717283015
 20
41.13516210540598
 30
0.0
 10
-34.75201150759777
 20
41.13516210540597
 30
0.0
  0
SPLINE
  5
159
330
1F
100
AcDbEntity
  8
0
  6
Continuous
 62
     7
370
    15
100
AcDbSpline
210
0.0
220
0.0
230
1.0
 70
    24
 71
     3
 72
     8
 73
     4
 74
     0
 42
0.000000001
 43
0.00000001
 40
0.0
 40
0.0
 40
0.0
 40
0.0
 40
1.0
 40
1.0
 40
1.0
 40
1.0
 10
-34.12701150759779
 20
44.01016210540597
 30
0.0
 10
-34.12701150759779
 20
43.35091684530133
 30
0.0
 10
-34.12701150759779
 20
42.72591684530135
 30
0.0
 10
-34.12701150759779
 20
42.13516210540597
 30
0.0
  0
SPLINE
  5
15A
330
1F
100
AcDbEntity
  8
0
  6
Continuous
 62
     7
370
    15
100
AcDbSpline
210
0.0
220
0.0
230
1.0
 70
    24
 71
     3
 72
     8
 73
     4
 74
     0
 42
0.000000001
 43
0.00000001
 40
0.0
 40
0.0
 40
0.0
 40
0.0
 40
1.0
 40
1.0
 40
1.0
 40
1.0
 10
-35.37701150759776
 20
42.13516210540597
 30
0.0
 10
-35.37701150759776
 20
42.72591684530136
 30
0.0
 10
-35.37701150759776
 20
43.35091684530133
 30
0.0
 10
-35.37701150759776
 20
44.01016210540597
 30
0.0
  0
SPLINE
  5
15B
330
1F
100
AcDbEntity
  8
0
  6
Continuous
 62
     7
370
    15
100
AcDbSpline
210
0.0
220
0.0
230
1.0
 70
    24
 71
     3
 72
     8
 73
     4
 74
     0
 42
0.000000001
 43
0.00000001
 40
0.0
 40
0.0
 40
0.0
 40
0.0
 40
1.0
 40
1.0
 40
1.0
 40
1.0
 10
-34.12701150759779
 20
47.13516210540597
 30
0.0
 10
-34.12701150759779
 20
46.54440736551058
 30
0.0
 10
-34.12701150759779
 20
45.91940736551061
 30
0.0
 10
-34.12701150759779
 20
45.26016210540597
 30
0.0
  0
SPLINE
  5
15C
330
1F
100
AcDbEntity
  8
0
  6
Continuous
 62
     7
370
    15
100
AcDbSpline
210
0.0
220
0.0
230
1.0
 70
    24
 71
     3
 72
     8
 73
     4
 74
     0
 42
0.000000001
 43
0.00000001
 40
0.0
 40
0.0
 40
0.0
 40
0.0
 40
1.0
 40
1.0
 40
1.0
 40
1.0
 10
-35.37701150759776
 20
45.26016210540597
 30
0.0
 10
-35.37701150759776
 20
45.91940736551061
 30
0.0
 10
-35.37701150759776
 20
46.54440736551059
 30
0.0
 10
-35.37701150759776
 20
47.13516210540597
 30
0.0
  0
CIRCLE
  5
15D
330
1F
100
AcDbEntity
  8
0
  6
Continuous
 62
     7
370
    15
100
AcDbCircle
 10
-34.7520115076
 20
44.6351621054
 30
0.0
 40
5.499999999999964
  0
LINE
  5
178
330
1F
100
AcDbEntity
  8
0
  6
Continuous
 62
     7
370
    15
100
AcDbLine
 10
84.0
 20
-17.0
 30
0.0
 11
1384.0
 21
-17.0
 31
0.0
  0
LINE
  5
179
330
1F
100
AcDbEntity
  8
0
  6
Continuous
 62
     7
370
    15
100
AcDbLine
 10
1384.0
 20
17.0
 30
0.0
 11
84.0
 21
17.0
 31
0.0
  0
LINE
  5
17A
330
1F
100
AcDbEntity
  8
0
  6
Continuous
 62
     7
370
    15
100
AcDbLine
 10
1554.0
 20
-17.0
 30
0.0
 11
2854.0
 21
-17.0
 31
0.0
  0
LINE
  5
17B
330
1F
100
AcDbEntity
  8
0
  6
Continuous
 62
     7
370
    15
100
AcDbLine
 10
2854.0
 20
17.0
 30
0.0
 11
1554.0
 21
17.0
 31
0.0
  0
LINE
  5
17C
330
1F
100
AcDbEntity
  8
0
  6
Continuous
 62
     7
370
    15
100
AcDbLine
 10
1568.2785119025
 20
-12.95
 30
0.0
 11
1568.5895002101
 21
-12.95
 31
0.0
  0
LINE
  5
17D
330
1F
100
AcDbEntity
  8
0
  6
Continuous
 62
     7
370
    15
100
AcDbLine
 10
1568.5895002101
 20
12.95
 30
0.0
 11
1568.2785119025
 21
12.95
 31
0.0
  0
LINE
  5
17E
330
1F
100
AcDbEntity
  8
0
  6
Continuous
 62
     7
370
    15
100
AcDbLine
 10
1554.0
 20
-16.25
 30
0.0
 11
1564.0
 21
-16.25
 31
0.0
  0
LINE
  5
17F
330
1F
100
AcDbEntity
  8
0
  6
Continuous
 62
     7
370
    15
100
AcDbLine
 10
1564.0
 20
16.25
 30
0.0
 11
1554.0
 21
16.25
 31
0.0
  0
LINE
  5
180
330
1F
100
AcDbEntity
  8
0
  6
Continuous
 62
     7
370
    15
100
AcDbLine
 10
1369.7214880975
 20
12.95
 30
0.0
 11
1369.4104997899
 21
12.95
 31
0.0
  0
LINE
  5
181
330
1F
100
AcDbEntity
  8
0
  6
Continuous
 62
     7
370
    15
100
AcDbLine
 10
1369.4104997899
 20
-12.95
 30
0.0
 11
1369.7214880975
 21
-12.95
 31
0.0
  0
LINE
  5
182
330
1F
100
AcDbEntity
  8
0
  6
Continuous
 62
     7
370
    15
100
AcDbLine
 10
1384.0
 20
16.25
 30
0.0
 11
1374.0
 21
16.25
 31
0.0
  0
LINE
  5
183
330
1F
100
AcDbEntity
  8
0
  6
Continuous
 62
     7
370
    15
100
AcDbLine
 10
1374.0
 20
-16.25
 30
0.0
 11
1384.0
 21
-16.25
 31
0.0
  0
LINE
  5
184
330
1F
100
AcDbEntity
  8
0
  6
Continuous
 62
     7
370
    15
100
AcDbLine
 10
98.2785119025
 20
-12.95
 30
0.0
 11
98.5895002101
 21
-12.95
 31
0.0
  0
LINE
  5
185
330
1F
100
AcDbEntity
  8
0
  6
Continuous
 62
     7
370
    15
100
AcDbLine
 10
98.5895002101
 20
12.95
 30
0.0
 11
98.2785119025
 21
12.95
 31
0.0
  0
LINE
  5
186
330
1F
100
AcDbEntity
  8
0
  6
Continuous
 62
     7
370
    15
100
AcDbLine
 10
84.0
 20
-16.25
 30
0.0
 11
94.0
 21
-16.25
 31
0.0
  0
LINE
  5
187
330
1F
100
AcDbEntity
  8
0
  6
Continuous
 62
     7
370
    15
100
AcDbLine
 10
94.0
 20
16.25
 30
0.0
 11
84.0
 21
16.25
 31
0.0
  0
LINE
  5
188
330
1F
100
AcDbEntity
  8
0
  6
Continuous
 62
     7
370
    15
100
AcDbLine
 10
2839.7214880975
 20
12.95
 30
0.0
 11
2839.4104997899
 21
12.95
 31
0.0
  0
LINE
  5
189
330
1F
100
AcDbEntity
  8
0
  6
Continuous
 62
     7
370
    15
100
AcDbLine
 10
2839.4104997899
 20
-12.95
 30
0.0
 11
2839.7214880975
 21
-12.95
 31
0.0
  0
LINE
  5
18A
330
1F
100
AcDbEntity
  8
0
  6
Continuous
 62
     7
370
    15
100
AcDbLine
 10
2854.0
 20
16.25
 30
0.0
 11
2844.0
 21
16.25
 31
0.0
  0
LINE
  5
18B
330
1F
100
AcDbEntity
  8
0
  6
Continuous
 62
     7
370
    15
100
AcDbLine
 10
2844.0
 20
-16.25
 30
0.0
 11
2854.0
 21
-16.25
 31
0.0
  0
LINE
  5
18C
330
1F
100
AcDbEntity
  8
0
  6
Continuous
 62
     7
370
    15
100
AcDbLine
 10
1384.0
 20
-22.0
 30
0.0
 11
1384.0
 21
22.0
 31
0.0
  0
LINE
  5
18D
330
1F
100
AcDbEntity
  8
0
  6
Continuous
 62
     7
370
    15
100
AcDbLine
 10
1387.8964068996
 20
22.0
 30
0.0
 11
1384.0
 21
22.0
 31
0.0
  0
LINE
  5
18E
330
1F
100
AcDbEntity
  8
0
  6
Continuous
 62
     7
370
    15
100
AcDbLine
 10
1384.0
 20
-22.0
 30
0.0
 11
1387.8964068996
 21
-22.0
 31
0.0
  0
LINE
  5
18F
330
1F
100
AcDbEntity
  8
0
  6
Continuous
 62
     7
370
    15
100
AcDbLine
 10
84.0
 20
22.0
 30
0.0
 11
82.1035931004
 21
22.0
 31
0.0
  0
LINE
  5
190
330
1F
100
AcDbEntity
  8
0
  6
Continuous
 62
     7
370
    15
100
AcDbLine
 10
84.0
 20
13.0
 30
0.0
 11
84.0
 21
22.0
 31
0.0
  0
LINE
  5
191
330
1F
100
AcDbEntity
  8
0
  6
Continuous
 62
     7
370
    15
100
AcDbLine
 10
84.0
 20
-22.0
 30
0.0
 11
84.0
 21
-13.0
 31
0.0
  0
LINE
  5
192
330
1F
100
AcDbEntity
  8
0
  6
Continuous
 62
     7
370
    15
100
AcDbLine
 10
82.1035931004
 20
-22.0
 30
0.0
 11
84.0
 21
-22.0
 31
0.0
  0
LINE
  5
193
330
1F
100
AcDbEntity
  8
0
  6
Continuous
 62
     7
370
    15
100
AcDbLine
 10
2854.0
 20
-22.0
 30
0.0
 11
2854.0
 21
22.0
 31
0.0
  0
LINE
  5
194
330
1F
100
AcDbEntity
  8
0
  6
Continuous
 62
     7
370
    15
100
AcDbLine
 10
2857.8964068996
 20
22.0
 30
0.0
 11
2854.0
 21
22.0
 31
0.0
  0
LINE
  5
195
330
1F
100
AcDbEntity
  8
0
  6
Continuous
 62
     7
370
    15
100
AcDbLine
 10
2854.0
 20
-22.0
 30
0.0
 11
2857.8964068996
 21
-22.0
 31
0.0
  0
LINE
  5
196
330
1F
100
AcDbEntity
  8
0
  6
Continuous
 62
     7
370
    15
100
AcDbLine
 10
1554.0
 20
22.0
 30
0.0
 11
1552.1035931004
 21
22.0
 31
0.0
  0
LINE
  5
197
330
1F
100
AcDbEntity
  8
0
  6
Continuous
 62
     7
370
    15
100
AcDbLine
 10
1554.0
 20
13.0
 30
0.0
 11
1554.0
 21
22.0
 31
0.0
  0
LINE
  5
198
330
1F
100
AcDbEntity
  8
0
  6
Continuous
 62
     7
370
    15
100
AcDbLine
 10
1554.0
 20
-22.0
 30
0.0
 11
1554.0
 21
-13.0
 31
0.0
  0
LINE
  5
199
330
1F
100
AcDbEntity
  8
0
  6
Continuous
 62
     7
370
    15
100
AcDbLine
 10
1552.1035931004
 20
-22.0
 30
0.0
 11
1554.0
 21
-22.0
 31
0.0
  0
LINE
  5
19A
330
1F
100
AcDbEntity
  8
0
  6
Continuous
 62
     7
370
    15
100
AcDbLine
 10
1568.5895002101
 20
-12.9499992397
 30
0.0
 11
1568.5895002101
 21
12.9499998464
 31
0.0
  0
LINE
  5
19B
330
1F
100
AcDbEntity
  8
0
  6
Continuous
 62
     7
370
    15
100
AcDbLine
 10
1564.0
 20
-16.2499999946
 30
0.0
 11
1564.0
 21
16.2499999966
 31
0.0
  0
LINE
  5
19C
330
1F
100
AcDbEntity
  8
0
  6
Continuous
 62
     7
370
    15
100
AcDbLine
 10
1568.2785119025
 20
-13.2499998003
 30
0.0
 11
1568.2785119025
 21
13.2499997478
 31
0.0
  0
LINE
  5
19D
330
1F
100
AcDbEntity
  8
0
  6
Continuous
 62
     7
370
    15
100
AcDbLine
 10
-44.0101621054
 20
-34.1270115076
 30
0.0
 11
-42.1351621054
 21
-34.1270115076
 31
0.0
  0
LINE
  5
19E
330
1F
100
AcDbEntity
  8
0
  6
Continuous
 62
     7
370
    15
100
AcDbLine
 10
-45.2601621054
 20
-32.2520115076
 30
0.0
 11
-44.0101621054
 21
-32.2520115076
 31
0.0
  0
LINE
  5
19F
330
1F
100
AcDbEntity
  8
0
  6
Continuous
 62
     7
370
    15
100
AcDbLine
 10
-47.1351621054
 20
-34.1270115076
 30
0.0
 11
-45.2601621054
 21
-34.1270115076
 31
0.0
  0
LINE
  5
1A0
330
1F
100
AcDbEntity
  8
0
  6
Continuous
 62
     7
370
    15
100
AcDbLine
 10
-45.2601621054
 20
-35.3770115076
 30
0.0
 11
-47.1351621054
 21
-35.3770115076
 31
0.0
  0
LINE
  5
1A1
330
1F
100
AcDbEntity
  8
0
  6
Continuous
 62
     7
370
    15
100
AcDbLine
 10
-44.0101621054
 20
-37.2520115076
 30
0.0
 11
-45.2601621054
 21
-37.2520115076
 31
0.0
  0
LINE
  5
1A2
330
1F
100
AcDbEntity
  8
0
  6
Continuous
 62
     7
370
    15
100
AcDbLine
 10
-42.1351621054
 20
-35.3770115076
 30
0.0
 11
-44.0101621054
 21
-35.3770115076
 31
0.0
  0
LINE
  5
1A3
330
1F
100
AcDbEntity
  8
0
  6
Continuous
 62
     7
370
    15
100
AcDbLine
 10
45.2601621054
 20
35.3770115076
 30
0.0
 11
47.1351621054
 21
35.3770115076
 31
0.0
  0
LINE
  5
1A4
330
1F
100
AcDbEntity
  8
0
  6
Continuous
 62
     7
370
    15
100
AcDbLine
 10
44.0101621054
 20
37.2520115076
 30
0.0
 11
45.2601621054
 21
37.2520115076
 31
0.0
  0
LINE
  5
1A5
330
1F
100
AcDbEntity
  8
0
  6
Continuous
 62
     7
370
    15
100
AcDbLine
 10
42.1351621054
 20
35.3770115076
 30
0.0
 11
44.0101621054
 21
35.3770115076
 31
0.0
  0
LINE
  5
1A6
330
1F
100
AcDbEntity
  8
0
  6
Continuous
 62
     7
370
    15
100
AcDbLine
 10
44.0101621054
 20
34.1270115076
 30
0.0
 11
42.1351621054
 21
34.1270115076
 31
0.0
  0
LINE
  5
1A7
330
1F
100
AcDbEntity
  8
0
  6
Continuous
 62
     7
370
    15
100
AcDbLine
 10
45.2601621054
 20
32.2520115076
 30
0.0
 11
44.0101621054
 21
32.2520115076
 31
0.0
  0
LINE
  5
1A8
330
1F
100
AcDbEntity
  8
0
  6
Continuous
 62
     7
370
    15
100
AcDbLine
 10
47.1351621054
 20
34.1270115076
 30
0.0
 11
45.2601621054
 21
34.1270115076
 31
0.0
  0
LINE
  5
1A9
330
1F
100
AcDbEntity
  8
0
  6
Continuous
 62
     7
370
    15
100
AcDbLine
 10
35.3770115076
 20
-44.0101621054
 30
0.0
 11
37.2520115076
 21
-44.0101621054
 31
0.0
  0
LINE
  5
1AA
330
1F
100
AcDbEntity
  8
0
  6
Continuous
 62
     7
370
    15
100
AcDbLine
 10
34.1270115076
 20
-42.1351621054
 30
0.0
 11
35.3770115076
 21
-42.1351621054
 31
0.0
  0
LINE
  5
1AB
330
1F
100
AcDbEntity
  8
0
  6
Continuous
 62
     7
370
    15
100
AcDbLine
 10
32.2520115076
 20
-44.0101621054
 30
0.0
 11
34.1270115076
 21
-44.0101621054
 31
0.0
  0
LINE
  5
1AC
330
1F
100
AcDbEntity
  8
0
  6
Continuous
 62
     7
370
    15
100
AcDbLine
 10
34.1270115076
 20
-45.2601621054
 30
0.0
 11
32.2520115076
 21
-45.2601621054
 31
0.0
  0
LINE
  5
1AD
330
1F
100
AcDbEntity
  8
0
  6
Continuous
 62
     7
370
    15
100
AcDbLine
 10
35.3770115076
 20
-47.1351621054
 30
0.0
 11
34.1270115076
 21
-47.1351621054
 31
0.0
  0
LINE
  5
1AE
330
1F
100
AcDbEntity
  8
0
  6
Continuous
 62
     7
370
    15
100
AcDbLine
 10
37.2520115076
 20
-45.2601621054
 30
0.0
 11
35.3770115076
 21
-45.2601621054
 31
0.0
  0
LINE
  5
1AF
330
1F
100
AcDbEntity
  8
0
  6
Continuous
 62
     7
370
    15
100
AcDbLine
 10
-1580.0
 20
-80.0
 30
0.0
 11
-1580.0
 21
80.0
 31
0.0
  0
LINE
  5
1B0
330
1F
100
AcDbEntity
  8
0
  6
Continuous
 62
     7
370
    15
100
AcDbLine
 10
-80.0
 20
1580.0
 30
0.0
 11
3020.0
 21
1580.0
 31
0.0
  0
LINE
  5
1B1
330
1F
100
AcDbEntity
  8
0
  6
Continuous
 62
     7
370
    15
100
AcDbLine
 10
3020.0
 20
-1580.0
 30
0.0
 11
-80.0
 21
-1580.0
 31
0.0
  0
LINE
  5
1B2
330
1F
100
AcDbEntity
  8
0
  6
Continuous
 62
     7
370
    15
100
AcDbLine
 10
4520.0
 20
80.0
 30
0.0
 11
4520.0
 21
-80.0
 31
0.0
  0
LINE
  5
1B3
330
1F
100
AcDbEntity
  8
0
  6
Continuous
 62
     7
370
    15
100
AcDbLine
 10
1424.9281846169
 20
-35.6175792462
 30
0.0
 11
1423.0531846169
 21
-35.6175792462
 31
0.0
  0
LINE
  5
1B4
330
1F
100
AcDbEntity
  8
0
  6
Continuous
 62
     7
370
    15
100
AcDbLine
 10
1426.1781846169
 20
-37.4925792462
 30
0.0
 11
1424.9281846169
 21
-37.4925792462
 31
0.0
  0
LINE
  5
1B5
330
1F
100
AcDbEntity
  8
0
  6
Continuous
 62
     7
370
    15
100
AcDbLine
 10
1428.0531846169
 20
-35.6175792462
 30
0.0
 11
1426.1781846169
 21
-35.6175792462
 31
0.0
  0
LINE
  5
1B6
330
1F
100
AcDbEntity
  8
0
  6
Continuous
 62
     7
370
    15
100
AcDbLine
 10
1426.1781846169
 20
-34.3675792462
 30
0.0
 11
1428.0531846169
 21
-34.3675792462
 31
0.0
  0
LINE
  5
1B7
330
1F
100
AcDbEntity
  8
0
  6
Continuous
 62
     7
370
    15
100
AcDbLine
 10
1424.9281846169
 20
-32.4925792462
 30
0.0
 11
1426.1781846169
 21
-32.4925792462
 31
0.0
  0
LINE
  5
1B8
330
1F
100
AcDbEntity
  8
0
  6
Continuous
 62
     7
370
    15
100
AcDbLine
 10
1423.0531846169
 20
-34.3675792462
 30
0.0
 11
1424.9281846169
 21
-34.3675792462
 31
0.0
  0
LINE
  5
1B9
330
1F
100
AcDbEntity
  8
0
  6
Continuous
 62
     7
370
    15
100
AcDbLine
 10
1434.3824207538
 20
43.8218153831
 30
0.0
 11
1432.5074207538
 21
43.8218153831
 31
0.0
  0
LINE
  5
1BA
330
1F
100
AcDbEntity
  8
0
  6
Continuous
 62
     7
370
    15
100
AcDbLine
 10
1435.6324207538
 20
41.9468153831
 30
0.0
 11
1434.3824207538
 21
41.9468153831
 31
0.0
  0
LINE
  5
1BB
330
1F
100
AcDbEntity
  8
0
  6
Continuous
 62
     7
370
    15
100
AcDbLine
 10
1437.5074207538
 20
43.8218153831
 30
0.0
 11
1435.6324207538
 21
43.8218153831
 31
0.0
  0
LINE
  5
1BC
330
1F
100
AcDbEntity
  8
0
  6
Continuous
 62
     7
370
    15
100
AcDbLine
 10
1435.6324207538
 20
45.0718153831
 30
0.0
 11
1437.5074207538
 21
45.0718153831
 31
0.0
  0
LINE
  5
1BD
330
1F
100
AcDbEntity
  8
0
  6
Continuous
 62
     7
370
    15
100
AcDbLine
 10
1434.3824207538
 20
46.9468153831
 30
0.0
 11
1435.6324207538
 21
46.9468153831
 31
0.0
  0
LINE
  5
1BE
330
1F
100
AcDbEntity
  8
0
  6
Continuous
 62
     7
370
    15
100
AcDbLine
 10
1432.5074207538
 20
45.0718153831
 30
0.0
 11
1434.3824207538
 21
45.0718153831
 31
0.0
  0
LINE
  5
1BF
330
1F
100
AcDbEntity
  8
0
  6
Continuous
 62
     7
370
    15
100
AcDbLine
 10
1513.8218153831
 20
34.3675792462
 30
0.0
 11
1511.9468153831
 21
34.3675792462
 31
0.0
  0
LINE
  5
1C0
330
1F
100
AcDbEntity
  8
0
  6
Continuous
 62
     7
370
    15
100
AcDbLine
 10
1515.0718153831
 20
32.4925792462
 30
0.0
 11
1513.8218153831
 21
32.4925792462
 31
0.0
  0
LINE
  5
1C1
330
1F
100
AcDbEntity
  8
0
  6
Continuous
 62
     7
370
    15
100
AcDbLine
 10
1516.9468153831
 20
34.3675792462
 30
0.0
 11
1515.0718153831
 21
34.3675792462
 31
0.0
  0
LINE
  5
1C2
330
1F
100
AcDbEntity
  8
0
  6
Continuous
 62
     7
370
    15
100
AcDbLine
 10
1515.0718153831
 20
35.6175792462
 30
0.0
 11
1516.9468153831
 21
35.6175792462
 31
0.0
  0
LINE
  5
1C3
330
1F
100
AcDbEntity
  8
0
  6
Continuous
 62
     7
370
    15
100
AcDbLine
 10
1513.8218153831
 20
37.4925792462
 30
0.0
 11
1515.0718153831
 21
37.4925792462
 31
0.0
  0
LINE
  5
1C4
330
1F
100
AcDbEntity
  8
0
  6
Continuous
 62
     7
370
    15
100
AcDbLine
 10
1511.9468153831
 20
35.6175792462
 30
0.0
 11
1513.8218153831
 21
35.6175792462
 31
0.0
  0
LINE
  5
1C5
330
1F
100
AcDbEntity
  8
0
  6
Continuous
 62
     7
370
    15
100
AcDbLine
 10
1504.3675792462
 20
-45.0718153831
 30
0.0
 11
1502.4925792462
 21
-45.0718153831
 31
0.0
  0
LINE
  5
1C6
330
1F
100
AcDbEntity
  8
0
  6
Continuous
 62
     7
370
    15
100
AcDbLine
 10
1505.6175792462
 20
-46.9468153831
 30
0.0
 11
1504.3675792462
 21
-46.9468153831
 31
0.0
  0
LINE
  5
1C7
330
1F
100
AcDbEntity
  8
0
  6
Continuous
 62
     7
370
    15
100
AcDbLine
 10
1507.4925792462
 20
-45.0718153831
 30
0.0
 11
1505.6175792462
 21
-45.0718153831
 31
0.0
  0
LINE
  5
1C8
330
1F
100
AcDbEntity
  8
0
  6
Continuous
 62
     7
370
    15
100
AcDbLine
 10
1505.6175792462
 20
-43.8218153831
 30
0.0
 11
1507.4925792462
 21
-43.8218153831
 31
0.0
  0
LINE
  5
1C9
330
1F
100
AcDbEntity
  8
0
  6
Continuous
 62
     7
370
    15
100
AcDbLine
 10
1504.3675792462
 20
-41.9468153831
 30
0.0
 11
1505.6175792462
 21
-41.9468153831
 31
0.0
  0
LINE
  5
1CA
330
1F
100
AcDbEntity
  8
0
  6
Continuous
 62
     7
370
    15
100
AcDbLine
 10
1502.4925792462
 20
-43.8218153831
 30
0.0
 11
1504.3675792462
 21
-43.8218153831
 31
0.0
  0
LINE
  5
1CB
330
1F
100
AcDbEntity
  8
0
  6
Continuous
 62
     7
370
    15
100
AcDbLine
 10
2902.6018028176
 20
42.3602529245
 30
0.0
 11
2900.7268028176
 21
42.3602529245
 31
0.0
  0
LINE
  5
1CC
330
1F
100
AcDbEntity
  8
0
  6
Continuous
 62
     7
370
    15
100
AcDbLine
 10
2903.8518028176
 20
40.4852529245
 30
0.0
 11
2902.6018028176
 21
40.4852529245
 31
0.0
  0
LINE
  5
1CD
330
1F
100
AcDbEntity
  8
0
  6
Continuous
 62
     7
370
    15
100
AcDbLine
 10
2905.7268028176
 20
42.3602529245
 30
0.0
 11
2903.8518028176
 21
42.3602529245
 31
0.0
  0
LINE
  5
1CE
330
1F
100
AcDbEntity
  8
0
  6
Continuous
 62
     7
370
    15
100
AcDbLine
 10
2903.8518028176
 20
43.6102529245
 30
0.0
 11
2905.7268028176
 21
43.6102529245
 31
0.0
  0
LINE
  5
1CF
330
1F
100
AcDbEntity
  8
0
  6
Continuous
 62
     7
370
    15
100
AcDbLine
 10
2902.6018028176
 20
45.4852529245
 30
0.0
 11
2903.8518028176
 21
45.4852529245
 31
0.0
  0
LINE
  5
1D0
330
1F
100
AcDbEntity
  8
0
  6
Continuous
 62
     7
370
    15
100
AcDbLine
 10
2900.7268028176
 20
43.6102529245
 30
0.0
 11
2902.6018028176
 21
43.6102529245
 31
0.0
  0
LINE
  5
1D1
330
1F
100
AcDbEntity
  8
0
  6
Continuous
 62
     7
370
    15
100
AcDbLine
 10
2982.3602529245
 20
36.1481971824
 30
0.0
 11
2980.4852529245
 21
36.1481971824
 31
0.0
  0
LINE
  5
1D2
330
1F
100
AcDbEntity
  8
0
  6
Continuous
 62
     7
370
    15
100
AcDbLine
 10
2983.6102529245
 20
34.2731971824
 30
0.0
 11
2982.3602529245
 21
34.2731971824
 31
0.0
  0
LINE
  5
1D3
330
1F
100
AcDbEntity
  8
0
  6
Continuous
 62
     7
370
    15
100
AcDbLine
 10
2985.4852529245
 20
36.1481971824
 30
0.0
 11
2983.6102529245
 21
36.1481971824
 31
0.0
  0
LINE
  5
1D4
330
1F
100
AcDbEntity
  8
0
  6
Continuous
 62
     7
370
    15
100
AcDbLine
 10
2983.6102529245
 20
37.3981971824
 30
0.0
 11
2985.4852529245
 21
37.3981971824
 31
0.0
  0
LINE
  5
1D5
330
1F
100
AcDbEntity
  8
0
  6
Continuous
 62
     7
370
    15
100
AcDbLine
 10
2982.3602529245
 20
39.2731971824
 30
0.0
 11
2983.6102529245
 21
39.2731971824
 31
0.0
  0
LINE
  5
1D6
330
1F
100
AcDbEntity
  8
0
  6
Continuous
 62
     7
370
    15
100
AcDbLine
 10
2980.4852529245
 20
37.3981971824
 30
0.0
 11
2982.3602529245
 21
37.3981971824
 31
0.0
  0
LINE
  5
1D7
330
1F
100
AcDbEntity
  8
0
  6
Continuous
 62
     7
370
    15
100
AcDbLine
 10
2975.934939579
 20
-42.7049420428
 30
0.0
 11
2975.0980194965
 21
-41.0270893152
 31
0.0
  0
LINE
  5
1D8
330
1F
100
AcDbEntity
  8
0
  6
Continuous
 62
     7
370
    15
100
AcDbLine
 10
2974.8150335731
 20
-44.6604306104
 30
0.0
 11
2974.2570868514
 21
-43.5418621253
 31
0.0
  0
LINE
  5
1D9
330
1F
100
AcDbEntity
  8
0
  6
Continuous
 62
     7
370
    15
100
AcDbLine
 10
2977.3298063832
 20
-45.5013632555
 30
0.0
 11
2976.4928863007
 21
-43.8235105279
 31
0.0
  0
LINE
  5
1DA
330
1F
100
AcDbEntity
  8
0
  6
Continuous
 62
     7
370
    15
100
AcDbLine
 10
2977.6114547857
 20
-43.2655638062
 30
0.0
 11
2978.4483748682
 21
-44.9434165338
 31
0.0
  0
LINE
  5
1DB
330
1F
100
AcDbEntity
  8
0
  6
Continuous
 62
     7
370
    15
100
AcDbLine
 10
2978.7313607917
 20
-41.3100752387
 30
0.0
 11
2979.2893075133
 21
-42.4286437237
 31
0.0
  0
LINE
  5
1DC
330
1F
100
AcDbEntity
  8
0
  6
Continuous
 62
     7
370
    15
100
AcDbLine
 10
2976.2165879816
 20
-40.4691425936
 30
0.0
 11
2977.0535080641
 21
-42.1469953212
 31
0.0
  0
LINE
  5
1DD
330
1F
100
AcDbEntity
  8
0
  6
Continuous
 62
     7
370
    15
100
AcDbLine
 10
2896.3897470755
 20
-37.3981971824
 30
0.0
 11
2894.5147470755
 21
-37.3981971824
 31
0.0
  0
LINE
  5
1DE
330
1F
100
AcDbEntity
  8
0
  6
Continuous
 62
     7
370
    15
100
AcDbLine
 10
2897.6397470755
 20
-39.2731971824
 30
0.0
 11
2896.3897470755
 21
-39.2731971824
 31
0.0
  0
LINE
  5
1DF
330
1F
100
AcDbEntity
  8
0
  6
Continuous
 62
     7
370
    15
100
AcDbLine
 10
2899.5147470755
 20
-37.3981971824
 30
0.0
 11
2897.6397470755
 21
-37.3981971824
 31
0.0
  0
LINE
  5
1E0
330
1F
100
AcDbEntity
  8
0
  6
Continuous
 62
     7
370
    15
100
AcDbLine
 10
2897.6397470755
 20
-36.1481971824
 30
0.0
 11
2899.5147470755
 21
-36.1481971824
 31
0.0
  0
LINE
  5
1E1
330
1F
100
AcDbEntity
  8
0
  6
Continuous
 62
     7
370
    15
100
AcDbLine
 10
2896.3897470755
 20
-34.2731971824
 30
0.0
 11
2897.6397470755
 21
-34.2731971824
 31
0.0
  0
LINE
  5
1E2
330
1F
100
AcDbEntity
  8
0
  6
Continuous
 62
     7
370
    15
100
AcDbLine
 10
2894.5147470755
 20
-36.1481971824
 30
0.0
 11
2896.3897470755
 21
-36.1481971824
 31
0.0
  0
LINE
  5
1E3
330
1F
100
AcDbEntity
  8
0
  6
Continuous
 62
     7
370
    15
100
AcDbLine
 10
-34.1270115076
 20
45.2601621054
 30
0.0
 11
-32.2520115076
 21
45.2601621054
 31
0.0
  0
LINE
  5
1E4
330
1F
100
AcDbEntity
  8
0
  6
Continuous
 62
     7
370
    15
100
AcDbLine
 10
-35.3770115076
 20
47.1351621054
 30
0.0
 11
-34.1270115076
 21
47.1351621054
 31
0.0
  0
LINE
  5
1E5
330
1F
100
AcDbEntity
  8
0
  6
Continuous
 62
     7
370
    15
100
AcDbLine
 10
-37.2520115076
 20
45.2601621054
 30
0.0
 11
-35.3770115076
 21
45.2601621054
 31
0.0
  0
LINE
  5
1E6
330
1F
100
AcDbEntity
  8
0
  6
Continuous
 62
     7
370
    15
100
AcDbLine
 10
-35.3770115076
 20
44.0101621054
 30
0.0
 11
-37.2520115076
 21
44.0101621054
 31
0.0
  0
LINE
  5
1E7
330
1F
100
AcDbEntity
  8
0
  6
Continuous
 62
     7
370
    15
100
AcDbLine
 10
-34.1270115076
 20
42.1351621054
 30
0.0
 11
-35.3770115076
 21
42.1351621054
 31
0.0
  0
LINE
  5
1E8
330
1F
100
AcDbEntity
  8
0
  6
Continuous
 62
     7
370
    15
100
AcDbLine
 10
-32.2520115076
 20
44.0101621054
 30
0.0
 11
-34.1270115076
 21
44.0101621054
 31
0.0
  0
LINE
  5
1E9
330
1F
100
AcDbEntity
  8
0
  6
Continuous
 62
     7
370
    15
100
AcDbLine
 10
1369.4104997899
 20
12.949999599
 30
0.0
 11
1369.4104997899
 21
-12.9499998357
 31
0.0
  0
LINE
  5
1EA
330
1F
100
AcDbEntity
  8
0
  6
Continuous
 62
     7
370
    15
100
AcDbLine
 10
1374.0
 20
16.249999993
 30
0.0
 11
1374.0
 21
-16.2499999993
 31
0.0
  0
LINE
  5
1EB
330
1F
100
AcDbEntity
  8
0
  6
Continuous
 62
     7
370
    15
100
AcDbLine
 10
1369.7214880975
 20
13.249999754
 30
0.0
 11
1369.7214880975
 21
-13.2499997823
 31
0.0
  0
LINE
  5
1EC
330
1F
100
AcDbEntity
  8
0
  6
Continuous
 62
     7
370
    15
100
AcDbLine
 10
98.5895002101
 20
-12.9499992397
 30
0.0
 11
98.5895002101
 21
12.9499998464
 31
0.0
  0
LINE
  5
1ED
330
1F
100
AcDbEntity
  8
0
  6
Continuous
 62
     7
370
    15
100
AcDbLine
 10
94.0
 20
-16.2499999946
 30
0.0
 11
94.0
 21
16.2499999966
 31
0.0
  0
LINE
  5
1EE
330
1F
100
AcDbEntity
  8
0
  6
Continuous
 62
     7
370
    15
100
AcDbLine
 10
98.2785119025
 20
-13.2499998003
 30
0.0
 11
98.2785119025
 21
13.2499997477
 31
0.0
  0
LINE
  5
1EF
330
1F
100
AcDbEntity
  8
0
  6
Continuous
 62
     7
370
    15
100
AcDbLine
 10
2839.4104997899
 20
12.949999599
 30
0.0
 11
2839.4104997899
 21
-12.9499998357
 31
0.0
  0
LINE
  5
1F0
330
1F
100
AcDbEntity
  8
0
  6
Continuous
 62
     7
370
    15
100
AcDbLine
 10
2844.0
 20
16.249999993
 30
0.0
 11
2844.0
 21
-16.2499999992
 31
0.0
  0
LINE
  5
1F1
330
1F
100
AcDbEntity
  8
0
  6
Continuous
 62
     7
370
    15
100
AcDbLine
 10
2839.7214880975
 20
13.249999754
 30
0.0
 11
2839.7214880975
 21
-13.2499997822
 31
0.0
  0
LINE
  5
1F2
330
1F
100
AcDbEntity
  8
0
  6
PHANTOM
 62
     8
370
     0
100
AcDbLine
 10
1386.1608683251
 20
-14.0
 30
0.0
 11
1384.0
 21
-14.0
 31
0.0
  0
LINE
  5
1F3
330
1F
100
AcDbEntity
  8
0
  6
PHANTOM
 62
     8
370
     0
100
AcDbLine
 10
1384.0
 20
14.0
 30
0.0
 11
1386.1608683251
 21
14.0
 31
0.0
  0
LINE
  5
1F4
330
1F
100
AcDbEntity
  8
0
  6
PHANTOM
 62
     8
370
     0
100
AcDbLine
 10
83.8391316749
 20
14.0
 30
0.0
 11
84.0
 21
14.0
 31
0.0
  0
LINE
  5
1F5
330
1F
100
AcDbEntity
  8
0
  6
PHANTOM
 62
     8
370
     0
100
AcDbLine
 10
84.0
 20
-14.0
 30
0.0
 11
83.8391316749
 21
-14.0
 31
0.0
  0
LINE
  5
1F6
330
1F
100
AcDbEntity
  8
0
  6
PHANTOM
 62
     8
370
     0
100
AcDbLine
 10
2856.1608683251
 20
-14.0
 30
0.0
 11
2854.0
 21
-14.0
 31
0.0
  0
LINE
  5
1F7
330
1F
100
AcDbEntity
  8
0
  6
PHANTOM
 62
     8
370
     0
100
AcDbLine
 10
2854.0
 20
14.0
 30
0.0
 11
2856.1608683251
 21
14.0
 31
0.0
  0
LINE
  5
1F8
330
1F
100
AcDbEntity
  8
0
  6
PHANTOM
 62
     8
370
     0
100
AcDbLine
 10
1553.8391316749
 20
14.0
 30
0.0
 11
1554.0
 21
14.0
 31
0.0
  0
LINE
  5
1F9
330
1F
100
AcDbEntity
  8
0
  6
PHANTOM
 62
     8
370
     0
100
AcDbLine
 10
1554.0
 20
-14.0
 30
0.0
 11
1553.8391316749
 21
-14.0
 31
0.0
  0
ARC
  5
1FA
330
1F
100
AcDbEntity
  8
0
  6
Continuous
 62
     7
370
    15
100
AcDbCircle
 10
-80.0
 20
-80.0
 30
0.0
 40
1500.000000000003
100
AcDbArc
 50
180.0
 51
270.0
  0
ARC
  5
1FB
330
1F
100
AcDbEntity
  8
0
  6
Continuous
 62
     7
370
    15
100
AcDbCircle
 10
3020.0
 20
80.0
 30
0.0
 40
1500.000000000003
100
AcDbArc
 50
0.0
 51
90.0
  0
ARC
  5
1FC
330
1F
100
AcDbEntity
  8
0
  6
Continuous
 62
     7
370
    15
100
AcDbCircle
 10
3020.0
 20
-80.0
 30
0.0
 40
1500.000000000004
100
AcDbArc
 50
270.0
 51
0.0
  0
ARC
  5
1FD
330
1F
100
AcDbEntity
  8
0
  6
Continuous
 62
     7
370
    15
100
AcDbCircle
 10
-80.0
 20
80.0
 30
0.0
 40
1500.000000000001
100
AcDbArc
 50
90.0
 51
180.0
  0
ENDSEC
  0
SECTION
  2
OBJECTS
  0
DICTIONARY
  5
C
330
0
100
AcDbDictionary
281
     1
  3
ACAD_GROUP
350
D
  3
ACAD_LAYOUT
350
1A
  3
ACAD_MLINESTYLE
350
17
  3
ACAD_PLOTSETTINGS
350
19
  3
ACAD_PLOTSTYLENAME
350
E
  3
ACAD_SCALELIST
350
47
  0
DICTIONARY
  5
D
102
{ACAD_REACTORS
330
C
102
}
330
C
100
AcDbDictionary
281
     1
  0
DICTIONARY
  5
1A
102
{ACAD_REACTORS
330
C
102
}
330
C
100
AcDbDictionary
281
     1
  3
Layout1
350
1E
  3
Layout2
350
26
  3
Model
350
22
  0
DICTIONARY
  5
17
102
{ACAD_REACTORS
330
C
102
}
330
C
100
AcDbDictionary
281
     1
  3
Standard
350
18
  0
DICTIONARY
  5
19
102
{ACAD_REACTORS
330
C
102
}
330
C
100
AcDbDictionary
281
     1
  0
ACDBDICTIONARYWDFLT
  5
E
102
{ACAD_REACTORS
330
C
102
}
330
C
100
AcDbDictionary
281
     1
  3
Normal
350
F
100
AcDbDictionaryWithDefault
340
F
  0
DICTIONARY
  5
47
102
{ACAD_REACTORS
330
C
102
}
330
C
100
AcDbDictionary
281
     1
  3
A0
350
48
  3
A1
350
49
  3
A2
350
4A
  3
A3
350
4B
  3
A4
350
4C
  3
A5
350
4D
  3
A6
350
4E
  3
A7
350
4F
  3
A8
350
50
  3
A9
350
51
  3
B0
350
52
  3
B1
350
53
  3
B2
350
54
  3
B3
350
55
  3
B4
350
56
  3
B5
350
57
  3
B6
350
58
  3
B7
350
59
  3
B8
350
5A
  3
B9
350
5B
  3
C0
350
5C
  3
C1
350
5D
  3
C2
350
5E
  3
C3
350
5F
  3
C4
350
60
  3
C5
350
61
  3
C6
350
62
  3
C7
350
63
  3
C8
350
64
  3
C9
350
65
  3
D0
350
66
  3
D1
350
67
  3
D2
350
68
  0
LAYOUT
  5
1E
102
{ACAD_REACTORS
330
1A
102
}
330
1A
100
AcDbPlotSettings
  1

  2
none_device
  4

  6

 40
0.0
 41
0.0
 42
0.0
 43
0.0
 44
0.0
 45
0.0
 46
0.0
 47
0.0
 48
0.0
 49
0.0
140
0.0
141
0.0
142
1.0
143
1.0
 70
   688
 72
     1
 73
     0
 74
     5
  7

 75
    16
147
1.0
148
0.0
149
0.0
100
AcDbLayout
  1
Layout1
 70
     1
 71
     1
 10
0.0
 20
0.0
 11
420.0
 21
297.0
 12
0.0
 22
0.0
 32
0.0
 14
1.0000000000E+20
 24
1.0000000000E+20
 34
1.0000000000E+20
 15
-1.0000000000E+20
 25
-1.0000000000E+20
 35
-1.0000000000E+20
146
0.0
 13
0.0
 23
0.0
 33
0.0
 16
1.0
 26
0.0
 36
0.0
 17
0.0
 27
1.0
 37
0.0
 76
     0
330
1B
  0
LAYOUT
  5
26
102
{ACAD_REACTORS
330
1A
102
}
330
1A
100
AcDbPlotSettings
  1

  2
none_device
  4

  6

 40
0.0
 41
0.0
 42
0.0
 43
0.0
 44
0.0
 45
0.0
 46
0.0
 47
0.0
 48
0.0
 49
0.0
140
0.0
141
0.0
142
1.0
143
1.0
 70
   688
 72
     1
 73
     0
 74
     5
  7

 75
    16
147
1.0
148
0.0
149
0.0
100
AcDbLayout
  1
Layout2
 70
     1
 71
     2
 10
0.0
 20
0.0
 11
0.0
 21
0.0
 12
0.0
 22
0.0
 32
0.0
 14
0.0
 24
0.0
 34
0.0
 15
0.0
 25
0.0
 35
0.0
146
0.0
 13
0.0
 23
0.0
 33
0.0
 16
1.0
 26
0.0
 36
0.0
 17
0.0
 27
1.0
 37
0.0
 76
     0
330
23
  0
LAYOUT
  5
22
102
{ACAD_REACTORS
330
1A
102
}
330
1A
100
AcDbPlotSettings
  1

  2
none_device
  4
ANSI_A_(11.00_x_8.50_Inches)
  6

 40
6.35
 41
19.05
 42
6.35000508
 43
19.05000254
 44
279.4
 45
215.9
 46
66.6924859846
 47
88.89999873
 48
0.0
 49
0.0
140
0.0
141
0.0
142
0.0017852459
143
1.0
 70
  1696
 72
     0
 73
     0
 74
     0
  7

 75
     0
147
0.0179189148
148
-1300.4909072572
149
0.0
100
AcDbLayout
  1
Model
 70
     1
 71
     0
 10
0.0
 20
0.0
 11
420.0
 21
297.0
 12
0.0
 22
0.0
 32
0.0
 14
-1580.0
 24
-1580.0
 34
0.0
 15
4520.0
 25
1580.0
 35
0.0
146
0.0
 13
0.0
 23
0.0
 33
0.0
 16
1.0
 26
0.0
 36
0.0
 17
0.0
 27
1.0
 37
0.0
 76
     0
330
1F
331
29
  0
MLINESTYLE
  5
18
102
{ACAD_REACTORS
330
17
102
}
330
17
100
AcDbMlineStyle
  2
Standard
 70
     0
  3

 62
   256
 51
90.0
 52
90.0
 71
     2
 49
0.5
 62
   256
  6
BYLAYER
 49
-0.5
 62
   256
  6
BYLAYER
  0
ACDBPLACEHOLDER
  5
F
102
{ACAD_REACTORS
330
E
102
}
330
E
  0
SCALE
  5
48
102
{ACAD_REACTORS
330
47
102
}
330
47
100
AcDbScale
 70
     0
300
1:1
140
1.0
141
1.0
290
     1
  0
SCALE
  5
49
102
{ACAD_REACTORS
330
47
102
}
330
47
100
AcDbScale
 70
     0
300
1:2
140
1.0
141
2.0
290
     0
  0
SCALE
  5
4A
102
{ACAD_REACTORS
330
47
102
}
330
47
100
AcDbScale
 70
     0
300
1:4
140
1.0
141
4.0
290
     0
  0
SCALE
  5
4B
102
{ACAD_REACTORS
330
47
102
}
330
47
100
AcDbScale
 70
     0
300
1:5
140
1.0
141
5.0
290
     0
  0
SCALE
  5
4C
102
{ACAD_REACTORS
330
47
102
}
330
47
100
AcDbScale
 70
     0
300
1:8
140
1.0
141
8.0
290
     0
  0
SCALE
  5
4D
102
{ACAD_REACTORS
330
47
102
}
330
47
100
AcDbScale
 70
     0
300
1:10
140
1.0
141
10.0
290
     0
  0
SCALE
  5
4E
102
{ACAD_REACTORS
330
47
102
}
330
47
100
AcDbScale
 70
     0
300
1:16
140
1.0
141
16.0
290
     0
  0
SCALE
  5
4F
102
{ACAD_REACTORS
330
47
102
}
330
47
100
AcDbScale
 70
     0
300
1:20
140
1.0
141
20.0
290
     0
  0
SCALE
  5
50
102
{ACAD_REACTORS
330
47
102
}
330
47
100
AcDbScale
 70
     0
300
1:30
140
1.0
141
30.0
290
     0
  0
SCALE
  5
51
102
{ACAD_REACTORS
330
47
102
}
330
47
100
AcDbScale
 70
     0
300
1:40
140
1.0
141
40.0
290
     0
  0
SCALE
  5
52
102
{ACAD_REACTORS
330
47
102
}
330
47
100
AcDbScale
 70
     0
300
1:50
140
1.0
141
50.0
290
     0
  0
SCALE
  5
53
102
{ACAD_REACTORS
330
47
102
}
330
47
100
AcDbScale
 70
     0
300
1:100
140
1.0
141
100.0
290
     0
  0
SCALE
  5
54
102
{ACAD_REACTORS
330
47
102
}
330
47
100
AcDbScale
 70
     0
300
2:1
140
2.0
141
1.0
290
     0
  0
SCALE
  5
55
102
{ACAD_REACTORS
330
47
102
}
330
47
100
AcDbScale
 70
     0
300
4:1
140
4.0
141
1.0
290
     0
  0
SCALE
  5
56
102
{ACAD_REACTORS
330
47
102
}
330
47
100
AcDbScale
 70
     0
300
8:1
140
8.0
141
1.0
290
     0
  0
SCALE
  5
57
102
{ACAD_REACTORS
330
47
102
}
330
47
100
AcDbScale
 70
     0
300
10:1
140
10.0
141
1.0
290
     0
  0
SCALE
  5
58
102
{ACAD_REACTORS
330
47
102
}
330
47
100
AcDbScale
 70
     0
300
100:1
140
100.0
141
1.0
290
     0
  0
SCALE
  5
59
102
{ACAD_REACTORS
330
47
102
}
330
47
100
AcDbScale
 70
     0
300
1/128" = 1'-0"
140
0.0078125
141
12.0
290
     0
  0
SCALE
  5
5A
102
{ACAD_REACTORS
330
47
102
}
330
47
100
AcDbScale
 70
     0
300
1/64" = 1'-0"
140
0.015625
141
12.0
290
     0
  0
SCALE
  5
5B
102
{ACAD_REACTORS
330
47
102
}
330
47
100
AcDbScale
 70
     0
300
1/32" = 1'-0"
140
0.03125
141
12.0
290
     0
  0
SCALE
  5
5C
102
{ACAD_REACTORS
330
47
102
}
330
47
100
AcDbScale
 70
     0
300
1/16" = 1'-0"
140
0.0625
141
12.0
290
     0
  0
SCALE
  5
5D
102
{ACAD_REACTORS
330
47
102
}
330
47
100
AcDbScale
 70
     0
300
3/32" = 1'-0"
140
0.09375
141
12.0
290
     0
  0
SCALE
  5
5E
102
{ACAD_REACTORS
330
47
102
}
330
47
100
AcDbScale
 70
     0
300
1/8" = 1'-0"
140
0.125
141
12.0
290
     0
  0
SCALE
  5
5F
102
{ACAD_REACTORS
330
47
102
}
330
47
100
AcDbScale
 70
     0
300
3/16" = 1'-0"
140
0.1875
141
12.0
290
     0
  0
SCALE
  5
60
102
{ACAD_REACTORS
330
47
102
}
330
47
100
AcDbScale
 70
     0
300
1/4" = 1'-0"
140
0.25
141
12.0
290
     0
  0
SCALE
  5
61
102
{ACAD_REACTORS
330
47
102
}
330
47
100
AcDbScale
 70
     0
300
3/8" = 1'-0"
140
0.375
141
12.0
290
     0
  0
SCALE
  5
62
102
{ACAD_REACTORS
330
47
102
}
330
47
100
AcDbScale
 70
     0
300
1/2" = 1'-0"
140
0.5
141
12.0
290
     0
  0
SCALE
  5
63
102
{ACAD_REACTORS
330
47
102
}
330
47
100
AcDbScale
 70
     0
300
3/4" = 1'-0"
140
0.75
141
12.0
290
     0
  0
SCALE
  5
64
102
{ACAD_REACTORS
330
47
102
}
330
47
100
AcDbScale
 70
     0
300
1" = 1'-0"
140
1.0
141
12.0
290
     0
  0
SCALE
  5
65
102
{ACAD_REACTORS
330
47
102
}
330
47
100
AcDbScale
 70
     0
300
1-1/2" = 1'-0"
140
1.5
141
12.0
290
     0
  0
SCALE
  5
66
102
{ACAD_REACTORS
330
47
102
}
330
47
100
AcDbScale
 70
     0
300
3" = 1'-0"
140
3.0
141
12.0
290
     0
  0
SCALE
  5
67
102
{ACAD_REACTORS
330
47
102
}
330
47
100
AcDbScale
 70
     0
300
6" = 1'-0"
140
6.0
141
12.0
290
     0
  0
SCALE
  5
68
102
{ACAD_REACTORS
330
47
102
}
330
47
100
AcDbScale
 70
     0
300
1'-0" = 1'-0"
140
12.0
141
12.0
290
     0
  0
ENDSEC
  0
EOF
