  0
SECTION
  2
HEADER
  9
$ACADVER
  1
AC1015
  9
$ACADMAINTVER
 70
     6
  9
$DWGCODEPAGE
  3
ANSI_1251
  9
$INSBASE
 10
0.0
 20
0.0
 30
0.0
  9
$EXTMIN
 10
0.0
 20
0.0
 30
0.0
  9
$EXTMAX
 10
594.0
 20
420.0
 30
0.0
  9
$LIMMIN
 10
0.0
 20
0.0
  9
$LIMMAX
 10
594.0
 20
420.0
  9
$ORTHOMODE
 70
     0
  9
$REGENMODE
 70
     1
  9
$FILLMODE
 70
     1
  9
$QTEXTMODE
 70
     0
  9
$MIRRTEXT
 70
     1
  9
$LTSCALE
 40
1.0
  9
$ATTMODE
 70
     1
  9
$TEXTSIZE
 40
3.0
  9
$TRACEWID
 40
1.0
  9
$TEXTSTYLE
  7
Standard
  9
$CLAYER
  8
0
  9
$CELTYPE
  6
ByLayer
  9
$CECOLOR
 62
   256
  9
$CELTSCALE
 40
1.0
  9
$DISPSILH
 70
     0
  9
$DIMSCALE
 40
1.0
  9
$DIMASZ
 40
3.0
  9
$DIMEXO
 40
0.0
  9
$DIMDLI
 40
3.75
  9
$DIMRND
 40
0.0
  9
$DIMDLE
 40
0.0
  9
$DIMEXE
 40
1.0
  9
$DIMTP
 40
0.0
  9
$DIMTM
 40
0.0
  9
$DIMTXT
 40
3.0
  9
$DIMCEN
 40
2.5
  9
$DIMTSZ
 40
0.0
  9
$DIMTOL
 70
     0
  9
$DIMLIM
 70
     0
  9
$DIMTIH
 70
     1
  9
$DIMTOH
 70
     1
  9
$DIMSE1
 70
     0
  9
$DIMSE2
 70
     0
  9
$DIMTAD
 70
     1
  9
$DIMZIN
 70
     0
  9
$DIMBLK
  1

  9
$DIMASO
 70
     1
  9
$DIMSHO
 70
     1
  9
$DIMPOST
  1

  9
$DIMAPOST
  1

  9
$DIMALT
 70
     0
  9
$DIMALTD
 70
     3
  9
$DIMALTF
 40
0.0393700787
  9
$DIMLFAC
 40
1.0
  9
$DIMTOFL
 70
     1
  9
$DIMTVP
 40
0.0
  9
$DIMTIX
 70
     0
  9
$DIMSOXD
 70
     0
  9
$DIMSAH
 70
     0
  9
$DIMBLK1
  1

  9
$DIMBLK2
  1

  9
$DIMSTYLE
  2
ISO-25
  9
$DIMCLRD
 70
     0
  9
$DIMCLRE
 70
     0
  9
$DIMCLRT
 70
     0
  9
$DIMTFAC
 40
1.0
  9
$DIMGAP
 40
1.524
  9
$DIMJUST
 70
     0
  9
$DIMSD1
 70
     0
  9
$DIMSD2
 70
     0
  9
$DIMTOLJ
 70
     0
  9
$DIMTZIN
 70
     0
  9
$DIMALTZ
 70
     0
  9
$DIMALTTZ
 70
     0
  9
$DIMUPT
 70
     0
  9
$DIMDEC
 70
     2
  9
$DIMTDEC
 70
     2
  9
$DIMALTU
 70
     2
  9
$DIMALTTD
 70
     3
  9
$DIMTXSTY
  7
Standard
  9
$DIMAUNIT
 70
     0
  9
$DIMADEC
 70
     2
  9
$DIMALTRND
 40
0.0
  9
$DIMAZIN
 70
     0
  9
$DIMDSEP
 70
    44
  9
$DIMATFIT
 70
     3
  9
$DIMFRAC
 70
     0
  9
$DIMLDRBLK
  1

  9
$DIMLUNIT
 70
     2
  9
$DIMLWD
 70
    -2
  9
$DIMLWE
 70
    -2
  9
$DIMTMOVE
 70
     0
  9
$LUNITS
 70
     2
  9
$LUPREC
 70
     2
  9
$SKETCHINC
 40
1.0
  9
$FILLETRAD
 40
10.0
  9
$AUNITS
 70
     1
  9
$AUPREC
 70
     2
  9
$MENU
  1
.
  9
$ELEVATION
 40
0.0
  9
$PELEVATION
 40
0.0
  9
$THICKNESS
 40
0.0
  9
$LIMCHECK
 70
     0
  9
$CHAMFERA
 40
0.0
  9
$CHAMFERB
 40
0.0
  9
$CHAMFERC
 40
0.0
  9
$CHAMFERD
 40
0.0
  9
$SKPOLY
 70
     0
  9
$TDCREATE
 40
2459664.344618461
  9
$TDUCREATE
 40
2459664.219618461
  9
$TDUPDATE
 40
2459664.344619005
  9
$TDUUPDATE
 40
2459664.219619005
  9
$TDINDWG
 40
0.0000000116
  9
$TDUSRTIMER
 40
0.0000000116
  9
$USRTIMER
 70
     1
  9
$ANGBASE
 50
0.0
  9
$ANGDIR
 70
     0
  9
$PDMODE
 70
     0
  9
$PDSIZE
 40
-1.0
  9
$PLINEWID
 40
0.0
  9
$SPLFRAME
 70
     0
  9
$SPLINETYPE
 70
     6
  9
$SPLINESEGS
 70
     8
  9
$HANDSEED
  5
294
  9
$SURFTAB1
 70
     6
  9
$SURFTAB2
 70
     6
  9
$SURFTYPE
 70
     6
  9
$SURFU
 70
     6
  9
$SURFV
 70
     6
  9
$UCSBASE
  2

  9
$UCSNAME
  2

  9
$UCSORG
 10
0.0
 20
0.0
 30
0.0
  9
$UCSXDIR
 10
1.0
 20
0.0
 30
0.0
  9
$UCSYDIR
 10
0.0
 20
1.0
 30
0.0
  9
$UCSORTHOREF
  2

  9
$UCSORTHOVIEW
 70
     0
  9
$UCSORGTOP
 10
0.0
 20
0.0
 30
0.0
  9
$UCSORGBOTTOM
 10
0.0
 20
0.0
 30
0.0
  9
$UCSORGLEFT
 10
0.0
 20
0.0
 30
0.0
  9
$UCSORGRIGHT
 10
0.0
 20
0.0
 30
0.0
  9
$UCSORGFRONT
 10
0.0
 20
0.0
 30
0.0
  9
$UCSORGBACK
 10
0.0
 20
0.0
 30
0.0
  9
$PUCSBASE
  2

  9
$PUCSNAME
  2

  9
$PUCSORG
 10
0.0
 20
0.0
 30
0.0
  9
$PUCSXDIR
 10
1.0
 20
0.0
 30
0.0
  9
$PUCSYDIR
 10
0.0
 20
1.0
 30
0.0
  9
$PUCSORTHOREF
  2

  9
$PUCSORTHOVIEW
 70
     0
  9
$PUCSORGTOP
 10
0.0
 20
0.0
 30
0.0
  9
$PUCSORGBOTTOM
 10
0.0
 20
0.0
 30
0.0
  9
$PUCSORGLEFT
 10
0.0
 20
0.0
 30
0.0
  9
$PUCSORGRIGHT
 10
0.0
 20
0.0
 30
0.0
  9
$PUCSORGFRONT
 10
0.0
 20
0.0
 30
0.0
  9
$PUCSORGBACK
 10
0.0
 20
0.0
 30
0.0
  9
$USERI1
 70
     0
  9
$USERI2
 70
     0
  9
$USERI3
 70
     0
  9
$USERI4
 70
     0
  9
$USERI5
 70
     0
  9
$USERR1
 40
0.0
  9
$USERR2
 40
0.0
  9
$USERR3
 40
0.0
  9
$USERR4
 40
0.0
  9
$USERR5
 40
0.0
  9
$WORLDVIEW
 70
     1
  9
$SHADEDGE
 70
     3
  9
$SHADEDIF
 70
    70
  9
$TILEMODE
 70
     1
  9
$MAXACTVP
 70
    64
  9
$PINSBASE
 10
0.0
 20
0.0
 30
0.0
  9
$PLIMCHECK
 70
     0
  9
$PEXTMIN
 10
1.0000000000E+20
 20
1.0000000000E+20
 30
1.0000000000E+20
  9
$PEXTMAX
 10
-1.0000000000E+20
 20
-1.0000000000E+20
 30
-1.0000000000E+20
  9
$PLIMMIN
 10
0.0
 20
0.0
  9
$PLIMMAX
 10
420.0
 20
297.0
  9
$UNITMODE
 70
     0
  9
$VISRETAIN
 70
     1
  9
$PLINEGEN
 70
     0
  9
$PSLTSCALE
 70
     1
  9
$TREEDEPTH
 70
  3020
  9
$CMLSTYLE
  2
Standard
  9
$CMLJUST
 70
     0
  9
$CMLSCALE
 40
20.0
  9
$PROXYGRAPHICS
 70
     1
  9
$MEASUREMENT
 70
     1
  9
$CELWEIGHT
370
    -1
  9
$ENDCAPS
280
     0
  9
$JOINSTYLE
280
     0
  9
$LWDISPLAY
290
     1
  9
$INSUNITS
 70
     4
  9
$HYPERLINKBASE
  1

  9
$STYLESHEET
  1

  9
$XEDIT
290
     1
  9
$CEPSNTYPE
380
     0
  9
$PSTYLEMODE
290
     1
  9
$FINGERPRINTGUID
  2
{B7A0E912-A43B-435D-8EFA-A4DA1849D999}
  9
$VERSIONGUID
  2
{FAEB1C32-E019-11D5-929B-00C0DF256EC4}
  9
$EXTNAMES
290
     1
  9
$PSVPSCALE
 40
0.0
  9
$OLESTARTUP
290
     0
  0
ENDSEC
  0
SECTION
  2
CLASSES
  0
CLASS
  1
ACDBDICTIONARYWDFLT
  2
AcDbDictionaryWithDefault
  3
ObjectDBX Classes
 90
        0
280
     0
281
     0
  0
CLASS
  1
VISUALSTYLE
  2
AcDbVisualStyle
  3
ObjectDBX Classes
 90
     4095
280
     0
281
     0
  0
CLASS
  1
MATERIAL
  2
AcDbMaterial
  3
ObjectDBX Classes
 90
     1153
280
     0
281
     0
  0
CLASS
  1
SCALE
  2
AcDbScale
  3
ObjectDBX Classes
 90
     1153
280
     0
281
     0
  0
CLASS
  1
SUN
  2
AcDbSun
  3
SCENEOE
 90
     1153
280
     0
281
     0
  0
CLASS
  1
ACDBPLACEHOLDER
  2
AcDbPlaceHolder
  3
ObjectDBX Classes
 90
        0
280
     0
281
     0
  0
CLASS
  1
LAYOUT
  2
AcDbLayout
  3
ObjectDBX Classes
 90
        0
280
     0
281
     0
  0
ENDSEC
  0
SECTION
  2
TABLES
  0
TABLE
  2
VPORT
  5
8
330
0
100
AcDbSymbolTable
 70
     1
  0
VPORT
  5
29
330
8
100
AcDbSymbolTableRecord
100
AcDbViewportTableRecord
  2
*Active
 70
     0
 10
0.0
 20
0.0
 11
1.0
 21
1.0
 12
297.0
 22
210.0
 13
0.0
 23
0.0
 14
10.0
 24
10.0
 15
10.0
 25
10.0
 16
0.0
 26
0.0
 36
1.0
 17
0.0
 27
0.0
 37
0.0
 40
420.0
 41
1.4142857143
 42
50.0
 43
0.0
 44
0.0
 50
0.0
 51
0.0
 71
     0
 72
  2000
 73
     1
 74
     3
 75
     0
 76
     0
 77
     0
 78
     0
281
     0
 65
     1
110
0.0
120
0.0
130
0.0
111
1.0
121
0.0
131
0.0
112
0.0
122
1.0
132
0.0
 79
     0
146
0.0
  0
ENDTAB
  0
TABLE
  2
LTYPE
  5
5
330
0
100
AcDbSymbolTable
 70
     6
  0
LTYPE
  5
14
330
5
100
AcDbSymbolTableRecord
100
AcDbLinetypeTableRecord
  2
ByBlock
 70
     0
  3

 72
    65
 73
     0
 40
0.0
  0
LTYPE
  5
15
330
5
100
AcDbSymbolTableRecord
100
AcDbLinetypeTableRecord
  2
ByLayer
 70
     0
  3

 72
    65
 73
     0
 40
0.0
  0
LTYPE
  5
16
330
5
100
AcDbSymbolTableRecord
100
AcDbLinetypeTableRecord
  2
Continuous
 70
     0
  3
Solid line
 72
    65
 73
     0
 40
0.0
  0
LTYPE
  5
6A
330
5
100
AcDbSymbolTableRecord
100
AcDbLinetypeTableRecord
  2
HIDDEN
 70
     0
  3
Hidden __ __ __ __ __ __ __ __ __ __ __ __ __ __
 72
    65
 73
     2
 40
1.905
 49
1.27
 74
     0
 49
-0.635
 74
     0
  0
LTYPE
  5
6B
330
5
100
AcDbSymbolTableRecord
100
AcDbLinetypeTableRecord
  2
PHANTOM
 70
     0
  3
Phantom ______  __  __  ______  __  __  ______
 72
    65
 73
     6
 40
12.7
 49
6.35
 74
     0
 49
-1.27
 74
     0
 49
1.27
 74
     0
 49
-1.27
 74
     0
 49
1.27
 74
     0
 49
-1.27
 74
     0
  0
LTYPE
  5
6C
330
5
100
AcDbSymbolTableRecord
100
AcDbLinetypeTableRecord
  2
CENTER
 70
     0
  3
Center ____ _ ____ _ ____ _ ____ _ ____ _ ____
 72
    65
 73
     4
 40
10.16
 49
6.35
 74
     0
 49
-1.27
 74
     0
 49
1.27
 74
     0
 49
-1.27
 74
     0
  0
LTYPE
  5
6D
330
5
100
AcDbSymbolTableRecord
100
AcDbLinetypeTableRecord
  2
CENTERX2
 70
     0
  3
Center (2x) ________  __  ________  __  _____
 72
    65
 73
     4
 40
20.32
 49
12.7
 74
     0
 49
-2.54
 74
     0
 49
2.54
 74
     0
 49
-2.54
 74
     0
  0
LTYPE
  5
6E
330
5
100
AcDbSymbolTableRecord
100
AcDbLinetypeTableRecord
  2
DOT2
 70
     0
  3
Dot (.5x) ........................................
 72
    65
 73
     2
 40
0.635
 49
0.0
 74
     0
 49
-0.635
 74
     0
  0
ENDTAB
  0
TABLE
  2
LAYER
  5
2
330
0
100
AcDbSymbolTable
 70
     5
  0
LAYER
  5
10
330
2
100
AcDbSymbolTableRecord
100
AcDbLayerTableRecord
  2
0
 70
     0
 62
     7
  6
Continuous
370
    -3
390
F
  0
LAYER
  5
6F
330
2
100
AcDbSymbolTableRecord
100
AcDbLayerTableRecord
  2
К
 70
     0
 62
     1
  6
Continuous
370
    -3
390
F
  0
LAYER
  5
70
330
2
100
AcDbSymbolTableRecord
100
AcDbLayerTableRecord
  2
С
 70
     0
 62
     5
  6
Continuous
370
    -3
390
F
  0
LAYER
  5
71
330
2
100
AcDbSymbolTableRecord
100
AcDbLayerTableRecord
  2
Р
 70
     0
 62
    42
  6
Continuous
370
    -3
390
F
  0
LAYER
  5
72
330
2
100
AcDbSymbolTableRecord
100
AcDbLayerTableRecord
  2
FORMAT
 70
     0
 62
     7
  6
Continuous
370
    -3
390
F
  0
ENDTAB
  0
TABLE
  2
STYLE
  5
3
330
0
100
AcDbSymbolTable
 70
     1
  0
STYLE
  5
11
330
3
100
AcDbSymbolTableRecord
100
AcDbTextStyleTableRecord
  2
Standard
 70
     0
 40
0.0
 41
1.0
 50
0.0
 71
     0
 42
3.0
  3
txt
  4

  0
ENDTAB
  0
TABLE
  2
VIEW
  5
6
330
0
100
AcDbSymbolTable
 70
     0
  0
ENDTAB
  0
TABLE
  2
UCS
  5
7
330
0
100
AcDbSymbolTable
 70
     0
  0
ENDTAB
  0
TABLE
  2
APPID
  5
9
330
0
100
AcDbSymbolTable
 70
     1
  0
APPID
  5
12
330
9
100
AcDbSymbolTableRecord
100
AcDbRegAppTableRecord
  2
ACAD
 70
     0
  0
ENDTAB
  0
TABLE
  2
DIMSTYLE
  5
A
330
0
100
AcDbSymbolTable
 70
     1
100
AcDbDimStyleTable
  0
DIMSTYLE
105
27
330
A
100
AcDbSymbolTableRecord
100
AcDbDimStyleTableRecord
  2
ISO-25
 70
     0
 41
2.5
 42
0.625
 43
3.75
 44
1.25
 73
     0
 74
     0
 77
     1
 78
     8
140
2.5
141
2.5
143
0.0393700787
147
0.625
171
     3
172
     1
178
     0
271
     2
272
     2
274
     3
278
    44
283
     0
284
     8
340
11
  0
ENDTAB
  0
TABLE
  2
BLOCK_RECORD
  5
1
330
0
100
AcDbSymbolTable
 70
     1
  0
BLOCK_RECORD
  5
1F
330
1
100
AcDbSymbolTableRecord
100
AcDbBlockTableRecord
  2
*Model_Space
340
22
  0
BLOCK_RECORD
  5
1B
330
1
100
AcDbSymbolTableRecord
100
AcDbBlockTableRecord
  2
*Paper_Space
340
1E
  0
BLOCK_RECORD
  5
23
330
1
100
AcDbSymbolTableRecord
100
AcDbBlockTableRecord
  2
*Paper_Space0
340
26
  0
ENDTAB
  0
ENDSEC
  0
SECTION
  2
BLOCKS
  0
BLOCK
  5
20
330
1F
100
AcDbEntity
  8
0
100
AcDbBlockBegin
  2
*Model_Space
 70
     0
 10
0.0
 20
0.0
 30
0.0
  3
*Model_Space
  1
*Model_Space
  0
ENDBLK
  5
21
330
1F
100
AcDbEntity
  8
0
100
AcDbBlockEnd
  0
BLOCK
  5
1C
330
1B
100
AcDbEntity
 67
     1
  8
0
100
AcDbBlockBegin
  2
*Paper_Space
 70
     0
 10
0.0
 20
0.0
 30
0.0
  3
*Paper_Space
  1
*Paper_Space
  0
ENDBLK
  5
1D
330
1B
100
AcDbEntity
 67
     1
  8
0
100
AcDbBlockEnd
  0
BLOCK
  5
24
330
23
100
AcDbEntity
  8
0
100
AcDbBlockBegin
  2
*Paper_Space0
 70
     0
 10
0.0
 20
0.0
 30
0.0
  3
*Paper_Space0
  1
*Paper_Space0
  0
ENDBLK
  5
25
330
23
100
AcDbEntity
  8
0
100
AcDbBlockEnd
  0
ENDSEC
  0
SECTION
  2
ENTITIES
  0
LINE
  5
73
330
1F
100
AcDbEntity
  8
0
  6
Continuous
 62
     7
370
    15
100
AcDbLine
 10
190.9403503158
 20
169.2773737533
 30
0.0
 11
190.9414082244
 21
169.2788662959
 31
0.0
  0
LINE
  5
74
330
1F
100
AcDbEntity
  8
0
  6
Continuous
 62
     7
370
    15
100
AcDbLine
 10
181.9602054325
 20
175.6300872763
 30
0.0
 11
181.960132123
 21
175.6299866423
 31
0.0
  0
LINE
  5
75
330
1F
100
AcDbEntity
  8
0
  6
Continuous
 62
     7
370
    15
100
AcDbLine
 10
119.9133812668
 20
87.919095209
 30
0.0
 11
119.9093810616
 21
87.9134415925
 31
0.0
  0
LINE
  5
76
330
1F
100
AcDbEntity
  8
0
  6
Continuous
 62
     7
370
    15
100
AcDbLine
 10
189.5015542594
 20
86.4091874051
 30
0.0
 11
189.3730548389
 21
86.6023247838
 31
0.0
  0
ARC
  5
77
330
1F
100
AcDbEntity
  8
0
  6
Continuous
 62
     7
370
    15
100
AcDbCircle
 10
155.4268657913
 20
128.5982344811
 30
0.0
 40
766.1500000000003
100
AcDbArc
 50
330.0
 51
60.0
  0
ARC
  5
78
330
1F
100
AcDbEntity
  8
0
  6
Continuous
 62
     7
370
    15
100
AcDbCircle
 10
155.4268657913
 20
128.5982344811
 30
0.0
 40
766.1500000000003
100
AcDbArc
 50
240.0
 51
330.0
  0
ARC
  5
79
330
1F
100
AcDbEntity
  8
0
  6
Continuous
 62
     7
370
    15
100
AcDbCircle
 10
155.4268657913
 20
128.5982344811
 30
0.0
 40
799.8500000000004
100
AcDbArc
 50
240.0
 51
60.0
  0
ARC
  5
7A
330
1F
100
AcDbEntity
  8
0
  6
Continuous
 62
     7
370
    15
100
AcDbCircle
 10
155.4268657913
 20
128.5982344811
 30
0.0
 40
766.1500000000001
100
AcDbArc
 50
60.0
 51
240.0
  0
ARC
  5
7B
330
1F
100
AcDbEntity
  8
0
  6
Continuous
 62
     7
370
    15
100
AcDbCircle
 10
155.4268657913
 20
128.5982344811
 30
0.0
 40
799.85
100
AcDbArc
 50
60.0
 51
150.0
  0
ARC
  5
7C
330
1F
100
AcDbEntity
  8
0
  6
Continuous
 62
     7
370
    15
100
AcDbCircle
 10
155.4268657913
 20
128.5982344811
 30
0.0
 40
799.85
100
AcDbArc
 50
150.0
 51
240.0
  0
LINE
  5
7D
330
1F
100
AcDbEntity
  8
0
  6
Continuous
 62
     7
370
    15
100
AcDbLine
 10
111.9955612042
 20
93.1761838322
 30
0.0
 11
110.8405379305
 21
91.5434166776
 31
0.0
  0
LINE
  5
7E
330
1F
100
AcDbEntity
  8
0
  6
Continuous
 62
     7
370
    15
100
AcDbLine
 10
135.3320436406
 20
74.2181095639
 30
0.0
 11
136.4870637981
 21
75.8508739552
 31
0.0
  0
LINE
  5
7F
330
1F
100
AcDbEntity
  8
0
  6
Continuous
 62
     7
370
    15
100
AcDbLine
 10
103.0348181073
 20
148.4998244386
 30
0.0
 11
101.0432888475
 21
148.6837163353
 31
0.0
  0
LINE
  5
80
330
1F
100
AcDbEntity
  8
0
  6
Continuous
 62
     7
370
    15
100
AcDbLine
 10
98.284885174
 20
118.8107996049
 30
0.0
 11
100.2764111971
 21
118.6269053947
 31
0.0
  0
LINE
  5
81
330
1F
100
AcDbEntity
  8
0
  6
Continuous
 62
     7
370
    15
100
AcDbLine
 10
198.8581703783
 20
164.0202851301
 30
0.0
 11
200.0131936521
 21
165.6530522847
 31
0.0
  0
LINE
  5
82
330
1F
100
AcDbEntity
  8
0
  6
Continuous
 62
     7
370
    15
100
AcDbLine
 10
175.521687942
 20
182.9783593984
 30
0.0
 11
174.3666677845
 21
181.3455950071
 31
0.0
  0
LINE
  5
83
330
1F
100
AcDbEntity
  8
0
  6
Continuous
 62
     7
370
    15
100
AcDbLine
 10
164.3876088559
 20
73.2745957945
 30
0.0
 11
165.2241162237
 21
71.457935185
 31
0.0
  0
LINE
  5
84
330
1F
100
AcDbEntity
  8
0
  6
Continuous
 62
     7
370
    15
100
AcDbLine
 10
192.47402474
 20
84.005542641
 30
0.0
 11
191.6375182718
 21
85.8222034915
 31
0.0
  0
LINE
  5
85
330
1F
100
AcDbEntity
  8
0
  6
Continuous
 62
     7
370
    15
100
AcDbLine
 10
207.8189134753
 20
108.6966445237
 30
0.0
 11
209.8104427351
 21
108.512752627
 31
0.0
  0
LINE
  5
86
330
1F
100
AcDbEntity
  8
0
  6
Continuous
 62
     7
370
    15
100
AcDbLine
 10
212.5688464086
 20
138.3856693574
 30
0.0
 11
210.5773203855
 21
138.5695635676
 31
0.0
  0
LINE
  5
87
330
1F
100
AcDbEntity
  8
0
  6
Continuous
 62
     7
370
    15
100
AcDbLine
 10
146.4661227267
 20
183.9218731678
 30
0.0
 11
145.6296153589
 21
185.7385337773
 31
0.0
  0
LINE
  5
88
330
1F
100
AcDbEntity
  8
0
  6
Continuous
 62
     7
370
    15
100
AcDbLine
 10
118.3797068426
 20
173.1909263213
 30
0.0
 11
119.2162133108
 21
171.3742654708
 31
0.0
  0
LWPOLYLINE
  5
89
330
1F
100
AcDbEntity
  8
0
  6
Continuous
 62
     7
370
    15
100
AcDbPolyline
 90
       70
 70
   128
 43
0.0
 10
481.0764549507
 20
-538.3352757013
 10
481.0020973739
 20
-538.1737803832
 10
480.7791007441
 20
-537.6895208667
 10
480.4075689155
 20
-536.8826544462
 10
479.8876674494
 20
-535.7535687103
 10
479.2197264352
 20
-534.3029774065
 10
478.4040317487
 20
-532.5315444217
 10
477.4410471535
 20
-530.4401945145
 10
476.3312384802
 20
-528.0299753041
 10
475.0752073005
 20
-525.3022682815
 10
473.6735962995
 20
-522.2583205069
 10
472.1271129697
 20
-518.8997936264
 10
470.4365974448
 20
-515.2284988667
 10
468.6028888249
 20
-511.2461860242
 10
466.6269629846
 20
-506.9550001976
 10
464.5098266524
 20
-502.3572016328
 10
462.2525883438
 20
-497.4550850093
 10
459.8564203486
 20
-492.251298162
 10
457.3225371034
 20
-486.7484159251
 10
454.6522887858
 20
-480.9493470048
 10
451.8470276405
 20
-474.8571229682
 10
448.9082529462
 20
-468.4749211063
 10
445.8374208017
 20
-461.8059302802
 10
442.6361816537
 20
-454.8537192265
 10
439.3061715558
 20
-447.6218605385
 10
435.8491016287
 20
-440.114091817
 10
432.2667868472
 20
-432.3343079572
 10
428.5610730397
 20
-424.2865190013
 10
424.7338893323
 20
-415.9749595015
 10
420.7872080309
 20
-407.4038524395
 10
416.7230785758
 20
-398.5777086655
 10
412.5436007842
 20
-389.5010255314
 10
408.2509516073
 20
-380.1785882572
 10
403.8473594068
 20
-370.6152299948
 10
399.3350895611
 20
-360.8158356849
 10
394.7164835496
 20
-350.785516706
 10
389.9939496886
 20
-340.5294899422
 10
385.1699189181
 20
-330.0530279229
 10
380.2469054754
 20
-319.3616276871
 10
375.2274523847
 20
-308.4607785606
 10
370.114163344
 20
-297.3561387332
 10
364.909679585
 20
-286.0534488986
 10
359.6167096932
 20
-274.5585859713
 10
354.2379925912
 20
-262.8775112979
 10
348.7763119318
 20
-251.0162668004
 10
343.2345038115
 20
-238.9810037633
 10
337.615434664
 20
-226.7779579029
 10
331.9220305631
 20
-214.4134723698
 10
326.1572180997
 20
-201.8939210294
 10
320.3240056116
 20
-189.2258101113
 10
314.4254019537
 20
-176.4156765606
 10
308.4644689409
 20
-163.4701973993
 10
302.4443048888
 20
-150.3960707233
 10
296.3680240563
 20
-137.200082917
 10
290.238762809
 20
-123.8890452952
 10
284.0597171532
 20
-110.4698766065
 10
277.8340725583
 20
-96.9495138496
 10
271.5650666793
 20
-83.3349880279
 10
265.2559443678
 20
-69.6333282165
 10
258.9099736157
 20
-55.8516498509
 10
252.5304445214
 20
-41.9970932968
 10
246.1206623523
 20
-28.0768411361
 10
239.6839470272
 20
-14.0980874513
 10
233.2236452035
 20
-0.0681117214
 10
226.7430883703
 20
14.0058487907
 10
220.2456491486
 20
28.1164752824
 10
213.7346871776
 20
42.2564686131
 10
207.2135770066
 20
56.4185027835
 10
200.6856989701
 20
70.5952302042
 10
194.1544350725
 20
84.7793114468
  0
LWPOLYLINE
  5
8A
330
1F
100
AcDbEntity
  8
0
  6
Continuous
 62
     7
370
    15
100
AcDbPolyline
 90
       70
 70
   128
 43
0.0
 10
163.5437049916
 20
70.6841661381
 10
170.0749670255
 20
56.5000882528
 10
176.6028459783
 20
42.3233533642
 10
183.1239546707
 20
28.161326511
 10
189.6349189074
 20
14.021326074
 10
196.1323592536
 20
-0.0893001164
 10
202.6129147374
 20
-14.1632609901
 10
209.0732183603
 20
-28.1932362379
 10
215.5099336854
 20
-42.1719899227
 10
221.9197131558
 20
-56.0922428066
 10
228.29924225
 20
-69.9467993606
 10
234.6452130022
 20
-83.7284777262
 10
240.9543371129
 20
-97.4301370555
 10
247.2233429918
 20
-111.0446628772
 10
253.4489819308
 20
-124.5650117228
 10
259.6280370992
 20
-137.9842087162
 10
265.7572947481
 20
-151.2952473022
 10
271.833579179
 20
-164.4912341443
 10
277.8537468295
 20
-177.5653598562
 10
283.8146762439
 20
-190.5108399816
 10
289.7132721884
 20
-203.3209447456
 10
295.5464882749
 20
-215.9890546994
 10
301.3112935416
 20
-228.5086079681
 10
307.0047089542
 20
-240.873121324
 10
312.6237745034
 20
-253.0761681485
 10
318.165586222
 20
-265.1114302215
 10
323.6272632831
 20
-276.9726756831
 10
329.0059803851
 20
-288.6537503565
 10
334.2989538752
 20
-300.1486123196
 10
339.5034335191
 20
-311.4512724032
 10
344.6167225598
 20
-322.5559122306
 10
349.6361833639
 20
-333.456790144
 10
354.5591968066
 20
-344.1481903797
 10
359.3832275771
 20
-354.624652399
 10
364.1057614381
 20
-364.8806791629
 10
368.724360253
 20
-374.9110000701
 10
373.2366300986
 20
-384.7103943801
 10
377.6402222992
 20
-394.2737526424
 10
381.9328714761
 20
-403.5961899166
 10
386.1123410376
 20
-412.6728135487
 10
390.1764787227
 20
-421.4990168247
 10
394.123151794
 20
-430.0700643847
 10
397.9503509283
 20
-438.3816814582
 10
401.6560647357
 20
-446.429470414
 10
405.2383795173
 20
-454.2092542739
 10
408.6954422477
 20
-461.7170249237
 10
412.0254523456
 20
-468.9488836117
 10
415.2266986902
 20
-475.9010927371
 10
418.2975082113
 20
-482.5700279178
 10
421.2363055291
 20
-488.9522854251
 10
424.0415594777
 20
-495.04451139
 10
426.711814992
 20
-500.8435783819
 10
429.2456828104
 20
-506.3464030452
 10
431.6418590357
 20
-511.5502493946
 10
433.899104541
 20
-516.4523640897
 10
436.0162336765
 20
-521.0501645828
 10
437.9921667135
 20
-525.341348481
 10
439.8258599066
 20
-529.3236037499
 10
441.5163836616
 20
-532.9949580116
 10
443.0628669913
 20
-536.3534848921
 10
444.4644697623
 20
-539.3973731647
 10
445.7205091721
 20
-542.1251396893
 10
446.8303024186
 20
-544.5353013261
 10
447.7933096373
 20
-546.6267068786
 10
448.6089971271
 20
-548.3981417917
 10
449.2769453379
 20
-549.8487311672
 10
449.7968241805
 20
-550.9777612577
 10
450.1683632058
 20
-551.7846257499
 10
450.3913680657
 20
-552.2689447684
 10
450.4657102157
 20
-552.4303825129
  0
LWPOLYLINE
  5
8B
330
1F
100
AcDbEntity
  8
0
  6
Continuous
 62
     7
370
    15
100
AcDbPolyline
 90
       70
 70
   128
 43
0.0
 10
-584.9792667436
 20
180.0441756297
 10
-584.8022895849
 20
180.027822054
 10
-584.2713696788
 20
179.9788045071
 10
-583.3868180338
 20
179.8971322154
 10
-582.1490762328
 20
179.7828411253
 10
-580.55884315
 20
179.63600623
 10
-578.6168752333
 20
179.4566870957
 10
-576.3242476527
 20
179.2449813019
 10
-573.6820432915
 20
179.001015215
 10
-570.6917097585
 20
178.7248946076
 10
-567.3548290935
 20
178.4167663655
 10
-563.6730486233
 20
178.0767907348
 10
-559.6482729662
 20
177.7051670081
 10
-555.2826447486
 20
177.3020615577
 10
-550.5784371712
 20
176.8676674757
 10
-545.5380655788
 20
176.4022477547
 10
-540.1640604635
 20
175.9060345336
 10
-534.4593247566
 20
175.3792681442
 10
-528.4267729592
 20
174.8222320987
 10
-522.069565294
 20
174.2352057756
 10
-515.3908774105
 20
173.6185261271
 10
-508.3943034007
 20
172.9724796914
 10
-501.0834489268
 20
172.2973961869
 10
-493.4619965081
 20
171.5936618723
 10
-485.5340432496
 20
170.8615981986
 10
-477.3035865358
 20
170.1016150445
 10
-468.7749231898
 20
169.3140883346
 10
-459.9524883221
 20
168.4994495003
 10
-450.8408321907
 20
167.6580991196
 10
-441.4447047712
 20
166.7904922439
 10
-431.7689673303
 20
165.8970386774
 10
-421.8186309919
 20
164.9782469115
 10
-411.5988757445
 20
164.0345647638
 10
-401.11490086
 20
163.0665120189
 10
-390.3722587657
 20
162.0745446874
 10
-379.3764674556
 20
161.0592205671
 10
-368.1332137878
 20
160.021036782
 10
-356.648322908
 20
158.960545963
 10
-344.9277754663
 20
157.8783053541
 10
-332.9776384732
 20
156.7748490593
 10
-320.8040845832
 20
155.6507600092
 10
-308.4134458119
 20
154.5066401411
 10
-295.8121078917
 20
153.3430615722
 10
-283.0066485596
 20
152.1606221061
 10
-270.0036571227
 20
150.9599627268
 10
-256.809924396
 20
149.7416704245
 10
-243.4322297627
 20
148.506404673
 10
-229.8775598991
 20
147.2547925424
 10
-216.1529072663
 20
145.9874826931
 10
-202.2653910429
 20
144.705136112
 10
-188.2221937665
 20
143.4084199493
 10
-174.0306208351
 20
142.0979992883
 10
-159.6980141471
 20
140.774560286
 10
-145.2318038896
 20
139.4387731555
 10
-130.6394913222
 20
138.0913430604
 10
-115.9286084192
 20
136.7329746474
 10
-101.106822481
 20
135.364359443
 10
-86.1817902713
 20
133.9862072239
 10
-71.1612357691
 20
132.5992483235
 10
-56.0529664215
 20
131.2041791399
 10
-40.8648146748
 20
129.8017317963
 10
-25.6046283329
 20
128.3926381577
 10
-10.2803156661
 20
126.9776254573
 10
5.1001536251
 20
125.5574198948
 10
20.5288352524
 20
124.1327679777
 10
35.997719675
 20
122.7044006573
 10
51.4987939776
 20
121.2730614794
 10
67.024029887
 20
119.8394937313
 10
82.5653770582
 20
118.4044367145
 10
98.1147833984
 20
116.9686362523
  0
LWPOLYLINE
  5
8C
330
1F
100
AcDbEntity
  8
0
  6
Continuous
 62
     7
370
    15
100
AcDbPolyline
 90
       70
 70
   128
 43
0.0
 10
101.2133908039
 20
150.5258790132
 10
85.6639841625
 20
151.9616805999
 10
70.1226369913
 20
153.3967376167
 10
54.5974005997
 20
154.830307164
 10
39.0963262972
 20
156.2616463419
 10
23.6274428387
 20
157.6900100639
 10
8.1987616935
 20
159.1146601818
 10
-7.1817075977
 20
160.5348657443
 10
-22.5060202645
 20
161.9498784448
 10
-37.7662066063
 20
163.3589720834
 10
-52.9543583531
 20
164.7614194269
 10
-68.0626286649
 20
166.1564922089
 10
-83.0831831671
 20
167.5434511093
 10
-98.0082153768
 20
168.9216033284
 10
-112.8300013149
 20
170.2902185327
 10
-127.5408842179
 20
171.6485869458
 10
-142.1331967854
 20
172.9960170409
 10
-156.5994051145
 20
174.3317969746
 10
-170.9320156592
 20
175.6552503704
 10
-185.1235866623
 20
176.9656638347
 10
-199.1667839387
 20
178.2623799974
 10
-213.0543020904
 20
179.5447337752
 10
-226.7789508665
 20
180.8120292311
 10
-240.3336245868
 20
182.063655755
 10
-253.7113172917
 20
183.2989143099
 10
-266.9050500184
 20
184.5172066122
 10
-279.9080414553
 20
185.7178659915
 10
-292.7135007874
 20
186.9003054576
 10
-305.3148387076
 20
188.0638840265
 10
-317.705477479
 20
189.2080038946
 10
-329.879031369
 20
190.3320929447
 10
-341.8291683621
 20
191.4355492395
 10
-353.5497158038
 20
192.5177898484
 10
-365.0346066835
 20
193.5782806674
 10
-376.2778603513
 20
194.6164644525
 10
-387.2736516615
 20
195.6317885728
 10
-398.0162937557
 20
196.6237559043
 10
-408.5002686402
 20
197.5918086492
 10
-418.7200238876
 20
198.5354907969
 10
-428.670360226
 20
199.4542825628
 10
-438.346097667
 20
200.3477361293
 10
-447.7422250864
 20
201.215343005
 10
-456.8538812179
 20
202.0566933857
 10
-465.6763160856
 20
202.8713322199
 10
-474.2049794316
 20
203.6588589299
 10
-482.4354361453
 20
204.418842084
 10
-490.3633894039
 20
205.1509057576
 10
-497.9848418226
 20
205.8546400723
 10
-505.2956962965
 20
206.5297235768
 10
-512.2922703062
 20
207.1757700125
 10
-518.9709620464
 20
207.7924640544
 10
-525.3281658549
 20
208.379475984
 10
-531.3607176524
 20
208.9365120296
 10
-537.0654533593
 20
209.463278419
 10
-542.4394546178
 20
209.9594772467
 10
-547.4798339237
 20
210.4249257545
 10
-552.1840337877
 20
210.8592910497
 10
-556.5496658619
 20
211.2624108935
 10
-560.5744415191
 20
211.6340346202
 10
-564.2562181326
 20
211.9739958575
 10
-567.593106511
 20
212.2821528864
 10
-570.5834323305
 20
212.558244707
 10
-573.2256405484
 20
212.8022251873
 10
-575.518268129
 20
213.0139309811
 10
-577.4602360457
 20
213.1932501154
 10
-579.0504729853
 20
213.3400994041
 10
-580.2882109296
 20
213.4543761008
 10
-581.1727625745
 20
213.5360483925
 10
-581.7036786239
 20
213.585051546
 10
-581.8806557827
 20
213.6014051217
  0
LWPOLYLINE
  5
8D
330
1F
100
AcDbEntity
  8
0
  6
Continuous
 62
     7
370
    15
100
AcDbPolyline
 90
       70
 70
   128
 43
0.0
 10
570.1833986301
 20
744.0857852649
 10
570.0807857282
 20
743.940676166
 10
569.772874022
 20
743.5053910163
 10
569.2598398123
 20
742.7801930307
 10
568.542016694
 20
741.7654492786
 10
567.6196996952
 20
740.4616707632
 10
566.4934408585
 20
738.8695607695
 10
565.1637767996
 20
736.9898801558
 10
563.6314127219
 20
734.8236817826
 10
561.8971036886
 20
732.3720627239
 10
559.9618119178
 20
729.6362681215
 10
557.8265109207
 20
726.6177312651
 10
555.4922662153
 20
723.3180026584
 10
552.9603926212
 20
719.7388538734
 10
550.2320820972
 20
715.8820544154
 10
547.3088257636
 20
711.7496390714
 10
544.192083887
 20
707.3437577759
 10
540.8835238887
 20
702.6667085311
 10
537.3848476231
 20
697.7208911265
 10
533.6978412385
 20
692.5088513527
 10
529.8244826107
 20
687.0333406415
 10
525.7666843287
 20
681.2971237849
 10
521.5265928555
 20
675.3032442167
 10
517.1064410151
 20
669.0547685111
 10
512.5084652109
 20
662.5549801767
 10
507.7350534942
 20
655.8071725026
 10
502.7887337165
 20
648.8149230661
 10
497.6720126563
 20
641.5817729444
 10
492.3875656791
 20
634.1115552169
 10
486.938104651
 20
626.4080818891
 10
481.3265043785
 20
618.4753628949
 10
475.555645315
 20
610.3175022418
 10
469.6284922075
 20
601.9387499386
 10
463.5481460238
 20
593.3434233477
 10
457.3177632385
 20
584.5359781192
 10
450.9405558331
 20
575.5210081907
 10
444.419843223
 20
566.3031671403
 10
437.7590080438
 20
556.8872180469
 10
430.9614673648
 20
547.2780257764
 10
424.030772409
 20
537.4806454098
 10
416.9705186131
 20
527.5000821674
 10
409.7843492074
 20
517.3415083442
 10
402.4759917156
 20
507.0102422359
 10
395.0492389488
 20
496.5115887785
 10
387.5079602982
 20
485.8510276955
 10
379.856025155
 20
475.0340387106
 10
372.0974082777
 20
464.0662840486
 10
364.2361286382
 20
452.9533760741
 10
356.2762740754
 20
441.7011307262
 10
348.2219938586
 20
430.3153649777
 10
340.0773891867
 20
418.8019600547
 10
331.8467473397
 20
407.1669087511
 10
323.5343152405
 20
395.4162393276
 10
315.1443896723
 20
383.5560242584
 10
306.6813239587
 20
371.592412875
 10
298.1495030333
 20
359.5316092593
 10
289.5533472966
 20
347.37985785
 10
280.8973192959
 20
335.1434760865
 10
272.1858959719
 20
322.8287852647
 10
263.4235964123
 20
310.4421796811
 10
254.6149684914
 20
297.9900613456
 10
245.7645590503
 20
285.4788936984
 10
236.876968647
 20
272.91517
 10
227.9567959111
 20
260.3053907075
 10
219.0086768674
 20
247.6560894384
 10
210.0372326307
 20
234.9738266687
 10
201.0471131025
 20
222.2651705875
 10
192.0429914445
 20
209.5367033303
 10
183.0295223098
 20
196.7950329264
 10
174.0113795659
 20
184.0467532704
  0
LWPOLYLINE
  5
8E
330
1F
100
AcDbEntity
  8
0
  6
Continuous
 62
     7
370
    15
100
AcDbPolyline
 90
       70
 70
   128
 43
0.0
 10
201.5235020281
 20
164.5846584127
 10
210.541644772
 20
177.3329380686
 10
219.5551129425
 20
190.0746120708
 10
228.5592401273
 20
202.8030730956
 10
237.5493514946
 20
215.5117308467
 10
246.5207957313
 20
228.1939936165
 10
255.4689219717
 20
240.8432968139
 10
264.3890947076
 20
253.4530761064
 10
273.2766831825
 20
266.0168070015
 10
282.1270801586
 20
278.5279635953
 10
290.9357244012
 20
290.9800785908
 10
299.6980220325
 20
303.3666913711
 10
308.4094453565
 20
315.6813821929
 10
317.0654733572
 20
327.9177639564
 10
325.6616147005
 20
340.069511509
 10
334.1934356259
 20
352.1303151247
 10
342.6565013395
 20
364.0939265081
 10
351.0464413011
 20
375.954145434
 10
359.3588734003
 20
387.7048148575
 10
367.5895152473
 20
399.3398661611
 10
375.7340911324
 20
410.8532633707
 10
383.788400136
 20
422.2390368326
 10
391.7482546988
 20
433.4912821805
 10
399.6095094082
 20
444.6041680482
 10
407.3681473589
 20
455.5719592105
 10
415.0200902155
 20
466.3889194085
 10
422.5613611527
 20
477.0495092783
 10
429.9881216329
 20
487.5481339489
 10
437.2964714113
 20
497.879428844
 10
444.4826485304
 20
508.0379738804
 10
451.5429023263
 20
518.0185371228
 10
458.4735895687
 20
527.8159462763
 10
465.2711379611
 20
537.4251097599
 10
471.9319731403
 20
546.8410588533
 10
478.4526857504
 20
556.0588999037
 10
484.8298854424
 20
565.073898619
 10
491.0602759411
 20
573.8813150607
 10
497.1406221248
 20
582.4766416516
 10
503.067738732
 20
590.8554150282
 10
508.8386342958
 20
599.0132546079
 10
514.4502345683
 20
606.9459736021
 10
519.8996955964
 20
614.6494469299
 10
525.1841348602
 20
622.1196934443
 10
530.3008636338
 20
629.3528147791
 10
535.2471756981
 20
636.3450930024
 10
540.0205663414
 20
643.0928641763
 10
544.618563219
 20
649.5926890109
 10
549.0387438463
 20
655.84117243
 10
553.2787777457
 20
661.8350365713
 10
557.3365837412
 20
667.5712246411
 10
561.2099999426
 20
673.0467507791
 10
564.8969487535
 20
678.2587751261
 10
568.3956825928
 20
683.2046079575
 10
571.7042348778
 20
687.8816859891
 10
574.8209191806
 20
692.2875518578
 10
577.7441832276
 20
696.419938415
 10
580.4724937516
 20
700.276737873
 10
583.004417206
 20
703.8559308717
 10
585.3386120511
 20
707.1556152647
 10
587.4739130483
 20
710.1741521211
 10
589.4092623928
 20
712.9099621503
 10
591.1435061389
 20
715.361594569
 10
592.6759277904
 20
717.5278083691
 10
594.0055995626
 20
719.4074601959
 10
595.1318583994
 20
720.9995701896
 10
596.0541101111
 20
722.303362065
 10
596.771990803
 20
723.3181212439
 10
597.284967439
 20
724.0433038027
 10
597.5928868587
 20
724.4785601656
 10
597.6955573342
 20
724.6236846913
  0
LWPOLYLINE
  5
8F
330
1F
100
AcDbEntity
  8
0
  6
Continuous
 62
     7
370
    15
100
AcDbPolyline
 90
       70
 70
   128
 43
0.0
 10
-170.2227233681
 20
795.5317446636
 10
-170.1483657913
 20
795.3702493455
 10
-169.9253691615
 20
794.885989829
 10
-169.5538373329
 20
794.0791234085
 10
-169.0339358668
 20
792.9500376726
 10
-168.3659948526
 20
791.4994463688
 10
-167.5503001661
 20
789.728013384
 10
-166.5873155709
 20
787.6366634768
 10
-165.4775068976
 20
785.2264442664
 10
-164.2214757179
 20
782.4987372438
 10
-162.8198647169
 20
779.4547894692
 10
-161.2733813871
 20
776.0962625887
 10
-159.5828658622
 20
772.424967829
 10
-157.7491572423
 20
768.4426549865
 10
-155.773231402
 20
764.1514691599
 10
-153.6560950698
 20
759.5536705951
 10
-151.3988567612
 20
754.6515539716
 10
-149.002688766
 20
749.4477671243
 10
-146.4688055208
 20
743.9448848873
 10
-143.7985572032
 20
738.1458159671
 10
-140.9932960579
 20
732.0535919305
 10
-138.0545213636
 20
725.6713900686
 10
-134.9836892191
 20
719.0023992425
 10
-131.7824500711
 20
712.0501881888
 10
-128.4524399732
 20
704.8183295008
 10
-124.9953700461
 20
697.3105607793
 10
-121.4130552646
 20
689.5307769195
 10
-117.7073414571
 20
681.4829879636
 10
-113.8801577497
 20
673.1714284638
 10
-109.9334764483
 20
664.6003214018
 10
-105.8693469932
 20
655.7741776278
 10
-101.6898692016
 20
646.6974944937
 10
-97.3972200247
 20
637.3750572195
 10
-92.9936278242
 20
627.8116989571
 10
-88.4813579785
 20
618.0123046472
 10
-83.862751967
 20
607.9819856683
 10
-79.140218106
 20
597.7259589045
 10
-74.3161873355
 20
587.2494968852
 10
-69.3931738928
 20
576.5580966494
 10
-64.3737208021
 20
565.6572475229
 10
-59.2604317614
 20
554.5526076955
 10
-54.0559480024
 20
543.2499178609
 10
-48.7629781106
 20
531.7550549336
 10
-43.3842610086
 20
520.0739802602
 10
-37.9225803492
 20
508.2127357627
 10
-32.3807722289
 20
496.1774727256
 10
-26.7617030814
 20
483.9744268652
 10
-21.0682989805
 20
471.6099413321
 10
-15.3034865171
 20
459.0903899916
 10
-9.470274029
 20
446.4222790736
 10
-3.5716703711
 20
433.6121455229
 10
2.3892626417
 20
420.6666663616
 10
8.4094266938
 20
407.5925396856
 10
14.4857075263
 20
394.3965518793
 10
20.6149687736
 20
381.0855142575
 10
26.7940144294
 20
367.6663455688
 10
33.0196590243
 20
354.1459828119
 10
39.2886649033
 20
340.5314569902
 10
45.5977872148
 20
326.8297971787
 10
51.9437579669
 20
313.0481188132
 10
58.3232870612
 20
299.1935622591
 10
64.7330692303
 20
285.2733100984
 10
71.1697845554
 20
271.2945564136
 10
77.6300863791
 20
257.2645806837
 10
84.1106432123
 20
243.1906201716
 10
90.608082434
 20
229.0799936799
 10
97.119044405
 20
214.9400003492
 10
103.640154576
 20
200.7779661788
 10
110.1680326125
 20
186.6012387581
 10
116.6992965101
 20
172.4171575155
  0
LWPOLYLINE
  5
90
330
1F
100
AcDbEntity
  8
0
  6
Continuous
 62
     7
370
    15
100
AcDbPolyline
 90
       70
 70
   128
 43
0.0
 10
147.310026591
 20
186.5123028242
 10
140.7787645571
 20
200.6963807095
 10
134.2508856043
 20
214.8731155981
 10
127.7297769119
 20
229.0351424513
 10
121.2188126752
 20
243.1751428883
 10
114.721372329
 20
257.2857690787
 10
108.2408168451
 20
271.3597299524
 10
101.7805132223
 20
285.3897052002
 10
95.3437978972
 20
299.368458885
 10
88.9340184268
 20
313.2887117688
 10
82.5544893326
 20
327.1432683229
 10
76.2085185804
 20
340.9249466885
 10
69.8993944697
 20
354.6266060178
 10
63.6303885908
 20
368.2411318395
 10
57.4047496518
 20
381.7614806851
 10
51.2256944834
 20
395.1806776785
 10
45.0964368345
 20
408.4917162645
 10
39.0201524036
 20
421.6877031066
 10
32.9999847531
 20
434.7618288185
 10
27.0390553387
 20
447.7073089439
 10
21.1404593941
 20
460.5174137079
 10
15.3072433077
 20
473.1855236617
 10
9.542438041
 20
485.7050769304
 10
3.8490226284
 20
498.0695902863
 10
-1.7700429208
 20
510.2726371108
 10
-7.3118546394
 20
522.3078991838
 10
-12.7735317005
 20
534.1691446454
 10
-18.1522488025
 20
545.8502193188
 10
-23.4452222926
 20
557.3450812819
 10
-28.6497019365
 20
568.6477413655
 10
-33.7629909772
 20
579.7523811929
 10
-38.7824517813
 20
590.6532591063
 10
-43.705465224
 20
601.344659342
 10
-48.5294959945
 20
611.8211213613
 10
-53.2520298555
 20
622.0771481252
 10
-57.8706286704
 20
632.1074690324
 10
-62.382898516
 20
641.9068633424
 10
-66.7864907166
 20
651.4702216047
 10
-71.0791398935
 20
660.7926588789
 10
-75.258609455
 20
669.869282511
 10
-79.3227471401
 20
678.695485787
 10
-83.2694202114
 20
687.266533347
 10
-87.0966193457
 20
695.5781504205
 10
-90.8023331531
 20
703.6259393763
 10
-94.3846479347
 20
711.4057232362
 10
-97.8417106651
 20
718.913493886
 10
-101.171720763
 20
726.145352574
 10
-104.3729671077
 20
733.0975616994
 10
-107.4437766287
 20
739.7664968801
 10
-110.3825739465
 20
746.1487543874
 10
-113.1878278951
 20
752.2409803523
 10
-115.8580834094
 20
758.0400473442
 10
-118.3919512278
 20
763.5428720075
 10
-120.7881274531
 20
768.7467183568
 10
-123.0453729584
 20
773.648833052
 10
-125.1625020939
 20
778.2466335451
 10
-127.1384351309
 20
782.5378174433
 10
-128.972128324
 20
786.5200727122
 10
-130.662652079
 20
790.1914269739
 10
-132.2091354087
 20
793.5499538544
 10
-133.6107381797
 20
796.593842127
 10
-134.8667775895
 20
799.3216086516
 10
-135.976570836
 20
801.7317702884
 10
-136.9395780547
 20
803.8231758409
 10
-137.7552655445
 20
805.594610754
 10
-138.4232137554
 20
807.0452001295
 10
-138.9430925979
 20
808.17423022
 10
-139.3146316232
 20
808.9810947122
 10
-139.5376364831
 20
809.4654137307
 10
-139.6119786331
 20
809.6268514752
  0
LWPOLYLINE
  5
91
330
1F
100
AcDbEntity
  8
0
  6
Continuous
 62
     7
370
    15
100
AcDbPolyline
 90
       70
 70
   128
 43
0.0
 10
-259.3296670475
 20
-486.8893163026
 10
-259.2270541456
 20
-486.7442072037
 10
-258.9191424394
 20
-486.308922054
 10
-258.4061082297
 20
-485.5837240684
 10
-257.6882851115
 20
-484.5689803163
 10
-256.7659681127
 20
-483.2652018009
 10
-255.6397092759
 20
-481.6730918072
 10
-254.310045217
 20
-479.7934111935
 10
-252.7776811393
 20
-477.6272128203
 10
-251.043372106
 20
-475.1755937616
 10
-249.1080803353
 20
-472.4397991593
 10
-246.9727793381
 20
-469.4212623028
 10
-244.6385346327
 20
-466.1215336961
 10
-242.1066610386
 20
-462.5423849111
 10
-239.3783505146
 20
-458.6855854531
 10
-236.455094181
 20
-454.5531701091
 10
-233.3383523044
 20
-450.1472888136
 10
-230.0297923061
 20
-445.4702395688
 10
-226.5311160405
 20
-440.5244221642
 10
-222.8441096559
 20
-435.3123823904
 10
-218.9707510281
 20
-429.8368716792
 10
-214.9129527461
 20
-424.1006548226
 10
-210.6728612729
 20
-418.1067752544
 10
-206.2527094325
 20
-411.8582995488
 10
-201.6547336283
 20
-405.3585112144
 10
-196.8813219116
 20
-398.6107035403
 10
-191.9350021339
 20
-391.6184541038
 10
-186.8182810737
 20
-384.3853039822
 10
-181.5338340965
 20
-376.9150862546
 10
-176.0843730684
 20
-369.2116129268
 10
-170.4727727959
 20
-361.2788939326
 10
-164.7019137324
 20
-353.1210332795
 10
-158.7747606249
 20
-344.7422809763
 10
-152.6944144412
 20
-336.1469543854
 10
-146.4640316559
 20
-327.3395091569
 10
-140.0868242505
 20
-318.3245392284
 10
-133.5661116404
 20
-309.106698178
 10
-126.9052764612
 20
-299.6907490846
 10
-120.1077357822
 20
-290.0815568141
 10
-113.1770408264
 20
-280.2841764475
 10
-106.1167870306
 20
-270.3036132051
 10
-98.9306176248
 20
-260.1450393819
 10
-91.622260133
 20
-249.8137732736
 10
-84.1955073662
 20
-239.3151198162
 10
-76.6542287156
 20
-228.6545587332
 10
-69.0022935724
 20
-217.8375697483
 10
-61.2436766951
 20
-206.8698150863
 10
-53.3823970556
 20
-195.7569071118
 10
-45.4225424928
 20
-184.5046617639
 10
-37.368262276
 20
-173.1188960154
 10
-29.2236576042
 20
-161.6054910924
 10
-20.9930157571
 20
-149.9704397888
 10
-12.6805836579
 20
-138.2197703653
 10
-4.2906580897
 20
-126.3595552961
 10
4.1724076239
 20
-114.3959439127
 10
12.7042285493
 20
-102.335140297
 10
21.300384286
 20
-90.1833888877
 10
29.9564122867
 20
-77.9470071242
 10
38.6678356107
 20
-65.6323163024
 10
47.4301351703
 20
-53.2457107188
 10
56.2387630912
 20
-40.7935923833
 10
65.0891725323
 20
-28.2824247361
 10
73.9767629356
 20
-15.7187010377
 10
82.8969356715
 20
-3.1089217452
 10
91.8450547152
 20
9.5403795238
 10
100.8164989519
 20
22.2226422936
 10
109.8066184801
 20
34.9312983748
 10
118.8107401381
 20
47.659765632
 10
127.8242092728
 20
60.4014360359
 10
136.8423520167
 20
73.1497156918
  0
LWPOLYLINE
  5
92
330
1F
100
AcDbEntity
  8
0
  6
Continuous
 62
     7
370
    15
100
AcDbPolyline
 90
       70
 70
   128
 43
0.0
 10
109.3302295544
 20
92.6118105496
 10
100.3120868106
 20
79.8635308937
 10
91.2986186401
 20
67.1218568914
 10
82.2944914553
 20
54.3933958667
 10
73.304380088
 20
41.6847381155
 10
64.3329358513
 20
29.0024753458
 10
55.3848096109
 20
16.3531721484
 10
46.464636875
 20
3.7433928559
 10
37.5770484
 20
-8.8203380392
 10
28.726651424
 20
-21.331494633
 10
19.9180071814
 20
-33.7836096285
 10
11.1557095501
 20
-46.1702224088
 10
2.4442862261
 20
-58.4849132306
 10
-6.2117417746
 20
-70.7212949941
 10
-14.8078831179
 20
-82.8730425467
 10
-23.3397040433
 20
-94.9338461624
 10
-31.8027697569
 20
-106.8974575458
 10
-40.1927097185
 20
-118.7576764717
 10
-48.5051418177
 20
-130.5083458952
 10
-56.7357836647
 20
-142.1433971988
 10
-64.8803595498
 20
-153.6567944084
 10
-72.9346685534
 20
-165.0425678704
 10
-80.8945231162
 20
-176.2948132182
 10
-88.7557778256
 20
-187.4076990859
 10
-96.5144157763
 20
-198.3754902482
 10
-104.1663586329
 20
-209.1924504462
 10
-111.7076295701
 20
-219.8530403161
 10
-119.1343900503
 20
-230.3516649866
 10
-126.4427398287
 20
-240.6829598817
 10
-133.6289169479
 20
-250.8415049181
 10
-140.6891707437
 20
-260.8220681605
 10
-147.6198579861
 20
-270.619477314
 10
-154.4174063786
 20
-280.2286407976
 10
-161.0782415577
 20
-289.644589891
 10
-167.5989541678
 20
-298.8624309414
 10
-173.9761538598
 20
-307.8774296567
 10
-180.2065443585
 20
-316.6848460984
 10
-186.2868905422
 20
-325.2801726893
 10
-192.2140071495
 20
-333.6589460659
 10
-197.9849027132
 20
-341.8167856456
 10
-203.5965029857
 20
-349.7495046398
 10
-209.0459640138
 20
-357.4529779676
 10
-214.3304032776
 20
-364.923224482
 10
-219.4471320512
 20
-372.1563458168
 10
-224.3934441155
 20
-379.1486240401
 10
-229.1668347588
 20
-385.896395214
 10
-233.7648316364
 20
-392.3962200486
 10
-238.1850122637
 20
-398.6447034677
 10
-242.4250461631
 20
-404.638567609
 10
-246.4828521586
 20
-410.3747556788
 10
-250.35626836
 20
-415.8502818168
 10
-254.0432171709
 20
-421.0623061638
 10
-257.5419510102
 20
-426.0081389952
 10
-260.8505032952
 20
-430.6852170269
 10
-263.967187598
 20
-435.0910828955
 10
-266.890451645
 20
-439.2234694527
 10
-269.618762169
 20
-443.0802689107
 10
-272.1506856234
 20
-446.6594619094
 10
-274.4848804685
 20
-449.9591463024
 10
-276.6201814657
 20
-452.9776831588
 10
-278.5555308102
 20
-455.713493188
 10
-280.2897745563
 20
-458.1651256067
 10
-281.8221962078
 20
-460.3313394068
 10
-283.15186798
 20
-462.2109912336
 10
-284.2781268168
 20
-463.8031012273
 10
-285.2003785285
 20
-465.1068931027
 10
-285.9182592204
 20
-466.1216522816
 10
-286.4312358564
 20
-466.8468348404
 10
-286.7391552761
 20
-467.2820912033
 10
-286.8418257516
 20
-467.427215729
  0
LWPOLYLINE
  5
93
330
1F
100
AcDbEntity
  8
0
  6
Continuous
 62
     7
370
    15
100
AcDbPolyline
 90
       70
 70
   128
 43
0.0
 10
895.8329983262
 20
77.1522933326
 10
895.6560211675
 20
77.1686469083
 10
895.1251012614
 20
77.2176644552
 10
894.2405496164
 20
77.2993367469
 10
893.0028078154
 20
77.413627837
 10
891.4125747326
 20
77.5604627323
 10
889.4706068159
 20
77.7397818666
 10
887.1779792353
 20
77.9514876604
 10
884.5357748741
 20
78.1954537473
 10
881.5454413411
 20
78.4715743547
 10
878.2085606761
 20
78.7797025968
 10
874.5267802059
 20
79.1196782275
 10
870.5020045488
 20
79.4913019541
 10
866.1363763312
 20
79.8944074046
 10
861.4321687538
 20
80.3288014866
 10
856.3917971614
 20
80.7942212076
 10
851.0177920461
 20
81.2904344287
 10
845.3130563392
 20
81.8172008181
 10
839.2805045418
 20
82.3742368636
 10
832.9232968765
 20
82.9612631867
 10
826.2446089931
 20
83.5779428352
 10
819.2480349833
 20
84.2239892709
 10
811.9371805094
 20
84.8990727754
 10
804.3157280907
 20
85.60280709
 10
796.3877748322
 20
86.3348707637
 10
788.1573181184
 20
87.0948539178
 10
779.6286547724
 20
87.8823806277
 10
770.8062199047
 20
88.697019462
 10
761.6945637733
 20
89.5383698426
 10
752.2984363538
 20
90.4059767184
 10
742.6226989129
 20
91.2994302849
 10
732.6723625745
 20
92.2182220508
 10
722.4526073271
 20
93.1619041985
 10
711.9686324426
 20
94.1299569434
 10
701.2259903483
 20
95.1219242749
 10
690.2301990382
 20
96.1372483952
 10
678.9869453704
 20
97.1754321803
 10
667.5020544906
 20
98.2359229993
 10
655.7815070489
 20
99.3181636082
 10
643.8313700558
 20
100.421619903
 10
631.6578161658
 20
101.5457089531
 10
619.2671773945
 20
102.6898288212
 10
606.6658394743
 20
103.8534073901
 10
593.8603801421
 20
105.0358468562
 10
580.8573887053
 20
106.2365062355
 10
567.6636559786
 20
107.4547985378
 10
554.2859613453
 20
108.6900642893
 10
540.7312914817
 20
109.9416764199
 10
527.0066388489
 20
111.2089862691
 10
513.1191226255
 20
112.4913328503
 10
499.0759253491
 20
113.788049013
 10
484.8843524177
 20
115.098469674
 10
470.5517457297
 20
116.4219086763
 10
456.0855354722
 20
117.7576958068
 10
441.4932229048
 20
119.1051259019
 10
426.7823400018
 20
120.4634943149
 10
411.9605540636
 20
121.8321095193
 10
397.0355218539
 20
123.2102617384
 10
382.0149673517
 20
124.5972206388
 10
366.9066980041
 20
125.9922898224
 10
351.7185462574
 20
127.394737166
 10
336.4583599155
 20
128.8038308046
 10
321.1340472487
 20
130.218843505
 10
305.7535779575
 20
131.6390490675
 10
290.3248963302
 20
133.0637009846
 10
274.8560119076
 20
134.492068305
 10
259.354937605
 20
135.9234074829
 10
243.8297016956
 20
137.3569752309
 10
228.2883545244
 20
138.7920322478
 10
212.7389481842
 20
140.22783271
  0
LWPOLYLINE
  5
94
330
1F
100
AcDbEntity
  8
0
  6
Continuous
 62
     7
370
    15
100
AcDbPolyline
 90
       70
 70
   128
 43
0.0
 10
209.6403407787
 20
106.6705899491
 10
225.1897474201
 20
105.2347883624
 10
240.7310945913
 20
103.7997313456
 10
256.2563309829
 20
102.3661617983
 10
271.7574052854
 20
100.9348226204
 10
287.2262887439
 20
99.5064588984
 10
302.6549698891
 20
98.0818087805
 10
318.0354391803
 20
96.661603218
 10
333.3597518471
 20
95.2465905175
 10
348.6199381889
 20
93.8374968789
 10
363.8080899357
 20
92.4350495354
 10
378.9163602475
 20
91.0399767534
 10
393.9369147497
 20
89.653017853
 10
408.8619469594
 20
88.2748656339
 10
423.6837328975
 20
86.9062504295
 10
438.3946158005
 20
85.5478820165
 10
452.986928368
 20
84.2004519214
 10
467.4531366971
 20
82.8646719877
 10
481.7857472418
 20
81.5412185919
 10
495.9773182449
 20
80.2308051276
 10
510.0205155213
 20
78.9340889649
 10
523.908033673
 20
77.6517351871
 10
537.6326824491
 20
76.3844397312
 10
551.1873561694
 20
75.1328132072
 10
564.5650488743
 20
73.8975546524
 10
577.758781601
 20
72.6792623501
 10
590.7617730379
 20
71.4786029708
 10
603.56723237
 20
70.2961635047
 10
616.1685702902
 20
69.1325849358
 10
628.5592090616
 20
67.9884650677
 10
640.7327629516
 20
66.8643760176
 10
652.6828999447
 20
65.7609197228
 10
664.4034473864
 20
64.6786791139
 10
675.8883382661
 20
63.6181882949
 10
687.1315919339
 20
62.5800045098
 10
698.1273832441
 20
61.5646803895
 10
708.8700253383
 20
60.572713058
 10
719.3540002228
 20
59.6046603131
 10
729.5737554702
 20
58.6609781654
 10
739.5240918086
 20
57.7421863995
 10
749.1998292496
 20
56.848732833
 10
758.595956669
 20
55.9811259573
 10
767.7076128005
 20
55.1397755766
 10
776.5300476682
 20
54.3251367423
 10
785.0587110142
 20
53.5376100324
 10
793.2891677279
 20
52.7776268783
 10
801.2171209865
 20
52.0455632047
 10
808.8385734052
 20
51.34182889
 10
816.1494278791
 20
50.6667453855
 10
823.1460018888
 20
50.0206989498
 10
829.824693629
 20
49.4040049079
 10
836.1818974375
 20
48.8169929782
 10
842.2144492349
 20
48.2599569327
 10
847.9191849419
 20
47.7331905433
 10
853.2931862004
 20
47.2369917156
 10
858.3335655063
 20
46.7715432078
 10
863.0377653703
 20
46.3371779126
 10
867.4033974445
 20
45.9340580688
 10
871.4281731017
 20
45.5624343421
 10
875.1099497152
 20
45.2224731048
 10
878.4468380936
 20
44.9143160759
 10
881.4371639131
 20
44.6382242553
 10
884.079372131
 20
44.394243775
 10
886.3719997116
 20
44.1825379812
 10
888.3139676283
 20
44.0032188469
 10
889.9042045679
 20
43.8563695582
 10
891.1419425122
 20
43.7420928615
 10
892.0264941571
 20
43.6604205698
 10
892.5574102065
 20
43.6114174163
 10
892.7343873653
 20
43.5950638406
  0
LINE
  5
95
330
1F
100
AcDbEntity
  8
0
  6
Continuous
 62
     7
370
    15
100
AcDbLine
 10
102.346346113
 20
138.5208549418
 30
0.0
 11
102.1153494988
 21
138.5421834079
 31
0.0
  0
LINE
  5
96
330
1F
100
AcDbEntity
  8
0
  6
Continuous
 62
     7
370
    15
100
AcDbLine
 10
101.1958801671
 20
128.584545076
 30
0.0
 11
101.4268772634
 21
128.5632148107
 31
0.0
  0
LINE
  5
97
330
1F
100
AcDbEntity
  8
0
  6
Continuous
 62
     7
370
    15
100
AcDbLine
 10
190.5603648078
 20
169.6060037115
 30
0.0
 11
190.6943361804
 21
169.7953884224
 31
0.0
  0
LINE
  5
98
330
1F
100
AcDbEntity
  8
0
  6
Continuous
 62
     7
370
    15
100
AcDbLine
 10
182.5305024645
 20
175.5704899156
 30
0.0
 11
182.3965306098
 21
175.3811070038
 31
0.0
  0
LINE
  5
99
330
1F
100
AcDbEntity
  8
0
  6
Continuous
 62
     7
370
    15
100
AcDbLine
 10
173.3738850715
 20
77.6678463483
 30
0.0
 11
173.4709116947
 21
77.4571316131
 31
0.0
  0
LINE
  5
9A
330
1F
100
AcDbEntity
  8
0
  6
Continuous
 62
     7
370
    15
100
AcDbLine
 10
182.5542149832
 20
81.6396675523
 30
0.0
 11
182.45718836
 21
81.8503822875
 31
0.0
  0
LINE
  5
9B
330
1F
100
AcDbEntity
  8
0
  6
Continuous
 62
     7
370
    15
100
AcDbLine
 10
120.2933667748
 20
87.5904652508
 30
0.0
 11
120.1593954022
 21
87.4010805399
 31
0.0
  0
LINE
  5
9C
330
1F
100
AcDbEntity
  8
0
  6
Continuous
 62
     7
370
    15
100
AcDbLine
 10
128.3232291181
 20
81.6259790467
 30
0.0
 11
128.4572009728
 21
81.8153619585
 31
0.0
  0
LINE
  5
9D
330
1F
100
AcDbEntity
  8
0
  6
Continuous
 62
     7
370
    15
100
AcDbLine
 10
137.4798465111
 20
179.528622614
 30
0.0
 11
137.3828198879
 21
179.7393373492
 31
0.0
  0
LINE
  5
9E
330
1F
100
AcDbEntity
  8
0
  6
Continuous
 62
     7
370
    15
100
AcDbLine
 10
128.2995165993
 20
175.55680141
 30
0.0
 11
128.3965432226
 21
175.3460866748
 31
0.0
  0
LINE
  5
9F
330
1F
100
AcDbEntity
  8
0
  6
Continuous
 62
     7
370
    15
100
AcDbLine
 10
208.5073854696
 20
118.6756140205
 30
0.0
 11
208.7383820838
 21
118.6542855544
 31
0.0
  0
LINE
  5
A0
330
1F
100
AcDbEntity
  8
0
  6
Continuous
 62
     7
370
    15
100
AcDbLine
 10
209.6578514154
 20
128.6119238863
 30
0.0
 11
209.4268543192
 21
128.6332541516
 31
0.0
  0
LINE
  5
A1
330
1F
100
AcDbEntity
  8
0
  6
Continuous
 62
     7
370
    15
100
AcDbLine
 10
235.9724782092
 20
39.646541946
 30
0.0
 11
277.4857043298
 21
-7.7639336031
 31
0.0
  0
LINE
  5
A2
330
1F
100
AcDbEntity
  8
0
  6
Continuous
 62
     7
370
    15
100
AcDbLine
 10
788.7275153437
 20
559.511570935
 30
0.0
 11
300.6146591757
 21
132.1135679686
 31
0.0
  0
LINE
  5
A3
330
1F
100
AcDbEntity
  8
0
  6
Continuous
 62
     7
370
    15
100
AcDbLine
 10
835.591965842
 20
480.9212098609
 30
0.0
 11
424.2009385251
 21
120.7018541186
 31
0.0
  0
LINE
  5
A4
330
1F
100
AcDbEntity
  8
0
  6
Continuous
 62
     7
370
    15
100
AcDbLine
 10
389.2370318871
 20
90.0869894901
 30
0.0
 11
277.4857043298
 21
-7.7639336031
 31
0.0
  0
ARC
  5
A5
330
1F
100
AcDbEntity
  8
0
  6
Continuous
 62
     7
370
    15
100
AcDbCircle
 10
155.4268657913
 20
128.5982344811
 30
0.0
 40
766.0000000000017
100
AcDbArc
 50
27.3839876526
 51
34.2323343572
  0
LINE
  5
A6
330
1F
100
AcDbEntity
  8
0
  6
Continuous
 62
     7
370
    15
100
AcDbLine
 10
244.3785583264
 20
209.143846899
 30
0.0
 11
291.7890338755
 21
250.6570730196
 31
0.0
  0
LINE
  5
A7
330
1F
100
AcDbEntity
  8
0
  6
Continuous
 62
     7
370
    15
100
AcDbLine
 10
-275.4864706626
 20
761.8988840336
 30
0.0
 11
-20.8050093034
 21
471.038147772
 31
0.0
  0
LINE
  5
A8
330
1F
100
AcDbEntity
  8
0
  6
Continuous
 62
     7
370
    15
100
AcDbLine
 10
57.4468391655
 20
381.6700776407
 30
0.0
 11
175.4375000561
 21
246.918031317
 31
0.0
  0
ARC
  5
A9
330
1F
100
AcDbEntity
  8
0
  6
Continuous
 62
     7
370
    15
100
AcDbCircle
 10
155.4268657913
 20
128.5982344811
 30
0.0
 40
766.0000000000016
100
AcDbArc
 50
117.3839876526
 51
124.2323343572
  0
LINE
  5
AA
330
1F
100
AcDbEntity
  8
0
  6
Continuous
 62
     7
370
    15
100
AcDbLine
 10
-196.8961095884
 20
808.7633345318
 30
0.0
 11
-196.1552308228
 21
807.9172100422
 31
0.0
  0
LINE
  5
AB
330
1F
100
AcDbEntity
  8
0
  6
Continuous
 62
     7
370
    15
100
AcDbLine
 10
-164.9474696678
 20
772.2761594696
 30
0.0
 11
-153.4881863853
 21
759.1889870328
 31
0.0
  0
LINE
  5
AC
330
1F
100
AcDbEntity
  8
0
  6
Continuous
 62
     7
370
    15
100
AcDbLine
 10
-75.236347429
 20
669.8209452062
 30
0.0
 11
252.7062479503
 21
295.29183902
 31
0.0
  0
LINE
  5
AD
330
1F
100
AcDbEntity
  8
0
  6
Continuous
 62
     7
370
    15
100
AcDbLine
 10
275.5392615076
 20
269.2152388515
 30
0.0
 11
291.7890338755
 21
250.6570730196
 31
0.0
  0
LINE
  5
AE
330
1F
100
AcDbEntity
  8
0
  6
Continuous
 62
     7
370
    15
100
AcDbLine
 10
-477.8737837611
 20
-302.3151019727
 30
0.0
 11
10.2390724069
 21
125.0829009937
 31
0.0
  0
ARC
  5
AF
330
1F
100
AcDbEntity
  8
0
  6
Continuous
 62
     7
370
    15
100
AcDbCircle
 10
155.4268657913
 20
128.5982344811
 30
0.0
 40
766.0000000000018
100
AcDbArc
 50
207.3839876526
 51
214.2323343572
  0
LINE
  5
B0
330
1F
100
AcDbEntity
  8
0
  6
Continuous
 62
     7
370
    15
100
AcDbLine
 10
-524.7382342594
 20
-223.7247408986
 30
0.0
 11
-113.3472069425
 21
136.4946148437
 31
0.0
  0
LINE
  5
B1
330
1F
100
AcDbEntity
  8
0
  6
Continuous
 62
     7
370
    15
100
AcDbLine
 10
-78.3833003045
 20
167.1094794722
 30
0.0
 11
33.3680272528
 21
264.9604025654
 31
0.0
  0
LINE
  5
B2
330
1F
100
AcDbEntity
  8
0
  6
Continuous
 62
     7
370
    15
100
AcDbLine
 10
74.8812533734
 20
217.5499270163
 30
0.0
 11
33.3680272528
 21
264.9604025654
 31
0.0
  0
LINE
  5
B3
330
1F
100
AcDbEntity
  8
0
  6
Continuous
 62
     7
370
    15
100
AcDbLine
 10
278.1444692492
 20
-8.516282168
 30
0.0
 11
337.433390646
 21
-76.2276010855
 31
0.0
  0
LINE
  5
B4
330
1F
100
AcDbEntity
  8
0
  6
Continuous
 62
     7
370
    15
100
AcDbLine
 10
836.0650592085
 20
480.0063098656
 30
0.0
 11
425.5741155135
 21
120.5750577546
 31
0.0
  0
LINE
  5
B5
330
1F
100
AcDbEntity
  8
0
  6
Continuous
 62
     7
370
    15
100
AcDbLine
 10
390.6102088755
 20
89.9601931261
 30
0.0
 11
278.1444692492
 21
-8.516282168
 31
0.0
  0
LINE
  5
B6
330
1F
100
AcDbEntity
  8
0
  6
Continuous
 62
     7
370
    15
100
AcDbLine
 10
874.0969102733
 20
393.6819857907
 30
0.0
 11
549.1604246139
 21
109.1633480196
 31
0.0
  0
LINE
  5
B7
330
1F
100
AcDbEntity
  8
0
  6
Continuous
 62
     7
370
    15
100
AcDbLine
 10
514.1964891891
 20
78.5484756777
 30
0.0
 11
337.433390646
 21
-76.2276010855
 31
0.0
  0
ARC
  5
B8
330
1F
100
AcDbEntity
  8
0
  6
Continuous
 62
     7
370
    15
100
AcDbCircle
 10
155.4268657913
 20
128.5982344811
 30
0.0
 40
766.0000000000019
100
AcDbArc
 50
20.2466581596
 51
27.3069457106
  0
LINE
  5
B9
330
1F
100
AcDbEntity
  8
0
  6
Continuous
 62
     7
370
    15
100
AcDbLine
 10
292.5413824405
 20
251.3158379391
 30
0.0
 11
360.2527013579
 21
310.6047593359
 31
0.0
  0
LINE
  5
BA
330
1F
100
AcDbEntity
  8
0
  6
Continuous
 62
     7
370
    15
100
AcDbLine
 10
-195.9812095931
 20
809.2364278983
 30
0.0
 11
-195.2882708251
 21
808.4450890919
 31
0.0
  0
LINE
  5
BB
330
1F
100
AcDbEntity
  8
0
  6
Continuous
 62
     7
370
    15
100
AcDbLine
 10
-164.0212489112
 20
772.7363657496
 30
0.0
 11
-154.9624438424
 21
762.3906925246
 31
0.0
  0
LINE
  5
BC
330
1F
100
AcDbEntity
  8
0
  6
Continuous
 62
     7
370
    15
100
AcDbLine
 10
-76.710596656
 20
673.022591196
 30
0.0
 11
253.3002137715
 21
296.1314840176
 31
0.0
  0
LINE
  5
BD
330
1F
100
AcDbEntity
  8
0
  6
Continuous
 62
     7
370
    15
100
AcDbLine
 10
276.1332254005
 20
270.0548910458
 30
0.0
 11
292.5413824405
 21
251.3158379391
 31
0.0
  0
ARC
  5
BE
330
1F
100
AcDbEntity
  8
0
  6
Continuous
 62
     7
370
    15
100
AcDbCircle
 10
155.4268657913
 20
128.5982344811
 30
0.0
 40
766.0000000000018
100
AcDbArc
 50
110.2466581596
 51
117.3069457106
  0
LINE
  5
BF
330
1F
100
AcDbEntity
  8
0
  6
Continuous
 62
     7
370
    15
100
AcDbLine
 10
-109.6568855183
 20
847.2682789632
 30
0.0
 11
306.7571931868
 21
371.6996720885
 31
0.0
  0
LINE
  5
C0
330
1F
100
AcDbEntity
  8
0
  6
Continuous
 62
     7
370
    15
100
AcDbLine
 10
329.5902067441
 20
345.62307192
 30
0.0
 11
360.2527013579
 21
310.6047593359
 31
0.0
  0
ARC
  5
C1
330
1F
100
AcDbEntity
  8
0
  6
Continuous
 62
     7
370
    15
100
AcDbCircle
 10
155.4268657913
 20
128.5982344811
 30
0.0
 40
766.0000000000016
100
AcDbArc
 50
200.2466581596
 51
207.3069457106
  0
LINE
  5
C2
330
1F
100
AcDbEntity
  8
0
  6
Continuous
 62
     7
370
    15
100
AcDbLine
 10
-563.2431786907
 20
-136.4855168284
 30
0.0
 11
-238.3066930313
 21
148.0331209427
 31
0.0
  0
LINE
  5
C3
330
1F
100
AcDbEntity
  8
0
  6
Continuous
 62
     7
370
    15
100
AcDbLine
 10
-203.3427576065
 20
178.6479932846
 30
0.0
 11
-26.5796590634
 21
333.4240700478
 31
0.0
  0
LINE
  5
C4
330
1F
100
AcDbEntity
  8
0
  6
Continuous
 62
     7
370
    15
100
AcDbLine
 10
-525.2113276259
 20
-222.8098409033
 30
0.0
 11
-114.7203839309
 21
136.6214112077
 31
0.0
  0
LINE
  5
C5
330
1F
100
AcDbEntity
  8
0
  6
Continuous
 62
     7
370
    15
100
AcDbLine
 10
-79.7564772929
 20
167.2362758362
 30
0.0
 11
32.7092623334
 21
265.7127511303
 31
0.0
  0
LINE
  5
C6
330
1F
100
AcDbEntity
  8
0
  6
Continuous
 62
     7
370
    15
100
AcDbLine
 10
32.7092623334
 20
265.7127511303
 30
0.0
 11
-26.5796590634
 21
333.4240700478
 31
0.0
  0
LINE
  5
C7
330
1F
100
AcDbEntity
  8
0
  6
Continuous
 62
     7
370
    15
100
AcDbLine
 10
338.0921627622
 20
-76.979947722
 30
0.0
 11
397.3810769622
 21
-144.6912685678
 31
0.0
  0
LINE
  5
C8
330
1F
100
AcDbEntity
  8
0
  6
Continuous
 62
     7
370
    15
100
AcDbLine
 10
874.4668413833
 20
392.6767643937
 30
0.0
 11
550.5336016022
 21
109.0365516557
 31
0.0
  0
LINE
  5
C9
330
1F
100
AcDbEntity
  8
0
  6
Continuous
 62
     7
370
    15
100
AcDbLine
 10
515.5696661774
 20
78.4216793138
 30
0.0
 11
338.0921627622
 21
-76.979947722
 31
0.0
  0
ARC
  5
CA
330
1F
100
AcDbEntity
  8
0
  6
Continuous
 62
     7
370
    15
100
AcDbCircle
 10
155.4268657913
 20
128.5982344811
 30
0.0
 40
766.0000000000019
100
AcDbArc
 50
12.7486695401
 51
20.1665383553
  0
LINE
  5
CB
330
1F
100
AcDbEntity
  8
0
  6
Continuous
 62
     7
370
    15
100
AcDbLine
 10
902.5430193634
 20
297.6351241675
 30
0.0
 11
674.1198799875
 21
97.624841404
 31
0.0
  0
LINE
  5
CC
330
1F
100
AcDbEntity
  8
0
  6
Continuous
 62
     7
370
    15
100
AcDbLine
 10
639.1559714211
 20
67.0099839722
 30
0.0
 11
397.3810769622
 21
-144.6912685678
 31
0.0
  0
LINE
  5
CD
330
1F
100
AcDbEntity
  8
0
  6
Continuous
 62
     7
370
    15
100
AcDbLine
 10
361.0050479945
 20
311.263531452
 30
0.0
 11
428.7163688403
 21
370.5524456521
 31
0.0
  0
LINE
  5
CE
330
1F
100
AcDbEntity
  8
0
  6
Continuous
 62
     7
370
    15
100
AcDbLine
 10
-108.6516641212
 20
847.6382100732
 30
0.0
 11
307.351159008
 21
372.5393170861
 31
0.0
  0
LINE
  5
CF
330
1F
100
AcDbEntity
  8
0
  6
Continuous
 62
     7
370
    15
100
AcDbLine
 10
330.1841869587
 20
346.4627207743
 30
0.0
 11
361.0050479945
 21
311.263531452
 31
0.0
  0
ARC
  5
D0
330
1F
100
AcDbEntity
  8
0
  6
Continuous
 62
     7
370
    15
100
AcDbCircle
 10
155.4268657913
 20
128.5982344811
 30
0.0
 40
766.0000000000019
100
AcDbArc
 50
102.7486695401
 51
110.1665383553
  0
LINE
  5
D1
330
1F
100
AcDbEntity
  8
0
  6
Continuous
 62
     7
370
    15
100
AcDbLine
 10
-13.610023895
 20
875.7143880532
 30
0.0
 11
360.8081710668
 21
448.1074984771
 31
0.0
  0
LINE
  5
D2
330
1F
100
AcDbEntity
  8
0
  6
Continuous
 62
     7
370
    15
100
AcDbLine
 10
383.6411846241
 20
422.0308983086
 30
0.0
 11
428.7163688403
 21
370.5524456521
 31
0.0
  0
LINE
  5
D3
330
1F
100
AcDbEntity
  8
0
  6
Continuous
 62
     7
370
    15
100
AcDbLine
 10
-563.6131098007
 20
-135.4802954314
 30
0.0
 11
-239.6798700196
 21
148.1599173066
 31
0.0
  0
LINE
  5
D4
330
1F
100
AcDbEntity
  8
0
  6
Continuous
 62
     7
370
    15
100
AcDbLine
 10
-204.7159345948
 20
178.7747896485
 30
0.0
 11
-27.2384311796
 21
334.1764166843
 31
0.0
  0
ARC
  5
D5
330
1F
100
AcDbEntity
  8
0
  6
Continuous
 62
     7
370
    15
100
AcDbCircle
 10
155.4268657913
 20
128.5982344811
 30
0.0
 40
766.0000000000013
100
AcDbArc
 50
192.7486695401
 51
200.1665383553
  0
LINE
  5
D6
330
1F
100
AcDbEntity
  8
0
  6
Continuous
 62
     7
370
    15
100
AcDbLine
 10
-591.6892877808
 20
-40.4386552052
 30
0.0
 11
-363.2661484049
 21
159.5716275583
 31
0.0
  0
LINE
  5
D7
330
1F
100
AcDbEntity
  8
0
  6
Continuous
 62
     7
370
    15
100
AcDbLine
 10
-328.3022398385
 20
190.1864849901
 30
0.0
 11
-86.5273453797
 21
401.8877375301
 31
0.0
  0
LINE
  5
D8
330
1F
100
AcDbEntity
  8
0
  6
Continuous
 62
     7
370
    15
100
AcDbLine
 10
-27.2384311796
 20
334.1764166843
 30
0.0
 11
-86.5273453797
 21
401.8877375301
 31
0.0
  0
LINE
  5
D9
330
1F
100
AcDbEntity
  8
0
  6
Continuous
 62
     7
370
    15
100
AcDbLine
 10
398.0398457384
 20
-145.4436315262
 30
0.0
 11
457.3287671352
 21
-213.1549504436
 31
0.0
  0
LINE
  5
DA
330
1F
100
AcDbEntity
  8
0
  6
Continuous
 62
     7
370
    15
100
AcDbLine
 10
902.7933049247
 20
296.5251006139
 30
0.0
 11
675.4930569758
 21
97.4980450401
 31
0.0
  0
LINE
  5
DB
330
1F
100
AcDbEntity
  8
0
  6
Continuous
 62
     7
370
    15
100
AcDbLine
 10
640.5291484095
 20
66.8831876083
 30
0.0
 11
398.0398457384
 21
-145.4436315262
 31
0.0
  0
ARC
  5
DC
330
1F
100
AcDbEntity
  8
0
  6
Continuous
 62
     7
370
    15
100
AcDbCircle
 10
155.4268657913
 20
128.5982344811
 30
0.0
 40
766.0000000000019
100
AcDbArc
 50
4.6717745109
 51
12.6635568791
  0
LINE
  5
DD
330
1F
100
AcDbEntity
  8
0
  6
Continuous
 62
     7
370
    15
100
AcDbLine
 10
918.8819331305
 20
190.9870423404
 30
0.0
 11
799.0793372894
 21
86.0863275917
 31
0.0
  0
LINE
  5
DE
330
1F
100
AcDbEntity
  8
0
  6
Continuous
 62
     7
370
    15
100
AcDbLine
 10
764.1154287231
 20
55.4714701599
 30
0.0
 11
457.3287671352
 21
-213.1549504436
 31
0.0
  0
LINE
  5
DF
330
1F
100
AcDbEntity
  8
0
  6
Continuous
 62
     7
370
    15
100
AcDbLine
 10
429.4687317986
 20
371.2112144282
 30
0.0
 11
497.1800507161
 21
430.500135825
 31
0.0
  0
LINE
  5
E0
330
1F
100
AcDbEntity
  8
0
  6
Continuous
 62
     7
370
    15
100
AcDbLine
 10
-12.5000003414
 20
875.9646736145
 30
0.0
 11
361.4021330313
 21
448.9471578681
 31
0.0
  0
LINE
  5
E1
330
1F
100
AcDbEntity
  8
0
  6
Continuous
 62
     7
370
    15
100
AcDbLine
 10
384.2351465886
 20
422.8705576996
 30
0.0
 11
429.4687317986
 21
371.2112144282
 31
0.0
  0
ARC
  5
E2
330
1F
100
AcDbEntity
  8
0
  6
Continuous
 62
     7
370
    15
100
AcDbCircle
 10
155.4268657913
 20
128.5982344811
 30
0.0
 40
766.0000000000019
100
AcDbArc
 50
94.6717745109
 51
102.6635568791
  0
LINE
  5
E3
330
1F
100
AcDbEntity
  8
0
  6
Continuous
 62
     7
370
    15
100
AcDbLine
 10
93.0380579321
 20
892.0533018204
 30
0.0
 11
414.8591124466
 21
524.515345939
 31
0.0
  0
LINE
  5
E4
330
1F
100
AcDbEntity
  8
0
  6
Continuous
 62
     7
370
    15
100
AcDbLine
 10
437.6921260039
 20
498.4387457705
 30
0.0
 11
497.1800507161
 21
430.500135825
 31
0.0
  0
LINE
  5
E5
330
1F
100
AcDbEntity
  8
0
  6
Continuous
 62
     7
370
    15
100
AcDbLine
 10
-87.1861141558
 20
402.6401004885
 30
0.0
 11
-146.4750355526
 21
470.3514194059
 31
0.0
  0
LINE
  5
E6
330
1F
100
AcDbEntity
  8
0
  6
Continuous
 62
     7
370
    15
100
AcDbLine
 10
-591.9395733421
 20
-39.3286316516
 30
0.0
 11
-364.6393253932
 21
159.6984239222
 31
0.0
  0
LINE
  5
E7
330
1F
100
AcDbEntity
  8
0
  6
Continuous
 62
     7
370
    15
100
AcDbLine
 10
-329.6754168269
 20
190.313281354
 30
0.0
 11
-87.1861141558
 21
402.6401004885
 31
0.0
  0
ARC
  5
E8
330
1F
100
AcDbEntity
  8
0
  6
Continuous
 62
     7
370
    15
100
AcDbCircle
 10
155.4268657913
 20
128.5982344811
 30
0.0
 40
766.0000000000017
100
AcDbArc
 50
184.6717745109
 51
192.6635568791
  0
LINE
  5
E9
330
1F
100
AcDbEntity
  8
0
  6
Continuous
 62
     7
370
    15
100
AcDbLine
 10
-608.0282015479
 20
66.2094266219
 30
0.0
 11
-488.2256057068
 21
171.1101413706
 31
0.0
  0
LINE
  5
EA
330
1F
100
AcDbEntity
  8
0
  6
Continuous
 62
     7
370
    15
100
AcDbLine
 10
-453.2616971405
 20
201.7249988024
 30
0.0
 11
-146.4750355526
 21
470.3514194059
 31
0.0
  0
LINE
  5
EB
330
1F
100
AcDbEntity
  8
0
  6
Continuous
 62
     7
370
    15
100
AcDbLine
 10
457.9875281979
 20
-213.9072846152
 30
0.0
 11
517.2764573081
 21
-281.6186323194
 31
0.0
  0
LINE
  5
EC
330
1F
100
AcDbEntity
  8
0
  6
Continuous
 62
     7
370
    15
100
AcDbLine
 10
918.9823199475
 20
189.7457948222
 30
0.0
 11
800.4525430646
 21
85.9595389411
 31
0.0
  0
LINE
  5
ED
330
1F
100
AcDbEntity
  8
0
  6
Continuous
 62
     7
370
    15
100
AcDbLine
 10
765.4886344982
 20
55.3446815094
 30
0.0
 11
457.9875281979
 21
-213.9072846152
 31
0.0
  0
ARC
  5
EE
330
1F
100
AcDbEntity
  8
0
  6
Continuous
 62
     7
370
    15
100
AcDbCircle
 10
155.4268657913
 20
128.5982344811
 30
0.0
 40
766.000000000002
100
AcDbArc
 50
355.6363892387
 51
4.5786276982
  0
LINE
  5
EF
330
1F
100
AcDbEntity
  8
0
  6
Continuous
 62
     7
370
    15
100
AcDbLine
 10
919.206454387
 20
70.316543742
 30
0.0
 11
918.131019529
 21
69.3748710082
 31
0.0
  0
LINE
  5
F0
330
1F
100
AcDbEntity
  8
0
  6
Continuous
 62
     7
370
    15
100
AcDbLine
 10
911.0511944725
 20
63.1756685159
 30
0.0
 11
910.9182920856
 21
63.0593134672
 31
0.0
  0
LINE
  5
F1
330
1F
100
AcDbEntity
  8
0
  6
Continuous
 62
     7
370
    15
100
AcDbLine
 10
867.880630806
 20
25.3750023886
 30
0.0
 11
517.2764573081
 21
-281.6186323194
 31
0.0
  0
LINE
  5
F2
330
1F
100
AcDbEntity
  8
0
  6
Continuous
 62
     7
370
    15
100
AcDbLine
 10
497.9323848876
 20
431.1588968878
 30
0.0
 11
565.6437325919
 21
490.447825998
 31
0.0
  0
LINE
  5
F3
330
1F
100
AcDbEntity
  8
0
  6
Continuous
 62
     7
370
    15
100
AcDbLine
 10
94.2793054503
 20
892.1536886373
 30
0.0
 11
415.4530821245
 21
525.3549765432
 31
0.0
  0
LINE
  5
F4
330
1F
100
AcDbEntity
  8
0
  6
Continuous
 62
     7
370
    15
100
AcDbLine
 10
438.2860956818
 20
499.2783763747
 30
0.0
 11
497.9323848876
 21
431.1588968878
 31
0.0
  0
ARC
  5
F5
330
1F
100
AcDbEntity
  8
0
  6
Continuous
 62
     7
370
    15
100
AcDbCircle
 10
155.4268657913
 20
128.5982344811
 30
0.0
 40
766.0000000000019
100
AcDbArc
 50
85.6363892387
 51
94.5786276982
  0
LINE
  5
F6
330
1F
100
AcDbEntity
  8
0
  6
Continuous
 62
     7
370
    15
100
AcDbLine
 10
213.7085565304
 20
892.3778230768
 30
0.0
 11
468.9100615398
 21
600.9231646141
 31
0.0
  0
LINE
  5
F7
330
1F
100
AcDbEntity
  8
0
  6
Continuous
 62
     7
370
    15
100
AcDbLine
 10
491.7430750971
 20
574.8465644456
 30
0.0
 11
565.6437325919
 21
490.447825998
 31
0.0
  0
LINE
  5
F8
330
1F
100
AcDbEntity
  8
0
  6
Continuous
 62
     7
370
    15
100
AcDbLine
 10
-147.1337966153
 20
471.1037535774
 30
0.0
 11
-206.4227257255
 21
538.8151012817
 31
0.0
  0
ARC
  5
F9
330
1F
100
AcDbEntity
  8
0
  6
Continuous
 62
     7
370
    15
100
AcDbCircle
 10
155.4268657913
 20
128.5982344811
 30
0.0
 40
766.0000000000015
100
AcDbArc
 50
175.6363892387
 51
184.5786276982
  0
LINE
  5
FA
330
1F
100
AcDbEntity
  8
0
  6
Continuous
 62
     7
370
    15
100
AcDbLine
 10
-608.3527228044
 20
186.8799252203
 30
0.0
 11
-607.2772879464
 21
187.8215979541
 31
0.0
  0
LINE
  5
FB
330
1F
100
AcDbEntity
  8
0
  6
Continuous
 62
     7
370
    15
100
AcDbLine
 10
-600.1974628899
 20
194.0208004464
 30
0.0
 11
-600.064560503
 21
194.1371554951
 31
0.0
  0
LINE
  5
FC
330
1F
100
AcDbEntity
  8
0
  6
Continuous
 62
     7
370
    15
100
AcDbLine
 10
-557.0268992234
 20
231.8214665736
 30
0.0
 11
-206.4227257255
 21
538.8151012817
 31
0.0
  0
LINE
  5
FD
330
1F
100
AcDbEntity
  8
0
  6
Continuous
 62
     7
370
    15
100
AcDbLine
 10
-608.1285883649
 20
67.4506741401
 30
0.0
 11
-489.598811482
 21
171.2369300212
 31
0.0
  0
LINE
  5
FE
330
1F
100
AcDbEntity
  8
0
  6
Continuous
 62
     7
370
    15
100
AcDbLine
 10
-454.6349029156
 20
201.8517874529
 30
0.0
 11
-147.1337966153
 21
471.1037535774
 31
0.0
  0
LINE
  5
FF
330
1F
100
AcDbEntity
  8
0
  6
Continuous
 62
     7
370
    15
100
AcDbLine
 10
517.9352327643
 20
-282.3709626342
 30
0.0
 11
577.2241397676
 21
-350.0822854084
 31
0.0
  0
LINE
  5
100
330
1F
100
AcDbEntity
  8
0
  6
Continuous
 62
     7
370
    15
100
AcDbLine
 10
919.0963284293
 20
68.8909394736
 30
0.0
 11
918.0187917271
 21
67.9474385533
 31
0.0
  0
LINE
  5
101
330
1F
100
AcDbEntity
  8
0
  6
Continuous
 62
     7
370
    15
100
AcDbLine
 10
911.2073066041
 20
61.9832298414
 30
0.0
 11
911.0679146704
 21
61.861155805
 31
0.0
  0
LINE
  5
102
330
1F
100
AcDbEntity
  8
0
  6
Continuous
 62
     7
370
    15
100
AcDbLine
 10
868.0984823367
 20
24.2365630486
 30
0.0
 11
517.9352327643
 21
-282.3709626342
 31
0.0
  0
LINE
  5
103
330
1F
100
AcDbEntity
  8
0
  6
Continuous
 62
     7
370
    15
100
AcDbLine
 10
894.6582386567
 20
-72.1328545726
 30
0.0
 11
577.2241397676
 21
-350.0822854084
 31
0.0
  0
ARC
  5
104
330
1F
100
AcDbEntity
  8
0
  6
Continuous
 62
     7
370
    15
100
AcDbCircle
 10
155.4268657913
 20
128.5982344811
 30
0.0
 40
766.0000000000019
100
AcDbArc
 50
344.8082028294
 51
355.5294389075
  0
LINE
  5
105
330
1F
100
AcDbEntity
  8
0
  6
Continuous
 62
     7
370
    15
100
AcDbLine
 10
566.3960629067
 20
491.1066014541
 30
0.0
 11
634.1073856808
 21
550.3955084575
 31
0.0
  0
LINE
  5
106
330
1F
100
AcDbEntity
  8
0
  6
Continuous
 62
     7
370
    15
100
AcDbLine
 10
215.1341607988
 20
892.2676971192
 30
0.0
 11
469.5040312177
 21
601.7627952183
 31
0.0
  0
LINE
  5
107
330
1F
100
AcDbEntity
  8
0
  6
Continuous
 62
     7
370
    15
100
AcDbLine
 10
492.337044775
 20
575.6861950498
 30
0.0
 11
566.3960629067
 21
491.1066014541
 31
0.0
  0
ARC
  5
108
330
1F
100
AcDbEntity
  8
0
  6
Continuous
 62
     7
370
    15
100
AcDbCircle
 10
155.4268657913
 20
128.5982344811
 30
0.0
 40
766.0000000000018
100
AcDbArc
 50
74.8082028294
 51
85.5294389075
  0
LINE
  5
109
330
1F
100
AcDbEntity
  8
0
  6
Continuous
 62
     7
370
    15
100
AcDbLine
 10
356.157954845
 20
867.8296073466
 30
0.0
 11
522.9610394198
 21
677.3309910026
 31
0.0
  0
LINE
  5
10A
330
1F
100
AcDbEntity
  8
0
  6
Continuous
 62
     7
370
    15
100
AcDbLine
 10
545.7940529771
 20
651.2543908341
 30
0.0
 11
634.1073856808
 21
550.3955084575
 31
0.0
  0
LINE
  5
10B
330
1F
100
AcDbEntity
  8
0
  6
Continuous
 62
     7
370
    15
100
AcDbLine
 10
-207.0815011817
 20
539.5674315965
 30
0.0
 11
-266.3704081851
 21
607.2787543707
 31
0.0
  0
LINE
  5
10C
330
1F
100
AcDbEntity
  8
0
  6
Continuous
 62
     7
370
    15
100
AcDbLine
 10
-608.2425968467
 20
188.3055294887
 30
0.0
 11
-607.1650601445
 21
189.249030409
 31
0.0
  0
LINE
  5
10D
330
1F
100
AcDbEntity
  8
0
  6
Continuous
 62
     7
370
    15
100
AcDbLine
 10
-600.3535750215
 20
195.2132391209
 30
0.0
 11
-600.2141830878
 21
195.3353131573
 31
0.0
  0
LINE
  5
10E
330
1F
100
AcDbEntity
  8
0
  6
Continuous
 62
     7
370
    15
100
AcDbLine
 10
-557.2447507541
 20
232.9599059137
 30
0.0
 11
-207.0815011817
 21
539.5674315965
 31
0.0
  0
ARC
  5
10F
330
1F
100
AcDbEntity
  8
0
  6
Continuous
 62
     7
370
    15
100
AcDbCircle
 10
155.4268657913
 20
128.5982344811
 30
0.0
 40
766.0000000000017
100
AcDbArc
 50
164.8082028294
 51
175.5294389075
  0
LINE
  5
110
330
1F
100
AcDbEntity
  8
0
  6
Continuous
 62
     7
370
    15
100
AcDbLine
 10
-583.8045070742
 20
329.3293235349
 30
0.0
 11
-266.3704081851
 21
607.2787543707
 31
0.0
  0
LINE
  5
111
330
1F
100
AcDbEntity
  8
0
  6
Continuous
 62
     7
370
    15
100
AcDbLine
 10
577.8829229372
 20
-350.83464451
 30
0.0
 11
637.171844334
 21
-418.5459634275
 31
0.0
  0
LINE
  5
112
330
1F
100
AcDbEntity
  8
0
  6
Continuous
 62
     7
370
    15
100
AcDbLine
 10
894.1818574062
 20
-73.8791747701
 30
0.0
 11
577.8829229372
 21
-350.83464451
 31
0.0
  0
ARC
  5
113
330
1F
100
AcDbEntity
  8
0
  6
Continuous
 62
     7
370
    15
100
AcDbCircle
 10
155.4268657913
 20
128.5982344811
 30
0.0
 40
766.0000000000017
100
AcDbArc
 50
329.0866553145
 51
344.6728063227
  0
LINE
  5
114
330
1F
100
AcDbEntity
  8
0
  6
Continuous
 62
     7
370
    15
100
AcDbLine
 10
812.6129169379
 20
-264.9274276746
 30
0.0
 11
637.171844334
 21
-418.5459634275
 31
0.0
  0
LINE
  5
115
330
1F
100
AcDbEntity
  8
0
  6
Continuous
 62
     7
370
    15
100
AcDbLine
 10
623.8504664182
 20
700.2466288473
 30
0.0
 11
702.5710636999
 21
610.3432130238
 31
0.0
  0
LINE
  5
116
330
1F
100
AcDbEntity
  8
0
  6
Continuous
 62
     7
370
    15
100
AcDbLine
 10
634.8597447825
 20
551.0542916271
 30
0.0
 11
702.5710636999
 21
610.3432130238
 31
0.0
  0
LINE
  5
117
330
1F
100
AcDbEntity
  8
0
  6
Continuous
 62
     7
370
    15
100
AcDbLine
 10
357.9042750426
 20
867.3532260961
 30
0.0
 11
523.5550013843
 21
678.1706503936
 31
0.0
  0
LINE
  5
118
330
1F
100
AcDbEntity
  8
0
  6
Continuous
 62
     7
370
    15
100
AcDbLine
 10
546.3879861548
 20
652.0940425117
 30
0.0
 11
634.8597447825
 21
551.0542916271
 31
0.0
  0
ARC
  5
119
330
1F
100
AcDbEntity
  8
0
  6
Continuous
 62
     7
370
    15
100
AcDbCircle
 10
155.4268657913
 20
128.5982344811
 30
0.0
 40
766.0000000000019
100
AcDbArc
 50
59.0866553145
 51
74.6728063227
  0
LINE
  5
11A
330
1F
100
AcDbEntity
  8
0
  6
Continuous
 62
     7
370
    15
100
AcDbLine
 10
548.9525279471
 20
785.7842856277
 30
0.0
 11
558.4419323406
 21
774.9468533246
 31
0.0
  0
LINE
  5
11B
330
1F
100
AcDbEntity
  8
0
  6
Continuous
 62
     7
370
    15
100
AcDbLine
 10
579.5940446969
 20
750.789971531
 30
0.0
 11
579.7044807631
 21
750.6638444924
 31
0.0
  0
LINE
  5
11C
330
1F
100
AcDbEntity
  8
0
  6
Continuous
 62
     7
370
    15
100
AcDbLine
 10
599.5465086673
 20
728.003102871
 30
0.0
 11
599.6569447335
 21
727.8769758325
 31
0.0
  0
LINE
  5
11D
330
1F
100
AcDbEntity
  8
0
  6
Continuous
 62
     7
370
    15
100
AcDbLine
 10
-267.0291913546
 20
608.0311134723
 30
0.0
 11
-326.3181127514
 21
675.7424323898
 31
0.0
  0
LINE
  5
11E
330
1F
100
AcDbEntity
  8
0
  6
Continuous
 62
     7
370
    15
100
AcDbLine
 10
-583.3281258236
 20
331.0756437324
 30
0.0
 11
-267.0291913546
 21
608.0311134723
 31
0.0
  0
ARC
  5
11F
330
1F
100
AcDbEntity
  8
0
  6
Continuous
 62
     7
370
    15
100
AcDbCircle
 10
155.4268657913
 20
128.5982344811
 30
0.0
 40
766.0000000000017
100
AcDbArc
 50
149.0866553145
 51
164.6728063227
  0
LINE
  5
120
330
1F
100
AcDbEntity
  8
0
  6
Continuous
 62
     7
370
    15
100
AcDbLine
 10
-501.7591853553
 20
522.1238966369
 30
0.0
 11
-326.3181127514
 21
675.7424323898
 31
0.0
  0
LINE
  5
121
330
1F
100
AcDbEntity
  8
0
  6
Continuous
 62
     7
370
    15
100
AcDbLine
 10
810.9225642334
 20
-267.7367717972
 30
0.0
 11
637.8305987167
 21
-419.2983302425
 31
0.0
  0
ARC
  5
122
330
1F
100
AcDbEntity
  8
0
  6
Continuous
 62
     7
370
    15
100
AcDbCircle
 10
155.4268657913
 20
128.5982344811
 30
0.0
 40
766.0000000000015
100
AcDbArc
 50
311.3554120084
 51
328.8414143477
  0
LINE
  5
123
330
1F
100
AcDbEntity
  8
0
  6
Continuous
 62
     7
370
    15
100
AcDbLine
 10
637.8305987167
 20
-419.2983302425
 30
0.0
 11
661.5444536311
 21
-446.3808610298
 31
0.0
  0
LINE
  5
124
330
1F
100
AcDbEntity
  8
0
  6
Continuous
 62
     7
370
    15
100
AcDbLine
 10
551.7618720696
 20
784.0939329233
 30
0.0
 11
559.7898634113
 21
774.9254452988
 31
0.0
  0
LINE
  5
125
330
1F
100
AcDbEntity
  8
0
  6
Continuous
 62
     7
370
    15
100
AcDbLine
 10
580.7012686462
 20
751.0434870594
 30
0.0
 11
580.8158032218
 21
750.9126577299
 31
0.0
  0
LINE
  5
126
330
1F
100
AcDbEntity
  8
0
  6
Continuous
 62
     7
370
    15
100
AcDbLine
 10
599.9399121253
 20
729.0718271859
 30
0.0
 11
600.0544389875
 21
728.9410266432
 31
0.0
  0
ARC
  5
127
330
1F
100
AcDbEntity
  8
0
  6
Continuous
 62
     7
370
    15
100
AcDbCircle
 10
155.4268657913
 20
128.5982344811
 30
0.0
 40
766.000000000002
100
AcDbArc
 50
41.3554120084
 51
58.8414143477
  0
LINE
  5
128
330
1F
100
AcDbEntity
  8
0
  6
Continuous
 62
     7
370
    15
100
AcDbLine
 10
624.5004903319
 20
701.0222629808
 30
0.0
 11
703.323430515
 21
611.0019674066
 31
0.0
  0
LINE
  5
129
330
1F
100
AcDbEntity
  8
0
  6
Continuous
 62
     7
370
    15
100
AcDbLine
 10
703.323430515
 20
611.0019674066
 30
0.0
 11
730.4059613023
 21
634.715822321
 31
0.0
  0
ARC
  5
12A
330
1F
100
AcDbEntity
  8
0
  6
Continuous
 62
     7
370
    15
100
AcDbCircle
 10
155.4268657913
 20
128.5982344811
 30
0.0
 40
766.0000000000015
100
AcDbArc
 50
131.3554120084
 51
148.8414143477
  0
LINE
  5
12B
330
1F
100
AcDbEntity
  8
0
  6
Continuous
 62
     7
370
    15
100
AcDbLine
 10
-326.9768671341
 20
676.4947992048
 30
0.0
 11
-350.6907220485
 21
703.5773299921
 31
0.0
  0
LINE
  5
12C
330
1F
100
AcDbEntity
  8
0
  6
Continuous
 62
     7
370
    15
100
AcDbLine
 10
-500.0688326508
 20
524.9332407595
 30
0.0
 11
-326.9768671341
 21
676.4947992048
 31
0.0
  0
LINE
  5
12D
330
1F
100
AcDbEntity
  8
0
  6
Continuous
 62
     7
370
    15
100
AcDbLine
 10
-240.908140487
 20
-526.897463961
 30
0.0
 11
-248.9361318287
 21
-517.7289763365
 31
0.0
  0
LINE
  5
12E
330
1F
100
AcDbEntity
  8
0
  6
Continuous
 62
     7
370
    15
100
AcDbLine
 10
-269.8475370636
 20
-493.8470180971
 30
0.0
 11
-269.9620716392
 21
-493.7161887676
 31
0.0
  0
LINE
  5
12F
330
1F
100
AcDbEntity
  8
0
  6
Continuous
 62
     7
370
    15
100
AcDbLine
 10
-289.0861805427
 20
-471.8753582236
 30
0.0
 11
-289.2007074049
 21
-471.7445576809
 31
0.0
  0
ARC
  5
130
330
1F
100
AcDbEntity
  8
0
  6
Continuous
 62
     7
370
    15
100
AcDbCircle
 10
155.4268657913
 20
128.5982344811
 30
0.0
 40
766.0000000000018
100
AcDbArc
 50
221.3554120084
 51
238.8414143477
  0
LINE
  5
131
330
1F
100
AcDbEntity
  8
0
  6
Continuous
 62
     7
370
    15
100
AcDbLine
 10
-392.4696989324
 20
-353.8054984443
 30
0.0
 11
-419.5522297197
 21
-377.5193533587
 31
0.0
  0
LINE
  5
132
330
1F
100
AcDbEntity
  8
0
  6
Continuous
 62
     7
370
    15
100
AcDbLine
 10
-313.6467587493
 20
-443.8257940185
 30
0.0
 11
-392.4696989324
 21
-353.8054984443
 31
0.0
  0
LINE
  5
133
330
1F
100
AcDbEntity
  8
0
  6
Continuous
 62
     7
370
    15
100
AcDbLine
 10
-312.9967348356
 20
-443.050159885
 30
0.0
 11
-391.7173321173
 21
-353.1467440616
 31
0.0
  0
LINE
  5
134
330
1F
100
AcDbEntity
  8
0
  6
Continuous
 62
     7
370
    15
100
AcDbLine
 10
-324.0060131999
 20
-293.8578226648
 30
0.0
 11
-391.7173321173
 21
-353.1467440616
 31
0.0
  0
LINE
  5
135
330
1F
100
AcDbEntity
  8
0
  6
Continuous
 62
     7
370
    15
100
AcDbLine
 10
-47.05054346
 20
-610.1567571338
 30
0.0
 11
-212.7012698017
 21
-420.9741814313
 31
0.0
  0
LINE
  5
136
330
1F
100
AcDbEntity
  8
0
  6
Continuous
 62
     7
370
    15
100
AcDbLine
 10
-235.5342545722
 20
-394.8975735494
 30
0.0
 11
-324.0060131999
 21
-293.8578226648
 31
0.0
  0
ARC
  5
137
330
1F
100
AcDbEntity
  8
0
  6
Continuous
 62
     7
370
    15
100
AcDbCircle
 10
155.4268657913
 20
128.5982344811
 30
0.0
 40
766.0000000000017
100
AcDbArc
 50
239.0866553145
 51
254.6728063227
  0
LINE
  5
138
330
1F
100
AcDbEntity
  8
0
  6
Continuous
 62
     7
370
    15
100
AcDbLine
 10
-238.0987963645
 20
-528.5878166654
 30
0.0
 11
-247.588200758
 21
-517.7503843623
 31
0.0
  0
LINE
  5
139
330
1F
100
AcDbEntity
  8
0
  6
Continuous
 62
     7
370
    15
100
AcDbLine
 10
-268.7403131143
 20
-493.5935025687
 30
0.0
 11
-268.8507491805
 21
-493.4673755301
 31
0.0
  0
LINE
  5
13A
330
1F
100
AcDbEntity
  8
0
  6
Continuous
 62
     7
370
    15
100
AcDbLine
 10
-288.6927770847
 20
-470.8066339087
 30
0.0
 11
-288.8032131509
 21
-470.6805068702
 31
0.0
  0
LINE
  5
13B
330
1F
100
AcDbEntity
  8
0
  6
Continuous
 62
     7
370
    15
100
AcDbLine
 10
-255.5423313241
 20
-233.9101324918
 30
0.0
 11
-323.2536540982
 21
-293.1990394952
 31
0.0
  0
LINE
  5
13C
330
1F
100
AcDbEntity
  8
0
  6
Continuous
 62
     7
370
    15
100
AcDbLine
 10
95.7195707838
 20
-635.0712281569
 30
0.0
 11
-158.6502996351
 21
-344.566326256
 31
0.0
  0
LINE
  5
13D
330
1F
100
AcDbEntity
  8
0
  6
Continuous
 62
     7
370
    15
100
AcDbLine
 10
-181.4833131924
 20
-318.4897260875
 30
0.0
 11
-255.5423313241
 21
-233.9101324918
 31
0.0
  0
ARC
  5
13E
330
1F
100
AcDbEntity
  8
0
  6
Continuous
 62
     7
370
    15
100
AcDbCircle
 10
155.4268657913
 20
128.5982344811
 30
0.0
 40
766.0000000000015
100
AcDbArc
 50
254.8082028294
 51
265.5294389075
  0
LINE
  5
13F
330
1F
100
AcDbEntity
  8
0
  6
Continuous
 62
     7
370
    15
100
AcDbLine
 10
-45.3042232624
 20
-610.6331383843
 30
0.0
 11
-212.1073078372
 21
-420.1345220403
 31
0.0
  0
LINE
  5
140
330
1F
100
AcDbEntity
  8
0
  6
Continuous
 62
     7
370
    15
100
AcDbLine
 10
-234.9403213945
 20
-394.0579218718
 30
0.0
 11
-323.2536540982
 21
-293.1990394952
 31
0.0
  0
LINE
  5
141
330
1F
100
AcDbEntity
  8
0
  6
Continuous
 62
     7
370
    15
100
AcDbLine
 10
-187.078653305
 20
-173.9624279255
 30
0.0
 11
-254.7900010093
 21
-233.2513570357
 31
0.0
  0
LINE
  5
142
330
1F
100
AcDbEntity
  8
0
  6
Continuous
 62
     7
370
    15
100
AcDbLine
 10
216.5744261323
 20
-634.957219675
 30
0.0
 11
-104.5993505419
 21
-268.1585075809
 31
0.0
  0
LINE
  5
143
330
1F
100
AcDbEntity
  8
0
  6
Continuous
 62
     7
370
    15
100
AcDbLine
 10
-127.4323640992
 20
-242.0819074124
 30
0.0
 11
-187.078653305
 21
-173.9624279255
 31
0.0
  0
ARC
  5
144
330
1F
100
AcDbEntity
  8
0
  6
Continuous
 62
     7
370
    15
100
AcDbCircle
 10
155.4268657913
 20
128.5982344811
 30
0.0
 40
766.000000000001
100
AcDbArc
 50
265.6363892387
 51
274.5786276982
  0
LINE
  5
145
330
1F
100
AcDbEntity
  8
0
  6
Continuous
 62
     7
370
    15
100
AcDbLine
 10
97.1451750522
 20
-635.1813541145
 30
0.0
 11
-158.0563299572
 21
-343.7266956518
 31
0.0
  0
LINE
  5
146
330
1F
100
AcDbEntity
  8
0
  6
Continuous
 62
     7
370
    15
100
AcDbLine
 10
-180.8893435145
 20
-317.6500954833
 30
0.0
 11
-254.7900010093
 21
-233.2513570357
 31
0.0
  0
LINE
  5
147
330
1F
100
AcDbEntity
  8
0
  6
Continuous
 62
     7
370
    15
100
AcDbLine
 10
-118.615000216
 20
-114.0147454659
 30
0.0
 11
-186.3263191335
 21
-173.3036668627
 31
0.0
  0
LINE
  5
148
330
1F
100
AcDbEntity
  8
0
  6
Continuous
 62
     7
370
    15
100
AcDbLine
 10
217.8156736505
 20
-634.8568328581
 30
0.0
 11
-104.005380864
 21
-267.3188769767
 31
0.0
  0
LINE
  5
149
330
1F
100
AcDbEntity
  8
0
  6
Continuous
 62
     7
370
    15
100
AcDbLine
 10
-126.8383944213
 20
-241.2422768082
 30
0.0
 11
-186.3263191335
 21
-173.3036668627
 31
0.0
  0
ARC
  5
14A
330
1F
100
AcDbEntity
  8
0
  6
Continuous
 62
     7
370
    15
100
AcDbCircle
 10
155.4268657913
 20
128.5982344811
 30
0.0
 40
766.000000000001
100
AcDbArc
 50
274.6717745109
 51
282.6635568791
  0
LINE
  5
14B
330
1F
100
AcDbEntity
  8
0
  6
Continuous
 62
     7
370
    15
100
AcDbLine
 10
323.353731924
 20
-618.7682046522
 30
0.0
 11
-50.5484014487
 21
-191.7506889058
 31
0.0
  0
LINE
  5
14C
330
1F
100
AcDbEntity
  8
0
  6
Continuous
 62
     7
370
    15
100
AcDbLine
 10
-73.381415006
 20
-165.6740887373
 30
0.0
 11
-118.615000216
 21
-114.0147454659
 31
0.0
  0
LINE
  5
14D
330
1F
100
AcDbEntity
  8
0
  6
Continuous
 62
     7
370
    15
100
AcDbLine
 10
-50.1513164119
 20
-54.0670624897
 30
0.0
 11
-117.8626372577
 21
-113.3559766898
 31
0.0
  0
LINE
  5
14E
330
1F
100
AcDbEntity
  8
0
  6
Continuous
 62
     7
370
    15
100
AcDbLine
 10
419.5053957038
 20
-590.4417411109
 30
0.0
 11
3.5025725746
 21
-115.3428481238
 31
0.0
  0
LINE
  5
14F
330
1F
100
AcDbEntity
  8
0
  6
Continuous
 62
     7
370
    15
100
AcDbLine
 10
-19.3304553761
 20
-89.2662518121
 30
0.0
 11
-50.1513164119
 21
-54.0670624897
 31
0.0
  0
LINE
  5
150
330
1F
100
AcDbEntity
  8
0
  6
Continuous
 62
     7
370
    15
100
AcDbLine
 10
324.4637554776
 20
-618.517919091
 30
0.0
 11
-49.9544394842
 21
-190.9110295148
 31
0.0
  0
LINE
  5
151
330
1F
100
AcDbEntity
  8
0
  6
Continuous
 62
     7
370
    15
100
AcDbLine
 10
-72.7874530415
 20
-164.8344293463
 30
0.0
 11
-117.8626372577
 21
-113.3559766898
 31
0.0
  0
ARC
  5
152
330
1F
100
AcDbEntity
  8
0
  6
Continuous
 62
     7
370
    15
100
AcDbCircle
 10
155.4268657913
 20
128.5982344811
 30
0.0
 40
766.0000000000014
100
AcDbArc
 50
282.7486695401
 51
290.1665383553
  0
LINE
  5
153
330
1F
100
AcDbEntity
  8
0
  6
Continuous
 62
     7
370
    15
100
AcDbLine
 10
18.3123491421
 20
5.8806310232
 30
0.0
 11
-49.3989697753
 21
-53.4082903736
 31
0.0
  0
ARC
  5
154
330
1F
100
AcDbEntity
  8
0
  6
Continuous
 62
     7
370
    15
100
AcDbCircle
 10
155.4268657913
 20
128.5982344811
 30
0.0
 40
766.0000000000019
100
AcDbArc
 50
290.2466581596
 51
297.3069457106
  0
LINE
  5
155
330
1F
100
AcDbEntity
  8
0
  6
Continuous
 62
     7
370
    15
100
AcDbLine
 10
420.5106171009
 20
-590.0718100009
 30
0.0
 11
4.0965383958
 21
-114.5032031263
 31
0.0
  0
LINE
  5
156
330
1F
100
AcDbEntity
  8
0
  6
Continuous
 62
     7
370
    15
100
AcDbLine
 10
-18.7364751615
 20
-88.4266029578
 30
0.0
 11
-49.3989697753
 21
-53.4082903736
 31
0.0
  0
LINE
  5
157
330
1F
100
AcDbEntity
  8
0
  6
Continuous
 62
     7
370
    15
100
AcDbLine
 10
506.8349411757
 20
-552.039958936
 30
0.0
 11
506.1420024077
 21
-551.2486201296
 31
0.0
  0
LINE
  5
158
330
1F
100
AcDbEntity
  8
0
  6
Continuous
 62
     7
370
    15
100
AcDbLine
 10
474.8749804938
 20
-515.5398967873
 30
0.0
 11
465.816175425
 21
-505.1942235623
 31
0.0
  0
LINE
  5
159
330
1F
100
AcDbEntity
  8
0
  6
Continuous
 62
     7
370
    15
100
AcDbLine
 10
387.5643282386
 20
-415.8261222337
 30
0.0
 11
57.553517811
 21
-38.9350150553
 31
0.0
  0
LINE
  5
15A
330
1F
100
AcDbEntity
  8
0
  6
Continuous
 62
     7
370
    15
100
AcDbLine
 10
34.7205061821
 20
-12.8584220835
 30
0.0
 11
18.3123491421
 21
5.8806310232
 31
0.0
  0
LINE
  5
15B
330
1F
100
AcDbEntity
  8
0
  6
Continuous
 62
     7
370
    15
100
AcDbLine
 10
66.4751732562
 20
48.0526220633
 30
0.0
 11
19.0646977071
 21
6.5393959427
 31
0.0
  0
LINE
  5
15C
330
1F
100
AcDbEntity
  8
0
  6
Continuous
 62
     7
370
    15
100
AcDbLine
 10
586.3402022452
 20
-504.7024150713
 30
0.0
 11
331.658740886
 21
-213.8416788097
 31
0.0
  0
LINE
  5
15D
330
1F
100
AcDbEntity
  8
0
  6
Continuous
 62
     7
370
    15
100
AcDbLine
 10
253.4068924171
 20
-124.4736086784
 30
0.0
 11
135.4162315265
 21
10.2784376453
 31
0.0
  0
ARC
  5
15E
330
1F
100
AcDbEntity
  8
0
  6
Continuous
 62
     7
370
    15
100
AcDbCircle
 10
155.4268657913
 20
128.5982344811
 30
0.0
 40
766.0000000000014
100
AcDbArc
 50
297.3839876526
 51
304.2323343572
  0
LINE
  5
15F
330
1F
100
AcDbEntity
  8
0
  6
Continuous
 62
     7
370
    15
100
AcDbLine
 10
507.749841171
 20
-551.5668655695
 30
0.0
 11
507.0089624054
 21
-550.7207410799
 31
0.0
  0
LINE
  5
160
330
1F
100
AcDbEntity
  8
0
  6
Continuous
 62
     7
370
    15
100
AcDbLine
 10
475.8012012504
 20
-515.0796905073
 30
0.0
 11
464.3419179679
 21
-501.9925180705
 31
0.0
  0
LINE
  5
161
330
1F
100
AcDbEntity
  8
0
  6
Continuous
 62
     7
370
    15
100
AcDbLine
 10
386.0900790116
 20
-412.6244762439
 30
0.0
 11
58.1474836323
 21
-38.0953700577
 31
0.0
  0
LINE
  5
162
330
1F
100
AcDbEntity
  8
0
  6
Continuous
 62
     7
370
    15
100
AcDbLine
 10
35.314470075
 20
-12.0187698892
 30
0.0
 11
19.0646977071
 21
6.5393959427
 31
0.0
  0
LINE
  5
163
330
1F
100
AcDbEntity
  8
0
  6
Continuous
 62
     7
370
    15
100
AcDbLine
 10
788.1602499938
 20
560.3440504119
 30
0.0
 11
299.2414821874
 21
132.2403643325
 31
0.0
  0
LINE
  5
164
330
1F
100
AcDbEntity
  8
0
  6
Continuous
 62
     7
370
    15
100
AcDbLine
 10
733.04102098
 20
631.7064280612
 30
0.0
 11
247.0136252009
 21
206.1344545676
 31
0.0
  0
ARC
  5
165
330
1F
100
AcDbEntity
  8
0
  6
Continuous
 62
     7
370
    15
100
AcDbCircle
 10
155.4268657913
 20
128.5982344811
 30
0.0
 40
766.0000000000015
100
AcDbArc
 50
34.3076844368
 51
41.0562169974
  0
ARC
  5
166
330
1F
100
AcDbEntity
  8
0
  6
Continuous
 62
     7
370
    15
100
AcDbCircle
 10
155.4268657913
 20
128.5982344811
 30
0.0
 40
766.0000000000023
100
AcDbArc
 50
124.3076844368
 51
131.0562169974
  0
LINE
  5
167
330
1F
100
AcDbEntity
  8
0
  6
Continuous
 62
     7
370
    15
100
AcDbLine
 10
-347.6813277888
 20
706.2123896699
 30
0.0
 11
77.8906457048
 21
220.1849938908
 31
0.0
  0
LINE
  5
168
330
1F
100
AcDbEntity
  8
0
  6
Continuous
 62
     7
370
    15
100
AcDbLine
 10
-276.3189501395
 20
761.3316186837
 30
0.0
 11
-19.330752363
 21
467.8364729953
 31
0.0
  0
LINE
  5
169
330
1F
100
AcDbEntity
  8
0
  6
Continuous
 62
     7
370
    15
100
AcDbLine
 10
58.9210961059
 20
378.468402864
 30
0.0
 11
173.8879858514
 21
247.1696798394
 31
0.0
  0
ARC
  5
16A
330
1F
100
AcDbEntity
  8
0
  6
Continuous
 62
     7
370
    15
100
AcDbCircle
 10
155.4268657913
 20
128.5982344811
 30
0.0
 40
766.0000000000017
100
AcDbArc
 50
214.3076844368
 51
221.0562169974
  0
LINE
  5
16B
330
1F
100
AcDbEntity
  8
0
  6
Continuous
 62
     7
370
    15
100
AcDbLine
 10
-477.3065184112
 20
-303.1475814496
 30
0.0
 11
11.6122493952
 21
124.9561046298
 31
0.0
  0
LINE
  5
16C
330
1F
100
AcDbEntity
  8
0
  6
Continuous
 62
     7
370
    15
100
AcDbLine
 10
-422.1872893974
 20
-374.5099590989
 30
0.0
 11
63.8401063817
 21
51.0620143947
 31
0.0
  0
ARC
  5
16D
330
1F
100
AcDbEntity
  8
0
  6
Continuous
 62
     7
370
    15
100
AcDbCircle
 10
155.4268657913
 20
128.5982344811
 30
0.0
 40
766.0000000000009
100
AcDbArc
 50
304.3076844368
 51
311.0562169974
  0
LINE
  5
16E
330
1F
100
AcDbEntity
  8
0
  6
Continuous
 62
     7
370
    15
100
AcDbLine
 10
587.1726817221
 20
-504.1351497214
 30
0.0
 11
330.1844839456
 21
-210.640004033
 31
0.0
  0
LINE
  5
16F
330
1F
100
AcDbEntity
  8
0
  6
Continuous
 62
     7
370
    15
100
AcDbLine
 10
251.9326354767
 20
-121.2719339017
 30
0.0
 11
136.9657457312
 21
10.0267891229
 31
0.0
  0
LINE
  5
170
330
1F
100
AcDbEntity
  8
0
  6
Continuous
 62
     7
370
    15
100
AcDbLine
 10
658.5350593713
 20
-449.0159207076
 30
0.0
 11
232.9630858778
 21
37.0114750715
 31
0.0
  0
LINE
  5
171
330
1F
100
AcDbEntity
  8
0
  6
Continuous
 62
     7
370
    15
100
AcDbLine
 10
104.0250279532
 20
147.0104906753
 30
0.0
 11
104.5898856442
 21
146.8081589835
 31
0.0
  0
SPLINE
  5
172
330
1F
100
AcDbEntity
  8
0
  6
Continuous
 62
     7
370
    15
100
AcDbSpline
210
0.0
220
0.0
230
1.0
 70
     8
 71
     3
 72
    12
 73
     8
 74
     0
 42
0.000000001
 43
0.00000001
 40
0.0
 40
0.0
 40
0.0
 40
0.0
 40
0.2143312028380951
 40
0.4286987300901464
 40
0.6423880269867168
 40
0.8563823049924127
 40
0.9999999999999999
 40
0.9999999999999999
 40
0.9999999999999999
 40
0.9999999999999999
 10
102.3130075730289
 20
141.2504268685556
 30
0.0
 10
102.4765193464554
 20
141.9046028764123
 30
0.0
 10
102.8035706049494
 20
143.2130657605376
 30
0.0
 10
103.3212991945329
 20
144.9358163108972
 30
0.0
 10
103.7467093143067
 20
146.2260408303478
 30
0.0
 10
103.9894944336146
 20
146.9114859311316
 30
0.0
 10
104.0148465084031
 20
146.9821227751802
 30
0.0
 10
104.025027953152
 20
147.0104906752798
 30
0.0
  0
ARC
  5
173
330
1F
100
AcDbEntity
  8
0
  6
Continuous
 62
     7
370
    15
100
AcDbCircle
 10
155.4268657913
 20
128.5982344811
 30
0.0
 40
54.60000000000001
100
AcDbArc
 50
183.2262715937
 51
226.2224930937
  0
CIRCLE
  5
174
330
1F
100
AcDbEntity
  8
0
  6
Continuous
 62
     7
370
    15
100
AcDbCircle
 10
155.4268657913
 20
128.5982344811
 30
0.0
 40
53.99999999999999
  0
ARC
  5
175
330
1F
100
AcDbEntity
  8
0
  6
Continuous
 62
     7
370
    15
100
AcDbCircle
 10
155.4268657913
 20
128.5982344811
 30
0.0
 40
120.0000000000004
100
AcDbArc
 50
62.7963400046
 51
99.7243823437
  0
ARC
  5
176
330
1F
100
AcDbEntity
  8
0
  6
Continuous
 62
     7
370
    15
100
AcDbCircle
 10
155.4268657913
 20
128.5982344811
 30
0.0
 40
120.0
100
AcDbArc
 50
2.7963400046
 51
46.6524246828
  0
ARC
  5
177
330
1F
100
AcDbEntity
  8
0
  6
Continuous
 62
     7
370
    15
100
AcDbCircle
 10
155.4268657913
 20
128.5982344811
 30
0.0
 40
120.0
100
AcDbArc
 50
302.7963400046
 51
346.6524246828
  0
ARC
  5
178
330
1F
100
AcDbEntity
  8
0
  6
Continuous
 62
     7
370
    15
100
AcDbCircle
 10
155.4268657913
 20
128.5982344811
 30
0.0
 40
120.0
100
AcDbArc
 50
242.7963400046
 51
286.6524246828
  0
ARC
  5
179
330
1F
100
AcDbEntity
  8
0
  6
Continuous
 62
     7
370
    15
100
AcDbCircle
 10
155.4268657913
 20
128.5982344811
 30
0.0
 40
120.0
100
AcDbArc
 50
182.7963400046
 51
226.6524246828
  0
ARC
  5
17A
330
1F
100
AcDbEntity
  8
0
  6
Continuous
 62
     7
370
    15
100
AcDbCircle
 10
155.4268657913
 20
128.5982344811
 30
0.0
 40
120.0
100
AcDbArc
 50
122.7963400046
 51
166.6524246828
  0
ARC
  5
17B
330
1F
100
AcDbEntity
  8
0
  6
Continuous
 62
     7
370
    15
100
AcDbCircle
 10
155.4268657913
 20
128.5982344811
 30
0.0
 40
120.0000000000004
100
AcDbArc
 50
99.7243823437
 51
106.6524246828
  0
ARC
  5
17C
330
1F
100
AcDbEntity
  8
0
  6
Continuous
 62
     7
370
    15
100
AcDbCircle
 10
155.4268657913
 20
128.5982344811
 30
0.0
 40
53.99999999999999
100
AcDbArc
 50
144.7243823437
 51
290.0810953568
  0
ARC
  5
17D
330
1F
100
AcDbEntity
  8
0
  6
Continuous
 62
     7
370
    15
100
AcDbCircle
 10
155.4268657913
 20
128.5982344811
 30
0.0
 40
54.00000000000019
100
AcDbArc
 50
20.0810953568
 51
144.7243823437
  0
ARC
  5
17E
330
1F
100
AcDbEntity
  8
0
  6
Continuous
 62
     7
370
    15
100
AcDbCircle
 10
155.4268657913
 20
128.5982344811
 30
0.0
 40
54.50000000000004
100
AcDbArc
 50
122.4914478969
 51
144.7243823437
  0
ARC
  5
17F
330
1F
100
AcDbEntity
  8
0
  6
Continuous
 62
     7
370
    15
100
AcDbCircle
 10
155.4268657913
 20
128.5982344811
 30
0.0
 40
54.50000000000001
100
AcDbArc
 50
62.4914478969
 51
106.9573167906
  0
ARC
  5
180
330
1F
100
AcDbEntity
  8
0
  6
Continuous
 62
     7
370
    15
100
AcDbCircle
 10
155.4268657913
 20
128.5982344811
 30
0.0
 40
54.50000000000002
100
AcDbArc
 50
2.4914478969
 51
46.9573167906
  0
ARC
  5
181
330
1F
100
AcDbEntity
  8
0
  6
Continuous
 62
     7
370
    15
100
AcDbCircle
 10
155.4268657913
 20
128.5982344811
 30
0.0
 40
54.50000000000001
100
AcDbArc
 50
302.4914478969
 51
346.9573167906
  0
ARC
  5
182
330
1F
100
AcDbEntity
  8
0
  6
Continuous
 62
     7
370
    15
100
AcDbCircle
 10
155.4268657913
 20
128.5982344811
 30
0.0
 40
54.49999999999999
100
AcDbArc
 50
242.4914478969
 51
286.9573167906
  0
ARC
  5
183
330
1F
100
AcDbEntity
  8
0
  6
Continuous
 62
     7
370
    15
100
AcDbCircle
 10
155.4268657913
 20
128.5982344811
 30
0.0
 40
54.5
100
AcDbArc
 50
144.7243823437
 51
160.2923595839
  0
ARC
  5
184
330
1F
100
AcDbEntity
  8
0
  6
Continuous
 62
     7
370
    15
100
AcDbCircle
 10
155.4268657913
 20
128.5982344811
 30
0.0
 40
115.0
100
AcDbArc
 50
123.1497920181
 51
144.7243823437
  0
ARC
  5
185
330
1F
100
AcDbEntity
  8
0
  6
Continuous
 62
     7
370
    15
100
AcDbCircle
 10
155.4268657913
 20
128.5982344811
 30
0.0
 40
115.0
100
AcDbArc
 50
63.1497920181
 51
106.2989726693
  0
ARC
  5
186
330
1F
100
AcDbEntity
  8
0
  6
Continuous
 62
     7
370
    15
100
AcDbCircle
 10
155.4268657913
 20
128.5982344811
 30
0.0
 40
115.0
100
AcDbArc
 50
3.1497920181
 51
46.2989726693
  0
ARC
  5
187
330
1F
100
AcDbEntity
  8
0
  6
Continuous
 62
     7
370
    15
100
AcDbCircle
 10
155.4268657913
 20
128.5982344811
 30
0.0
 40
115.0000000000001
100
AcDbArc
 50
303.1497920181
 51
346.2989726693
  0
ARC
  5
188
330
1F
100
AcDbEntity
  8
0
  6
Continuous
 62
     7
370
    15
100
AcDbCircle
 10
155.4268657913
 20
128.5982344811
 30
0.0
 40
115.0
100
AcDbArc
 50
243.1497920181
 51
286.2989726693
  0
ARC
  5
189
330
1F
100
AcDbEntity
  8
0
  6
Continuous
 62
     7
370
    15
100
AcDbCircle
 10
155.4268657913
 20
128.5982344811
 30
0.0
 40
115.0000000000001
100
AcDbArc
 50
183.1497920181
 51
226.2989726693
  0
ARC
  5
18A
330
1F
100
AcDbEntity
  8
0
  6
Continuous
 62
     7
370
    15
100
AcDbCircle
 10
155.4268657913
 20
128.5982344811
 30
0.0
 40
115.0000000000001
100
AcDbArc
 50
144.7243823437
 51
166.2989726693
  0
LINE
  5
18B
330
1F
100
AcDbEntity
  8
0
  6
Continuous
 62
     7
370
    15
100
AcDbLine
 10
185.3387141925
 20
83.6395710115
 30
0.0
 11
187.7421302434
 21
85.2386116601
 31
0.0
  0
LINE
  5
18C
330
1F
100
AcDbEntity
  8
0
  6
Continuous
 62
     7
370
    15
100
AcDbLine
 10
187.7421302434
 20
85.2386116601
 30
0.0
 11
187.9767140978
 21
84.886024026
 31
0.0
  0
LINE
  5
18D
330
1F
100
AcDbEntity
  8
0
  6
Continuous
 62
     7
370
    15
100
AcDbLine
 10
183.0500878037
 20
81.8680012759
 30
0.0
 11
182.935298077
 21
82.0405342023
 31
0.0
  0
LINE
  5
18E
330
1F
100
AcDbEntity
  8
0
  6
Continuous
 62
     7
370
    15
100
AcDbLine
 10
182.935298077
 20
82.0405342023
 30
0.0
 11
185.3387141925
 21
83.6395710115
 31
0.0
  0
LINE
  5
18F
330
1F
100
AcDbEntity
  8
0
  6
Continuous
 62
     7
370
    15
100
AcDbLine
 10
188.9438387509
 20
86.0381301852
 30
0.0
 11
189.6331447912
 21
86.4967361789
 31
0.0
  0
LINE
  5
190
330
1F
100
AcDbEntity
  8
0
  6
Continuous
 62
     7
370
    15
100
AcDbLine
 10
187.7421302434
 20
85.2386116601
 30
0.0
 11
188.9438387509
 21
86.0381301852
 31
0.0
  0
LINE
  5
191
330
1F
100
AcDbEntity
  8
0
  6
Continuous
 62
     7
370
    15
100
AcDbLine
 10
182.5022858288
 20
81.7524420572
 30
0.0
 11
182.935298077
 21
82.0405342023
 31
0.0
  0
LINE
  5
192
330
1F
100
AcDbEntity
  8
0
  6
Continuous
 62
     7
370
    15
100
AcDbLine
 10
138.574444499
 20
179.9012169582
 30
0.0
 11
138.4821795976
 21
180.245554258
 31
0.0
  0
LINE
  5
193
330
1F
100
AcDbEntity
  8
0
  6
Continuous
 62
     7
370
    15
100
AcDbLine
 10
144.3699995071
 20
181.4541312423
 30
0.0
 11
144.2403920662
 21
181.9378327968
 31
0.0
  0
LINE
  5
194
330
1F
100
AcDbEntity
  8
0
  6
Continuous
 62
     7
370
    15
100
AcDbLine
 10
166.4837320755
 20
75.74233772
 30
0.0
 11
166.6133395164
 21
75.2586361655
 31
0.0
  0
LINE
  5
195
330
1F
100
AcDbEntity
  8
0
  6
Continuous
 62
     7
370
    15
100
AcDbLine
 10
172.2792870836
 20
77.2952520041
 30
0.0
 11
172.371551985
 21
76.9509147042
 31
0.0
  0
LINE
  5
196
330
1F
100
AcDbEntity
  8
0
  6
Continuous
 62
     7
370
    15
100
AcDbLine
 10
208.2827625525
 20
139.6551007653
 30
0.0
 11
208.766464107
 21
139.7847082062
 31
0.0
  0
LINE
  5
197
330
1F
100
AcDbEntity
  8
0
  6
Continuous
 62
     7
370
    15
100
AcDbLine
 10
206.7298482684
 20
145.4506557734
 30
0.0
 11
207.2135498229
 21
145.5802632143
 31
0.0
  0
LINE
  5
198
330
1F
100
AcDbEntity
  8
0
  6
Continuous
 62
     7
370
    15
100
AcDbLine
 10
68.6962332642
 20
889.8232871884
 30
0.0
 11
68.7132132087
 21
889.6742475583
 31
0.0
  0
LINE
  5
199
330
1F
100
AcDbEntity
  8
0
  6
Continuous
 62
     7
370
    15
100
AcDbLine
 10
242.1405282073
 20
889.6742486304
 30
0.0
 11
242.157510308
 21
889.8233173945
 31
0.0
  0
LINE
  5
19A
330
1F
100
AcDbEntity
  8
0
  6
Continuous
 62
     7
370
    15
100
AcDbLine
 10
25.9171208145
 20
830.5721428747
 30
0.0
 11
27.3417153656
 21
830.4631656313
 31
0.0
  0
LINE
  5
19B
330
1F
100
AcDbEntity
  8
0
  6
Continuous
 62
     7
370
    15
100
AcDbLine
 10
151.2224130256
 20
825.6034450157
 30
0.0
 11
152.5540107324
 21
825.6006772896
 31
0.0
  0
LINE
  5
19C
330
1F
100
AcDbEntity
  8
0
  6
Continuous
 62
     7
370
    15
100
AcDbLine
 10
268.842745926
 20
829.4114266553
 30
0.0
 11
270.0975403148
 21
829.4963757992
 31
0.0
  0
LINE
  5
19D
330
1F
100
AcDbEntity
  8
0
  6
Continuous
 62
     7
370
    15
100
AcDbLine
 10
380.0016386782
 20
840.5987786462
 30
0.0
 11
381.1907016885
 21
840.758737731
 31
0.0
  0
LINE
  5
19E
330
1F
100
AcDbEntity
  8
0
  6
Continuous
 62
     7
370
    15
100
AcDbLine
 10
-7.4314600047
 20
870.1760958406
 30
0.0
 11
-8.5456244823
 21
869.9305629127
 31
0.0
  0
LINE
  5
19F
330
1F
100
AcDbEntity
  8
0
  6
Continuous
 62
     7
370
    15
100
AcDbLine
 10
366.0514953202
 20
858.0485951681
 30
0.0
 11
364.2753226417
 21
858.5591235351
 31
0.0
  0
LINE
  5
1A0
330
1F
100
AcDbEntity
  8
0
  6
Continuous
 62
     7
370
    15
100
AcDbLine
 10
118.3488146922
 20
167.907498775
 30
0.0
 11
121.3582079877
 21
170.5425620511
 31
0.0
  0
LINE
  5
1A1
330
1F
100
AcDbEntity
  8
0
  6
Continuous
 62
     7
370
    15
100
AcDbLine
 10
121.3582079877
 20
170.5425620511
 30
0.0
 11
121.0530090108
 21
170.8911152987
 31
0.0
  0
LINE
  5
1A2
330
1F
100
AcDbEntity
  8
0
  6
Continuous
 62
     7
370
    15
100
AcDbLine
 10
118.3488146922
 20
167.907498775
 30
0.0
 11
118.0436157152
 21
168.2560520226
 31
0.0
  0
LINE
  5
1A3
330
1F
100
AcDbEntity
  8
0
  6
Continuous
 62
     7
370
    15
100
AcDbLine
 10
33.3680272528
 20
264.9604025654
 30
0.0
 11
32.7092623334
 21
265.7127511303
 31
0.0
  0
LINE
  5
1A4
330
1F
100
AcDbEntity
  8
0
  6
Continuous
 62
     7
370
    15
100
AcDbLine
 10
-26.5796590634
 20
333.4240700478
 30
0.0
 11
-27.2384311796
 21
334.1764166843
 31
0.0
  0
LINE
  5
1A5
330
1F
100
AcDbEntity
  8
0
  6
Continuous
 62
     7
370
    15
100
AcDbLine
 10
-86.5273453797
 20
401.8877375301
 30
0.0
 11
-87.1861141558
 21
402.6401004885
 31
0.0
  0
LINE
  5
1A6
330
1F
100
AcDbEntity
  8
0
  6
Continuous
 62
     7
370
    15
100
AcDbLine
 10
-146.4750355526
 20
470.3514194059
 30
0.0
 11
-147.1337966153
 21
471.1037535774
 31
0.0
  0
LINE
  5
1A7
330
1F
100
AcDbEntity
  8
0
  6
Continuous
 62
     7
370
    15
100
AcDbLine
 10
-206.4227257255
 20
538.8151012817
 30
0.0
 11
-207.0815011817
 21
539.5674315965
 31
0.0
  0
LINE
  5
1A8
330
1F
100
AcDbEntity
  8
0
  6
Continuous
 62
     7
370
    15
100
AcDbLine
 10
-266.3704081851
 20
607.2787543707
 30
0.0
 11
-267.0291913546
 21
608.0311134723
 31
0.0
  0
LINE
  5
1A9
330
1F
100
AcDbEntity
  8
0
  6
Continuous
 62
     7
370
    15
100
AcDbLine
 10
-326.3181127514
 20
675.7424323898
 30
0.0
 11
-326.9768671341
 21
676.4947992048
 31
0.0
  0
LINE
  5
1AA
330
1F
100
AcDbEntity
  8
0
  6
Continuous
 62
     7
370
    15
100
AcDbLine
 10
-350.6924618077
 20
703.5793321158
 30
0.0
 11
-347.6830675479
 21
706.2143917936
 31
0.0
  0
LINE
  5
1AB
330
1F
100
AcDbEntity
  8
0
  6
Continuous
 62
     7
370
    15
100
AcDbLine
 10
-347.6830675479
 20
706.2143917936
 30
0.0
 11
-347.6813277888
 21
706.2123896699
 31
0.0
  0
LINE
  5
1AC
330
1F
100
AcDbEntity
  8
0
  6
Continuous
 62
     7
370
    15
100
AcDbLine
 10
-350.6907220485
 20
703.5773299921
 30
0.0
 11
-350.6924618077
 21
703.5793321158
 31
0.0
  0
LINE
  5
1AD
330
1F
100
AcDbEntity
  8
0
  6
Continuous
 62
     7
370
    15
100
AcDbLine
 10
194.7361300851
 20
165.6762855803
 30
0.0
 11
197.3711933613
 21
162.6668922847
 31
0.0
  0
LINE
  5
1AE
330
1F
100
AcDbEntity
  8
0
  6
Continuous
 62
     7
370
    15
100
AcDbLine
 10
194.7361300851
 20
165.6762855803
 30
0.0
 11
195.0846833328
 21
165.9814845572
 31
0.0
  0
LINE
  5
1AF
330
1F
100
AcDbEntity
  8
0
  6
Continuous
 62
     7
370
    15
100
AcDbLine
 10
291.7890338755
 20
250.6570730196
 30
0.0
 11
292.5413824405
 21
251.3158379391
 31
0.0
  0
LINE
  5
1B0
330
1F
100
AcDbEntity
  8
0
  6
Continuous
 62
     7
370
    15
100
AcDbLine
 10
360.2527013579
 20
310.6047593359
 30
0.0
 11
361.0050479945
 21
311.263531452
 31
0.0
  0
LINE
  5
1B1
330
1F
100
AcDbEntity
  8
0
  6
Continuous
 62
     7
370
    15
100
AcDbLine
 10
428.7163688403
 20
370.5524456521
 30
0.0
 11
429.4687317986
 21
371.2112144282
 31
0.0
  0
LINE
  5
1B2
330
1F
100
AcDbEntity
  8
0
  6
Continuous
 62
     7
370
    15
100
AcDbLine
 10
497.1800507161
 20
430.500135825
 30
0.0
 11
497.9323848876
 21
431.1588968878
 31
0.0
  0
LINE
  5
1B3
330
1F
100
AcDbEntity
  8
0
  6
Continuous
 62
     7
370
    15
100
AcDbLine
 10
565.6437325919
 20
490.447825998
 30
0.0
 11
566.3960629067
 21
491.1066014541
 31
0.0
  0
LINE
  5
1B4
330
1F
100
AcDbEntity
  8
0
  6
Continuous
 62
     7
370
    15
100
AcDbLine
 10
634.1073856808
 20
550.3955084575
 30
0.0
 11
634.8597447825
 21
551.0542916271
 31
0.0
  0
LINE
  5
1B5
330
1F
100
AcDbEntity
  8
0
  6
Continuous
 62
     7
370
    15
100
AcDbLine
 10
702.5710636999
 20
610.3432130238
 30
0.0
 11
703.323430515
 21
611.0019674066
 31
0.0
  0
LINE
  5
1B6
330
1F
100
AcDbEntity
  8
0
  6
Continuous
 62
     7
370
    15
100
AcDbLine
 10
197.3711933613
 20
162.6668922847
 30
0.0
 11
197.7197466089
 21
162.9720912616
 31
0.0
  0
LINE
  5
1B7
330
1F
100
AcDbEntity
  8
0
  6
Continuous
 62
     7
370
    15
100
AcDbLine
 10
730.407963426
 20
634.7175620801
 30
0.0
 11
733.0430231037
 21
631.7081678204
 31
0.0
  0
LINE
  5
1B8
330
1F
100
AcDbEntity
  8
0
  6
Continuous
 62
     7
370
    15
100
AcDbLine
 10
733.0430231037
 20
631.7081678204
 30
0.0
 11
733.04102098
 21
631.7064280612
 31
0.0
  0
LINE
  5
1B9
330
1F
100
AcDbEntity
  8
0
  6
Continuous
 62
     7
370
    15
100
AcDbLine
 10
730.4059613023
 20
634.715822321
 30
0.0
 11
730.407963426
 21
634.7175620801
 31
0.0
  0
LINE
  5
1BA
330
1F
100
AcDbEntity
  8
0
  6
Continuous
 62
     7
370
    15
100
AcDbLine
 10
192.5049168904
 20
89.2889701873
 30
0.0
 11
189.4955235948
 21
86.6539069112
 31
0.0
  0
LINE
  5
1BB
330
1F
100
AcDbEntity
  8
0
  6
Continuous
 62
     7
370
    15
100
AcDbLine
 10
189.4955235948
 20
86.6539069112
 30
0.0
 11
189.8007225718
 21
86.3053536635
 31
0.0
  0
LINE
  5
1BC
330
1F
100
AcDbEntity
  8
0
  6
Continuous
 62
     7
370
    15
100
AcDbLine
 10
192.5049168904
 20
89.2889701873
 30
0.0
 11
192.8101158674
 21
88.9404169397
 31
0.0
  0
LINE
  5
1BD
330
1F
100
AcDbEntity
  8
0
  6
Continuous
 62
     7
370
    15
100
AcDbLine
 10
277.4857043298
 20
-7.7639336031
 30
0.0
 11
278.1444692492
 21
-8.516282168
 31
0.0
  0
LINE
  5
1BE
330
1F
100
AcDbEntity
  8
0
  6
Continuous
 62
     7
370
    15
100
AcDbLine
 10
337.433390646
 20
-76.2276010855
 30
0.0
 11
338.0921627622
 21
-76.979947722
 31
0.0
  0
LINE
  5
1BF
330
1F
100
AcDbEntity
  8
0
  6
Continuous
 62
     7
370
    15
100
AcDbLine
 10
397.3810769622
 20
-144.6912685678
 30
0.0
 11
398.0398457384
 21
-145.4436315262
 31
0.0
  0
LINE
  5
1C0
330
1F
100
AcDbEntity
  8
0
  6
Continuous
 62
     7
370
    15
100
AcDbLine
 10
457.3287671352
 20
-213.1549504436
 30
0.0
 11
457.9875281979
 21
-213.9072846152
 31
0.0
  0
LINE
  5
1C1
330
1F
100
AcDbEntity
  8
0
  6
Continuous
 62
     7
370
    15
100
AcDbLine
 10
517.2764573081
 20
-281.6186323194
 30
0.0
 11
517.9352327643
 21
-282.3709626342
 31
0.0
  0
LINE
  5
1C2
330
1F
100
AcDbEntity
  8
0
  6
Continuous
 62
     7
370
    15
100
AcDbLine
 10
577.2241397676
 20
-350.0822854084
 30
0.0
 11
577.8829229372
 21
-350.83464451
 31
0.0
  0
LINE
  5
1C3
330
1F
100
AcDbEntity
  8
0
  6
Continuous
 62
     7
370
    15
100
AcDbLine
 10
637.171844334
 20
-418.5459634275
 30
0.0
 11
637.8305987167
 21
-419.2983302425
 31
0.0
  0
LINE
  5
1C4
330
1F
100
AcDbEntity
  8
0
  6
Continuous
 62
     7
370
    15
100
AcDbLine
 10
661.5461933903
 20
-446.3828631535
 30
0.0
 11
658.5367991305
 21
-449.0179228313
 31
0.0
  0
LINE
  5
1C5
330
1F
100
AcDbEntity
  8
0
  6
Continuous
 62
     7
370
    15
100
AcDbLine
 10
658.5367991305
 20
-449.0179228313
 30
0.0
 11
658.5350593713
 21
-449.0159207076
 31
0.0
  0
LINE
  5
1C6
330
1F
100
AcDbEntity
  8
0
  6
Continuous
 62
     7
370
    15
100
AcDbLine
 10
661.5444536311
 20
-446.3808610298
 30
0.0
 11
661.5461933903
 21
-446.3828631535
 31
0.0
  0
LINE
  5
1C7
330
1F
100
AcDbEntity
  8
0
  6
Continuous
 62
     7
370
    15
100
AcDbLine
 10
19.0646977071
 20
6.5393959427
 30
0.0
 11
18.3123491421
 21
5.8806310232
 31
0.0
  0
LINE
  5
1C8
330
1F
100
AcDbEntity
  8
0
  6
Continuous
 62
     7
370
    15
100
AcDbLine
 10
-49.3989697753
 20
-53.4082903736
 30
0.0
 11
-50.1513164119
 21
-54.0670624897
 31
0.0
  0
LINE
  5
1C9
330
1F
100
AcDbEntity
  8
0
  6
Continuous
 62
     7
370
    15
100
AcDbLine
 10
-117.8626372577
 20
-113.3559766898
 30
0.0
 11
-118.615000216
 21
-114.0147454659
 31
0.0
  0
LINE
  5
1CA
330
1F
100
AcDbEntity
  8
0
  6
Continuous
 62
     7
370
    15
100
AcDbLine
 10
-186.3263191335
 20
-173.3036668627
 30
0.0
 11
-187.078653305
 21
-173.9624279255
 31
0.0
  0
LINE
  5
1CB
330
1F
100
AcDbEntity
  8
0
  6
Continuous
 62
     7
370
    15
100
AcDbLine
 10
-254.7900010093
 20
-233.2513570357
 30
0.0
 11
-255.5423313241
 21
-233.9101324918
 31
0.0
  0
LINE
  5
1CC
330
1F
100
AcDbEntity
  8
0
  6
Continuous
 62
     7
370
    15
100
AcDbLine
 10
-323.2536540982
 20
-293.1990394952
 30
0.0
 11
-324.0060131999
 21
-293.8578226648
 31
0.0
  0
LINE
  5
1CD
330
1F
100
AcDbEntity
  8
0
  6
Continuous
 62
     7
370
    15
100
AcDbLine
 10
-391.7173321173
 20
-353.1467440616
 30
0.0
 11
-392.4696989324
 21
-353.8054984443
 31
0.0
  0
LINE
  5
1CE
330
1F
100
AcDbEntity
  8
0
  6
Continuous
 62
     7
370
    15
100
AcDbLine
 10
-419.5542318434
 20
-377.5210931178
 30
0.0
 11
-422.1892915211
 21
-374.5116988581
 31
0.0
  0
LINE
  5
1CF
330
1F
100
AcDbEntity
  8
0
  6
Continuous
 62
     7
370
    15
100
AcDbLine
 10
-422.1892915211
 20
-374.5116988581
 30
0.0
 11
-422.1872893974
 21
-374.5099590989
 31
0.0
  0
LINE
  5
1D0
330
1F
100
AcDbEntity
  8
0
  6
Continuous
 62
     7
370
    15
100
AcDbLine
 10
-419.5522297197
 20
-377.5193533587
 30
0.0
 11
-419.5542318434
 21
-377.5210931178
 31
0.0
  0
LINE
  5
1D1
330
1F
100
AcDbEntity
  8
0
  6
Continuous
 62
     7
370
    15
100
AcDbLine
 10
27.6338686713
 20
-141.7236969529
 30
0.0
 11
28.1350280708
 21
-141.9565390933
 31
0.0
  0
LINE
  5
1D2
330
1F
100
AcDbEntity
  8
0
  6
Continuous
 62
     7
370
    15
100
AcDbLine
 10
27.7369224761
 20
-141.5018755669
 30
0.0
 11
27.6338686713
 21
-141.7236969529
 31
0.0
  0
LINE
  5
1D3
330
1F
100
AcDbEntity
  8
0
  6
Continuous
 62
     7
370
    15
100
AcDbLine
 10
134.4885831415
 20
78.7826909808
 30
0.0
 11
130.860963055
 21
80.4680310828
 31
0.0
  0
LINE
  5
1D4
330
1F
100
AcDbEntity
  8
0
  6
Continuous
 62
     7
370
    15
100
AcDbLine
 10
130.860963055
 20
80.4680310828
 30
0.0
 11
130.6657604837
 21
80.0478703975
 31
0.0
  0
LINE
  5
1D5
330
1F
100
AcDbEntity
  8
0
  6
Continuous
 62
     7
370
    15
100
AcDbLine
 10
134.4885831415
 20
78.7826909808
 30
0.0
 11
134.2933805703
 21
78.3625302956
 31
0.0
  0
LINE
  5
1D6
330
1F
100
AcDbEntity
  8
0
  6
Continuous
 62
     7
370
    15
100
AcDbLine
 10
425.7487972254
 20
0.8052373611
 30
0.0
 11
425.9816393658
 21
1.3063967607
 31
0.0
  0
LINE
  5
1D7
330
1F
100
AcDbEntity
  8
0
  6
Continuous
 62
     7
370
    15
100
AcDbLine
 10
425.5269758393
 20
0.9082911659
 30
0.0
 11
425.7487972254
 21
0.8052373611
 31
0.0
  0
LINE
  5
1D8
330
1F
100
AcDbEntity
  8
0
  6
Continuous
 62
     7
370
    15
100
AcDbLine
 10
205.2424092916
 20
107.6599518314
 30
0.0
 11
203.5570691897
 21
104.0323317448
 31
0.0
  0
LINE
  5
1D9
330
1F
100
AcDbEntity
  8
0
  6
Continuous
 62
     7
370
    15
100
AcDbLine
 10
203.5570691897
 20
104.0323317448
 30
0.0
 11
203.9772298749
 21
103.8371291736
 31
0.0
  0
LINE
  5
1DA
330
1F
100
AcDbEntity
  8
0
  6
Continuous
 62
     7
370
    15
100
AcDbLine
 10
205.2424092916
 20
107.6599518314
 30
0.0
 11
205.6625699768
 21
107.4647492601
 31
0.0
  0
LINE
  5
1DB
330
1F
100
AcDbEntity
  8
0
  6
Continuous
 62
     7
370
    15
100
AcDbLine
 10
-114.8950656428
 20
256.3912316012
 30
0.0
 11
-115.1279077832
 21
255.8900722016
 31
0.0
  0
LINE
  5
1DC
330
1F
100
AcDbEntity
  8
0
  6
Continuous
 62
     7
370
    15
100
AcDbLine
 10
-114.6732442567
 20
256.2881777964
 30
0.0
 11
-114.8950656428
 21
256.3912316012
 31
0.0
  0
LINE
  5
1DD
330
1F
100
AcDbEntity
  8
0
  6
Continuous
 62
     7
370
    15
100
AcDbLine
 10
105.611322291
 20
149.5365171309
 30
0.0
 11
107.2966623929
 21
153.1641372175
 31
0.0
  0
LINE
  5
1DE
330
1F
100
AcDbEntity
  8
0
  6
Continuous
 62
     7
370
    15
100
AcDbLine
 10
107.2966623929
 20
153.1641372175
 30
0.0
 11
106.8765017077
 21
153.3593397887
 31
0.0
  0
LINE
  5
1DF
330
1F
100
AcDbEntity
  8
0
  6
Continuous
 62
     7
370
    15
100
AcDbLine
 10
105.611322291
 20
149.5365171309
 30
0.0
 11
105.1911616058
 21
149.7317197022
 31
0.0
  0
LINE
  5
1E0
330
1F
100
AcDbEntity
  8
0
  6
Continuous
 62
     7
370
    15
100
AcDbLine
 10
283.2198629113
 20
398.9201659152
 30
0.0
 11
282.7187035118
 21
399.1530080556
 31
0.0
  0
LINE
  5
1E1
330
1F
100
AcDbEntity
  8
0
  6
Continuous
 62
     7
370
    15
100
AcDbLine
 10
283.1168091065
 20
398.6983445291
 30
0.0
 11
283.2198629113
 21
398.9201659152
 31
0.0
  0
LINE
  5
1E2
330
1F
100
AcDbEntity
  8
0
  6
Continuous
 62
     7
370
    15
100
AcDbLine
 10
176.3651484411
 20
178.4137779815
 30
0.0
 11
179.9927685276
 21
176.7284378795
 31
0.0
  0
LINE
  5
1E3
330
1F
100
AcDbEntity
  8
0
  6
Continuous
 62
     7
370
    15
100
AcDbLine
 10
176.3651484411
 20
178.4137779815
 30
0.0
 11
176.5603510123
 21
178.8339386667
 31
0.0
  0
LINE
  5
1E4
330
1F
100
AcDbEntity
  8
0
  6
Continuous
 62
     7
370
    15
100
AcDbLine
 10
179.9927685276
 20
176.7284378795
 30
0.0
 11
180.1879710989
 21
177.1485985648
 31
0.0
  0
LINE
  5
1E5
330
1F
100
AcDbEntity
  8
0
  6
Continuous
 62
     7
370
    15
100
AcDbLine
 10
425.11560982
 20
0.5480898266
 30
0.0
 11
425.9915875973
 21
0.1411134745
 31
0.0
  0
LINE
  5
1E6
330
1F
100
AcDbEntity
  8
0
  6
Continuous
 62
     7
370
    15
100
AcDbLine
 10
425.9915875973
 20
0.1411134745
 30
0.0
 11
426.9110459858
 21
2.1201908665
 31
0.0
  0
LINE
  5
1E7
330
1F
100
AcDbEntity
  8
0
  6
Continuous
 62
     7
370
    15
100
AcDbLine
 10
283.4770104458
 20
398.2869785098
 30
0.0
 11
283.8839867979
 21
399.1629562872
 31
0.0
  0
LINE
  5
1E8
330
1F
100
AcDbEntity
  8
0
  6
Continuous
 62
     7
370
    15
100
AcDbLine
 10
283.8839867979
 20
399.1629562872
 30
0.0
 11
281.904909406
 21
400.0824146756
 31
0.0
  0
LINE
  5
1E9
330
1F
100
AcDbEntity
  8
0
  6
Continuous
 62
     7
370
    15
100
AcDbLine
 10
27.3767211368
 20
-141.0905095475
 30
0.0
 11
26.9697447847
 21
-141.9664873249
 31
0.0
  0
LINE
  5
1EA
330
1F
100
AcDbEntity
  8
0
  6
Continuous
 62
     7
370
    15
100
AcDbLine
 10
26.9697447847
 20
-141.9664873249
 30
0.0
 11
28.9488221766
 21
-142.8859457133
 31
0.0
  0
LINE
  5
1EB
330
1F
100
AcDbEntity
  8
0
  6
Continuous
 62
     7
370
    15
100
AcDbLine
 10
-114.2618782374
 20
256.6483791357
 30
0.0
 11
-115.1378560147
 21
257.0553554878
 31
0.0
  0
LINE
  5
1EC
330
1F
100
AcDbEntity
  8
0
  6
Continuous
 62
     7
370
    15
100
AcDbLine
 10
-115.1378560147
 20
257.0553554878
 30
0.0
 11
-116.0573144032
 21
255.0762780958
 31
0.0
  0
LINE
  5
1ED
330
1F
100
AcDbEntity
  8
0
  6
Continuous
 62
     7
370
    15
100
AcDbLine
 10
460.9284624622
 20
831.2038194609
 30
0.0
 11
460.8686641448
 21
831.0662332301
 31
0.0
  0
LINE
  5
1EE
330
1F
100
AcDbEntity
  8
0
  6
Continuous
 62
     7
370
    15
100
AcDbLine
 10
611.0610988768
 20
744.3525906074
 30
0.0
 11
611.1503528891
 21
744.4731705848
 31
0.0
  0
LINE
  5
1EF
330
1F
100
AcDbEntity
  8
0
  6
Continuous
 62
     7
370
    15
100
AcDbLine
 10
771.3018033338
 20
584.3217173759
 30
0.0
 11
771.1811970476
 21
584.2324760633
 31
0.0
  0
LINE
  5
1F0
330
1F
100
AcDbEntity
  8
0
  6
Continuous
 62
     7
370
    15
100
AcDbLine
 10
857.8948536184
 20
434.0400150283
 30
0.0
 11
858.0324156965
 21
434.0998297801
 31
0.0
  0
LINE
  5
1F1
330
1F
100
AcDbEntity
  8
0
  6
Continuous
 62
     7
370
    15
100
AcDbLine
 10
897.0047271508
 20
291.4565602772
 30
0.0
 11
896.7591942228
 21
292.5707247547
 31
0.0
  0
LINE
  5
1F2
330
1F
100
AcDbEntity
  8
0
  6
Continuous
 62
     7
370
    15
100
AcDbLine
 10
869.022186051
 20
387.9093456072
 30
0.0
 11
868.6552024813
 21
388.9171540195
 31
0.0
  0
LINE
  5
1F3
330
1F
100
AcDbEntity
  8
0
  6
Continuous
 62
     7
370
    15
100
AcDbLine
 10
916.6519184986
 20
215.3288670082
 30
0.0
 11
916.5028788685
 21
215.3118870638
 31
0.0
  0
LINE
  5
1F4
330
1F
100
AcDbEntity
  8
0
  6
Continuous
 62
     7
370
    15
100
AcDbLine
 10
916.5028799406
 20
41.8845720651
 30
0.0
 11
916.6519487047
 21
41.8675899644
 31
0.0
  0
LINE
  5
1F5
330
1F
100
AcDbEntity
  8
0
  6
Continuous
 62
     7
370
    15
100
AcDbLine
 10
884.8772264782
 20
-82.0263950478
 30
0.0
 11
885.3877548453
 21
-80.2502223692
 31
0.0
  0
LINE
  5
1F6
330
1F
100
AcDbEntity
  8
0
  6
Continuous
 62
     7
370
    15
100
AcDbLine
 10
858.032450771
 20
-176.9033621898
 30
0.0
 11
857.8948645403
 21
-176.8435638724
 31
0.0
  0
LINE
  5
1F7
330
1F
100
AcDbEntity
  8
0
  6
Continuous
 62
     7
370
    15
100
AcDbLine
 10
771.1812219175
 20
-327.0359986043
 30
0.0
 11
771.3018018949
 21
-327.1252526166
 31
0.0
  0
LINE
  5
1F8
330
1F
100
AcDbEntity
  8
0
  6
Continuous
 62
     7
370
    15
100
AcDbLine
 10
611.1503486861
 20
-487.2767030614
 30
0.0
 11
611.0611073734
 21
-487.1560967751
 31
0.0
  0
LINE
  5
1F9
330
1F
100
AcDbEntity
  8
0
  6
Continuous
 62
     7
370
    15
100
AcDbLine
 10
460.8686463384
 20
-573.869753346
 30
0.0
 11
460.9284610902
 21
-574.007315424
 31
0.0
  0
LINE
  5
1FA
330
1F
100
AcDbEntity
  8
0
  6
Continuous
 62
     7
370
    15
100
AcDbLine
 10
318.2851915873
 20
-612.9796268783
 30
0.0
 11
319.3993560649
 21
-612.7340939504
 31
0.0
  0
LINE
  5
1FB
330
1F
100
AcDbEntity
  8
0
  6
Continuous
 62
     7
370
    15
100
AcDbLine
 10
414.7379769173
 20
-584.9970857786
 30
0.0
 11
415.7457853296
 21
-584.6301022088
 31
0.0
  0
LINE
  5
1FC
330
1F
100
AcDbEntity
  8
0
  6
Continuous
 62
     7
370
    15
100
AcDbLine
 10
242.1574983184
 20
-632.6268182261
 30
0.0
 11
242.1405183739
 21
-632.477778596
 31
0.0
  0
LINE
  5
1FD
330
1F
100
AcDbEntity
  8
0
  6
Continuous
 62
     7
370
    15
100
AcDbLine
 10
68.7132033752
 20
-632.4777796681
 30
0.0
 11
68.6962212746
 21
-632.6268484322
 31
0.0
  0
LINE
  5
1FE
330
1F
100
AcDbEntity
  8
0
  6
Continuous
 62
     7
370
    15
100
AcDbLine
 10
-55.1977637376
 20
-600.8521262058
 30
0.0
 11
-53.4215910591
 21
-601.3626545728
 31
0.0
  0
LINE
  5
1FF
330
1F
100
AcDbEntity
  8
0
  6
Continuous
 62
     7
370
    15
100
AcDbLine
 10
-150.0747308796
 20
-574.0073504986
 30
0.0
 11
-150.0149325622
 21
-573.8697642678
 31
0.0
  0
LINE
  5
200
330
1F
100
AcDbEntity
  8
0
  6
Continuous
 62
     7
370
    15
100
AcDbLine
 10
-300.2073672942
 20
-487.1561216451
 30
0.0
 11
-300.2966213065
 21
-487.2767016225
 31
0.0
  0
LINE
  5
201
330
1F
100
AcDbEntity
  8
0
  6
Continuous
 62
     7
370
    15
100
AcDbLine
 10
-460.4480717512
 20
-327.1252484136
 30
0.0
 11
-460.327465465
 21
-327.036007101
 31
0.0
  0
LINE
  5
202
330
1F
100
AcDbEntity
  8
0
  6
Continuous
 62
     7
370
    15
100
AcDbLine
 10
-547.0411220358
 20
-176.843546066
 30
0.0
 11
-547.1786841139
 21
-176.9033608178
 31
0.0
  0
LINE
  5
203
330
1F
100
AcDbEntity
  8
0
  6
Continuous
 62
     7
370
    15
100
AcDbLine
 10
-586.1509955682
 20
-34.2600913149
 30
0.0
 11
-585.9054626402
 21
-35.3742557924
 31
0.0
  0
LINE
  5
204
330
1F
100
AcDbEntity
  8
0
  6
Continuous
 62
     7
370
    15
100
AcDbLine
 10
-558.1684544684
 20
-130.7128766449
 30
0.0
 11
-557.8014708987
 21
-131.7206850572
 31
0.0
  0
LINE
  5
205
330
1F
100
AcDbEntity
  8
0
  6
Continuous
 62
     7
370
    15
100
AcDbLine
 10
-605.798186916
 20
41.8676019541
 30
0.0
 11
-605.6491472859
 21
41.8845818985
 31
0.0
  0
LINE
  5
206
330
1F
100
AcDbEntity
  8
0
  6
Continuous
 62
     7
370
    15
100
AcDbLine
 10
-605.649148358
 20
215.3118968972
 30
0.0
 11
-605.7982171221
 21
215.3288789979
 31
0.0
  0
LINE
  5
207
330
1F
100
AcDbEntity
  8
0
  6
Continuous
 62
     7
370
    15
100
AcDbLine
 10
-574.0234948956
 20
339.2228640101
 30
0.0
 11
-574.5340232627
 21
337.4466913315
 31
0.0
  0
LINE
  5
208
330
1F
100
AcDbEntity
  8
0
  6
Continuous
 62
     7
370
    15
100
AcDbLine
 10
-547.1787191884
 20
434.0998311521
 30
0.0
 11
-547.0411329577
 21
434.0400328347
 31
0.0
  0
LINE
  5
209
330
1F
100
AcDbEntity
  8
0
  6
Continuous
 62
     7
370
    15
100
AcDbLine
 10
-460.3274903349
 20
584.2324675666
 30
0.0
 11
-460.4480703123
 21
584.3217215789
 31
0.0
  0
LINE
  5
20A
330
1F
100
AcDbEntity
  8
0
  6
Continuous
 62
     7
370
    15
100
AcDbLine
 10
-300.2966171035
 20
744.4731720237
 30
0.0
 11
-300.2073757908
 21
744.3525657374
 31
0.0
  0
LINE
  5
20B
330
1F
100
AcDbEntity
  8
0
  6
Continuous
 62
     7
370
    15
100
AcDbLine
 10
-150.0149147558
 20
831.0662223083
 30
0.0
 11
-150.0747295076
 21
831.2037843863
 31
0.0
  0
LINE
  5
20C
330
1F
100
AcDbEntity
  8
0
  6
Continuous
 62
     7
370
    15
100
AcDbLine
 10
-103.8842453347
 20
842.1935547409
 30
0.0
 11
-104.892053747
 21
841.8265711711
 31
0.0
  0
LINE
  5
20D
330
1F
100
AcDbEntity
  8
0
  6
Continuous
 62
     7
370
    15
100
AcDbLine
 10
555.3518628433
 20
821.2886485921
 30
0.0
 11
538.5018478366
 21
792.1035664922
 31
0.0
  0
LINE
  5
20E
330
1F
100
AcDbEntity
  8
0
  6
Continuous
 62
     7
370
    15
100
AcDbLine
 10
-244.4981312607
 20
-564.0921796298
 30
0.0
 11
-227.648116254
 21
-534.9070975299
 31
0.0
  0
LWPOLYLINE
  5
20F
330
1F
100
AcDbEntity
  8
0
  6
Continuous
 62
     7
370
    15
100
AcDbPolyline
 90
       22
 70
   128
 43
0.0
 10
136.4870637981
 20
75.8508739552
 10
136.3435462658
 20
75.9523976313
 10
135.9163663798
 20
76.2545864627
 10
135.2155327728
 20
76.7503570791
 10
134.2574721506
 20
77.4280902533
 10
133.064640702
 20
78.2719008792
 10
131.6649964467
 20
79.2620095295
 10
130.091349805
 20
80.3752086541
 10
128.3805818558
 20
81.5854051705
 10
126.5727926746
 20
82.8642368797
 10
124.7103586797
 20
84.1817262089
 10
122.8369275149
 20
85.50699435
 10
120.9964138954
 20
86.8089718006
 10
119.2319577324
 20
88.0571489346
 10
117.5849176031
 20
89.2222666222
 10
116.0939002055
 20
90.2770164927
 10
114.7938465257
 20
91.1966734741
 10
113.7152344448
 20
91.9596823983
 10
112.8833459958
 20
92.5481616549
 10
112.3176784698
 20
92.9483161901
 10
112.0314902458
 20
93.1507651178
 10
111.9955612042
 20
93.1761838322
  0
LWPOLYLINE
  5
210
330
1F
100
AcDbEntity
  8
0
  6
Continuous
 62
     7
370
    15
100
AcDbPolyline
 90
       22
 70
   128
 43
0.0
 10
100.2764111971
 20
118.6269053947
 10
100.2925755867
 20
118.8019546103
 10
100.3406874408
 20
119.3229982715
 10
100.4196186541
 20
120.1778236362
 10
100.5275253026
 20
121.346396634
 10
100.6618704874
 20
122.8013235606
 10
100.8195079027
 20
124.5085035582
 10
100.9967430369
 20
126.4279221407
 10
101.1894211979
 20
128.5145893011
 10
101.3930266765
 20
130.7195943756
 10
101.6027871952
 20
132.9912563318
 10
101.8137869306
 20
135.2763284194
 10
102.0210785194
 20
137.5212497932
 10
102.2198017798
 20
139.673400864
 10
102.4053038955
 20
141.682338793
 10
102.5732330352
 20
143.5009738042
 10
102.7196534067
 20
145.0866798892
 10
102.8411333334
 20
146.4022902978
 10
102.9348286826
 20
147.4169664383
 10
102.9985388681
 20
148.1069244456
 10
103.0307688107
 20
148.455995579
 10
103.0348181073
 20
148.4998244386
  0
LWPOLYLINE
  5
211
330
1F
100
AcDbEntity
  8
0
  6
Continuous
 62
     7
370
    15
100
AcDbPolyline
 90
       22
 70
   128
 43
0.0
 10
174.3666677845
 20
181.3455950071
 10
174.5101853168
 20
181.244071331
 10
174.9373652028
 20
180.9418824996
 10
175.6381988098
 20
180.4461118832
 10
176.596259432
 20
179.768378709
 10
177.7890908806
 20
178.9245680831
 10
179.1887351359
 20
177.9344594328
 10
180.7623817776
 20
176.8212603082
 10
182.4731497268
 20
175.6110637918
 10
184.280938908
 20
174.3322320825
 10
186.1433729029
 20
173.0147427534
 10
188.0168040677
 20
171.6894746123
 10
189.8573176872
 20
170.3874971617
 10
191.6217738502
 20
169.1393200277
 10
193.2688139795
 20
167.9742023401
 10
194.7598313771
 20
166.9194524696
 10
196.0598850569
 20
165.9997954882
 10
197.1384971378
 20
165.236786564
 10
197.9703855868
 20
164.6483073073
 10
198.5360531128
 20
164.2481527722
 10
198.8222413368
 20
164.0457038445
 10
198.8581703783
 20
164.0202851301
  0
LWPOLYLINE
  5
212
330
1F
100
AcDbEntity
  8
0
  6
Continuous
 62
     7
370
    15
100
AcDbPolyline
 90
       22
 70
   128
 43
0.0
 10
191.6375182718
 20
85.8222034915
 10
191.477837908
 20
85.7486793336
 10
191.0025452124
 20
85.5298208732
 10
190.2227778698
 20
85.1707683415
 10
189.1568125187
 20
84.6799285502
 10
187.829636488
 20
84.0688100006
 10
186.2723561345
 20
83.3517409346
 10
184.5214743586
 20
82.5455214766
 10
182.6180275253
 20
81.6690535314
 10
180.606632689
 20
80.7428772264
 10
178.5344363762
 20
79.7887041173
 10
176.4500073397
 20
78.8288968134
 10
174.4022025167
 20
77.8859568501
 10
172.4390217439
 20
76.9819825518
 10
170.6064803984
 20
76.1381625513
 10
168.9475313634
 20
75.3742748131
 10
167.5010582356
 20
74.7082278853
 10
166.3009666455
 20
74.1556284411
 10
165.3753844215
 20
73.7294319791
 10
164.7460076742
 20
73.4396249085
 10
164.4275877085
 20
73.2930022208
 10
164.3876088559
 20
73.2745957945
  0
LWPOLYLINE
  5
213
330
1F
100
AcDbEntity
  8
0
  6
Continuous
 62
     7
370
    15
100
AcDbPolyline
 90
       22
 70
   128
 43
0.0
 10
210.5773203855
 20
138.5695635676
 10
210.5611559959
 20
138.394514352
 10
210.5130441418
 20
137.8734706908
 10
210.4341129285
 20
137.0186453261
 10
210.32620628
 20
135.8500723282
 10
210.1918610952
 20
134.3951454017
 10
210.0342236799
 20
132.6879654041
 10
209.8569885457
 20
130.7685468216
 10
209.6643103847
 20
128.6818796612
 10
209.4607049061
 20
126.4768745867
 10
209.2509443874
 20
124.2052126305
 10
209.039944652
 20
121.9201405429
 10
208.8326530632
 20
119.6752191691
 10
208.6339298028
 20
117.5230680983
 10
208.4484276871
 20
115.5141301693
 10
208.2804985474
 20
113.6954951581
 10
208.1340781759
 20
112.1097890731
 10
208.0125982492
 20
110.7941786645
 10
207.9189029
 20
109.779502524
 10
207.8551927145
 20
109.0895445167
 10
207.8229627719
 20
108.7404733833
 10
207.8189134753
 20
108.6966445237
  0
LWPOLYLINE
  5
214
330
1F
100
AcDbEntity
  8
0
  6
Continuous
 62
     7
370
    15
100
AcDbPolyline
 90
       22
 70
   128
 43
0.0
 10
119.2162133108
 20
171.3742654708
 10
119.3758936746
 20
171.4477896287
 10
119.8511863702
 20
171.6666480891
 10
120.6309537128
 20
172.0257006208
 10
121.6969190639
 20
172.5165404121
 10
123.0240950946
 20
173.1276589617
 10
124.5813754481
 20
173.8447280277
 10
126.332257224
 20
174.6509474857
 10
128.2357040573
 20
175.5274154309
 10
130.2470988936
 20
176.4535917359
 10
132.3192952064
 20
177.407764845
 10
134.4037242428
 20
178.3675721489
 10
136.4515290659
 20
179.3105121122
 10
138.4147098387
 20
180.2144864105
 10
140.2472511842
 20
181.058306411
 10
141.9062002192
 20
181.8221941492
 10
143.352673347
 20
182.488241077
 10
144.5527649371
 20
183.0408405212
 10
145.4783471611
 20
183.4670369832
 10
146.1077239084
 20
183.7568440538
 10
146.4261438741
 20
183.9034667415
 10
146.4661227267
 20
183.9218731678
  0
ARC
  5
215
330
1F
100
AcDbEntity
  8
0
  6
Continuous
 62
     7
370
    15
100
AcDbCircle
 10
-300.8770007783
 20
-460.309042901
 30
0.0
 40
20.00000000000002
100
AcDbArc
 50
148.7724893034
 51
232.2303503771
  0
ARC
  5
216
330
1F
100
AcDbEntity
  8
0
  6
Continuous
 62
     7
370
    15
100
AcDbCircle
 10
-273.0857493117
 20
-477.1582666788
 30
0.0
 40
52.49999999999945
100
AcDbArc
 50
138.1772007521
 51
148.7724893034
  0
ARC
  5
217
330
1F
100
AcDbEntity
  8
0
  6
Continuous
 62
     7
370
    15
100
AcDbCircle
 10
-297.3050974769
 20
-455.4863222701
 30
0.0
 40
20.00000000000009
100
AcDbArc
 50
52.220244617
 51
138.1772007521
  0
LWPOLYLINE
  5
218
330
1F
100
AcDbEntity
  8
0
  6
Continuous
 62
     7
370
    15
100
AcDbPolyline
 90
        3
 70
   128
 43
0.0
 10
-285.0525297069
 20
-439.6789011866
 10
-278.8171415562
 20
-444.4577160134
 10
-273.4450440521
 20
-448.4892024395
  0
LWPOLYLINE
  5
219
330
1F
100
AcDbEntity
  8
0
  6
Continuous
 62
     7
370
    15
100
AcDbPolyline
 90
        3
 70
   128
 43
0.0
 10
-245.9328930614
 20
-467.9512742263
 10
-240.3427444139
 20
-471.6745429997
 10
-233.7604669098
 20
-475.9629525849
  0
ARC
  5
21A
330
1F
100
AcDbEntity
  8
0
  6
Continuous
 62
     7
370
    15
100
AcDbCircle
 10
-244.5862484329
 20
-492.7796766556
 30
0.0
 40
19.99999999999969
100
AcDbArc
 50
331.2715639353
 51
57.2285200705
  0
ARC
  5
21B
330
1F
100
AcDbEntity
  8
0
  6
Continuous
 62
     7
370
    15
100
AcDbCircle
 10
-273.0857493117
 20
-477.1582666788
 30
0.0
 40
52.50000000000021
100
AcDbArc
 50
320.6762753841
 51
331.2715639353
  0
ARC
  5
21C
330
1F
100
AcDbEntity
  8
0
  6
Continuous
 62
     7
370
    15
100
AcDbCircle
 10
-247.9444682868
 20
-497.7535571217
 30
0.0
 40
20.00000000000013
100
AcDbArc
 50
237.2184143104
 51
320.6762753841
  0
ARC
  5
21D
330
1F
100
AcDbEntity
  8
0
  6
Continuous
 62
     7
370
    15
100
AcDbCircle
 10
155.4268657913
 20
128.5982344811
 30
0.0
 40
764.9999999999999
100
AcDbArc
 50
232.2303503771
 51
237.2184143104
  0
ARC
  5
21E
330
1F
100
AcDbEntity
  8
0
  6
Continuous
 62
     7
370
    15
100
AcDbCircle
 10
-273.0857493117
 20
-477.1582666788
 30
0.0
 40
17.00000000000008
100
AcDbArc
 50
137.1074753778
 51
332.3412893097
  0
ARC
  5
21F
330
1F
100
AcDbEntity
  8
0
  6
Continuous
 62
     7
370
    15
100
AcDbCircle
 10
-582.7337301799
 20
229.3153360845
 30
0.0
 40
20.00000000000022
100
AcDbArc
 50
88.7724893034
 51
172.2303503771
  0
ARC
  5
220
330
1F
100
AcDbEntity
  8
0
  6
Continuous
 62
     7
370
    15
100
AcDbCircle
 10
-583.4299602723
 20
196.8227944224
 30
0.0
 40
52.49999999999947
100
AcDbArc
 50
78.1772007521
 51
88.7724893034
  0
ARC
  5
221
330
1F
100
AcDbEntity
  8
0
  6
Continuous
 62
     7
370
    15
100
AcDbCircle
 10
-576.7711799476
 20
228.6333374009
 30
0.0
 40
20.00000000000008
100
AcDbArc
 50
352.220244617
 51
78.1772007521
  0
LWPOLYLINE
  5
222
330
1F
100
AcDbEntity
  8
0
  6
Continuous
 62
     7
370
    15
100
AcDbPolyline
 90
        3
 70
   128
 43
0.0
 10
-556.9552816079
 20
225.9260147244
 10
-557.9761312309
 20
218.1366260917
 10
-558.7814809162
 20
211.4684744205
  0
LWPOLYLINE
  5
223
330
1F
100
AcDbEntity
  8
0
  6
Continuous
 62
     7
370
    15
100
AcDbPolyline
 90
        3
 70
   128
 43
0.0
 10
-561.8800880205
 20
177.9112305351
 10
-562.3094155464
 20
171.2083862424
 10
-562.7321431478
 20
163.3637512856
  0
ARC
  5
224
330
1F
100
AcDbEntity
  8
0
  6
Continuous
 62
     7
370
    15
100
AcDbCircle
 10
-582.7087477157
 20
164.3307976779
 30
0.0
 40
19.99999999999972
100
AcDbArc
 50
271.2715639353
 51
357.2285200705
  0
ARC
  5
225
330
1F
100
AcDbEntity
  8
0
  6
Continuous
 62
     7
370
    15
100
AcDbCircle
 10
-583.4299602723
 20
196.8227944224
 30
0.0
 40
52.50000000000012
100
AcDbArc
 50
260.6762753841
 51
271.2715639353
  0
ARC
  5
226
330
1F
100
AcDbEntity
  8
0
  6
Continuous
 62
     7
370
    15
100
AcDbCircle
 10
-588.6953644817
 20
164.7521611497
 30
0.0
 40
20.00000000000001
100
AcDbArc
 50
177.2184143104
 51
260.6762753841
  0
ARC
  5
227
330
1F
100
AcDbEntity
  8
0
  6
Continuous
 62
     7
370
    15
100
AcDbCircle
 10
155.4268657913
 20
128.5982344811
 30
0.0
 40
765.0
100
AcDbArc
 50
172.2303503771
 51
177.2184143104
  0
ARC
  5
228
330
1F
100
AcDbEntity
  8
0
  6
Continuous
 62
     7
370
    15
100
AcDbCircle
 10
-583.4299602723
 20
196.8227944224
 30
0.0
 40
17.0
100
AcDbArc
 50
77.1074753778
 51
272.3412893097
  0
ARC
  5
229
330
1F
100
AcDbEntity
  8
0
  6
Continuous
 62
     7
370
    15
100
AcDbCircle
 10
437.2835951929
 20
-561.0261445043
 30
0.0
 40
19.9999999999999
100
AcDbArc
 50
208.7724893034
 51
292.2303503771
  0
ARC
  5
22A
330
1F
100
AcDbEntity
  8
0
  6
Continuous
 62
     7
370
    15
100
AcDbCircle
 10
465.7710767519
 20
-545.3828266201
 30
0.0
 40
52.49999999999946
100
AcDbArc
 50
198.1772007521
 51
208.7724893034
  0
ARC
  5
22B
330
1F
100
AcDbEntity
  8
0
  6
Continuous
 62
     7
370
    15
100
AcDbCircle
 10
434.892948262
 20
-555.5214251899
 30
0.0
 40
20.00000000000009
100
AcDbArc
 50
112.220244617
 51
198.1772007521
  0
LWPOLYLINE
  5
22C
330
1F
100
AcDbEntity
  8
0
  6
Continuous
 62
     7
370
    15
100
AcDbPolyline
 90
        3
 70
   128
 43
0.0
 10
427.3295811921
 20
-537.0066603564
 10
434.585855466
 20
-533.996107624
 10
440.7632805486
 20
-531.3594174487
  0
LWPOLYLINE
  5
22D
330
1F
100
AcDbEntity
  8
0
  6
Continuous
 62
     7
370
    15
100
AcDbPolyline
 90
        3
 70
   128
 43
0.0
 10
471.3740252836
 20
-517.2643106372
 10
477.3935369238
 20
-514.284694761
 10
484.3985564227
 20
-510.7284655326
  0
ARC
  5
22E
330
1F
100
AcDbEntity
  8
0
  6
Continuous
 62
     7
370
    15
100
AcDbCircle
 10
493.5493650741
 20
-528.5122398523
 30
0.0
 40
19.99999999999972
100
AcDbArc
 50
31.2715639353
 51
117.2285200705
  0
ARC
  5
22F
330
1F
100
AcDbEntity
  8
0
  6
Continuous
 62
     7
370
    15
100
AcDbCircle
 10
465.7710767519
 20
-545.3828266201
 30
0.0
 40
52.50000000000033
100
AcDbArc
 50
20.6762753841
 51
31.2715639353
  0
ARC
  5
230
330
1F
100
AcDbEntity
  8
0
  6
Continuous
 62
     7
370
    15
100
AcDbCircle
 10
496.1777619862
 20
-533.9074837903
 30
0.0
 40
19.99999999999998
100
AcDbArc
 50
297.2184143104
 51
20.6762753841
  0
ARC
  5
231
330
1F
100
AcDbEntity
  8
0
  6
Continuous
 62
     7
370
    15
100
AcDbCircle
 10
155.4268657913
 20
128.5982344811
 30
0.0
 40
765.0
100
AcDbArc
 50
292.2303503771
 51
297.2184143104
  0
ARC
  5
232
330
1F
100
AcDbEntity
  8
0
  6
Continuous
 62
     7
370
    15
100
AcDbCircle
 10
465.7710767519
 20
-545.3828266201
 30
0.0
 40
17.00000000000009
100
AcDbArc
 50
197.1074753778
 51
32.3412893097
  0
ARC
  5
233
330
1F
100
AcDbEntity
  8
0
  6
Continuous
 62
     7
370
    15
100
AcDbCircle
 10
893.5874617625
 20
27.8811328778
 30
0.0
 40
20.00000000000019
100
AcDbArc
 50
268.7724893034
 51
352.2303503771
  0
ARC
  5
234
330
1F
100
AcDbEntity
  8
0
  6
Continuous
 62
     7
370
    15
100
AcDbCircle
 10
894.2836918549
 20
60.3736745399
 30
0.0
 40
52.49999999999943
100
AcDbArc
 50
258.1772007521
 51
268.7724893034
  0
ARC
  5
235
330
1F
100
AcDbEntity
  8
0
  6
Continuous
 62
     7
370
    15
100
AcDbCircle
 10
887.6249115302
 20
28.5631315614
 30
0.0
 40
20.00000000000004
100
AcDbArc
 50
172.220244617
 51
258.1772007521
  0
LWPOLYLINE
  5
236
330
1F
100
AcDbEntity
  8
0
  6
Continuous
 62
     7
370
    15
100
AcDbPolyline
 90
        3
 70
   128
 43
0.0
 10
867.8090131905
 20
31.2704542379
 10
868.8298628135
 20
39.0598428706
 10
869.6352124988
 20
45.7279945418
  0
LWPOLYLINE
  5
237
330
1F
100
AcDbEntity
  8
0
  6
Continuous
 62
     7
370
    15
100
AcDbPolyline
 90
        3
 70
   128
 43
0.0
 10
872.7338196031
 20
79.2852384272
 10
873.163147129
 20
85.9880827198
 10
873.5858747304
 20
93.8327176767
  0
ARC
  5
238
330
1F
100
AcDbEntity
  8
0
  6
Continuous
 62
     7
370
    15
100
AcDbCircle
 10
893.5624792983
 20
92.8656712844
 30
0.0
 40
19.99999999999972
100
AcDbArc
 50
91.2715639353
 51
177.2285200705
  0
ARC
  5
239
330
1F
100
AcDbEntity
  8
0
  6
Continuous
 62
     7
370
    15
100
AcDbCircle
 10
894.2836918549
 20
60.3736745399
 30
0.0
 40
52.50000000000016
100
AcDbArc
 50
80.6762753841
 51
91.2715639353
  0
ARC
  5
23A
330
1F
100
AcDbEntity
  8
0
  6
Continuous
 62
     7
370
    15
100
AcDbCircle
 10
899.5490960643
 20
92.4443078126
 30
0.0
 40
20.00000000000009
100
AcDbArc
 50
357.2184143104
 51
80.6762753841
  0
ARC
  5
23B
330
1F
100
AcDbEntity
  8
0
  6
Continuous
 62
     7
370
    15
100
AcDbCircle
 10
155.4268657913
 20
128.5982344811
 30
0.0
 40
765.0000000000001
100
AcDbArc
 50
352.2303503771
 51
357.2184143104
  0
ARC
  5
23C
330
1F
100
AcDbEntity
  8
0
  6
Continuous
 62
     7
370
    15
100
AcDbCircle
 10
894.2836918549
 20
60.3736745399
 30
0.0
 40
17.0
100
AcDbArc
 50
257.1074753778
 51
92.3412893097
  0
ARC
  5
23D
330
1F
100
AcDbEntity
  8
0
  6
Continuous
 62
     7
370
    15
100
AcDbCircle
 10
-126.4298636103
 20
818.2226134666
 30
0.0
 40
19.99999999999997
100
AcDbArc
 50
28.7724893034
 51
112.2303503771
  0
ARC
  5
23E
330
1F
100
AcDbEntity
  8
0
  6
Continuous
 62
     7
370
    15
100
AcDbCircle
 10
-154.9173451693
 20
802.5792955824
 30
0.0
 40
52.4999999999995
100
AcDbArc
 50
18.1772007521
 51
28.7724893034
  0
LWPOLYLINE
  5
23F
330
1F
100
AcDbEntity
  8
0
  6
Continuous
 62
     7
370
    15
100
AcDbPolyline
 90
        3
 70
   128
 43
0.0
 10
-116.4758496095
 20
794.2031293187
 10
-123.7321238834
 20
791.1925765863
 10
-129.909548966
 20
788.555886411
  0
LWPOLYLINE
  5
240
330
1F
100
AcDbEntity
  8
0
  6
Continuous
 62
     7
370
    15
100
AcDbPolyline
 90
        3
 70
   128
 43
0.0
 10
-160.520293701
 20
774.4607795995
 10
-166.5398053412
 20
771.4811637233
 10
-173.5448248401
 20
767.9249344949
  0
ARC
  5
241
330
1F
100
AcDbEntity
  8
0
  6
Continuous
 62
     7
370
    15
100
AcDbCircle
 10
-182.6956334915
 20
785.7087088146
 30
0.0
 40
19.99999999999959
100
AcDbArc
 50
211.2715639353
 51
297.2285200705
  0
ARC
  5
242
330
1F
100
AcDbEntity
  8
0
  6
Continuous
 62
     7
370
    15
100
AcDbCircle
 10
-154.9173451693
 20
802.5792955824
 30
0.0
 40
52.50000000000014
100
AcDbArc
 50
200.6762753841
 51
211.2715639353
  0
ARC
  5
243
330
1F
100
AcDbEntity
  8
0
  6
Continuous
 62
     7
370
    15
100
AcDbCircle
 10
-185.3240304036
 20
791.1039527526
 30
0.0
 40
20.0000000000001
100
AcDbArc
 50
117.2184143104
 51
200.6762753841
  0
ARC
  5
244
330
1F
100
AcDbEntity
  8
0
  6
Continuous
 62
     7
370
    15
100
AcDbCircle
 10
155.4268657913
 20
128.5982344811
 30
0.0
 40
764.9999999999999
100
AcDbArc
 50
112.2303503771
 51
117.2184143104
  0
ARC
  5
245
330
1F
100
AcDbEntity
  8
0
  6
Continuous
 62
     7
370
    15
100
AcDbCircle
 10
-154.9173451693
 20
802.5792955824
 30
0.0
 40
17.00000000000001
100
AcDbArc
 50
17.1074753778
 51
212.3412893097
  0
ARC
  5
246
330
1F
100
AcDbEntity
  8
0
  6
Continuous
 62
     7
370
    15
100
AcDbCircle
 10
-124.0392166794
 20
812.7178941522
 30
0.0
 40
20.00000000000009
100
AcDbArc
 50
292.220244617
 51
18.1772007521
  0
ARC
  5
247
330
1F
100
AcDbEntity
  8
0
  6
Continuous
 62
     7
370
    15
100
AcDbCircle
 10
611.7307323609
 20
717.5055118632
 30
0.0
 40
19.99999999999995
100
AcDbArc
 50
328.7724893034
 51
52.2303503771
  0
ARC
  5
248
330
1F
100
AcDbEntity
  8
0
  6
Continuous
 62
     7
370
    15
100
AcDbCircle
 10
583.9394808943
 20
734.3547356411
 30
0.0
 40
52.49999999999943
100
AcDbArc
 50
318.1772007521
 51
328.7724893034
  0
ARC
  5
249
330
1F
100
AcDbEntity
  8
0
  6
Continuous
 62
     7
370
    15
100
AcDbCircle
 10
608.1588290595
 20
712.6827912324
 30
0.0
 40
20.00000000000013
100
AcDbArc
 50
232.220244617
 51
318.1772007521
  0
LWPOLYLINE
  5
24A
330
1F
100
AcDbEntity
  8
0
  6
Continuous
 62
     7
370
    15
100
AcDbPolyline
 90
        3
 70
   128
 43
0.0
 10
595.9062612895
 20
696.8753701489
 10
589.6708731388
 20
701.6541849757
 10
584.2987756347
 20
705.6856714018
  0
LWPOLYLINE
  5
24B
330
1F
100
AcDbEntity
  8
0
  6
Continuous
 62
     7
370
    15
100
AcDbPolyline
 90
        3
 70
   128
 43
0.0
 10
556.786624644
 20
725.1477431885
 10
551.1964759965
 20
728.871011962
 10
544.6141984924
 20
733.1594215472
  0
ARC
  5
24C
330
1F
100
AcDbEntity
  8
0
  6
Continuous
 62
     7
370
    15
100
AcDbCircle
 10
555.4399800155
 20
749.9761456179
 30
0.0
 40
19.99999999999972
100
AcDbArc
 50
151.2715639353
 51
237.2285200705
  0
ARC
  5
24D
330
1F
100
AcDbEntity
  8
0
  6
Continuous
 62
     7
370
    15
100
AcDbCircle
 10
583.9394808943
 20
734.3547356411
 30
0.0
 40
52.50000000000022
100
AcDbArc
 50
140.6762753841
 51
151.2715639353
  0
ARC
  5
24E
330
1F
100
AcDbEntity
  8
0
  6
Continuous
 62
     7
370
    15
100
AcDbCircle
 10
558.7981998693
 20
754.950026084
 30
0.0
 40
20.00000000000014
100
AcDbArc
 50
57.2184143104
 51
140.6762753841
  0
ARC
  5
24F
330
1F
100
AcDbEntity
  8
0
  6
Continuous
 62
     7
370
    15
100
AcDbCircle
 10
155.4268657913
 20
128.5982344811
 30
0.0
 40
764.9999999999999
100
AcDbArc
 50
52.2303503771
 51
57.2184143104
  0
ARC
  5
250
330
1F
100
AcDbEntity
  8
0
  6
Continuous
 62
     7
370
    15
100
AcDbCircle
 10
583.9394808943
 20
734.3547356411
 30
0.0
 40
17.00000000000003
100
AcDbArc
 50
317.1074753778
 51
152.3412893097
  0
LWPOLYLINE
  5
251
330
1F
100
AcDbEntity
  8
0
  6
Continuous
 62
     7
370
    15
100
AcDbPolyline
 90
       24
 70
   128
 43
0.0
 10
194.1544350725
 20
84.7793114468
 10
194.144224333
 20
84.7746124249
 10
193.899841078
 20
84.6620821932
 10
193.3346767974
 20
84.4018453953
 10
192.4607760118
 20
83.9994433734
 10
191.2967675419
 20
83.4634582966
 10
189.867455846
 20
82.8053110995
 10
188.203308006
 20
82.0390314592
 10
186.339788428
 20
81.1809484015
 10
184.3166199718
 20
80.2493496224
 10
182.176918431
 20
79.2640953052
 10
179.9662899413
 20
78.2461795793
 10
177.7318505725
 20
77.2172981261
 10
175.5212225327
 20
76.1993825208
 10
173.3815212167
 20
75.2141282637
 10
171.3583519734
 20
74.2825292738
 10
169.4948337448
 20
73.4244465776
 10
167.8306848927
 20
72.6581666662
 10
166.4013738716
 20
72.0000196499
 10
165.2373640522
 20
71.4640342115
 10
164.3634636518
 20
71.0616361495
 10
163.7982998857
 20
70.8013956327
 10
163.5539166307
 20
70.688865401
 10
163.5437049916
 20
70.6841661381
  0
ARC
  5
252
330
1F
100
AcDbEntity
  8
0
  6
Continuous
 62
     7
370
    15
100
AcDbCircle
 10
465.7710767519
 20
-545.3828266201
 30
0.0
 40
16.8500000000008
100
AcDbArc
 50
204.7243823437
 51
24.7243823437
  0
ARC
  5
253
330
1F
100
AcDbEntity
  8
0
  6
Continuous
 62
     7
370
    15
100
AcDbCircle
 10
-583.4299602723
 20
196.8227944224
 30
0.0
 40
16.85000000000078
100
AcDbArc
 50
84.7243823437
 51
264.7243823437
  0
LWPOLYLINE
  5
254
330
1F
100
AcDbEntity
  8
0
  6
Continuous
 62
     7
370
    15
100
AcDbPolyline
 90
       24
 70
   128
 43
0.0
 10
98.1147833984
 20
116.9686362523
 10
98.1158144575
 20
116.9798294074
 10
98.140554389
 20
117.2477371528
 10
98.1977644334
 20
117.8673029106
 10
98.2862236056
 20
118.8253219831
 10
98.4040520261
 20
120.1013763246
 10
98.5487369161
 20
121.6682700822
 10
98.7171905203
 20
123.4926050624
 10
98.9058308337
 20
125.5355013889
 10
99.1106283745
 20
127.7534160868
 10
99.3272219293
 20
130.099078493
 10
99.5509955752
 20
132.5224982116
 10
99.7771784463
 20
134.9720177286
 10
100.0009520922
 20
137.3954374472
 10
100.217545406
 20
139.741100753
 10
100.4223431879
 20
141.9590145513
 10
100.6109799029
 20
144.0019099136
 10
100.7794371055
 20
145.826245858
 10
100.9241186381
 20
147.3931377519
 10
101.0419463355
 20
148.6691947921
 10
101.1304098292
 20
149.6272121301
 10
101.1876195723
 20
150.2467790123
 10
101.2123555438
 20
150.5146871429
 10
101.2133908039
 20
150.5258790132
  0
LWPOLYLINE
  5
255
330
1F
100
AcDbEntity
  8
0
  6
Continuous
 62
     7
370
    15
100
AcDbPolyline
 90
       24
 70
   128
 43
0.0
 10
174.0113795659
 20
184.0467532704
 10
174.0205586437
 20
184.0402613862
 10
174.2402013645
 20
183.8848861215
 10
174.748155902
 20
183.5255560371
 10
175.5335941581
 20
182.9699371227
 10
176.5797767299
 20
182.2298656414
 10
177.8644028126
 20
181.3211217797
 10
179.3600970484
 20
180.2630664397
 10
181.0349799114
 20
179.0782541351
 10
182.8533519673
 20
177.7919375578
 10
184.7764592948
 20
176.4315283281
 10
186.7633136565
 20
175.0260261346
 10
188.7715679376
 20
173.6053855485
 10
190.7584222992
 20
172.199883355
 10
192.6815291446
 20
170.8394759245
 10
194.4999016827
 20
169.5531575481
 10
196.1747845456
 20
168.3683452434
 10
197.670474701
 20
167.3102907384
 10
198.9551048642
 20
166.4015460417
 10
200.0012833555
 20
165.6614753954
 10
200.7867220937
 20
165.1058546818
 10
201.2946797474
 20
164.7465273608
 10
201.5143229504
 20
164.5911502969
 10
201.5235020281
 20
164.5846584127
  0
ARC
  5
256
330
1F
100
AcDbEntity
  8
0
  6
Continuous
 62
     7
370
    15
100
AcDbCircle
 10
583.9394808943
 20
734.3547356411
 30
0.0
 40
16.8500000000006
100
AcDbArc
 50
324.7243823437
 51
144.7243823437
  0
ARC
  5
257
330
1F
100
AcDbEntity
  8
0
  6
Continuous
 62
     7
370
    15
100
AcDbCircle
 10
-154.9173451693
 20
802.5792955824
 30
0.0
 40
16.85000000000069
100
AcDbArc
 50
24.7243823437
 51
204.7243823437
  0
LWPOLYLINE
  5
258
330
1F
100
AcDbEntity
  8
0
  6
Continuous
 62
     7
370
    15
100
AcDbPolyline
 90
       24
 70
   128
 43
0.0
 10
116.6992965101
 20
172.4171575155
 10
116.7095072496
 20
172.4218565374
 10
116.9538905046
 20
172.5343867691
 10
117.5190547852
 20
172.794623567
 10
118.3929555708
 20
173.1970255889
 10
119.5569640407
 20
173.7330106657
 10
120.9862757366
 20
174.3911578628
 10
122.6504235766
 20
175.1574375031
 10
124.5139431546
 20
176.0155205608
 10
126.5371116108
 20
176.9471193399
 10
128.6768131516
 20
177.9323736571
 10
130.8874416413
 20
178.950289383
 10
133.1218810101
 20
179.9791708362
 10
135.3325090499
 20
180.9970864415
 10
137.4722103659
 20
181.9823406985
 10
139.4953796092
 20
182.9139396885
 10
141.3588978378
 20
183.7720223847
 10
143.0230466899
 20
184.5383022961
 10
144.452357711
 20
185.1964493124
 10
145.6163675304
 20
185.7324347508
 10
146.4902679308
 20
186.1348328128
 10
147.0554316969
 20
186.3950733296
 10
147.2998149519
 20
186.5076035613
 10
147.310026591
 20
186.5123028242
  0
LWPOLYLINE
  5
259
330
1F
100
AcDbEntity
  8
0
  6
Continuous
 62
     7
370
    15
100
AcDbPolyline
 90
       24
 70
   128
 43
0.0
 10
136.8423520167
 20
73.1497156918
 10
136.8331729389
 20
73.1562075761
 10
136.6135302181
 20
73.3115828408
 10
136.1055756805
 20
73.6709129252
 10
135.3201374245
 20
74.2265318396
 10
134.2739548527
 20
74.9666033209
 10
132.98932877
 20
75.8753471826
 10
131.4936345342
 20
76.9334025226
 10
129.8187516712
 20
78.1182148272
 10
128.0003796153
 20
79.4045314045
 10
126.0772722878
 20
80.7649406341
 10
124.0904179261
 20
82.1704428277
 10
122.082163645
 20
83.5910834138
 10
120.0953092834
 20
84.9965856073
 10
118.172202438
 20
86.3569930378
 10
116.3538298999
 20
87.6433114142
 10
114.678947037
 20
88.8281237189
 10
113.1832568816
 20
89.8861782239
 10
111.8986267184
 20
90.7949229206
 10
110.8524482271
 20
91.5349935669
 10
110.0670094889
 20
92.0906142805
 10
109.5590518352
 20
92.4499416015
 10
109.3394086322
 20
92.6053186654
 10
109.3302295544
 20
92.6118105496
  0
ARC
  5
25A
330
1F
100
AcDbEntity
  8
0
  6
Continuous
 62
     7
370
    15
100
AcDbCircle
 10
-273.0857493117
 20
-477.1582666788
 30
0.0
 40
16.85000000000067
100
AcDbArc
 50
144.7243823437
 51
324.7243823437
  0
LWPOLYLINE
  5
25B
330
1F
100
AcDbEntity
  8
0
  6
Continuous
 62
     7
370
    15
100
AcDbPolyline
 90
       24
 70
   128
 43
0.0
 10
212.7389481842
 20
140.22783271
 10
212.7379171251
 20
140.2166395549
 10
212.7131771936
 20
139.9487318095
 10
212.6559671492
 20
139.3291660517
 10
212.567507977
 20
138.3711469791
 10
212.4496795565
 20
137.0950926377
 10
212.3049946665
 20
135.5281988801
 10
212.1365410623
 20
133.7038638999
 10
211.9479007489
 20
131.6609675734
 10
211.7431032081
 20
129.4430528755
 10
211.5265096533
 20
127.0973904693
 10
211.3027360074
 20
124.6739707507
 10
211.0765531363
 20
122.2244512337
 10
210.8527794904
 20
119.8010315151
 10
210.6361861766
 20
117.4553682092
 10
210.4313883947
 20
115.237454411
 10
210.2427516797
 20
113.1945590487
 10
210.0742944771
 20
111.3702231043
 10
209.9296129445
 20
109.8033312104
 10
209.8117852471
 20
108.5272741702
 10
209.7233217534
 20
107.5692568322
 10
209.6661120103
 20
106.94968995
 10
209.6413760388
 20
106.6817818194
 10
209.6403407787
 20
106.6705899491
  0
ARC
  5
25C
330
1F
100
AcDbEntity
  8
0
  6
Continuous
 62
     7
370
    15
100
AcDbCircle
 10
894.2836918549
 20
60.3736745399
 30
0.0
 40
16.8500000000007
100
AcDbArc
 50
264.7243823437
 51
84.7243823437
  0
ARC
  5
25D
330
1F
100
AcDbEntity
  8
0
  6
Continuous
 62
     7
370
    15
100
AcDbCircle
 10
66.7200146979
 20
113.3964395513
 30
0.0
 40
19.00000000000001
100
AcDbArc
 50
154.8997221622
 51
14.5490425253
  0
ARC
  5
25E
330
1F
100
AcDbEntity
  8
0
  6
Continuous
 62
     7
370
    15
100
AcDbCircle
 10
66.7200146979
 20
113.3964395513
 30
0.0
 40
16.00000000000001
100
AcDbArc
 50
150.9752938257
 51
18.4734708617
  0
ARC
  5
25F
330
1F
100
AcDbEntity
  8
0
  6
Continuous
 62
     7
370
    15
100
AcDbCircle
 10
140.2250708615
 20
217.3050855746
 30
0.0
 40
19.0
100
AcDbArc
 50
274.8997221622
 51
333.9481056166
  0
ARC
  5
260
330
1F
100
AcDbEntity
  8
0
  6
Continuous
 62
     7
370
    15
100
AcDbCircle
 10
140.2250708615
 20
217.3050855746
 30
0.0
 40
19.0
100
AcDbArc
 50
333.9481056166
 51
134.5490425253
  0
ARC
  5
261
330
1F
100
AcDbEntity
  8
0
  6
Continuous
 62
     7
370
    15
100
AcDbCircle
 10
140.2250708615
 20
217.3050855746
 30
0.0
 40
16.00000000000001
100
AcDbArc
 50
270.9752938257
 51
333.9481056166
  0
ARC
  5
262
330
1F
100
AcDbEntity
  8
0
  6
Continuous
 62
     7
370
    15
100
AcDbCircle
 10
140.2250708615
 20
217.3050855746
 30
0.0
 40
15.99999999999997
100
AcDbArc
 50
333.9481056166
 51
138.4734708617
  0
ARC
  5
263
330
1F
100
AcDbEntity
  8
0
  6
Continuous
 62
     7
370
    15
100
AcDbCircle
 10
244.1337168847
 20
143.800029411
 30
0.0
 40
18.99999999999997
100
AcDbArc
 50
334.8997221622
 51
194.5490425253
  0
ARC
  5
264
330
1F
100
AcDbEntity
  8
0
  6
Continuous
 62
     7
370
    15
100
AcDbCircle
 10
244.1337168847
 20
143.800029411
 30
0.0
 40
16.00000000000003
100
AcDbArc
 50
330.9752938257
 51
198.4734708618
  0
ARC
  5
265
330
1F
100
AcDbEntity
  8
0
  6
Continuous
 62
     7
370
    15
100
AcDbCircle
 10
170.6286607211
 20
39.8913833877
 30
0.0
 40
19.0
100
AcDbArc
 50
94.8997221622
 51
153.9481056166
  0
ARC
  5
266
330
1F
100
AcDbEntity
  8
0
  6
Continuous
 62
     7
370
    15
100
AcDbCircle
 10
170.6286607211
 20
39.8913833877
 30
0.0
 40
18.99999999999999
100
AcDbArc
 50
153.9481056166
 51
314.5490425253
  0
ARC
  5
267
330
1F
100
AcDbEntity
  8
0
  6
Continuous
 62
     7
370
    15
100
AcDbCircle
 10
170.6286607211
 20
39.8913833877
 30
0.0
 40
16.00000000000001
100
AcDbArc
 50
90.9752938257
 51
153.9481056166
  0
ARC
  5
268
330
1F
100
AcDbEntity
  8
0
  6
Continuous
 62
     7
370
    15
100
AcDbCircle
 10
170.6286607211
 20
39.8913833877
 30
0.0
 40
16.00000000000001
100
AcDbArc
 50
153.9481056166
 51
318.4734708617
  0
ARC
  5
269
330
1F
100
AcDbEntity
  8
0
  6
Continuous
 62
     7
370
    15
100
AcDbCircle
 10
170.6286607211
 20
39.8913833877
 30
0.0
 40
15.7
100
AcDbArc
 50
90.4926805917
 51
153.9481056166
  0
ARC
  5
26A
330
1F
100
AcDbEntity
  8
0
  6
Continuous
 62
     7
370
    15
100
AcDbCircle
 10
170.6286607211
 20
39.8913833877
 30
0.0
 40
15.70000000000003
100
AcDbArc
 50
153.9481056166
 51
318.9560840957
  0
ARC
  5
26B
330
1F
100
AcDbEntity
  8
0
  6
Continuous
 62
     7
370
    15
100
AcDbCircle
 10
140.2250708615
 20
217.3050855746
 30
0.0
 40
15.70000000000002
100
AcDbArc
 50
270.4926805917
 51
333.9481056166
  0
ARC
  5
26C
330
1F
100
AcDbEntity
  8
0
  6
Continuous
 62
     7
370
    15
100
AcDbCircle
 10
140.2250708615
 20
217.3050855746
 30
0.0
 40
15.70000000000001
100
AcDbArc
 50
333.9481056166
 51
138.9560840957
  0
ARC
  5
26D
330
1F
100
AcDbEntity
  8
0
  6
Continuous
 62
     7
370
    15
100
AcDbCircle
 10
66.7200146979
 20
113.3964395513
 30
0.0
 40
15.70000000000001
100
AcDbArc
 50
150.4926805917
 51
18.9560840957
  0
ARC
  5
26E
330
1F
100
AcDbEntity
  8
0
  6
Continuous
 62
     7
370
    15
100
AcDbCircle
 10
244.1337168847
 20
143.800029411
 30
0.0
 40
15.7
100
AcDbArc
 50
330.4926805917
 51
198.9560840957
  0
CIRCLE
  5
26F
330
1F
100
AcDbEntity
  8
0
  6
Continuous
 62
     7
370
    15
100
AcDbCircle
 10
-301.6553316581
 20
-455.9014359849
 30
0.0
 40
16.24999999999988
  0
CIRCLE
  5
270
330
1F
100
AcDbEntity
  8
0
  6
Continuous
 62
     7
370
    15
100
AcDbCircle
 10
-301.6553316581
 20
-455.9014359849
 30
0.0
 40
13.24999999999976
  0
CIRCLE
  5
271
330
1F
100
AcDbEntity
  8
0
  6
Continuous
 62
     7
370
    15
100
AcDbCircle
 10
497.7500301347
 20
-529.716926482
 30
0.0
 40
16.24999999999989
  0
CIRCLE
  5
272
330
1F
100
AcDbEntity
  8
0
  6
Continuous
 62
     7
370
    15
100
AcDbCircle
 10
497.7500301347
 20
-529.716926482
 30
0.0
 40
13.24999999999998
  0
CIRCLE
  5
273
330
1F
100
AcDbEntity
  8
0
  6
Continuous
 62
     7
370
    15
100
AcDbCircle
 10
433.0773301938
 20
-559.4963953606
 30
0.0
 40
16.24999999999988
  0
CIRCLE
  5
274
330
1F
100
AcDbEntity
  8
0
  6
Continuous
 62
     7
370
    15
100
AcDbCircle
 10
433.0773301938
 20
-559.4963953606
 30
0.0
 40
13.24999999999987
  0
CIRCLE
  5
275
330
1F
100
AcDbEntity
  8
0
  6
Continuous
 62
     7
370
    15
100
AcDbCircle
 10
-579.3057960606
 20
232.1931938569
 30
0.0
 40
16.24999999999982
  0
CIRCLE
  5
276
330
1F
100
AcDbEntity
  8
0
  6
Continuous
 62
     7
370
    15
100
AcDbCircle
 10
-579.3057960606
 20
232.1931938569
 30
0.0
 40
13.2499999999997
  0
CIRCLE
  5
277
330
1F
100
AcDbEntity
  8
0
  6
Continuous
 62
     7
370
    15
100
AcDbCircle
 10
-186.8962985521
 20
786.9133954442
 30
0.0
 40
16.24999999999994
  0
CIRCLE
  5
278
330
1F
100
AcDbEntity
  8
0
  6
Continuous
 62
     7
370
    15
100
AcDbCircle
 10
-186.8962985522
 20
786.9133954442
 30
0.0
 40
13.24999999999983
  0
CIRCLE
  5
279
330
1F
100
AcDbEntity
  8
0
  6
Continuous
 62
     7
370
    15
100
AcDbCircle
 10
-122.2235986112
 20
816.6928643229
 30
0.0
 40
16.24999999999989
  0
CIRCLE
  5
27A
330
1F
100
AcDbEntity
  8
0
  6
Continuous
 62
     7
370
    15
100
AcDbCircle
 10
-122.2235986112
 20
816.6928643229
 30
0.0
 40
13.24999999999991
  0
CIRCLE
  5
27B
330
1F
100
AcDbEntity
  8
0
  6
Continuous
 62
     7
370
    15
100
AcDbCircle
 10
896.7061010535
 20
95.9012106249
 30
0.0
 40
16.24999999999983
  0
CIRCLE
  5
27C
330
1F
100
AcDbEntity
  8
0
  6
Continuous
 62
     7
370
    15
100
AcDbCircle
 10
896.7061010535
 20
95.9012106249
 30
0.0
 40
13.24999999999993
  0
CIRCLE
  5
27D
330
1F
100
AcDbEntity
  8
0
  6
Continuous
 62
     7
370
    15
100
AcDbCircle
 10
-585.8523694709
 20
161.2952583374
 30
0.0
 40
16.24999999999983
  0
CIRCLE
  5
27E
330
1F
100
AcDbEntity
  8
0
  6
Continuous
 62
     7
370
    15
100
AcDbCircle
 10
-585.8523694709
 20
161.2952583374
 30
0.0
 40
13.24999999999992
  0
CIRCLE
  5
27F
330
1F
100
AcDbEntity
  8
0
  6
Continuous
 62
     7
370
    15
100
AcDbCircle
 10
612.5090632407
 20
713.0979049471
 30
0.0
 40
16.24999999999982
  0
CIRCLE
  5
280
330
1F
100
AcDbEntity
  8
0
  6
Continuous
 62
     7
370
    15
100
AcDbCircle
 10
612.5090632407
 20
713.0979049471
 30
0.0
 40
13.24999999999993
  0
CIRCLE
  5
281
330
1F
100
AcDbEntity
  8
0
  6
Continuous
 62
     7
370
    15
100
AcDbCircle
 10
554.3829367101
 20
754.216371588
 30
0.0
 40
16.24999999999993
  0
CIRCLE
  5
282
330
1F
100
AcDbEntity
  8
0
  6
Continuous
 62
     7
370
    15
100
AcDbCircle
 10
554.3829367101
 20
754.216371588
 30
0.0
 40
13.24999999999993
  0
CIRCLE
  5
283
330
1F
100
AcDbEntity
  8
0
  6
Continuous
 62
     7
370
    15
100
AcDbCircle
 10
890.1595276432
 20
25.0032751054
 30
0.0
 40
16.24999999999983
  0
CIRCLE
  5
284
330
1F
100
AcDbEntity
  8
0
  6
Continuous
 62
     7
370
    15
100
AcDbCircle
 10
890.1595276432
 20
25.0032751054
 30
0.0
 40
13.24999999999992
  0
CIRCLE
  5
285
330
1F
100
AcDbEntity
  8
0
  6
Continuous
 62
     7
370
    15
100
AcDbCircle
 10
-243.5292051275
 20
-497.0199026257
 30
0.0
 40
16.24999999999988
  0
CIRCLE
  5
286
330
1F
100
AcDbEntity
  8
0
  6
Continuous
 62
     7
370
    15
100
AcDbCircle
 10
-243.5292051275
 20
-497.0199026257
 30
0.0
 40
13.24999999999978
  0
CIRCLE
  5
287
330
1F
100
AcDbEntity
  8
0
  6
Continuous
 62
     7
370
    15
100
AcDbCircle
 10
-579.3057960606
 20
232.1931938569
 30
0.0
 40
12.94999999999996
  0
CIRCLE
  5
288
330
1F
100
AcDbEntity
  8
0
  6
Continuous
 62
     7
370
    15
100
AcDbCircle
 10
-585.8523694709
 20
161.2952583374
 30
0.0
 40
12.94999999999996
  0
CIRCLE
  5
289
330
1F
100
AcDbEntity
  8
0
  6
Continuous
 62
     7
370
    15
100
AcDbCircle
 10
-122.2235986112
 20
816.6928643229
 30
0.0
 40
12.94999999999993
  0
CIRCLE
  5
28A
330
1F
100
AcDbEntity
  8
0
  6
Continuous
 62
     7
370
    15
100
AcDbCircle
 10
433.0773301938
 20
-559.4963953606
 30
0.0
 40
12.94999999999996
  0
CIRCLE
  5
28B
330
1F
100
AcDbEntity
  8
0
  6
Continuous
 62
     7
370
    15
100
AcDbCircle
 10
-243.5292051275
 20
-497.0199026257
 30
0.0
 40
12.94999999999987
  0
CIRCLE
  5
28C
330
1F
100
AcDbEntity
  8
0
  6
Continuous
 62
     7
370
    15
100
AcDbCircle
 10
896.7061010535
 20
95.9012106249
 30
0.0
 40
12.95000000000007
  0
CIRCLE
  5
28D
330
1F
100
AcDbEntity
  8
0
  6
Continuous
 62
     7
370
    15
100
AcDbCircle
 10
612.5090632407
 20
713.0979049471
 30
0.0
 40
12.94999999999996
  0
CIRCLE
  5
28E
330
1F
100
AcDbEntity
  8
0
  6
Continuous
 62
     7
370
    15
100
AcDbCircle
 10
-186.8962985521
 20
786.9133954442
 30
0.0
 40
12.94999999999995
  0
CIRCLE
  5
28F
330
1F
100
AcDbEntity
  8
0
  6
Continuous
 62
     7
370
    15
100
AcDbCircle
 10
890.1595276432
 20
25.0032751054
 30
0.0
 40
12.94999999999996
  0
CIRCLE
  5
290
330
1F
100
AcDbEntity
  8
0
  6
Continuous
 62
     7
370
    15
100
AcDbCircle
 10
-301.6553316581
 20
-455.9014359849
 30
0.0
 40
12.9499999999999
  0
CIRCLE
  5
291
330
1F
100
AcDbEntity
  8
0
  6
Continuous
 62
     7
370
    15
100
AcDbCircle
 10
554.3829367101
 20
754.216371588
 30
0.0
 40
12.94999999999973
  0
CIRCLE
  5
292
330
1F
100
AcDbEntity
  8
0
  6
Continuous
 62
     7
370
    15
100
AcDbCircle
 10
497.7500301347
 20
-529.716926482
 30
0.0
 40
12.94999999999984
  0
CIRCLE
  5
293
330
1F
100
AcDbEntity
  8
С
100
AcDbCircle
 10
155.4268657913
 20
128.5982344811
 30
0.0
 40
1300.0
  0
ENDSEC
  0
SECTION
  2
OBJECTS
  0
DICTIONARY
  5
C
330
0
100
AcDbDictionary
281
     1
  3
ACAD_GROUP
350
D
  3
ACAD_LAYOUT
350
1A
  3
ACAD_MLINESTYLE
350
17
  3
ACAD_PLOTSETTINGS
350
19
  3
ACAD_PLOTSTYLENAME
350
E
  3
ACAD_SCALELIST
350
47
  0
DICTIONARY
  5
D
102
{ACAD_REACTORS
330
C
102
}
330
C
100
AcDbDictionary
281
     1
  0
DICTIONARY
  5
1A
102
{ACAD_REACTORS
330
C
102
}
330
C
100
AcDbDictionary
281
     1
  3
Layout1
350
1E
  3
Layout2
350
26
  3
Model
350
22
  0
DICTIONARY
  5
17
102
{ACAD_REACTORS
330
C
102
}
330
C
100
AcDbDictionary
281
     1
  3
Standard
350
18
  0
DICTIONARY
  5
19
102
{ACAD_REACTORS
330
C
102
}
330
C
100
AcDbDictionary
281
     1
  0
ACDBDICTIONARYWDFLT
  5
E
102
{ACAD_REACTORS
330
C
102
}
330
C
100
AcDbDictionary
281
     1
  3
Normal
350
F
100
AcDbDictionaryWithDefault
340
F
  0
DICTIONARY
  5
47
102
{ACAD_REACTORS
330
C
102
}
330
C
100
AcDbDictionary
281
     1
  3
A0
350
48
  3
A1
350
49
  3
A2
350
4A
  3
A3
350
4B
  3
A4
350
4C
  3
A5
350
4D
  3
A6
350
4E
  3
A7
350
4F
  3
A8
350
50
  3
A9
350
51
  3
B0
350
52
  3
B1
350
53
  3
B2
350
54
  3
B3
350
55
  3
B4
350
56
  3
B5
350
57
  3
B6
350
58
  3
B7
350
59
  3
B8
350
5A
  3
B9
350
5B
  3
C0
350
5C
  3
C1
350
5D
  3
C2
350
5E
  3
C3
350
5F
  3
C4
350
60
  3
C5
350
61
  3
C6
350
62
  3
C7
350
63
  3
C8
350
64
  3
C9
350
65
  3
D0
350
66
  3
D1
350
67
  3
D2
350
68
  0
LAYOUT
  5
1E
102
{ACAD_REACTORS
330
1A
102
}
330
1A
100
AcDbPlotSettings
  1

  2
none_device
  4

  6

 40
0.0
 41
0.0
 42
0.0
 43
0.0
 44
0.0
 45
0.0
 46
0.0
 47
0.0
 48
0.0
 49
0.0
140
0.0
141
0.0
142
1.0
143
1.0
 70
   688
 72
     1
 73
     0
 74
     5
  7

 75
    16
147
1.0
148
0.0
149
0.0
100
AcDbLayout
  1
Layout1
 70
     1
 71
     1
 10
0.0
 20
0.0
 11
420.0
 21
297.0
 12
0.0
 22
0.0
 32
0.0
 14
1.0000000000E+20
 24
1.0000000000E+20
 34
1.0000000000E+20
 15
-1.0000000000E+20
 25
-1.0000000000E+20
 35
-1.0000000000E+20
146
0.0
 13
0.0
 23
0.0
 33
0.0
 16
1.0
 26
0.0
 36
0.0
 17
0.0
 27
1.0
 37
0.0
 76
     0
330
1B
  0
LAYOUT
  5
26
102
{ACAD_REACTORS
330
1A
102
}
330
1A
100
AcDbPlotSettings
  1

  2
none_device
  4

  6

 40
0.0
 41
0.0
 42
0.0
 43
0.0
 44
0.0
 45
0.0
 46
0.0
 47
0.0
 48
0.0
 49
0.0
140
0.0
141
0.0
142
1.0
143
1.0
 70
   688
 72
     1
 73
     0
 74
     5
  7

 75
    16
147
1.0
148
0.0
149
0.0
100
AcDbLayout
  1
Layout2
 70
     1
 71
     2
 10
0.0
 20
0.0
 11
0.0
 21
0.0
 12
0.0
 22
0.0
 32
0.0
 14
0.0
 24
0.0
 34
0.0
 15
0.0
 25
0.0
 35
0.0
146
0.0
 13
0.0
 23
0.0
 33
0.0
 16
1.0
 26
0.0
 36
0.0
 17
0.0
 27
1.0
 37
0.0
 76
     0
330
23
  0
LAYOUT
  5
22
102
{ACAD_REACTORS
330
1A
102
}
330
1A
100
AcDbPlotSettings
  1

  2
none_device
  4
Letter_(8.50_x_11.00_Inches)
  6

 40
6.35
 41
6.35
 42
6.35000508
 43
6.35000508
 44
215.9
 45
279.4
 46
0.0
 47
0.0
 48
0.0
 49
0.0
140
0.0
141
0.0
142
1.0
143
1.0
 70
  1712
 72
     1
 73
     0
 74
     0
  7

 75
     0
147
1.0
148
0.0
149
0.0
100
AcDbLayout
  1
Model
 70
     1
 71
     0
 10
0.0
 20
0.0
 11
594.0
 21
420.0
 12
0.0
 22
0.0
 32
0.0
 14
0.0
 24
0.0
 34
0.0
 15
594.0
 25
420.0
 35
0.0
146
0.0
 13
0.0
 23
0.0
 33
0.0
 16
1.0
 26
0.0
 36
0.0
 17
0.0
 27
1.0
 37
0.0
 76
     0
330
1F
331
29
  0
MLINESTYLE
  5
18
102
{ACAD_REACTORS
330
17
102
}
330
17
100
AcDbMlineStyle
  2
Standard
 70
     0
  3

 62
   256
 51
90.0
 52
90.0
 71
     2
 49
0.5
 62
   256
  6
BYLAYER
 49
-0.5
 62
   256
  6
BYLAYER
  0
ACDBPLACEHOLDER
  5
F
102
{ACAD_REACTORS
330
E
102
}
330
E
  0
SCALE
  5
48
102
{ACAD_REACTORS
330
47
102
}
330
47
100
AcDbScale
 70
     0
300
1:1
140
1.0
141
1.0
290
     1
  0
SCALE
  5
49
102
{ACAD_REACTORS
330
47
102
}
330
47
100
AcDbScale
 70
     0
300
1:2
140
1.0
141
2.0
290
     0
  0
SCALE
  5
4A
102
{ACAD_REACTORS
330
47
102
}
330
47
100
AcDbScale
 70
     0
300
1:4
140
1.0
141
4.0
290
     0
  0
SCALE
  5
4B
102
{ACAD_REACTORS
330
47
102
}
330
47
100
AcDbScale
 70
     0
300
1:5
140
1.0
141
5.0
290
     0
  0
SCALE
  5
4C
102
{ACAD_REACTORS
330
47
102
}
330
47
100
AcDbScale
 70
     0
300
1:8
140
1.0
141
8.0
290
     0
  0
SCALE
  5
4D
102
{ACAD_REACTORS
330
47
102
}
330
47
100
AcDbScale
 70
     0
300
1:10
140
1.0
141
10.0
290
     0
  0
SCALE
  5
4E
102
{ACAD_REACTORS
330
47
102
}
330
47
100
AcDbScale
 70
     0
300
1:16
140
1.0
141
16.0
290
     0
  0
SCALE
  5
4F
102
{ACAD_REACTORS
330
47
102
}
330
47
100
AcDbScale
 70
     0
300
1:20
140
1.0
141
20.0
290
     0
  0
SCALE
  5
50
102
{ACAD_REACTORS
330
47
102
}
330
47
100
AcDbScale
 70
     0
300
1:30
140
1.0
141
30.0
290
     0
  0
SCALE
  5
51
102
{ACAD_REACTORS
330
47
102
}
330
47
100
AcDbScale
 70
     0
300
1:40
140
1.0
141
40.0
290
     0
  0
SCALE
  5
52
102
{ACAD_REACTORS
330
47
102
}
330
47
100
AcDbScale
 70
     0
300
1:50
140
1.0
141
50.0
290
     0
  0
SCALE
  5
53
102
{ACAD_REACTORS
330
47
102
}
330
47
100
AcDbScale
 70
     0
300
1:100
140
1.0
141
100.0
290
     0
  0
SCALE
  5
54
102
{ACAD_REACTORS
330
47
102
}
330
47
100
AcDbScale
 70
     0
300
2:1
140
2.0
141
1.0
290
     0
  0
SCALE
  5
55
102
{ACAD_REACTORS
330
47
102
}
330
47
100
AcDbScale
 70
     0
300
4:1
140
4.0
141
1.0
290
     0
  0
SCALE
  5
56
102
{ACAD_REACTORS
330
47
102
}
330
47
100
AcDbScale
 70
     0
300
8:1
140
8.0
141
1.0
290
     0
  0
SCALE
  5
57
102
{ACAD_REACTORS
330
47
102
}
330
47
100
AcDbScale
 70
     0
300
10:1
140
10.0
141
1.0
290
     0
  0
SCALE
  5
58
102
{ACAD_REACTORS
330
47
102
}
330
47
100
AcDbScale
 70
     0
300
100:1
140
100.0
141
1.0
290
     0
  0
SCALE
  5
59
102
{ACAD_REACTORS
330
47
102
}
330
47
100
AcDbScale
 70
     0
300
1/128" = 1'-0"
140
0.0078125
141
12.0
290
     0
  0
SCALE
  5
5A
102
{ACAD_REACTORS
330
47
102
}
330
47
100
AcDbScale
 70
     0
300
1/64" = 1'-0"
140
0.015625
141
12.0
290
     0
  0
SCALE
  5
5B
102
{ACAD_REACTORS
330
47
102
}
330
47
100
AcDbScale
 70
     0
300
1/32" = 1'-0"
140
0.03125
141
12.0
290
     0
  0
SCALE
  5
5C
102
{ACAD_REACTORS
330
47
102
}
330
47
100
AcDbScale
 70
     0
300
1/16" = 1'-0"
140
0.0625
141
12.0
290
     0
  0
SCALE
  5
5D
102
{ACAD_REACTORS
330
47
102
}
330
47
100
AcDbScale
 70
     0
300
3/32" = 1'-0"
140
0.09375
141
12.0
290
     0
  0
SCALE
  5
5E
102
{ACAD_REACTORS
330
47
102
}
330
47
100
AcDbScale
 70
     0
300
1/8" = 1'-0"
140
0.125
141
12.0
290
     0
  0
SCALE
  5
5F
102
{ACAD_REACTORS
330
47
102
}
330
47
100
AcDbScale
 70
     0
300
3/16" = 1'-0"
140
0.1875
141
12.0
290
     0
  0
SCALE
  5
60
102
{ACAD_REACTORS
330
47
102
}
330
47
100
AcDbScale
 70
     0
300
1/4" = 1'-0"
140
0.25
141
12.0
290
     0
  0
SCALE
  5
61
102
{ACAD_REACTORS
330
47
102
}
330
47
100
AcDbScale
 70
     0
300
3/8" = 1'-0"
140
0.375
141
12.0
290
     0
  0
SCALE
  5
62
102
{ACAD_REACTORS
330
47
102
}
330
47
100
AcDbScale
 70
     0
300
1/2" = 1'-0"
140
0.5
141
12.0
290
     0
  0
SCALE
  5
63
102
{ACAD_REACTORS
330
47
102
}
330
47
100
AcDbScale
 70
     0
300
3/4" = 1'-0"
140
0.75
141
12.0
290
     0
  0
SCALE
  5
64
102
{ACAD_REACTORS
330
47
102
}
330
47
100
AcDbScale
 70
     0
300
1" = 1'-0"
140
1.0
141
12.0
290
     0
  0
SCALE
  5
65
102
{ACAD_REACTORS
330
47
102
}
330
47
100
AcDbScale
 70
     0
300
1-1/2" = 1'-0"
140
1.5
141
12.0
290
     0
  0
SCALE
  5
66
102
{ACAD_REACTORS
330
47
102
}
330
47
100
AcDbScale
 70
     0
300
3" = 1'-0"
140
3.0
141
12.0
290
     0
  0
SCALE
  5
67
102
{ACAD_REACTORS
330
47
102
}
330
47
100
AcDbScale
 70
     0
300
6" = 1'-0"
140
6.0
141
12.0
290
     0
  0
SCALE
  5
68
102
{ACAD_REACTORS
330
47
102
}
330
47
100
AcDbScale
 70
     0
300
1'-0" = 1'-0"
140
12.0
141
12.0
290
     0
  0
ENDSEC
  0
EOF
