  0
SECTION
  2
HEADER
  9
$ACADVER
  1
AC1015
  9
$ACADMAINTVER
 70
     6
  9
$DWGCODEPAGE
  3
ANSI_1251
  9
$INSBASE
 10
0.0
 20
0.0
 30
0.0
  9
$EXTMIN
 10
-2250.0000000105
 20
-2250.0
 30
0.0
  9
$EXTMAX
 10
2249.9999999895
 20
2250.0
 30
0.0
  9
$LIMMIN
 10
0.0
 20
0.0
  9
$LIMMAX
 10
420.0
 20
297.0
  9
$ORTHOMODE
 70
     0
  9
$REGENMODE
 70
     1
  9
$FILLMODE
 70
     1
  9
$QTEXTMODE
 70
     0
  9
$MIRRTEXT
 70
     1
  9
$LTSCALE
 40
1.0
  9
$ATTMODE
 70
     1
  9
$TEXTSIZE
 40
3.0
  9
$TRACEWID
 40
1.0
  9
$TEXTSTYLE
  7
Standard
  9
$CLAYER
  8
0
  9
$CELTYPE
  6
ByLayer
  9
$CECOLOR
 62
   256
  9
$CELTSCALE
 40
1.0
  9
$DISPSILH
 70
     0
  9
$DIMSCALE
 40
1.0
  9
$DIMASZ
 40
3.0
  9
$DIMEXO
 40
0.0
  9
$DIMDLI
 40
3.75
  9
$DIMRND
 40
0.0
  9
$DIMDLE
 40
0.0
  9
$DIMEXE
 40
2.0
  9
$DIMTP
 40
0.0
  9
$DIMTM
 40
0.0
  9
$DIMTXT
 40
3.0
  9
$DIMCEN
 40
2.5
  9
$DIMTSZ
 40
0.0
  9
$DIMTOL
 70
     0
  9
$DIMLIM
 70
     0
  9
$DIMTIH
 70
     1
  9
$DIMTOH
 70
     1
  9
$DIMSE1
 70
     0
  9
$DIMSE2
 70
     0
  9
$DIMTAD
 70
     1
  9
$DIMZIN
 70
     0
  9
$DIMBLK
  1

  9
$DIMASO
 70
     1
  9
$DIMSHO
 70
     1
  9
$DIMPOST
  1

  9
$DIMAPOST
  1

  9
$DIMALT
 70
     0
  9
$DIMALTD
 70
     3
  9
$DIMALTF
 40
0.0393700787
  9
$DIMLFAC
 40
1.0
  9
$DIMTOFL
 70
     1
  9
$DIMTVP
 40
0.0
  9
$DIMTIX
 70
     0
  9
$DIMSOXD
 70
     0
  9
$DIMSAH
 70
     0
  9
$DIMBLK1
  1

  9
$DIMBLK2
  1

  9
$DIMSTYLE
  2
ISO-25
  9
$DIMCLRD
 70
     0
  9
$DIMCLRE
 70
     0
  9
$DIMCLRT
 70
     0
  9
$DIMTFAC
 40
1.0
  9
$DIMGAP
 40
2.0
  9
$DIMJUST
 70
     0
  9
$DIMSD1
 70
     0
  9
$DIMSD2
 70
     0
  9
$DIMTOLJ
 70
     0
  9
$DIMTZIN
 70
     0
  9
$DIMALTZ
 70
     0
  9
$DIMALTTZ
 70
     0
  9
$DIMUPT
 70
     0
  9
$DIMDEC
 70
     2
  9
$DIMTDEC
 70
     2
  9
$DIMALTU
 70
     2
  9
$DIMALTTD
 70
     3
  9
$DIMTXSTY
  7
Standard
  9
$DIMAUNIT
 70
     0
  9
$DIMADEC
 70
     2
  9
$DIMALTRND
 40
0.0
  9
$DIMAZIN
 70
     0
  9
$DIMDSEP
 70
    44
  9
$DIMATFIT
 70
     3
  9
$DIMFRAC
 70
     0
  9
$DIMLDRBLK
  1

  9
$DIMLUNIT
 70
     2
  9
$DIMLWD
 70
    -2
  9
$DIMLWE
 70
    -2
  9
$DIMTMOVE
 70
     0
  9
$LUNITS
 70
     2
  9
$LUPREC
 70
     2
  9
$SKETCHINC
 40
1.0
  9
$FILLETRAD
 40
10.0
  9
$AUNITS
 70
     1
  9
$AUPREC
 70
     2
  9
$MENU
  1
.
  9
$ELEVATION
 40
0.0
  9
$PELEVATION
 40
0.0
  9
$THICKNESS
 40
0.0
  9
$LIMCHECK
 70
     0
  9
$CHAMFERA
 40
0.0
  9
$CHAMFERB
 40
0.0
  9
$CHAMFERC
 40
0.0
  9
$CHAMFERD
 40
0.0
  9
$SKPOLY
 70
     0
  9
$TDCREATE
 40
2459306.564160509
  9
$TDUCREATE
 40
2459306.439160509
  9
$TDUPDATE
 40
2459306.564206528
  9
$TDUUPDATE
 40
2459306.439206528
  9
$TDINDWG
 40
0.0000000116
  9
$TDUSRTIMER
 40
0.0000000116
  9
$USRTIMER
 70
     1
  9
$ANGBASE
 50
0.0
  9
$ANGDIR
 70
     0
  9
$PDMODE
 70
     0
  9
$PDSIZE
 40
-1.0
  9
$PLINEWID
 40
0.0
  9
$SPLFRAME
 70
     0
  9
$SPLINETYPE
 70
     6
  9
$SPLINESEGS
 70
     8
  9
$HANDSEED
  5
280
  9
$SURFTAB1
 70
     6
  9
$SURFTAB2
 70
     6
  9
$SURFTYPE
 70
     6
  9
$SURFU
 70
     6
  9
$SURFV
 70
     6
  9
$UCSBASE
  2

  9
$UCSNAME
  2

  9
$UCSORG
 10
0.0
 20
0.0
 30
0.0
  9
$UCSXDIR
 10
1.0
 20
0.0
 30
0.0
  9
$UCSYDIR
 10
0.0
 20
1.0
 30
0.0
  9
$UCSORTHOREF
  2

  9
$UCSORTHOVIEW
 70
     0
  9
$UCSORGTOP
 10
0.0
 20
0.0
 30
0.0
  9
$UCSORGBOTTOM
 10
0.0
 20
0.0
 30
0.0
  9
$UCSORGLEFT
 10
0.0
 20
0.0
 30
0.0
  9
$UCSORGRIGHT
 10
0.0
 20
0.0
 30
0.0
  9
$UCSORGFRONT
 10
0.0
 20
0.0
 30
0.0
  9
$UCSORGBACK
 10
0.0
 20
0.0
 30
0.0
  9
$PUCSBASE
  2

  9
$PUCSNAME
  2

  9
$PUCSORG
 10
0.0
 20
0.0
 30
0.0
  9
$PUCSXDIR
 10
1.0
 20
0.0
 30
0.0
  9
$PUCSYDIR
 10
0.0
 20
1.0
 30
0.0
  9
$PUCSORTHOREF
  2

  9
$PUCSORTHOVIEW
 70
     0
  9
$PUCSORGTOP
 10
0.0
 20
0.0
 30
0.0
  9
$PUCSORGBOTTOM
 10
0.0
 20
0.0
 30
0.0
  9
$PUCSORGLEFT
 10
0.0
 20
0.0
 30
0.0
  9
$PUCSORGRIGHT
 10
0.0
 20
0.0
 30
0.0
  9
$PUCSORGFRONT
 10
0.0
 20
0.0
 30
0.0
  9
$PUCSORGBACK
 10
0.0
 20
0.0
 30
0.0
  9
$USERI1
 70
     0
  9
$USERI2
 70
     0
  9
$USERI3
 70
     0
  9
$USERI4
 70
     0
  9
$USERI5
 70
     0
  9
$USERR1
 40
0.0
  9
$USERR2
 40
0.0
  9
$USERR3
 40
0.0
  9
$USERR4
 40
0.0
  9
$USERR5
 40
0.0
  9
$WORLDVIEW
 70
     1
  9
$SHADEDGE
 70
     3
  9
$SHADEDIF
 70
    70
  9
$TILEMODE
 70
     1
  9
$MAXACTVP
 70
    64
  9
$PINSBASE
 10
0.0
 20
0.0
 30
0.0
  9
$PLIMCHECK
 70
     0
  9
$PEXTMIN
 10
1.0000000000E+20
 20
1.0000000000E+20
 30
1.0000000000E+20
  9
$PEXTMAX
 10
-1.0000000000E+20
 20
-1.0000000000E+20
 30
-1.0000000000E+20
  9
$PLIMMIN
 10
0.0
 20
0.0
  9
$PLIMMAX
 10
420.0
 20
297.0
  9
$UNITMODE
 70
     0
  9
$VISRETAIN
 70
     1
  9
$PLINEGEN
 70
     0
  9
$PSLTSCALE
 70
     1
  9
$TREEDEPTH
 70
  3020
  9
$CMLSTYLE
  2
Standard
  9
$CMLJUST
 70
     0
  9
$CMLSCALE
 40
20.0
  9
$PROXYGRAPHICS
 70
     1
  9
$MEASUREMENT
 70
     1
  9
$CELWEIGHT
370
    -1
  9
$ENDCAPS
280
     0
  9
$JOINSTYLE
280
     0
  9
$LWDISPLAY
290
     1
  9
$INSUNITS
 70
     4
  9
$HYPERLINKBASE
  1

  9
$STYLESHEET
  1

  9
$XEDIT
290
     1
  9
$CEPSNTYPE
380
     0
  9
$PSTYLEMODE
290
     1
  9
$FINGERPRINTGUID
  2
{26C72A85-6D0C-42A6-8011-0FF94B34B3C4}
  9
$VERSIONGUID
  2
{FAEB1C32-E019-11D5-929B-00C0DF256EC4}
  9
$EXTNAMES
290
     1
  9
$PSVPSCALE
 40
0.0
  9
$OLESTARTUP
290
     0
  0
ENDSEC
  0
SECTION
  2
CLASSES
  0
CLASS
  1
ACDBDICTIONARYWDFLT
  2
AcDbDictionaryWithDefault
  3
ObjectDBX Classes
 90
        0
280
     0
281
     0
  0
CLASS
  1
VISUALSTYLE
  2
AcDbVisualStyle
  3
ObjectDBX Classes
 90
     4095
280
     0
281
     0
  0
CLASS
  1
MATERIAL
  2
AcDbMaterial
  3
ObjectDBX Classes
 90
     1153
280
     0
281
     0
  0
CLASS
  1
SCALE
  2
AcDbScale
  3
ObjectDBX Classes
 90
     1153
280
     0
281
     0
  0
CLASS
  1
SUN
  2
AcDbSun
  3
SCENEOE
 90
     1153
280
     0
281
     0
  0
CLASS
  1
ACDBPLACEHOLDER
  2
AcDbPlaceHolder
  3
ObjectDBX Classes
 90
        0
280
     0
281
     0
  0
CLASS
  1
LAYOUT
  2
AcDbLayout
  3
ObjectDBX Classes
 90
        0
280
     0
281
     0
  0
ENDSEC
  0
SECTION
  2
TABLES
  0
TABLE
  2
VPORT
  5
8
330
0
100
AcDbSymbolTable
 70
     1
  0
VPORT
  5
29
330
8
100
AcDbSymbolTableRecord
100
AcDbViewportTableRecord
  2
*Active
 70
     0
 10
0.0
 20
0.0
 11
1.0
 21
1.0
 12
-0.0000000105
 22
0.0
 13
0.0
 23
0.0
 14
10.0
 24
10.0
 15
10.0
 25
10.0
 16
0.0
 26
0.0
 36
1.0
 17
0.0
 27
0.0
 37
0.0
 40
4590.0
 41
1.0
 42
50.0
 43
0.0
 44
0.0
 50
0.0
 51
0.0
 71
     0
 72
   100
 73
     1
 74
     3
 75
     0
 76
     0
 77
     0
 78
     0
281
     0
 65
     1
110
0.0
120
0.0
130
0.0
111
1.0
121
0.0
131
0.0
112
0.0
122
1.0
132
0.0
 79
     0
146
0.0
  0
ENDTAB
  0
TABLE
  2
LTYPE
  5
5
330
0
100
AcDbSymbolTable
 70
     6
  0
LTYPE
  5
14
330
5
100
AcDbSymbolTableRecord
100
AcDbLinetypeTableRecord
  2
ByBlock
 70
     0
  3

 72
    65
 73
     0
 40
0.0
  0
LTYPE
  5
15
330
5
100
AcDbSymbolTableRecord
100
AcDbLinetypeTableRecord
  2
ByLayer
 70
     0
  3

 72
    65
 73
     0
 40
0.0
  0
LTYPE
  5
16
330
5
100
AcDbSymbolTableRecord
100
AcDbLinetypeTableRecord
  2
Continuous
 70
     0
  3
Solid line
 72
    65
 73
     0
 40
0.0
  0
LTYPE
  5
6A
330
5
100
AcDbSymbolTableRecord
100
AcDbLinetypeTableRecord
  2
HIDDEN
 70
     0
  3
Hidden __ __ __ __ __ __ __ __ __ __ __ __ __ __
 72
    65
 73
     2
 40
1.905
 49
1.27
 74
     0
 49
-0.635
 74
     0
  0
LTYPE
  5
6B
330
5
100
AcDbSymbolTableRecord
100
AcDbLinetypeTableRecord
  2
PHANTOM
 70
     0
  3
Phantom ______  __  __  ______  __  __  ______
 72
    65
 73
     6
 40
12.7
 49
6.35
 74
     0
 49
-1.27
 74
     0
 49
1.27
 74
     0
 49
-1.27
 74
     0
 49
1.27
 74
     0
 49
-1.27
 74
     0
  0
LTYPE
  5
6C
330
5
100
AcDbSymbolTableRecord
100
AcDbLinetypeTableRecord
  2
CENTER
 70
     0
  3
Center ____ _ ____ _ ____ _ ____ _ ____ _ ____
 72
    65
 73
     4
 40
10.16
 49
6.35
 74
     0
 49
-1.27
 74
     0
 49
1.27
 74
     0
 49
-1.27
 74
     0
  0
LTYPE
  5
6D
330
5
100
AcDbSymbolTableRecord
100
AcDbLinetypeTableRecord
  2
CENTERX2
 70
     0
  3
Center (2x) ________  __  ________  __  _____
 72
    65
 73
     4
 40
20.32
 49
12.7
 74
     0
 49
-2.54
 74
     0
 49
2.54
 74
     0
 49
-2.54
 74
     0
  0
LTYPE
  5
6E
330
5
100
AcDbSymbolTableRecord
100
AcDbLinetypeTableRecord
  2
DOT2
 70
     0
  3
Dot (.5x) ........................................
 72
    65
 73
     2
 40
0.635
 49
0.0
 74
     0
 49
-0.635
 74
     0
  0
ENDTAB
  0
TABLE
  2
LAYER
  5
2
330
0
100
AcDbSymbolTable
 70
     1
  0
LAYER
  5
10
330
2
100
AcDbSymbolTableRecord
100
AcDbLayerTableRecord
  2
0
 70
     0
 62
     7
  6
Continuous
370
    -3
390
F
  0
ENDTAB
  0
TABLE
  2
STYLE
  5
3
330
0
100
AcDbSymbolTable
 70
     1
  0
STYLE
  5
11
330
3
100
AcDbSymbolTableRecord
100
AcDbTextStyleTableRecord
  2
Standard
 70
     0
 40
0.0
 41
1.0
 50
0.0
 71
     0
 42
3.0
  3
txt
  4

  0
ENDTAB
  0
TABLE
  2
VIEW
  5
6
330
0
100
AcDbSymbolTable
 70
     0
  0
ENDTAB
  0
TABLE
  2
UCS
  5
7
330
0
100
AcDbSymbolTable
 70
     0
  0
ENDTAB
  0
TABLE
  2
APPID
  5
9
330
0
100
AcDbSymbolTable
 70
     1
  0
APPID
  5
12
330
9
100
AcDbSymbolTableRecord
100
AcDbRegAppTableRecord
  2
ACAD
 70
     0
  0
ENDTAB
  0
TABLE
  2
DIMSTYLE
  5
A
330
0
100
AcDbSymbolTable
 70
     1
100
AcDbDimStyleTable
  0
DIMSTYLE
105
27
330
A
100
AcDbSymbolTableRecord
100
AcDbDimStyleTableRecord
  2
ISO-25
 70
     0
 41
2.5
 42
0.625
 43
3.75
 44
1.25
 73
     0
 74
     0
 77
     1
 78
     8
140
2.5
141
2.5
143
0.0393700787
147
0.625
171
     3
172
     1
178
     0
271
     2
272
     2
274
     3
278
    44
283
     0
284
     8
340
11
  0
ENDTAB
  0
TABLE
  2
BLOCK_RECORD
  5
1
330
0
100
AcDbSymbolTable
 70
     1
  0
BLOCK_RECORD
  5
1F
330
1
100
AcDbSymbolTableRecord
100
AcDbBlockTableRecord
  2
*Model_Space
340
22
  0
BLOCK_RECORD
  5
1B
330
1
100
AcDbSymbolTableRecord
100
AcDbBlockTableRecord
  2
*Paper_Space
340
1E
  0
BLOCK_RECORD
  5
23
330
1
100
AcDbSymbolTableRecord
100
AcDbBlockTableRecord
  2
*Paper_Space0
340
26
  0
ENDTAB
  0
ENDSEC
  0
SECTION
  2
BLOCKS
  0
BLOCK
  5
20
330
1F
100
AcDbEntity
  8
0
100
AcDbBlockBegin
  2
*Model_Space
 70
     0
 10
0.0
 20
0.0
 30
0.0
  3
*Model_Space
  1
*Model_Space
  0
ENDBLK
  5
21
330
1F
100
AcDbEntity
  8
0
100
AcDbBlockEnd
  0
BLOCK
  5
1C
330
1B
100
AcDbEntity
 67
     1
  8
0
100
AcDbBlockBegin
  2
*Paper_Space
 70
     0
 10
0.0
 20
0.0
 30
0.0
  3
*Paper_Space
  1
*Paper_Space
  0
ENDBLK
  5
1D
330
1B
100
AcDbEntity
 67
     1
  8
0
100
AcDbBlockEnd
  0
BLOCK
  5
24
330
23
100
AcDbEntity
  8
0
100
AcDbBlockBegin
  2
*Paper_Space0
 70
     0
 10
0.0
 20
0.0
 30
0.0
  3
*Paper_Space0
  1
*Paper_Space0
  0
ENDBLK
  5
25
330
23
100
AcDbEntity
  8
0
100
AcDbBlockEnd
  0
ENDSEC
  0
SECTION
  2
ENTITIES
  0
SPLINE
  5
6F
330
1F
100
AcDbEntity
  8
0
  6
Continuous
 62
     7
370
    15
100
AcDbSpline
210
0.0
220
0.0
230
1.0
 70
     8
 71
     3
 72
    28
 73
    24
 74
     0
 42
0.000000001
 43
0.00000001
 40
0.0
 40
0.0
 40
0.0
 40
0.0
 40
0.0367339674885645
 40
0.0931083228689088
 40
0.1437062450203451
 40
0.1942903577151123
 40
0.2448531684664163
 40
0.2953904502253836
 40
0.3458966908661519
 40
0.3963645593547406
 40
0.4467840696526843
 40
0.4971412312113671
 40
0.5474157742868275
 40
0.5975771114317677
 40
0.6475766981202737
 40
0.6973323896101093
 40
0.746692961451092
 40
0.7953457696704563
 40
0.8425236068653962
 40
0.8856969822266445
 40
0.9191845978685581
 40
0.9507183741009687
 40
1.0
 40
1.0
 40
1.0
 40
1.0
 10
261.2552667656597
 20
-159.1861995922935
 30
0.0
 10
262.5080047578778
 20
-157.5150487928888
 30
0.0
 10
265.6832766226966
 20
-153.2792403890719
 30
0.0
 10
270.2759391232328
 20
-146.5167423807466
 30
0.0
 10
275.0928889925483
 20
-138.9610700862372
 30
0.0
 10
279.4837409459696
 20
-131.5292886929595
 30
0.0
 10
283.6318784878633
 20
-123.9627107374071
 30
0.0
 10
287.5295657487393
 20
-116.2679968320654
 30
0.0
 10
291.1735125630774
 20
-108.4550396795238
 30
0.0
 10
294.5596116762042
 20
-100.5333686020153
 30
0.0
 10
297.6843173370574
 20
-92.5133365931876
 30
0.0
 10
300.5442748053223
 20
-84.40608575913723
 30
0.0
 10
303.1364113228476
 20
-76.2240481551337
 30
0.0
 10
305.4578915509674
 20
-67.98170949225485
 30
0.0
 10
307.506074915622
 20
-59.69715811439923
 30
0.0
 10
309.2784134233173
 20
-51.39541456956108
 30
0.0
 10
310.7720847707874
 20
-43.11657854191994
 30
0.0
 10
311.9831353869626
 20
-34.93974895184003
 30
0.0
 10
312.9008893058492
 20
-27.07924965231667
 30
0.0
 10
313.5160801754885
 20
-20.05555724764215
 30
0.0
 10
313.8994060188693
 20
-13.90804274495523
 30
0.0
 10
314.1799855533426
 20
-7.406414616119382
 30
0.0
 10
314.2207275904431
 20
-2.805599481328988
 30
0.0
 10
314.2455722831353
 20
-0.0000000000003157
 30
0.0
  0
SPLINE
  5
71
330
1F
100
AcDbEntity
  8
0
  6
Continuous
 62
     7
370
    15
100
AcDbSpline
210
0.0
220
0.0
230
1.0
 70
     8
 71
     3
 72
    30
 73
    26
 74
     0
 42
0.000000001
 43
0.00000001
 40
0.0
 40
0.0
 40
0.0
 40
0.0
 40
0.0523157307115178
 40
0.074000431556491
 40
0.1099554536268971
 40
0.147393474901015
 40
0.1876341237331898
 40
0.2297008212303354
 40
0.2731991293141409
 40
0.317814697363451
 40
0.3633242638336177
 40
0.4095626832777798
 40
0.4564055239725019
 40
0.5037572012104216
 40
0.5515430103421112
 40
0.5997036502068316
 40
0.6481913859293725
 40
0.6969673098968427
 40
0.7459993522955898
 40
0.7952608125750712
 40
0.8447292591071979
 40
0.8943856933452397
 40
0.9442139067767579
 40
0.9941999804066934
 40
1.0
 40
1.0
 40
1.0
 40
1.0
 10
-214.6472281520492
 20
-0.0000000000006626
 30
0.0
 10
-214.6186551034099
 20
-3.048305096399219
 30
0.0
 10
-214.5782386187038
 20
-7.360122776882873
 30
0.0
 10
-214.3057307870481
 20
-13.76111780703615
 30
0.0
 10
-213.9731304180858
 20
-19.29107014045633
 30
0.0
 10
-213.4132430853263
 20
-25.88860431049676
 30
0.0
 10
-212.6468973191239
 20
-32.82368782832309
 30
0.0
 10
-211.6447696184577
 20
-40.0852022390256
 30
0.0
 10
-210.397043112983
 20
-47.56695178108566
 30
0.0
 10
-208.8945170453177
 20
-55.20603339545904
 30
0.0
 10
-207.1310305360838
 20
-62.95263128774717
 30
0.0
 10
-205.1022384861762
 20
-70.76776996723963
 30
0.0
 10
-202.805277139847
 20
-78.61975833985912
 30
0.0
 10
-200.2384554347921
 20
-86.48206912096
 30
0.0
 10
-197.4010543487488
 20
-94.33190335646584
 30
0.0
 10
-194.29318525483
 20
-102.1492200426114
 30
0.0
 10
-190.9156677692348
 20
-109.9160491319108
 30
0.0
 10
-187.27001200111
 20
-117.616065849036
 30
0.0
 10
-183.3581257643351
 20
-125.2340678504152
 30
0.0
 10
-179.1831399970987
 20
-132.7564203102276
 30
0.0
 10
-174.7460905706864
 20
-140.1682797639191
 30
0.0
 10
-170.0582051778379
 20
-147.4632092654946
 30
0.0
 10
-165.094648403081
 20
-154.6064927846559
 30
0.0
 10
-161.4836410157571
 20
-159.5832800705884
 30
0.0
 10
-159.4628954658037
 20
-162.1232195884265
 30
0.0
 10
-159.2528007431652
 20
-162.3872943446622
 30
0.0
  0
SPLINE
  5
72
330
1F
100
AcDbEntity
  8
0
  6
Continuous
 62
     7
370
    15
100
AcDbSpline
210
0.0
220
0.0
230
1.0
 70
     8
 71
     3
 72
    13
 73
     9
 74
     0
 42
0.000000001
 43
0.00000001
 40
0.0
 40
0.0
 40
0.0
 40
0.0
 40
0.1606322704115386
 40
0.3318396596841366
 40
0.521604730628602
 40
0.7072079155589769
 40
0.8984980354298483
 40
0.9999999999999999
 40
0.9999999999999999
 40
0.9999999999999999
 40
0.9999999999999999
 10
184.1263233140764
 20
-28.59443138638168
 30
0.0
 10
184.376367956513
 20
-28.56100191044716
 30
0.0
 10
184.8929187643889
 20
-28.4919421512275
 30
0.0
 10
185.5280560101313
 20
-28.03425140899973
 30
0.0
 10
186.0538093512164
 20
-27.43282587880362
 30
0.0
 10
186.5235045824235
 20
-26.63607786260485
 30
0.0
 10
186.8888897782151
 20
-25.85003435809524
 30
0.0
 10
187.0937242058514
 20
-25.25336723805881
 30
0.0
 10
187.1647339698496
 20
-25.04652119236146
 30
0.0
  0
SPLINE
  5
73
330
1F
100
AcDbEntity
  8
0
  6
Continuous
 62
     7
370
    15
100
AcDbSpline
210
0.0
220
0.0
230
1.0
 70
     8
 71
     3
 72
    14
 73
    10
 74
     0
 42
0.000000001
 43
0.00000001
 40
0.0
 40
0.0
 40
0.0
 40
0.0
 40
0.0644073954701877
 40
0.2303056833183857
 40
0.3936067711666614
 40
0.554944151454997
 40
0.7135152342588443
 40
0.8608926818822249
 40
1.0
 40
1.0
 40
1.0
 40
1.0
 10
187.2267408419873
 20
24.8713593582128
 30
0.0
 10
187.1810154786136
 20
25.01266983827251
 30
0.0
 10
187.0175123439209
 20
25.51796284744666
 30
0.0
 10
186.7149500538783
 20
26.23141980554926
 30
0.0
 10
186.3150178911096
 20
27.01634538281352
 30
0.0
 10
185.877744754146
 20
27.65461792398817
 30
0.0
 10
185.3833891189149
 20
28.15173009779481
 30
0.0
 10
184.7939557707768
 20
28.51985155927506
 30
0.0
 10
184.3317173888822
 20
28.57250196505782
 30
0.0
 10
184.1072700558099
 20
28.59806722234926
 30
0.0
  0
SPLINE
  5
78
330
1F
100
AcDbEntity
  8
0
  6
Continuous
 62
     7
370
    15
100
AcDbSpline
210
0.0
220
0.0
230
1.0
 70
     8
 71
     3
 72
    30
 73
    26
 74
     0
 42
0.000000001
 43
0.00000001
 40
0.0
 40
0.0
 40
0.0
 40
0.0
 40
0.05231573071191
 40
0.0740004315559212
 40
0.1099554536281909
 40
0.1473934749002737
 40
0.1876341237349134
 40
0.2297008212298132
 40
0.273199129315448
 40
0.3178146973643535
 40
0.3633242638341021
 40
0.409562683280342
 40
0.4564055239731203
 40
0.5037572012114525
 40
0.5515430103440092
 40
0.5997036502077423
 40
0.6481913859310676
 40
0.696967309895875
 40
0.7459993522959122
 40
0.7952608125755206
 40
0.8447292591083794
 40
0.8943856933457606
 40
0.9442139067781447
 40
0.9941999804075702
 40
1.0
 40
1.0
 40
1.0
 40
1.0
 10
314.2455722831355
 20
-0.0000000000019135
 30
0.0
 10
314.2169992344968
 20
3.048305096420672
 30
0.0
 10
314.1765827497921
 20
7.360122776872792
 30
0.0
 10
313.9040749181279
 20
13.76111780710342
 30
0.0
 10
313.5714745491809
 20
19.29107014046058
 30
0.0
 10
313.0115872163899
 20
25.88860431063474
 30
0.0
 10
312.2452414502156
 20
32.82368782836043
 30
0.0
 10
311.2431137495129
 20
40.08520223918113
 30
0.0
 10
309.9953872440487
 20
47.5669517811971
 30
0.0
 10
308.4928611763701
 20
55.20603339563085
 30
0.0
 10
306.7293746670962
 20
62.95263128798764
 30
0.0
 10
304.7005826172032
 20
70.76776996746983
 30
0.0
 10
302.403621270849
 20
78.6197583401185
 30
0.0
 10
299.8367995657927
 20
86.48206912118118
 30
0.0
 10
296.9993984797459
 20
94.33190335670734
 30
0.0
 10
293.8915293857897
 20
102.1492200428827
 30
0.0
 10
290.5140119002781
 20
109.9160491320401
 30
0.0
 10
286.8683561321471
 20
117.6160658491279
 30
0.0
 10
282.9564698954088
 20
125.2340678504477
 30
0.0
 10
278.7814841280985
 20
132.7564203103658
 30
0.0
 10
274.3444347016816
 20
140.1682797640719
 30
0.0
 10
269.6565493087871
 20
147.4632092656863
 30
0.0
 10
264.6929925340371
 20
154.6064927848347
 30
0.0
 10
261.0819851467268
 20
159.5832800707423
 30
0.0
 10
259.0612395968215
 20
162.1232195885171
 30
0.0
 10
258.8511448742145
 20
162.387294344713
 30
0.0
  0
SPLINE
  5
7A
330
1F
100
AcDbEntity
  8
0
  6
Continuous
 62
     7
370
    15
100
AcDbSpline
210
0.0
220
0.0
230
1.0
 70
     8
 71
     3
 72
    28
 73
    24
 74
     0
 42
0.000000001
 43
0.00000001
 40
0.0
 40
0.0
 40
0.0
 40
0.0
 40
0.0367339674887905
 40
0.0931083228693651
 40
0.1437062450202172
 40
0.1942903577162221
 40
0.2448531684687793
 40
0.2953904502278876
 40
0.3458966908693171
 40
0.3963645593582574
 40
0.4467840696557774
 40
0.4971412312137851
 40
0.5474157742888872
 40
0.5975771114352221
 40
0.6475766981243037
 40
0.6973323896134977
 40
0.7466929614556297
 40
0.7953457696746346
 40
0.8425236068700974
 40
0.8856969822311966
 40
0.9191845978720325
 40
0.950718374104468
 40
1.0
 40
1.0
 40
1.0
 40
1.0
 10
-161.6569226345583
 20
159.1861995923101
 30
0.0
 10
-162.9096606267833
 20
157.5150487928941
 30
0.0
 10
-166.0849324916151
 20
153.2792403890537
 30
0.0
 10
-170.6775949921586
 20
146.5167423807407
 30
0.0
 10
-175.4945448614888
 20
138.9610700861793
 30
0.0
 10
-179.8853968149647
 20
131.5292886928067
 30
0.0
 10
-184.0335343569259
 20
123.9627107371188
 30
0.0
 10
-187.9312216178415
 20
116.2679968316647
 30
0.0
 10
-191.5751684322004
 20
108.4550396790589
 30
0.0
 10
-194.961267545322
 20
100.5333686015102
 30
0.0
 10
-198.0859732061503
 20
92.51333659271721
 30
0.0
 10
-200.9459306743775
 20
84.40608575873996
 30
0.0
 10
-203.5380671918813
 20
76.22404815470664
 30
0.0
 10
-205.8595474200097
 20
67.98170949173377
 30
0.0
 10
-207.9077307846765
 20
59.69715811380176
 30
0.0
 10
-209.6800692923526
 20
51.39541456889523
 30
0.0
 10
-211.1737406398199
 20
43.11657854124377
 30
0.0
 10
-212.3847912559759
 20
34.93974895108401
 30
0.0
 10
-213.3025451748345
 20
27.07924965155553
 30
0.0
 10
-213.9177360444558
 20
20.05555724691854
 30
0.0
 10
-214.3010618878113
 20
13.90804274429779
 30
0.0
 10
-214.5816414222721
 20
7.406414615719846
 30
0.0
 10
-214.6223834593632
 20
2.805599481126481
 30
0.0
 10
-214.647228152049
 20
-0.0000000000034453
 30
0.0
  0
SPLINE
  5
85
330
1F
100
AcDbEntity
  8
0
  6
Continuous
 62
     7
370
    15
100
AcDbSpline
210
0.0
220
0.0
230
1.0
 70
     8
 71
     3
 72
    14
 73
    10
 74
     0
 42
0.000000001
 43
0.00000001
 40
0.0
 40
0.0
 40
0.0
 40
0.0
 40
0.25
 40
0.25
 40
0.5
 40
0.5
 40
0.75
 40
0.75
 40
1.0
 40
1.0
 40
1.0
 40
1.0
 10
121.2541203870235
 20
84.14967230097442
 30
0.0
 10
121.7620068996411
 20
84.14969835561087
 30
0.0
 10
122.2889957717269
 20
84.11063865611123
 30
0.0
 10
123.3834379545269
 20
83.95717468246625
 30
0.0
 10
123.9544122847383
 20
83.8412301503217
 30
0.0
 10
125.0951231969906
 20
83.54361593862752
 30
0.0
 10
125.667043850575
 20
83.36232225991515
 30
0.0
 10
126.8134044730185
 20
82.939234021867
 30
0.0
 10
127.3883862998232
 20
82.69655654129167
 30
0.0
 10
127.9444776758017
 20
82.43445297007472
 30
0.0
  0
SPLINE
  5
86
330
1F
100
AcDbEntity
  8
0
  6
Continuous
 62
     7
370
    15
100
AcDbSpline
210
0.0
220
0.0
230
1.0
 70
     8
 71
     3
 72
    17
 73
    13
 74
     0
 42
0.000000001
 43
0.00000001
 40
0.0
 40
0.0
 40
0.0
 40
0.0
 40
0.0955613827644825
 40
0.1910339952039264
 40
0.2855843433823444
 40
0.3809181564338405
 40
0.4753551011939871
 40
0.5704179693721206
 40
0.7604367699572748
 40
0.8574003837811082
 40
0.9503263614705234
 40
1.0
 40
1.0
 40
1.0
 40
1.0
 10
127.9444772988723
 20
82.43445203934168
 30
0.0
 10
128.6804547433919
 20
82.0586175478236
 30
0.0
 10
130.1517259571317
 20
81.30729769064781
 30
0.0
 10
132.1562127284011
 20
79.9347042753501
 30
0.0
 10
133.974299577434
 20
78.44909863668049
 30
0.0
 10
135.5783597866016
 20
76.86962798341219
 30
0.0
 10
136.9764552578129
 20
75.22194466980129
 30
0.0
 10
138.5496054290266
 20
72.96866204300045
 30
0.0
 10
139.7083642029609
 20
70.64012082104726
 30
0.0
 10
140.3771149249727
 20
68.35507293830148
 30
0.0
 10
140.6359340543237
 20
66.92808540478347
 30
0.0
 10
140.6185015907787
 20
66.11877043466971
 30
0.0
 10
140.6124291067442
 20
65.83685088714293
 30
0.0
  0
SPLINE
  5
87
330
1F
100
AcDbEntity
  8
0
  6
Continuous
 62
     7
370
    15
100
AcDbSpline
210
0.0
220
0.0
230
1.0
 70
     8
 71
     3
 72
    13
 73
     9
 74
     0
 42
0.000000001
 43
0.00000001
 40
0.0
 40
0.0
 40
0.0
 40
0.0
 40
0.0430103536094188
 40
0.2340744475744326
 40
0.4259736081634162
 40
0.6171063337784569
 40
0.8086856629891388
 40
1.0
 40
1.0
 40
1.0
 40
1.0
 10
116.0262509477617
 20
79.59542964274576
 30
0.0
 10
116.0179461363362
 20
79.70724327072668
 30
0.0
 10
115.9727490155618
 20
80.31576449886177
 30
0.0
 10
116.2085292690944
 20
81.29977983678957
 30
0.0
 10
116.8045711265845
 20
82.48278090922766
 30
0.0
 10
117.85474291309
 20
83.4010232848644
 30
0.0
 10
119.3146531000702
 20
84.02817812417831
 30
0.0
 10
120.6079296855505
 20
84.10919304401317
 30
0.0
 10
121.2541204542944
 20
84.1496724696175
 30
0.0
  0
SPLINE
  5
88
330
1F
100
AcDbEntity
  8
0
  6
Continuous
 62
     7
370
    15
100
AcDbSpline
210
0.0
220
0.0
230
1.0
 70
     8
 71
     3
 72
    12
 73
     8
 74
     0
 42
0.000000001
 43
0.00000001
 40
0.0
 40
0.0
 40
0.0
 40
0.0
 40
0.1748683633656533
 40
0.4228825957472799
 40
0.6554071947203152
 40
0.9022117409885515
 40
1.0
 40
1.0
 40
1.0
 40
1.0
 10
115.7605214633302
 20
79.4366092945879
 30
0.0
 10
115.7636808868399
 20
79.70594897181489
 30
0.0
 10
115.771321292395
 20
80.35729069910786
 30
0.0
 10
116.0154339207427
 20
81.27140630306776
 30
0.0
 10
116.5089149067382
 20
82.17020308347405
 30
0.0
 10
117.0574979183832
 20
82.8023091427527
 30
0.0
 10
117.5446435387994
 20
83.067161921549
 30
0.0
 10
117.6828853168507
 20
83.14232162232052
 30
0.0
  0
SPLINE
  5
8A
330
1F
100
AcDbEntity
  8
0
  6
Continuous
 62
     7
370
    15
100
AcDbSpline
210
0.0
220
0.0
230
1.0
 70
     8
 71
     3
 72
    14
 73
    10
 74
     0
 42
0.000000001
 43
0.00000001
 40
0.0
 40
0.0
 40
0.0
 40
0.0
 40
0.25
 40
0.25
 40
0.5
 40
0.5
 40
0.75
 40
0.75
 40
1.0
 40
1.0
 40
1.0
 40
1.0
 10
121.2541206772464
 20
-84.14968308326173
 30
0.0
 10
120.7461983540581
 20
-84.14970913789811
 30
0.0
 10
120.2724629176423
 20
-84.11064943839857
 30
0.0
 10
119.3868380044623
 20
-83.9571854647535
 30
0.0
 10
118.9734993103739
 20
-83.84124093260893
 30
0.0
 10
118.2360922606109
 20
-83.54362672091482
 30
0.0
 10
117.9093277851815
 20
-83.36233304220242
 30
0.0
 10
117.3325895148391
 20
-82.9392448041543
 30
0.0
 10
117.0832236925517
 20
-82.69656732357896
 30
0.0
 10
116.8769759428793
 20
-82.43446375236202
 30
0.0
  0
SPLINE
  5
8B
330
1F
100
AcDbEntity
  8
0
  6
Continuous
 62
     7
370
    15
100
AcDbSpline
210
0.0
220
0.0
230
1.0
 70
     8
 71
     3
 72
    10
 73
     6
 74
     0
 42
0.000000001
 43
0.00000001
 40
0.0
 40
0.0
 40
0.0
 40
0.0
 40
0.4522647064518787
 40
0.9041092883321664
 40
1.0
 40
1.0
 40
1.0
 40
1.0
 10
116.8769779607579
 20
-82.43446282162897
 30
0.0
 10
116.64579753452
 20
-82.05684593340538
 30
0.0
 10
116.1836514336626
 20
-81.30196293854945
 30
0.0
 10
115.9723523823804
 20
-80.30611670183197
 30
0.0
 10
116.0170991650727
 20
-79.7010839202869
 30
0.0
 10
116.0249328776119
 20
-79.59516227403164
 30
0.0
  0
SPLINE
  5
8C
330
1F
100
AcDbEntity
  8
0
  6
Continuous
 62
     7
370
    15
100
AcDbSpline
210
0.0
220
0.0
230
1.0
 70
     8
 71
     3
 72
    20
 73
    16
 74
     0
 42
0.000000001
 43
0.00000001
 40
0.0
 40
0.0
 40
0.0
 40
0.0
 40
0.0377033337586055
 40
0.1134440002741092
 40
0.1862158089921356
 40
0.2612494333347387
 40
0.3346470523000648
 40
0.4084793387075026
 40
0.555917473613947
 40
0.6300244672606198
 40
0.7038905119129172
 40
0.7780793962325403
 40
0.8519719741199421
 40
0.9260372105139876
 40
1.0
 40
1.0
 40
1.0
 40
1.0
 10
140.6147457789382
 20
-65.83628939685359
 30
0.0
 10
140.6204379340603
 20
-66.11144027700492
 30
0.0
 10
140.6375648239892
 20
-66.93933037084
 30
0.0
 10
140.3736455467301
 20
-68.36706710989759
 30
0.0
 10
139.8665860030386
 20
-70.09569971308314
 30
0.0
 10
139.1189628767782
 20
-71.82006288079229
 30
0.0
 10
138.1505171236282
 20
-73.54298583205215
 30
0.0
 10
136.5758578792146
 20
-75.7919626466002
 30
0.0
 10
134.5615720534031
 20
-77.96871055475127
 30
0.0
 10
132.1423683307001
 20
-79.94909341936693
 30
0.0
 10
130.1297099766031
 20
-81.30603803469327
 30
0.0
 10
127.9531480398503
 20
-82.4811227711073
 30
0.0
 10
125.6712448913171
 20
-83.40147954045703
 30
0.0
 10
123.3591899988403
 20
-84.02807760972037
 30
0.0
 10
121.9554866719972
 20
-84.1091667445062
 30
0.0
 10
121.2541207445192
 20
-84.1496832519048
 30
0.0
  0
SPLINE
  5
8E
330
1F
100
AcDbEntity
  8
0
  6
Continuous
 62
     7
370
    15
100
AcDbSpline
210
0.0
220
0.0
230
1.0
 70
     8
 71
     3
 72
     9
 73
     5
 74
     0
 42
0.000000001
 43
0.00000001
 40
0.0
 40
0.0
 40
0.0
 40
0.0
 40
0.1321617726869047
 40
1.0
 40
1.0
 40
1.0
 40
1.0
 10
41.40618950744236
 20
83.65122317453948
 30
0.0
 10
41.48278069988253
 20
83.61947444154683
 30
0.0
 10
42.06230676769353
 20
83.37924814655096
 30
0.0
 10
42.1665108627726
 20
82.78731046239541
 30
0.0
 10
42.25694315992479
 20
82.27360431189805
 30
0.0
  0
SPLINE
  5
8F
330
1F
100
AcDbEntity
  8
0
  6
Continuous
 62
     7
370
    15
100
AcDbSpline
210
0.0
220
0.0
230
1.0
 70
     8
 71
     3
 72
    10
 73
     6
 74
     0
 42
0.000000001
 43
0.00000001
 40
0.0
 40
0.0
 40
0.0
 40
0.0
 40
0.3277290977981225
 40
0.8742463502695056
 40
1.0
 40
1.0
 40
1.0
 40
1.0
 10
17.67799822120678
 20
64.72011062027407
 30
0.0
 10
17.73268343838868
 20
64.8960474488435
 30
0.0
 10
17.87856109117012
 20
65.36537449758048
 30
0.0
 10
18.09186784177311
 20
65.91970486879141
 30
0.0
 10
18.27231017605776
 20
66.30147186046432
 30
0.0
 10
18.30606335803822
 20
66.37288442999879
 30
0.0
  0
SPLINE
  5
90
330
1F
100
AcDbEntity
  8
0
  6
Continuous
 62
     7
370
    15
100
AcDbSpline
210
0.0
220
0.0
230
1.0
 70
     8
 71
     3
 72
    14
 73
    10
 74
     0
 42
0.000000001
 43
0.00000001
 40
0.0
 40
0.0
 40
0.0
 40
0.0
 40
0.25
 40
0.25
 40
0.5
 40
0.5
 40
0.75
 40
0.75
 40
1.0
 40
1.0
 40
1.0
 40
1.0
 10
39.74486590429807
 20
84.14967230097439
 30
0.0
 10
40.10052997592192
 20
84.14969835561074
 30
0.0
 10
40.41286043210832
 20
84.11063865611125
 30
0.0
 10
40.95697839734892
 20
83.95717468246616
 30
0.0
 10
41.18902658495883
 20
83.8412301503216
 30
0.0
 10
41.5585739536237
 20
83.54361593862748
 30
0.0
 10
41.69814734835568
 20
83.36232225991506
 30
0.0
 10
41.89465824654796
 20
82.93923402186698
 30
0.0
 10
41.95075153888609
 20
82.69655654129163
 30
0.0
 10
41.96783509859147
 20
82.43445297007472
 30
0.0
  0
SPLINE
  5
91
330
1F
100
AcDbEntity
  8
0
  6
Continuous
 62
     7
370
    15
100
AcDbSpline
210
0.0
220
0.0
230
1.0
 70
     8
 71
     3
 72
    22
 73
    18
 74
     0
 42
0.000000001
 43
0.00000001
 40
0.0
 40
0.0
 40
0.0
 40
0.0
 40
0.0381995344539
 40
0.1028286359110726
 40
0.1651159718513146
 40
0.2308282152513855
 40
0.293964691693183
 40
0.3590635086540999
 40
0.4227429351012886
 40
0.4867994769617451
 40
0.6147161042261913
 40
0.6790109807858105
 40
0.7430968111395566
 40
0.8074627356590183
 40
0.8715715861218216
 40
0.9358302342869135
 40
0.9999999999999999
 40
0.9999999999999999
 40
0.9999999999999999
 40
0.9999999999999999
 10
17.37014319127497
 20
62.71294321931244
 30
0.0
 10
17.37589123429084
 20
62.98297651712703
 30
0.0
 10
17.39136428732487
 20
63.70987426763111
 30
0.0
 10
17.76530819734359
 20
65.05700927552049
 30
0.0
 10
18.39425537689245
 20
66.68503695482671
 30
0.0
 10
19.25525011273006
 20
68.3652008183648
 30
0.0
 10
20.32349144143796
 20
70.09619495325897
 30
0.0
 10
21.5657812831311
 20
71.81991831648094
 30
0.0
 10
22.98269704576255
 20
73.5430100581008
 30
0.0
 10
25.07092982038367
 20
75.79193137944924
 30
0.0
 10
27.46884641236634
 20
77.96870306951816
 30
0.0
 10
30.08768122803939
 20
79.94908201655115
 30
0.0
 10
32.14212106506469
 20
81.30602741927248
 30
0.0
 10
34.2338065483419
 20
82.48111194424366
 30
0.0
 10
36.28196162575022
 20
83.4014687700682
 30
0.0
 10
38.21049913575762
 20
84.02806682446037
 30
0.0
 10
39.2336462832047
 20
84.10915596122848
 30
0.0
 10
39.74486580822328
 20
84.1496724696175
 30
0.0
  0
SPLINE
  5
92
330
1F
100
AcDbEntity
  8
0
  6
Continuous
 62
     7
370
    15
100
AcDbSpline
210
0.0
220
0.0
230
1.0
 70
     8
 71
     3
 72
    14
 73
    10
 74
     0
 42
0.000000001
 43
0.00000001
 40
0.0
 40
0.0
 40
0.0
 40
0.0
 40
0.25
 40
0.25
 40
0.5
 40
0.5
 40
0.75
 40
0.75
 40
1.0
 40
1.0
 40
1.0
 40
1.0
 10
39.74486555596462
 20
-84.14968308326175
 30
0.0
 10
39.38925262713643
 20
-84.14970913789823
 30
0.0
 10
39.00086838254371
 20
-84.11064943839861
 30
0.0
 10
38.15852844834571
 20
-83.95718546475354
 30
0.0
 10
37.70135324002565
 20
-83.84124093260894
 30
0.0
 10
36.75582826099082
 20
-83.54362672091494
 30
0.0
 10
36.26613555723605
 20
-83.3623330422025
 30
0.0
 10
35.25611962799554
 20
-82.93924480415433
 30
0.0
 10
34.73499848538457
 20
-82.69656732357898
 30
0.0
 10
34.2182864454582
 20
-82.43446375236203
 30
0.0
  0
SPLINE
  5
93
330
1F
100
AcDbEntity
  8
0
  6
Continuous
 62
     7
370
    15
100
AcDbSpline
210
0.0
220
0.0
230
1.0
 70
     8
 71
     3
 72
    19
 73
    15
 74
     0
 42
0.000000001
 43
0.00000001
 40
0.0
 40
0.0
 40
0.0
 40
0.0
 40
0.0789388236318022
 40
0.1578043182176123
 40
0.2359079730964483
 40
0.3146588119490706
 40
0.3926687895267264
 40
0.4711958133930702
 40
0.6281615264477503
 40
0.7082586680850328
 40
0.7850205058842704
 40
0.8635931555155963
 40
0.9420435850634804
 40
1.0
 40
1.0
 40
1.0
 40
1.0
 10
34.21828611213044
 20
-82.434462821629
 30
0.0
 10
33.52100390763605
 20
-82.05862838577005
 30
0.0
 10
32.12708722857901
 20
-81.30730863986075
 30
0.0
 10
30.07123308082403
 20
-79.93471439334283
 30
0.0
 10
28.10452240373383
 20
-78.44911189190597
 30
0.0
 10
26.25815460998449
 20
-76.86962948220288
 30
0.0
 10
24.54087426162321
 20
-75.22198982412351
 30
0.0
 10
22.45058446241697
 20
-72.96848895766519
 30
0.0
 10
20.65800642361303
 20
-70.64128594238528
 30
0.0
 10
19.24784436590827
 20
-68.35309899150863
 30
0.0
 10
18.38690624254829
 20
-66.66467770002812
 30
0.0
 10
17.76004003922863
 20
-65.04859725498557
 30
0.0
 10
17.3750684881023
 20
-63.62214866846998
 30
0.0
 10
17.3635133036234
 20
-62.83724249771232
 30
0.0
 10
17.35860374744343
 20
-62.50375228400194
 30
0.0
  0
SPLINE
  5
95
330
1F
100
AcDbEntity
  8
0
  6
Continuous
 62
     7
370
    15
100
AcDbSpline
210
0.0
220
0.0
230
1.0
 70
     8
 71
     3
 72
   197
 73
   193
 74
     0
 42
0.000000001
 43
0.00000001
 40
0.0
 40
0.0
 40
0.0
 40
0.0
 40
0.015625
 40
0.015625
 40
0.015625
 40
0.03125
 40
0.03125
 40
0.03125
 40
0.046875
 40
0.046875
 40
0.046875
 40
0.0625
 40
0.0625
 40
0.0625
 40
0.078125
 40
0.078125
 40
0.078125
 40
0.09375
 40
0.09375
 40
0.09375
 40
0.109375
 40
0.109375
 40
0.109375
 40
0.125
 40
0.125
 40
0.125
 40
0.140625
 40
0.140625
 40
0.140625
 40
0.15625
 40
0.15625
 40
0.15625
 40
0.171875
 40
0.171875
 40
0.171875
 40
0.1875
 40
0.1875
 40
0.1875
 40
0.203125
 40
0.203125
 40
0.203125
 40
0.21875
 40
0.21875
 40
0.21875
 40
0.234375
 40
0.234375
 40
0.234375
 40
0.25
 40
0.25
 40
0.25
 40
0.265625
 40
0.265625
 40
0.265625
 40
0.28125
 40
0.28125
 40
0.28125
 40
0.296875
 40
0.296875
 40
0.296875
 40
0.3125
 40
0.3125
 40
0.3125
 40
0.328125
 40
0.328125
 40
0.328125
 40
0.34375
 40
0.34375
 40
0.34375
 40
0.359375
 40
0.359375
 40
0.359375
 40
0.375
 40
0.375
 40
0.375
 40
0.390625
 40
0.390625
 40
0.390625
 40
0.40625
 40
0.40625
 40
0.40625
 40
0.421875
 40
0.421875
 40
0.421875
 40
0.4375
 40
0.4375
 40
0.4375
 40
0.453125
 40
0.453125
 40
0.453125
 40
0.46875
 40
0.46875
 40
0.46875
 40
0.484375
 40
0.484375
 40
0.484375
 40
0.5
 40
0.5
 40
0.5
 40
0.515625
 40
0.515625
 40
0.515625
 40
0.53125
 40
0.53125
 40
0.53125
 40
0.546875
 40
0.546875
 40
0.546875
 40
0.5625
 40
0.5625
 40
0.5625
 40
0.578125
 40
0.578125
 40
0.578125
 40
0.59375
 40
0.59375
 40
0.59375
 40
0.609375
 40
0.609375
 40
0.609375
 40
0.625
 40
0.625
 40
0.625
 40
0.640625
 40
0.640625
 40
0.640625
 40
0.65625
 40
0.65625
 40
0.65625
 40
0.671875
 40
0.671875
 40
0.671875
 40
0.6875
 40
0.6875
 40
0.6875
 40
0.703125
 40
0.703125
 40
0.703125
 40
0.71875
 40
0.71875
 40
0.71875
 40
0.734375
 40
0.734375
 40
0.734375
 40
0.75
 40
0.75
 40
0.75
 40
0.765625
 40
0.765625
 40
0.765625
 40
0.78125
 40
0.78125
 40
0.78125
 40
0.796875
 40
0.796875
 40
0.796875
 40
0.8125
 40
0.8125
 40
0.8125
 40
0.828125
 40
0.828125
 40
0.828125
 40
0.84375
 40
0.84375
 40
0.84375
 40
0.859375
 40
0.859375
 40
0.859375
 40
0.875
 40
0.875
 40
0.875
 40
0.890625
 40
0.890625
 40
0.890625
 40
0.90625
 40
0.90625
 40
0.90625
 40
0.921875
 40
0.921875
 40
0.921875
 40
0.9375
 40
0.9375
 40
0.9375
 40
0.953125
 40
0.953125
 40
0.953125
 40
0.96875
 40
0.96875
 40
0.96875
 40
0.984375
 40
0.984375
 40
0.984375
 40
1.0
 40
1.0
 40
1.0
 40
1.0
 10
-0.0000000105056575
 20
-2250.0
 30
0.0
 10
-33.45164381607425
 20
-2250.0
 30
0.0
 10
-66.8868269275677
 20
-2249.254355029252
 30
0.0
 10
-100.305549344986
 20
-2247.763065087757
 30
0.0
 10
-134.3127851146527
 20
-2246.245513099745
 30
0.0
 10
-168.2684304264377
 20
-2243.957339530152
 30
0.0
 10
-202.1724852803411
 20
-2240.898544378977
 30
0.0
 10
-236.6429216910865
 20
-2237.788650762817
 30
0.0
 10
-271.0236371005474
 20
-2233.88542280434
 30
0.0
 10
-305.3146315087237
 20
-2229.188860503548
 30
0.0
 10
-340.1459077009041
 20
-2224.418300142846
 30
0.0
 10
-374.8466531772733
 20
-2218.834372954094
 30
0.0
 10
-409.4168679378312
 20
-2212.437078937292
 30
0.0
 10
-444.4972514078578
 20
-2205.94537708255
 30
0.0
 10
-479.4038339035839
 20
-2198.623376552178
 30
0.0
 10
-514.1366154250093
 20
-2190.471077346176
 30
0.0
 10
-549.3456661928038
 20
-2182.206990680922
 30
0.0
 10
-584.3354555219962
 20
-2173.099183539137
 30
0.0
 10
-619.1059834125865
 20
-2163.147655920821
 30
0.0
 10
-654.3154043333486
 20
-2153.070514560747
 30
0.0
 10
-689.258275485781
 20
-2142.140120051731
 30
0.0
 10
-723.9345968698833
 20
-2130.356472393776
 30
0.0
 10
-759.0093389127312
 20
-2118.437434115508
 30
0.0
 10
-793.7688387976767
 20
-2105.659835781073
 30
0.0
 10
-828.2130965247189
 20
-2092.023677390468
 30
0.0
 10
-863.0127066694583
 20
-2078.246838312517
 30
0.0
 10
-897.4474348991885
 20
-2063.610653333259
 30
0.0
 10
-931.5172812139094
 20
-2048.115122452695
 30
0.0
 10
-965.8974140897645
 20
-2032.478468100499
 30
0.0
 10
-999.8625984806326
 20
-2015.986432405249
 30
0.0
 10
-1033.412834386513
 20
-1998.639015366943
 30
0.0
 10
-1067.226953977239
 20
-1981.155155164917
 30
0.0
 10
-1100.5761924246
 20
-1962.824785353176
 30
0.0
 10
-1133.460549728596
 20
-1943.647905931721
 30
0.0
 10
-1166.561772821672
 20
-1924.344558808636
 30
0.0
 10
-1199.148904621166
 20
-1904.208556912051
 30
0.0
 10
-1231.221945127076
 20
-1883.239900241965
 30
0.0
 10
-1263.464981972956
 20
-1862.160103660236
 30
0.0
 10
-1295.1460440762
 20
-1840.266477828006
 30
0.0
 10
-1326.265131436809
 20
-1817.559022745278
 30
0.0
 10
-1357.508277617779
 20
-1794.761042511271
 30
0.0
 10
-1388.1434952751
 20
-1771.172925610644
 30
0.0
 10
-1418.170784408774
 20
-1746.794672043397
 30
0.0
 10
-1448.27790781054
 20
-1722.351603433331
 30
0.0
 10
-1477.733665055263
 20
-1697.146761921515
 30
0.0
 10
-1506.538056142942
 20
-1671.180147507951
 30
0.0
 10
-1535.380524313068
 20
-1645.179207323886
 30
0.0
 10
-1563.531258158834
 20
-1618.449244044479
 30
0.0
 10
-1590.990257680237
 20
-1590.990257669732
 30
0.0
 10
-1618.448749856005
 20
-1563.531778640378
 30
0.0
 10
-1645.178713135412
 20
-1535.381044794613
 30
0.0
 10
-1671.180147518457
 20
-1506.538056132436
 30
0.0
 10
-1697.146296340855
 20
-1477.734209196471
 30
0.0
 10
-1722.35113785267
 20
-1448.278451951748
 30
0.0
 10
-1746.794672053902
 20
-1418.170784398268
 30
0.0
 10
-1771.17248963682
 20
-1388.144061526547
 30
0.0
 10
-1794.760606537447
 20
-1357.508843869226
 30
0.0
 10
-1817.559022755783
 20
-1326.265131426304
 30
0.0
 10
-1840.266072716259
 20
-1295.146630360359
 30
0.0
 10
-1862.159698548488
 20
-1263.465568257114
 30
0.0
 10
-1883.239900252471
 20
-1231.22194511657
 30
0.0
 10
-1904.208184263225
 20
-1199.149507810673
 30
0.0
 10
-1924.344186159811
 20
-1166.562376011179
 30
0.0
 10
-1943.647905942227
 20
-1133.46054971809
 30
0.0
 10
-1962.824446286096
 20
-1100.576809458692
 30
0.0
 10
-1981.154816097837
 20
-1067.227571011331
 30
0.0
 10
-1998.639015377449
 20
-1033.412834376008
 30
0.0
 10
-2015.986127749107
 20
-999.8632261354417
 30
0.0
 10
-2032.478163444357
 20
-965.8980417445737
 30
0.0
 10
-2048.1151224632
 20
-931.5172812034039
 30
0.0
 10
-2063.61038281328
 20
-897.4480715202916
 30
0.0
 10
-2078.246567792538
 20
-863.0133432905616
 30
0.0
 10
-2092.023677400974
 20
-828.2130965142136
 30
0.0
 10
-2105.659599651142
 20
-793.7694815023685
 30
0.0
 10
-2118.437197985577
 20
-759.0099816174231
 30
0.0
 10
-2130.35647240428
 20
-723.9345968593775
 30
0.0
 10
-2142.139918259021
 20
-689.258920923762
 30
0.0
 10
-2153.070312768036
 20
-654.3160497713296
 30
0.0
 10
-2163.147655931326
 20
-619.1059834020804
 30
0.0
 10
-2173.099008235232
 20
-584.3361269620706
 30
0.0
 10
-2182.206815377017
 20
-549.3463376328783
 30
0.0
 10
-2190.471077356682
 20
-514.1366154145036
 30
0.0
 10
-2198.623230997852
 20
-479.4045285211522
 30
0.0
 10
-2205.945231528224
 20
-444.4979460254261
 30
0.0
 10
-2212.437078947797
 20
-409.4168679273255
 30
0.0
 10
-2218.834262081614
 20
-374.84734301079
 30
0.0
 10
-2224.418189270366
 20
-340.1465975344208
 30
0.0
 10
-2229.188860514053
 20
-305.3146314982179
 30
0.0
 10
-2233.885345180302
 20
-271.024321806314
 30
0.0
 10
-2237.788573138778
 20
-236.6436063968532
 30
0.0
 10
-2240.898544389483
 20
-202.1724852698356
 30
0.0
 10
-2243.957294098013
 20
-168.2691070067516
 30
0.0
 10
-2246.245467667606
 20
-134.3134616949665
 30
0.0
 10
-2247.763065098262
 20
-100.3055493344803
 30
0.0
 10
-2249.254347168315
 20
-66.88733913022384
 30
0.0
 10
-2249.999992139062
 20
-33.45215601873038
 30
0.0
 10
-2250.000000010506
 20
0.0000000000000147
 30
0.0
 10
-2250.000007881786
 20
33.45146782589713
 30
0.0
 10
-2249.254362911039
 20
66.88665093739063
 30
0.0
 10
-2247.763065098262
 20
100.3055493344805
 30
0.0
 10
-2246.245513109628
 20
134.3127847008755
 30
0.0
 10
-2243.957339540035
 20
168.2684300126606
 30
0.0
 10
-2240.898544389483
 20
202.1724852698358
 30
0.0
 10
-2237.788650947547
 20
236.6429201665032
 30
0.0
 10
-2233.88542298907
 20
271.023635575964
 30
0.0
 10
-2229.188860514053
 20
305.314631498218
 30
0.0
 10
-2224.418300280221
 20
340.1459070099236
 30
0.0
 10
-2218.834373091468
 20
374.8466524862928
 30
0.0
 10
-2212.437078947797
 20
409.4168679273255
 30
0.0
 10
-2205.945377176113
 20
444.4972509433334
 30
0.0
 10
-2198.623376645742
 20
479.4038334390594
 30
0.0
 10
-2190.471077356682
 20
514.1366154145038
 30
0.0
 10
-2182.206990745906
 20
549.3456660517224
 30
0.0
 10
-2173.09918360412
 20
584.3354553809147
 30
0.0
 10
-2163.147655931326
 20
619.1059834020808
 30
0.0
 10
-2153.070514543146
 20
654.3154043605211
 30
0.0
 10
-2142.14012003413
 20
689.2582755129536
 30
0.0
 10
-2130.35647240428
 20
723.9345968593778
 30
0.0
 10
-2118.437434170388
 20
759.0093388171925
 30
0.0
 10
-2105.659835835952
 20
793.7688387021379
 30
0.0
 10
-2092.023677400974
 20
828.2130965142138
 30
0.0
 10
-2078.246838341924
 20
863.0127065838767
 30
0.0
 10
-2063.610653362666
 20
897.4474348136068
 30
0.0
 10
-2048.1151224632
 20
931.5172812034045
 30
0.0
 10
-2032.478468134169
 20
965.8974140621497
 30
0.0
 10
-2015.986432438919
 20
999.8625984530174
 30
0.0
 10
-1998.639015377449
 20
1033.412834376008
 30
0.0
 10
-1981.155155058371
 20
1067.226954165204
 30
0.0
 10
-1962.82478524663
 20
1100.576192612564
 30
0.0
 10
-1943.647905942227
 20
1133.46054971809
 30
0.0
 10
-1924.344558778045
 20
1166.561772883901
 30
0.0
 10
-1904.20855688146
 20
1199.148904683394
 30
0.0
 10
-1883.239900252471
 20
1231.22194511657
 30
0.0
 10
-1862.160103591596
 20
1263.464982073582
 30
0.0
 10
-1840.266477759367
 20
1295.146044176826
 30
0.0
 10
-1817.559022755784
 20
1326.265131426303
 30
0.0
 10
-1794.76104261282
 20
1357.508277479824
 30
0.0
 10
-1771.172925712194
 20
1388.143495137146
 30
0.0
 10
-1746.794672053903
 20
1418.170784398268
 30
0.0
 10
-1722.351603773452
 20
1448.277907409388
 30
0.0
 10
-1697.146762261636
 20
1477.733664654111
 30
0.0
 10
-1671.180147518457
 20
1506.538056132436
 30
0.0
 10
-1645.179207783328
 20
1535.380523829607
 30
0.0
 10
-1618.449244503921
 20
1563.531257675372
 30
0.0
 10
-1590.990257680237
 20
1590.990257669732
 30
0.0
 10
-1563.531779064136
 20
1618.448749456266
 30
0.0
 10
-1535.381045218371
 20
1645.178712735672
 30
0.0
 10
-1506.538056142942
 20
1671.180147507951
 30
0.0
 10
-1477.734209578163
 20
1697.146296012403
 30
0.0
 10
-1448.27845233344
 20
1722.351137524218
 30
0.0
 10
-1418.170784408774
 20
1746.794672043397
 30
0.0
 10
-1388.144061664574
 20
1771.17248953933
 30
0.0
 10
-1357.508844007252
 20
1794.760606439957
 30
0.0
 10
-1326.265131436809
 20
1817.559022745278
 30
0.0
 10
-1295.146629990376
 20
1840.26607297735
 30
0.0
 10
-1263.465567887132
 20
1862.15969880958
 30
0.0
 10
-1231.221945127076
 20
1883.239900241965
 30
0.0
 10
-1199.149507414646
 20
1904.208184495782
 30
0.0
 10
-1166.562375615153
 20
1924.344186392367
 30
0.0
 10
-1133.460549728596
 20
1943.647905931721
 30
0.0
 10
-1100.576809631358
 20
1962.824446175077
 30
0.0
 10
-1067.227571183997
 20
1981.154815986818
 30
0.0
 10
-1033.412834386514
 20
1998.639015366943
 30
0.0
 10
-999.8632266632683
 20
2015.986127487653
 30
0.0
 10
-965.8980422724009
 20
2032.478163182903
 30
0.0
 10
-931.5172812139105
 20
2048.115122452694
 30
0.0
 10
-897.4480708806329
 20
2063.610383114002
 30
0.0
 10
-863.0133426509028
 20
2078.246568093259
 30
0.0
 10
-828.2130965247197
 20
2092.023677390468
 30
0.0
 10
-793.7694806079138
 20
2105.659599945621
 30
0.0
 10
-759.0099807229684
 20
2118.437198280057
 30
0.0
 10
-723.9345968698833
 20
2130.356472393775
 30
0.0
 10
-689.2589204208697
 20
2142.139918425486
 30
0.0
 10
-654.3160492684375
 20
2153.070312934502
 30
0.0
 10
-619.1059834125866
 20
2163.14765592082
 30
0.0
 10
-584.3361262281222
 20
2173.099008408136
 30
0.0
 10
-549.34633689893
 20
2182.206815549922
 30
0.0
 10
-514.1366154250097
 20
2190.471077346176
 30
0.0
 10
-479.4045284479139
 20
2198.623230998446
 30
0.0
 10
-444.497945952188
 20
2205.945231528818
 30
0.0
 10
-409.4168679378321
 20
2212.437078937292
 30
0.0
 10
-374.8473427828292
 20
2218.834262119572
 30
0.0
 10
-340.1465973064601
 20
2224.418189308323
 30
0.0
 10
-305.314631508725
 20
2229.188860503547
 30
0.0
 10
-271.0243213761049
 20
2233.8853452146
 30
0.0
 10
-236.6436059666439
 20
2237.788573173077
 30
0.0
 10
-202.1724852803418
 20
2240.898544378977
 30
0.0
 10
-168.2691066974227
 20
2243.957294111402
 30
0.0
 10
-134.3134613856375
 20
2246.245467680996
 30
0.0
 10
-100.3055493449861
 20
2247.763065087756
 30
0.0
 10
-66.88716253729805
 20
2249.254355029252
 30
0.0
 10
-33.45197942580472
 20
2250.0
 30
0.0
 10
-0.0000000105061829
 20
2250.0
 30
0.0
  0
SPLINE
  5
96
330
1F
100
AcDbEntity
  8
0
  6
Continuous
 62
     7
370
    15
100
AcDbSpline
210
0.0
220
0.0
230
1.0
 70
     8
 71
     3
 72
   197
 73
   193
 74
     0
 42
0.000000001
 43
0.00000001
 40
0.0
 40
0.0
 40
0.0
 40
0.0
 40
0.015625
 40
0.015625
 40
0.015625
 40
0.03125
 40
0.03125
 40
0.03125
 40
0.046875
 40
0.046875
 40
0.046875
 40
0.0625
 40
0.0625
 40
0.0625
 40
0.078125
 40
0.078125
 40
0.078125
 40
0.09375
 40
0.09375
 40
0.09375
 40
0.109375
 40
0.109375
 40
0.109375
 40
0.125
 40
0.125
 40
0.125
 40
0.140625
 40
0.140625
 40
0.140625
 40
0.15625
 40
0.15625
 40
0.15625
 40
0.171875
 40
0.171875
 40
0.171875
 40
0.1875
 40
0.1875
 40
0.1875
 40
0.203125
 40
0.203125
 40
0.203125
 40
0.21875
 40
0.21875
 40
0.21875
 40
0.234375
 40
0.234375
 40
0.234375
 40
0.25
 40
0.25
 40
0.25
 40
0.265625
 40
0.265625
 40
0.265625
 40
0.28125
 40
0.28125
 40
0.28125
 40
0.296875
 40
0.296875
 40
0.296875
 40
0.3125
 40
0.3125
 40
0.3125
 40
0.328125
 40
0.328125
 40
0.328125
 40
0.34375
 40
0.34375
 40
0.34375
 40
0.359375
 40
0.359375
 40
0.359375
 40
0.375
 40
0.375
 40
0.375
 40
0.390625
 40
0.390625
 40
0.390625
 40
0.40625
 40
0.40625
 40
0.40625
 40
0.421875
 40
0.421875
 40
0.421875
 40
0.4375
 40
0.4375
 40
0.4375
 40
0.453125
 40
0.453125
 40
0.453125
 40
0.46875
 40
0.46875
 40
0.46875
 40
0.484375
 40
0.484375
 40
0.484375
 40
0.5
 40
0.5
 40
0.5
 40
0.515625
 40
0.515625
 40
0.515625
 40
0.53125
 40
0.53125
 40
0.53125
 40
0.546875
 40
0.546875
 40
0.546875
 40
0.5625
 40
0.5625
 40
0.5625
 40
0.578125
 40
0.578125
 40
0.578125
 40
0.59375
 40
0.59375
 40
0.59375
 40
0.609375
 40
0.609375
 40
0.609375
 40
0.625
 40
0.625
 40
0.625
 40
0.640625
 40
0.640625
 40
0.640625
 40
0.65625
 40
0.65625
 40
0.65625
 40
0.671875
 40
0.671875
 40
0.671875
 40
0.6875
 40
0.6875
 40
0.6875
 40
0.703125
 40
0.703125
 40
0.703125
 40
0.71875
 40
0.71875
 40
0.71875
 40
0.734375
 40
0.734375
 40
0.734375
 40
0.75
 40
0.75
 40
0.75
 40
0.765625
 40
0.765625
 40
0.765625
 40
0.78125
 40
0.78125
 40
0.78125
 40
0.796875
 40
0.796875
 40
0.796875
 40
0.8125
 40
0.8125
 40
0.8125
 40
0.828125
 40
0.828125
 40
0.828125
 40
0.84375
 40
0.84375
 40
0.84375
 40
0.859375
 40
0.859375
 40
0.859375
 40
0.875
 40
0.875
 40
0.875
 40
0.890625
 40
0.890625
 40
0.890625
 40
0.90625
 40
0.90625
 40
0.90625
 40
0.921875
 40
0.921875
 40
0.921875
 40
0.9375
 40
0.9375
 40
0.9375
 40
0.953125
 40
0.953125
 40
0.953125
 40
0.96875
 40
0.96875
 40
0.96875
 40
0.984375
 40
0.984375
 40
0.984375
 40
1.0
 40
1.0
 40
1.0
 40
1.0
 10
-0.0000000105061829
 20
2250.0
 30
0.0
 10
33.45164432256672
 20
2250.0
 30
0.0
 10
66.88682743406005
 20
2249.254355029252
 30
0.0
 10
100.3055493239738
 20
2247.763065087756
 30
0.0
 10
134.3127853491225
 20
2246.24551306439
 30
0.0
 10
168.2684306609078
 20
2243.957339494797
 30
0.0
 10
202.1724852593296
 20
2240.898544378977
 30
0.0
 10
236.6429216445811
 20
2237.78865077763
 30
0.0
 10
271.0236370540421
 20
2233.885422819154
 30
0.0
 10
305.3146314877126
 20
2229.188860503547
 30
0.0
 10
340.1459080075103
 20
2224.418300086475
 30
0.0
 10
374.8466534838793
 20
2218.834372897723
 30
0.0
 10
409.4168679168197
 20
2212.437078937292
 30
0.0
 10
444.4972514229052
 20
2205.94537707156
 30
0.0
 10
479.4038339186311
 20
2198.623376541188
 30
0.0
 10
514.1366154039977
 20
2190.471077346176
 30
0.0
 10
549.3456661430776
 20
2182.206990690224
 30
0.0
 10
584.3354554722698
 20
2173.099183548439
 30
0.0
 10
619.1059833915746
 20
2163.14765592082
 30
0.0
 10
654.3154041698835
 20
2153.070514600419
 30
0.0
 10
689.2582753223156
 20
2142.140120091404
 30
0.0
 10
723.934596848871
 20
2130.356472393776
 30
0.0
 10
759.0093385150251
 20
2118.437434252352
 30
0.0
 10
793.7688383999704
 20
2105.659835917916
 30
0.0
 10
828.2130965037076
 20
2092.023677390468
 30
0.0
 10
863.0127055765347
 20
2078.24683874929
 30
0.0
 10
897.447433806265
 20
2063.610653770033
 30
0.0
 10
931.5172811928984
 20
2048.115122452695
 30
0.0
 10
965.8974132197178
 20
2032.478468537868
 30
0.0
 10
999.8625976105856
 20
2015.986432842617
 30
0.0
 10
1033.412834365502
 20
1998.639015366944
 30
0.0
 10
1067.226953790781
 20
1981.155155252107
 30
0.0
 10
1100.576192238142
 20
1962.824785440366
 30
0.0
 10
1133.460549707584
 20
1943.647905931721
 30
0.0
 10
1166.561772611785
 20
1924.344558928134
 30
0.0
 10
1199.148904411278
 20
1904.208557031548
 30
0.0
 10
1231.221945106064
 20
1883.239900241966
 30
0.0
 10
1263.464982001617
 20
1862.160103631767
 30
0.0
 10
1295.146044104861
 20
1840.266477799539
 30
0.0
 10
1326.265131415797
 20
1817.559022745279
 30
0.0
 10
1357.508277443254
 20
1794.76104261548
 30
0.0
 10
1388.143495100577
 20
1771.172925714853
 30
0.0
 10
1418.170784387762
 20
1746.794672043398
 30
0.0
 10
1448.277907398705
 20
1722.351603771108
 30
0.0
 10
1477.733664643428
 20
1697.146762259293
 30
0.0
 10
1506.53805612193
 20
1671.180147507952
 30
0.0
 10
1535.380524062958
 20
1645.179207544978
 30
0.0
 10
1563.531257908723
 20
1618.449244265572
 30
0.0
 10
1590.990257659226
 20
1590.990257669732
 30
0.0
 10
1618.448749665591
 20
1563.531778817787
 30
0.0
 10
1645.178712944998
 20
1535.381044972021
 30
0.0
 10
1671.180147497446
 20
1506.538056132436
 30
0.0
 10
1697.146295855638
 20
1477.734209721898
 30
0.0
 10
1722.351137367453
 20
1448.278452477176
 30
0.0
 10
1746.794672032891
 20
1418.170784398268
 30
0.0
 10
1771.172489342536
 20
1388.144061909365
 30
0.0
 10
1794.760606243162
 20
1357.508844252043
 30
0.0
 10
1817.559022734772
 20
1326.265131426303
 30
0.0
 10
1840.266072913416
 20
1295.146630053092
 30
0.0
 10
1862.159698745645
 20
1263.465567949847
 30
0.0
 10
1883.239900231459
 20
1231.22194511657
 30
0.0
 10
1904.208184439613
 20
1199.149507482442
 30
0.0
 10
1924.344186336198
 20
1166.562375682949
 30
0.0
 10
1943.647905921215
 20
1133.460549718091
 30
0.0
 10
1962.824446093661
 20
1100.576809742447
 30
0.0
 10
1981.154815905403
 20
1067.227571295086
 30
0.0
 10
1998.639015356437
 20
1033.412834376008
 30
0.0
 10
2015.986127449258
 20
999.863226722124
 30
0.0
 10
2032.478163144509
 20
965.8980423312562
 30
0.0
 10
2048.115122442188
 20
931.5172812034053
 30
0.0
 10
2063.610382903972
 20
897.4480713008456
 30
0.0
 10
2078.24656788323
 20
863.0133430711157
 30
0.0
 10
2092.023677379961
 20
828.2130965142156
 30
0.0
 10
2105.659599608786
 20
793.7694814942118
 30
0.0
 10
2118.437197943223
 20
759.0099816092667
 30
0.0
 10
2130.356472383268
 20
723.9345968593801
 30
0.0
 10
2142.139918191654
 20
689.2589211303338
 30
0.0
 10
2153.070312700669
 20
654.3160499779015
 30
0.0
 10
2163.147655910314
 20
619.1059834020836
 30
0.0
 10
2173.099008329668
 20
584.3361265146547
 30
0.0
 10
2182.206815471453
 20
549.3463371854623
 30
0.0
 10
2190.47107733567
 20
514.1366154145065
 30
0.0
 10
2198.623231066829
 20
479.4045280939172
 30
0.0
 10
2205.945231597201
 20
444.4979455981907
 30
0.0
 10
2212.437078926785
 20
409.4168679273268
 30
0.0
 10
2218.834262034768
 20
374.8473430922083
 30
0.0
 10
2224.41818922352
 20
340.1465976158387
 30
0.0
 10
2229.188860493042
 20
305.3146314982179
 30
0.0
 10
2233.885345233784
 20
271.0243213679582
 30
0.0
 10
2237.78857319226
 20
236.6436059584975
 30
0.0
 10
2240.898544368471
 20
202.1724852698356
 30
0.0
 10
2243.9572941
 20
168.2691063708684
 30
0.0
 10
2246.245467669593
 20
134.3134610590835
 30
0.0
 10
2247.763065077251
 20
100.3055493344809
 30
0.0
 10
2249.254347119291
 20
66.88733987637798
 30
0.0
 10
2249.999992090039
 20
33.45215676488459
 30
0.0
 10
2249.999999989494
 20
0.0000000000007086
 30
0.0
 10
2250.000007888786
 20
-33.45146698628641
 30
0.0
 10
2249.254362918038
 20
-66.88665009777966
 30
0.0
 10
2247.763065077251
 20
-100.3055493344791
 30
0.0
 10
2246.245513083238
 20
-134.3127850370249
 30
0.0
 10
2243.957339513645
 20
-168.2684303488098
 30
0.0
 10
2240.898544368471
 20
-202.1724852698339
 30
0.0
 10
2237.788650910711
 20
-236.6429200607311
 30
0.0
 10
2233.885422952235
 20
-271.0236354701919
 30
0.0
 10
2229.188860493042
 20
-305.3146314982163
 30
0.0
 10
2224.418300367284
 20
-340.145906445626
 30
0.0
 10
2218.834373178532
 20
-374.8466519219956
 30
0.0
 10
2212.437078926785
 20
-409.4168679273251
 30
0.0
 10
2205.945377001156
 20
-444.4972517552131
 30
0.0
 10
2198.623376470784
 20
-479.4038342509397
 30
0.0
 10
2190.47107733567
 20
-514.1366154145047
 30
0.0
 10
2182.206990658965
 20
-549.3456661744749
 30
0.0
 10
2173.09918351718
 20
-584.3354555036673
 30
0.0
 10
2163.147655910314
 20
-619.1059834020816
 30
0.0
 10
2153.070514691966
 20
-654.3154038760938
 30
0.0
 10
2142.14012018295
 20
-689.2582750285259
 30
0.0
 10
2130.356472383269
 20
-723.9345968593784
 30
0.0
 10
2118.437434039301
 20
-759.009339125593
 30
0.0
 10
2105.659835704866
 20
-793.7688390105379
 30
0.0
 10
2092.023677379961
 20
-828.2130965142136
 30
0.0
 10
2078.246838239358
 20
-863.012706759205
 30
0.0
 10
2063.6106532601
 20
-897.447434988935
 30
0.0
 10
2048.115122442189
 20
-931.5172812034036
 30
0.0
 10
2032.478468039945
 20
-965.8974142271428
 30
0.0
 10
2015.986432344695
 20
-999.8625986180108
 30
0.0
 10
1998.639015356437
 20
-1033.412834376007
 30
0.0
 10
1981.155155054623
 20
-1067.226954108231
 30
0.0
 10
1962.824785242882
 20
-1100.576192555592
 30
0.0
 10
1943.647905921215
 20
-1133.46054971809
 30
0.0
 10
1924.344558991997
 20
-1166.561772508539
 30
0.0
 10
1904.208557095411
 20
-1199.148904308031
 30
0.0
 10
1883.23990023146
 20
-1231.22194511657
 30
0.0
 10
1862.160103602664
 20
-1263.464982040569
 30
0.0
 10
1840.266477770434
 20
-1295.146044143813
 30
0.0
 10
1817.559022734772
 20
-1326.265131426302
 30
0.0
 10
1794.761042769835
 20
-1357.508277224857
 30
0.0
 10
1771.172925869208
 20
-1388.143494882178
 30
0.0
 10
1746.794672032892
 20
-1418.170784398267
 30
0.0
 10
1722.351603827236
 20
-1448.277907353045
 30
0.0
 10
1697.146762315421
 20
-1477.733664597767
 30
0.0
 10
1671.180147497447
 20
-1506.538056132434
 30
0.0
 10
1645.179207445085
 20
-1535.380524154844
 30
0.0
 10
1618.449244165678
 20
-1563.53125800061
 30
0.0
 10
1590.990257659226
 20
-1590.990257669731
 30
0.0
 10
1563.531778571269
 20
-1618.448749920115
 30
0.0
 10
1535.381044725503
 20
-1645.178713199522
 30
0.0
 10
1506.538056121929
 20
-1671.180147507952
 30
0.0
 10
1477.734209217775
 20
-1697.146296279916
 30
0.0
 10
1448.278451973052
 20
-1722.351137791731
 30
0.0
 10
1418.170784387762
 20
-1746.794672043398
 30
0.0
 10
1388.144061740865
 20
-1771.172489468328
 30
0.0
 10
1357.508844083544
 20
-1794.760606368955
 30
0.0
 10
1326.265131415797
 20
-1817.559022745278
 30
0.0
 10
1295.146630180852
 20
-1840.266072823029
 30
0.0
 10
1263.465568077608
 20
-1862.159698655258
 30
0.0
 10
1231.221945106064
 20
-1883.239900241965
 30
0.0
 10
1199.149507619788
 20
-1904.208184363897
 30
0.0
 10
1166.562375820295
 20
-1924.344186260482
 30
0.0
 10
1133.460549707585
 20
-1943.647905931721
 30
0.0
 10
1100.576809425876
 20
-1962.824446282653
 30
0.0
 10
1067.227570978515
 20
-1981.154816094394
 30
0.0
 10
1033.412834365502
 20
-1998.639015366943
 30
0.0
 10
999.8632264772635
 20
-2015.986127560865
 30
0.0
 10
965.8980420863961
 20
-2032.478163256116
 30
0.0
 10
931.5172811928991
 20
-2048.115122452694
 30
0.0
 10
897.4480713826114
 20
-2063.610382877949
 30
0.0
 10
863.0133431528812
 20
-2078.246567857206
 30
0.0
 10
828.2130965037092
 20
-2092.023677390468
 30
0.0
 10
793.7694817221249
 20
-2105.659599524904
 30
0.0
 10
759.0099818371797
 20
-2118.43719785934
 30
0.0
 10
723.9345968488736
 20
-2130.356472393775
 30
0.0
 10
689.2589216669118
 20
-2142.139918029467
 30
0.0
 10
654.3160505144796
 20
-2153.070312538482
 30
0.0
 10
619.1059833915771
 20
-2163.14765592082
 30
0.0
 10
584.3361262658037
 20
-2173.099008424302
 30
0.0
 10
549.3463369366116
 20
-2182.206815566087
 30
0.0
 10
514.1366154040002
 20
-2190.471077346175
 30
0.0
 10
479.4045272219468
 20
-2198.62323125173
 30
0.0
 10
444.4979447262202
 20
-2205.945231782103
 30
0.0
 10
409.4168679168204
 20
-2212.437078937292
 30
0.0
 10
374.8473427747593
 20
-2218.834262087314
 30
0.0
 10
340.1465972983897
 20
-2224.418189276066
 30
0.0
 10
305.3146314877114
 20
-2229.188860503549
 30
0.0
 10
271.0243213610755
 20
-2233.885345243794
 30
0.0
 10
236.6436059516148
 20
-2237.78857320227
 30
0.0
 10
202.1724852593292
 20
-2240.898544378977
 30
0.0
 10
168.2691066929933
 20
-2243.957294080662
 30
0.0
 10
134.3134613812084
 20
-2246.245467650255
 30
0.0
 10
100.3055493239743
 20
-2247.763065087757
 30
0.0
 10
66.88716317692784
 20
-2249.254355029252
 30
0.0
 10
33.45198006543453
 20
-2250.0
 30
0.0
 10
-0.0000000105056575
 20
-2250.0
 30
0.0
  0
SPLINE
  5
98
330
1F
100
AcDbEntity
  8
0
  6
Continuous
 62
     7
370
    15
100
AcDbSpline
210
0.0
220
0.0
230
1.0
 70
    24
 71
     3
 72
    12
 73
     8
 74
     0
 42
0.000000001
 43
0.00000001
 40
0.0
 40
0.0
 40
0.0
 40
0.0
 40
0.1686841799323377
 40
0.3959565699587861
 40
0.6232289599852353
 40
0.8505013500116829
 40
1.0
 40
1.0
 40
1.0
 40
1.0
 10
314.1913477697099
 20
-0.0000000000002343
 30
0.0
 10
314.1827787250464
 20
-0.000000000000315
 30
0.0
 10
314.1626643934351
 20
-0.0000000000005044
 30
0.0
 10
313.4750729309604
 20
0.0000000000000477
 30
0.0
 10
312.3161802677408
 20
-0.0000000000005714
 30
0.0
 10
310.9662991064838
 20
-0.0000000000000924
 30
0.0
 10
310.0463691830638
 20
-0.0000000000001379
 30
0.0
 10
309.6813509968737
 20
-0.000000000000156
 30
0.0
  0
SPLINE
  5
99
330
1F
100
AcDbEntity
  8
0
  6
Continuous
 62
     7
370
    15
100
AcDbSpline
210
0.0
220
0.0
230
1.0
 70
    24
 71
     3
 72
    24
 73
    20
 74
     0
 42
0.000000001
 43
0.00000001
 40
0.0
 40
0.0
 40
0.0
 40
0.0
 40
0.1250000000000041
 40
0.1250000000000041
 40
0.1875000000000038
 40
0.1875000000000038
 40
0.2500000000000035
 40
0.2500000000000035
 40
0.3750000000000029
 40
0.3750000000000029
 40
0.5000000000000023
 40
0.5000000000000023
 40
0.6250000000000018
 40
0.6250000000000018
 40
0.7500000000000012
 40
0.7500000000000012
 40
0.8750000000000006
 40
0.8750000000000006
 40
1.0
 40
1.0
 40
1.0
 40
1.0
 10
-208.3398920108344
 20
-0.0000000000001866
 30
0.0
 10
-208.6687713904863
 20
-0.0000000000001866
 30
0.0
 10
-208.9949797911929
 20
-0.0000000000001159
 30
0.0
 10
-209.4804498109112
 20
-0.0000000000001159
 30
0.0
 10
-209.6416279633693
 20
-0.0000000000000976
 30
0.0
 10
-209.9626645237083
 20
-0.0000000000000976
 30
0.0
 10
-210.1229777344734
 20
-0.0000000000001853
 30
0.0
 10
-210.5915666589038
 20
-0.0000000000001853
 30
0.0
 10
-210.8909114991937
 20
-0.0000000000001042
 30
0.0
 10
-211.4637435524279
 20
-0.0000000000001043
 30
0.0
 10
-211.7384298264089
 20
-0.0000000000001123
 30
0.0
 10
-212.2380486968436
 20
-0.0000000000001123
 30
0.0
 10
-212.4661551997645
 20
-0.0000000000001142
 30
0.0
 10
-212.8779402923807
 20
-0.0000000000001143
 30
0.0
 10
-213.0581450772659
 20
-0.0000000000001043
 30
0.0
 10
-213.3592104271297
 20
-0.0000000000001044
 30
0.0
 10
-213.482292044067
 20
-0.0000000000001111
 30
0.0
 10
-213.6671547947172
 20
-0.0000000000001112
 30
0.0
 10
-213.7278709976444
 20
-0.0000000000001594
 30
0.0
 10
-213.7566442150314
 20
-0.0000000000001594
 30
0.0
  0
SPLINE
  5
E2
330
1F
100
AcDbEntity
  8
0
  6
Continuous
 62
     7
370
    15
100
AcDbSpline
210
0.0
220
0.0
230
1.0
 70
     8
 71
     3
 72
    25
 73
    21
 74
     0
 42
0.000000001
 43
0.00000001
 40
0.0
 40
0.0
 40
0.0
 40
0.0
 40
0.0023154798431801
 40
0.0964375213119183
 40
0.1435571300653022
 40
0.1906856410018632
 40
0.2368235205339075
 40
0.282970116767368
 40
0.3714574911742774
 40
0.454944053092929
 40
0.5106238719720925
 40
0.568034429647207
 40
0.6270608887136866
 40
0.6731987675443458
 40
0.7193453630758062
 40
0.8134674045445424
 40
0.8605870132984871
 40
0.9077155242344946
 40
0.953853403767761
 40
1.0
 40
1.0
 40
1.0
 40
1.0
 10
187.2932765372753
 20
24.48252836754834
 30
0.0
 10
187.3006274414527
 20
24.46298416415838
 30
0.0
 10
187.6067855712053
 20
23.64898678193347
 30
0.0
 10
188.0197918159823
 20
21.93087703071188
 30
0.0
 10
188.5076048349123
 20
19.38530050474749
 30
0.0
 10
188.8333215544665
 20
17.26081229810914
 30
0.0
 10
189.1184811585714
 20
14.97876496420861
 30
0.0
 10
189.433977645533
 20
11.81826731471865
 30
0.0
 10
189.7150685874982
 20
7.703433733310406
 30
0.0
 10
189.8629812303512
 20
3.172413310366561
 30
0.0
 10
189.8861312531974
 20
-0.7926690147136769
 30
0.0
 10
189.8317881115578
 20
-4.253596092285439
 30
0.0
 10
189.7084998842716
 20
-7.458870717097376
 30
0.0
 10
189.5354084362149
 20
-10.34355897197712
 30
0.0
 10
189.2609439411564
 20
-13.75349187700618
 30
0.0
 10
188.89453877274
 20
-16.91978883453649
 30
0.0
 10
188.4488116659949
 20
-19.71999772575824
 30
0.0
 10
188.0803080277794
 20
-21.59392337158023
 30
0.0
 10
187.6851322587126
 20
-23.24974401345517
 30
0.0
 10
187.4017801604167
 20
-24.1421859326802
 30
0.0
 10
187.2600907293054
 20
-24.58844903994268
 30
0.0
  0
SPLINE
  5
E3
330
1F
100
AcDbEntity
  8
0
  6
Continuous
 62
     7
370
    15
100
AcDbSpline
210
0.0
220
0.0
230
1.0
 70
     8
 71
     3
 72
    25
 73
    21
 74
     0
 42
0.000000001
 43
0.00000001
 40
0.0
 40
0.0
 40
0.0
 40
0.0
 40
0.0857407484977001
 40
0.1308904889455873
 40
0.1760487594148283
 40
0.2202578125212221
 40
0.2644752179195895
 40
0.3492633155522715
 40
0.4292596631715864
 40
0.4826117481552659
 40
0.5376222171849815
 40
0.5941810337134814
 40
0.6383900861477272
 40
0.6826074908735121
 40
0.7727946943579383
 40
0.8179444348056679
 40
0.8631027052750663
 40
0.9073117583800728
 40
0.9515291637798163
 40
1.0
 40
1.0
 40
1.0
 40
1.0
 10
182.8104168434156
 20
-24.26828362477474
 30
0.0
 10
182.5414275558742
 20
-23.33483396709512
 30
0.0
 10
182.1307927062336
 20
-21.90984428318707
 30
0.0
 10
181.6593428418765
 20
-19.37720179986053
 30
0.0
 10
181.332734233837
 20
-17.2629285651854
 30
0.0
 10
181.0478074617954
 20
-14.97821456599988
 30
0.0
 10
180.7322363784408
 20
-11.81857125455553
 30
0.0
 10
180.451180471754
 20
-7.703336614543613
 30
0.0
 10
180.3032579007286
 20
-3.172429178975089
 30
0.0
 10
180.2801096874892
 20
0.7926720335545114
 30
0.0
 10
180.3344521464561
 20
4.253597738940432
 30
0.0
 10
180.457741447538
 20
7.458861536582756
 30
0.0
 10
180.6308299979583
 20
10.34358556360024
 30
0.0
 10
180.9053081307209
 20
13.75334766312491
 30
0.0
 10
181.2716282852634
 20
16.92071035489545
 30
0.0
 10
181.7175547301777
 20
19.71842018236396
 30
0.0
 10
182.0854571145699
 20
21.59988366408124
 30
0.0
 10
182.4828438037214
 20
23.22798629852559
 30
0.0
 10
182.9130322789596
 20
24.71596505242094
 30
0.0
 10
183.2327866129056
 20
25.36625716053195
 30
0.0
 10
183.4000004868612
 20
25.70632405269265
 30
0.0
  0
SPLINE
  5
E4
330
1F
100
AcDbEntity
  8
0
  6
Continuous
 62
     7
370
    15
100
AcDbSpline
210
0.0
220
0.0
230
1.0
 70
     8
 71
     3
 72
    18
 73
    14
 74
     0
 42
0.000000001
 43
0.00000001
 40
0.0
 40
0.0
 40
0.0
 40
0.0
 40
0.0168811377885272
 40
0.1129669620078584
 40
0.1880721976138638
 40
0.2631916226426075
 40
0.4164075545274
 40
0.4931108925832409
 40
0.5698287219962493
 40
0.6449339587459806
 40
0.72005338491549
 40
0.8640969619377369
 40
1.0
 40
1.0
 40
1.0
 40
1.0
 10
-12.00133497517877
 20
23.89315775925081
 30
0.0
 10
-12.03361682713664
 20
23.79790192025161
 30
0.0
 10
-12.24964389766657
 20
23.16045894217449
 30
0.0
 10
-12.57502700502218
 20
21.75275324492469
 30
0.0
 10
-12.97389433249234
 20
19.75120145980772
 30
0.0
 10
-13.4157285979617
 20
16.98185573360776
 30
0.0
 10
-13.78433613197827
 20
13.82552621492001
 30
0.0
 10
-14.06326943955064
 20
10.38329621474179
 30
0.0
 10
-14.2239990408453
 20
7.707032090111572
 30
0.0
 10
-14.33631325050372
 20
4.96952677623708
 30
0.0
 10
-14.41720732279896
 20
1.357170473420903
 30
0.0
 10
-14.4125622601939
 20
-3.079373589065796
 30
0.0
 10
-14.26669377477663
 20
-6.448337831338693
 30
0.0
 10
-14.19588037944494
 20
-8.083837069326622
 30
0.0
  0
SPLINE
  5
E5
330
1F
100
AcDbEntity
  8
0
  6
Continuous
 62
     7
370
    15
100
AcDbSpline
210
0.0
220
0.0
230
1.0
 70
     8
 71
     3
 72
    14
 73
    10
 74
     0
 42
0.000000001
 43
0.00000001
 40
0.0
 40
0.0
 40
0.0
 40
0.0
 40
0.1540680933349471
 40
0.3129141907971522
 40
0.4762368326154838
 40
0.6038975525350374
 40
0.7315823910362427
 40
0.9920123864895737
 40
1.0
 40
1.0
 40
1.0
 40
1.0
 10
-14.19588037944494
 20
-8.083837069326622
 30
0.0
 10
-14.13224711220076
 20
-9.144918676083238
 30
0.0
 10
-14.00300716448361
 20
-11.29998845828762
 30
0.0
 10
-13.71929989160913
 20
-14.37228109820188
 30
0.0
 10
-13.39376911778551
 20
-17.06394563820055
 30
0.0
 10
-13.04266351455928
 20
-19.3535610727528
 30
0.0
 10
-12.56120021004457
 20
-21.88011558943807
 30
0.0
 10
-12.15047204609907
 20
-23.60292239310828
 30
0.0
 10
-11.84281356553588
 20
-24.42568188550931
 30
0.0
 10
-11.83365821598399
 20
-24.4501656921519
 30
0.0
  0
LWPOLYLINE
  5
E7
330
1F
100
AcDbEntity
  8
0
  6
Continuous
 62
     7
370
    15
100
AcDbPolyline
 90
        3
 70
   128
 43
0.0
 10
98.7048365534
 20
-3.2360057256
 10
98.8813192742
 20
-0.5048807238
 10
98.8857082548
 20
0.001367922
  0
LWPOLYLINE
  5
E8
330
1F
100
AcDbEntity
  8
0
  6
Continuous
 62
     7
370
    15
100
AcDbPolyline
 90
       30
 70
   128
 43
0.0
 10
70.7202065509
 20
28.6
 10
68.0612464145
 20
28.4722692112
 10
64.9385137935
 20
27.9909398375
 10
61.8884893135
 20
27.1576081546
 10
58.949528802
 20
25.9827537919
 10
56.1585913928
 20
24.4811512248
 10
53.550774743
 20
22.6716839767
 10
51.1588736601
 20
20.5771071482
 10
49.0129676881
 20
18.2237612582
 10
47.1400428396
 20
15.6412409967
 10
45.5636522313
 20
12.8620230544
 10
44.3036198898
 20
9.9210577095
 10
43.3757914527
 20
6.8553293075
 10
42.7918349012
 20
3.703391162
 10
42.5590938275
 20
0.5048807238
 10
42.6804950858
 20
-2.6999788824
 10
43.1545119848
 20
-5.8708846876
 10
43.975183487
 20
-8.9679607115
 10
45.132189172
 20
-11.9522594261
 10
46.610979022
 20
-14.7862515436
 10
48.3929563968
 20
-17.4342979687
 10
50.4557118968
 20
-19.8630979812
 10
52.7733051748
 20
-22.0421080118
 10
55.3165911506
 20
-23.943925745
 10
58.0535865275
 20
-25.5446347194
 10
60.9498720005
 20
-26.8241050909
 10
63.9690250994
 20
-27.7662467771
 10
67.0730782221
 20
-28.3592117997
 10
70.2229960997
 20
-28.5955432796
 10
73.3791666872
 20
-28.4722692112
  0
SPLINE
  5
EA
330
1F
100
AcDbEntity
  8
0
  6
Continuous
 62
     7
370
    15
100
AcDbSpline
210
0.0
220
0.0
230
1.0
 70
    24
 71
     3
 72
    12
 73
     8
 74
     0
 42
0.000000001
 43
0.00000001
 40
0.0
 40
0.0
 40
0.0
 40
0.0
 40
0.2273470345127072
 40
0.454694069025412
 40
0.6820411035381184
 40
0.9093881380508274
 40
1.0
 40
1.0
 40
1.0
 40
1.0
 10
309.6813509968737
 20
0.0000000000022351
 30
0.0
 10
310.2363740621236
 20
0.0000000000022272
 30
0.0
 10
311.3464201926232
 20
0.0000000000022116
 30
0.0
 10
312.7660624237539
 20
0.0000000000022314
 30
0.0
 10
313.7739545502636
 20
0.0000000000022366
 30
0.0
 10
314.2259154568727
 20
0.0000000000022409
 30
0.0
 10
314.2184834195824
 20
0.0000000000022412
 30
0.0
 10
314.2163654390999
 20
0.0000000000022413
 30
0.0
  0
SPLINE
  5
EB
330
1F
100
AcDbEntity
  8
0
  6
Continuous
 62
     7
370
    15
100
AcDbSpline
210
0.0
220
0.0
230
1.0
 70
    24
 71
     3
 72
    24
 73
    20
 74
     0
 42
0.000000001
 43
0.00000001
 40
0.0
 40
0.0
 40
0.0
 40
0.0
 40
0.1250000000000037
 40
0.1250000000000037
 40
0.1875000000000055
 40
0.1875000000000055
 40
0.2500000000000073
 40
0.2500000000000073
 40
0.3750000000000061
 40
0.3750000000000061
 40
0.5000000000000049
 40
0.5000000000000049
 40
0.6250000000000037
 40
0.6250000000000037
 40
0.7500000000000024
 40
0.7500000000000024
 40
0.8750000000000012
 40
0.8750000000000012
 40
1.0
 40
1.0
 40
1.0
 40
1.0
 10
-213.7566442150312
 20
-0.0000000000014346
 30
0.0
 10
-213.7278709976443
 20
-0.0000000000014345
 30
0.0
 10
-213.6673256709104
 20
-0.0000000000012415
 30
0.0
 10
-213.5307990035622
 20
-0.0000000000012408
 30
0.0
 10
-213.4776154129358
 20
-0.0000000000012399
 30
0.0
 10
-213.3555494673439
 20
-0.0000000000012392
 30
0.0
 10
-213.2863599281503
 20
-0.0000000000012496
 30
0.0
 10
-213.0594921135514
 20
-0.0000000000012483
 30
0.0
 10
-212.8816449210796
 20
-0.0000000000015008
 30
0.0
 10
-212.4732316546574
 20
-0.0000000000014982
 30
0.0
 10
-212.2406374788768
 20
-0.0000000000014826
 30
0.0
 10
-211.7413182683674
 20
-0.0000000000014793
 30
0.0
 10
-211.4727660979119
 20
-0.0000000000012308
 30
0.0
 10
-210.8969869256061
 20
-0.000000000001227
 30
0.0
 10
-210.5937260000933
 20
-0.0000000000012194
 30
0.0
 10
-209.9731215823843
 20
-0.0000000000012151
 30
0.0
 10
-209.6516100377868
 20
-0.0000000000012196
 30
0.0
 10
-208.9968886978075
 20
-0.0000000000012151
 30
0.0
 10
-208.6687713904863
 20
-0.000000000001429
 30
0.0
 10
-208.3398920108344
 20
-0.0000000000014267
 30
0.0
  0
SPLINE
  5
134
330
1F
100
AcDbEntity
  8
0
  6
Continuous
 62
     7
370
    15
100
AcDbSpline
210
0.0
220
0.0
230
1.0
 70
    11
 71
     3
 72
   112
 73
   108
 74
     0
 42
0.000000001
 43
0.00000001
 40
0.0
 40
0.0
 40
0.0
 40
0.0
 40
0.0312499999999956
 40
0.0312499999999956
 40
0.0624999999999912
 40
0.0624999999999912
 40
0.0781249999999891
 40
0.0781249999999891
 40
0.093749999999987
 40
0.093749999999987
 40
0.1249999999999828
 40
0.1249999999999828
 40
0.1562499999999785
 40
0.1562499999999785
 40
0.1874999999999743
 40
0.1874999999999743
 40
0.2187499999999701
 40
0.2187499999999701
 40
0.2343749999999656
 40
0.2343749999999656
 40
0.2499999999999611
 40
0.2499999999999611
 40
0.2812499999999468
 40
0.2812499999999468
 40
0.2968749999999427
 40
0.2968749999999427
 40
0.3124999999999384
 40
0.3124999999999384
 40
0.3281249999999343
 40
0.3281249999999343
 40
0.3437499999999301
 40
0.3437499999999301
 40
0.3593749999999259
 40
0.3593749999999259
 40
0.3671874999999238
 40
0.3671874999999238
 40
0.3749999999999217
 40
0.3749999999999217
 40
0.3906249999999235
 40
0.3906249999999235
 40
0.3984374999999272
 40
0.3984374999999272
 40
0.4062499999999309
 40
0.4062499999999309
 40
0.4218749999999333
 40
0.4218749999999333
 40
0.4374999999999357
 40
0.4374999999999357
 40
0.4687499999999404
 40
0.4687499999999404
 40
0.4843749999999417
 40
0.4843749999999417
 40
0.499999999999943
 40
0.499999999999943
 40
0.531249999999947
 40
0.531249999999947
 40
0.5624999999999509
 40
0.5624999999999509
 40
0.5937499999999549
 40
0.5937499999999549
 40
0.6249999999999588
 40
0.6249999999999588
 40
0.6562499999999628
 40
0.6562499999999628
 40
0.6874999999999667
 40
0.6874999999999667
 40
0.7187499999999707
 40
0.7187499999999707
 40
0.7343749999999704
 40
0.7343749999999704
 40
0.74999999999997
 40
0.74999999999997
 40
0.7812499999999646
 40
0.7812499999999646
 40
0.7968749999999645
 40
0.7968749999999645
 40
0.8124999999999646
 40
0.8124999999999646
 40
0.8281249999999646
 40
0.8281249999999646
 40
0.8437499999999646
 40
0.8437499999999646
 40
0.8593749999999646
 40
0.8593749999999646
 40
0.8671874999999678
 40
0.8671874999999678
 40
0.8749999999999709
 40
0.8749999999999709
 40
0.8906249999999771
 40
0.8906249999999771
 40
0.8984374999999802
 40
0.8984374999999802
 40
0.9062499999999833
 40
0.9062499999999833
 40
0.9218749999999896
 40
0.9218749999999896
 40
0.9296874999999906
 40
0.9296874999999906
 40
0.9374999999999916
 40
0.9374999999999916
 40
0.9531249999999937
 40
0.9531249999999937
 40
0.9687499999999958
 40
0.9687499999999958
 40
0.984374999999998
 40
0.984374999999998
 40
1.0
 40
1.0
 40
1.0
 40
1.0
 10
27.59223475412941
 20
-64.03124237432826
 30
0.0
 10
28.36484544167395
 20
-64.643856954078
 30
0.0
 10
29.1169544261778
 20
-65.27820151280712
 30
0.0
 10
30.59039215684458
 20
-66.57930173083491
 30
0.0
 10
31.31158738609659
 20
-67.24620122539329
 30
0.0
 10
32.37314960980994
 20
-68.26774412311411
 30
0.0
 10
32.72327227884347
 20
-68.61156623355657
 30
0.0
 10
33.40864017019229
 20
-69.2977349586688
 30
0.0
 10
33.74497699382265
 20
-69.64112475216585
 30
0.0
 10
34.73562756388417
 20
-70.67205077529592
 30
0.0
 10
35.37173053288706
 20
-71.36031255833834
 30
0.0
 10
36.59498069225267
 20
-72.73878288218445
 30
0.0
 10
37.18490675044424
 20
-73.43271704826374
 30
0.0
 10
38.28339334731388
 20
-74.7889525943163
 30
0.0
 10
38.79520833210527
 20
-75.45459398049762
 30
0.0
 10
39.73867420941215
 20
-76.76116019259236
 30
0.0
 10
40.17045019625354
 20
-77.40210355066209
 30
0.0
 10
40.74766441128909
 20
-78.34399802888369
 30
0.0
 10
40.9289468037468
 20
-78.6560644406426
 30
0.0
 10
41.2598141314671
 20
-79.26372701192669
 30
0.0
 10
41.4098268035738
 20
-79.5598506408367
 30
0.0
 10
41.81062786774071
 20
-80.42443596085216
 30
0.0
 10
42.01300278864337
 20
-80.96944273273145
 30
0.0
 10
42.19617935495749
 20
-81.7326183494256
 30
0.0
 10
42.23624506356109
 20
-81.9755277194751
 30
0.0
 10
42.27041808974575
 20
-82.43169858179469
 30
0.0
 10
42.26477105505859
 20
-82.64586812824145
 30
0.0
 10
42.20368249894901
 20
-83.04442459595877
 30
0.0
 10
42.14804066603522
 20
-83.2292999349601
 30
0.0
 10
41.98104384691809
 20
-83.56382379312295
 30
0.0
 10
41.87115725087317
 20
-83.71083096147291
 30
0.0
 10
41.59637762323506
 20
-83.96323983881155
 30
0.0
 10
41.43150947197794
 20
-84.06865972520256
 30
0.0
 10
41.13943544642798
 20
-84.19328279467372
 30
0.0
 10
41.03410112903842
 20
-84.22931104210159
 30
0.0
 10
40.81132408929842
 20
-84.28869122963583
 30
0.0
 10
40.6936974934279
 20
-84.31219606304829
 30
0.0
 10
40.32231260903097
 20
-84.36440720820018
 30
0.0
 10
40.05011382184489
 20
-84.3748816967095
 30
0.0
 10
39.60456399965565
 20
-84.35379979952347
 30
0.0
 10
39.44982280212245
 20
-84.34062251494811
 30
0.0
 10
39.12763244015176
 20
-84.301694939548
 30
0.0
 10
38.96038643489045
 20
-84.27590987774549
 30
0.0
 10
38.44864482697338
 20
-84.18126512631598
 30
0.0
 10
38.09138922420913
 20
-84.09489333941582
 30
0.0
 10
37.34675592631906
 20
-83.87809731723476
 30
0.0
 10
36.95713204339068
 20
-83.74679098993388
 30
0.0
 10
35.76007802006018
 20
-83.29351993637073
 30
0.0
 10
34.93806080989659
 20
-82.91892333586591
 30
0.0
 10
33.67620462572538
 20
-82.26213938590259
 30
0.0
 10
33.25407942313068
 20
-82.02888804478846
 30
0.0
 10
32.41347574268423
 20
-81.53919046162123
 30
0.0
 10
31.99212475842685
 20
-81.28098907186073
 30
0.0
 10
30.74620518075915
 20
-80.48168127310002
 30
0.0
 10
29.94139345760917
 20
-79.91789257257567
 30
0.0
 10
28.37639392710942
 20
-78.73646300934861
 30
0.0
 10
27.61630667006616
 20
-78.11870452644402
 30
0.0
 10
26.13918077891178
 20
-76.83092509878371
 30
0.0
 10
25.43932299347147
 20
-76.1758246082547
 30
0.0
 10
24.11239588021596
 20
-74.84789503563658
 30
0.0
 10
23.48465654914876
 20
-74.17439458582503
 30
0.0
 10
22.29788204710837
 20
-72.80801540049492
 30
0.0
 10
21.736114773586
 20
-72.11103464749415
 30
0.0
 10
20.70653293702775
 20
-70.72882169126072
 30
0.0
 10
20.23605520668942
 20
-70.04110875691138
 30
0.0
 10
19.38339535729086
 20
-68.67275483793402
 30
0.0
 10
19.00114000007867
 20
-67.99209332053707
 30
0.0
 10
18.49956655891704
 20
-66.97790793126578
 30
0.0
 10
18.3447629744078
 20
-66.64150342730163
 30
0.0
 10
18.06460754332007
 20
-65.98072765796849
 30
0.0
 10
17.93868070969793
 20
-65.65523560247593
 30
0.0
 10
17.60531887803808
 20
-64.6948008160631
 30
0.0
 10
17.4415501447282
 20
-64.07551913084636
 30
0.0
 10
17.30178747980523
 20
-63.18868240042312
 30
0.0
 10
17.27325841302641
 20
-62.90016339504476
 30
0.0
 10
17.25717247880578
 20
-62.35133772005888
 30
0.0
 10
17.26931080519872
 20
-62.08959293012797
 30
0.0
 10
17.33864896017978
 20
-61.59544878987271
 30
0.0
 10
17.39579676053608
 20
-61.36301163531029
 30
0.0
 10
17.56285076740744
 20
-60.93366416207773
 30
0.0
 10
17.67186466417962
 20
-60.73988068366788
 30
0.0
 10
17.94342576175975
 20
-60.40401039648264
 30
0.0
 10
18.10620606857722
 20
-60.26113323383569
 30
0.0
 10
18.39656600250207
 20
-60.09050965522118
 30
0.0
 10
18.50147595210562
 20
-60.04090930794651
 30
0.0
 10
18.7231428433332
 20
-59.95915612531442
 30
0.0
 10
18.84031879518895
 20
-59.92668461944025
 30
0.0
 10
19.21088466312861
 20
-59.85461716653577
 30
0.0
 10
19.48324282437841
 20
-59.84029615658693
 30
0.0
 10
19.9310046554533
 20
-59.87117510790613
 30
0.0
 10
20.08768930559354
 20
-59.89038231572401
 30
0.0
 10
20.40991149640847
 20
-59.94592940885791
 30
0.0
 10
20.57501836219842
 20
-59.98209067556533
 30
0.0
 10
21.08171020882753
 20
-60.11427510977173
 30
0.0
 10
21.43462059389007
 20
-60.23391867549494
 30
0.0
 10
21.98518007444198
 20
-60.45655250371792
 30
0.0
 10
22.17267638994863
 20
-60.53822226148253
 30
0.0
 10
22.54843827798869
 20
-60.71249347430421
 30
0.0
 10
22.73741342511218
 20
-60.80535517075625
 30
0.0
 10
23.30745405043794
 20
-61.09955934204179
 30
0.0
 10
23.69162153068818
 20
-61.31644502088991
 30
0.0
 10
24.46775561886102
 20
-61.78576797705719
 30
0.0
 10
24.86158479152038
 20
-62.03952509911444
 30
0.0
 10
25.64678290717817
 20
-62.57182361967717
 30
0.0
 10
26.0376093670114
 20
-62.8498275886293
 30
0.0
 10
26.81668599178507
 20
-63.42597895628455
 30
0.0
 10
27.20592941035704
 20
-63.72493508445331
 30
0.0
 10
27.59223475412941
 20
-64.03124237432826
 30
0.0
  0
SPLINE
  5
135
330
1F
100
AcDbEntity
  8
0
  6
Continuous
 62
     7
370
    15
100
AcDbSpline
210
0.0
220
0.0
230
1.0
 70
     8
 71
     3
 72
    20
 73
    16
 74
     0
 42
0.000000001
 43
0.00000001
 40
0.0
 40
0.0
 40
0.0
 40
0.0
 40
0.0632640644691074
 40
0.1264337560446436
 40
0.2183791176872557
 40
0.2961534814732197
 40
0.3740363561274813
 40
0.4512048768426379
 40
0.5124611280030893
 40
0.5738201308398461
 40
0.66321881219829
 40
0.752742565902172
 40
0.8454375468369326
 40
0.9381486722370995
 40
1.0
 40
1.0
 40
1.0
 40
1.0
 10
126.0730100553618
 20
-64.03124237431943
 30
0.0
 10
126.6772285953221
 20
-63.57206962003929
 30
0.0
 10
127.8847643444092
 20
-62.65440907318409
 30
0.0
 10
130.1430036239256
 20
-61.28667491715763
 30
0.0
 10
132.6950118855817
 20
-60.17455223059257
 30
0.0
 10
135.3575136026027
 20
-59.72320498394937
 30
0.0
 10
137.5012592071513
 20
-60.07355921560626
 30
0.0
 10
138.9656838294543
 20
-61.00016624786749
 30
0.0
 10
139.8928455471215
 20
-62.17441094239737
 30
0.0
 10
140.5272838923968
 20
-63.62449595668232
 30
0.0
 10
140.8162049327736
 20
-65.45652132920686
 30
0.0
 10
140.6605530017154
 20
-67.66566955859005
 30
0.0
 10
140.0370721564104
 20
-69.96812887706974
 30
0.0
 10
139.1725102948455
 20
-72.06657751088873
 30
0.0
 10
138.3033017821371
 20
-73.35005873046966
 30
0.0
 10
137.9554702129971
 20
-73.86366999869968
 30
0.0
  0
SPLINE
  5
136
330
1F
100
AcDbEntity
  8
0
  6
Continuous
 62
     7
370
    15
100
AcDbSpline
210
0.0
220
0.0
230
1.0
 70
     8
 71
     3
 72
    19
 73
    15
 74
     0
 42
0.000000001
 43
0.00000001
 40
0.0
 40
0.0
 40
0.0
 40
0.0
 40
0.028969120384895
 40
0.1187826895582498
 40
0.2135275345224756
 40
0.2822801494578277
 40
0.3511177973212097
 40
0.4415526917067581
 40
0.5320912251166404
 40
0.624440724897269
 40
0.7168180476157674
 40
0.8280652575790808
 40
0.9392069808054491
 40
1.0
 40
1.0
 40
1.0
 40
1.0
 10
120.7338972961424
 20
-84.26924340081378
 30
0.0
 10
120.438075755677
 20
-84.28378391019197
 30
0.0
 10
119.2251125127865
 20
-84.34340466458643
 30
0.0
 10
117.6663849759404
 20
-83.66901580557204
 30
0.0
 10
116.4040400321639
 20
-82.5261204233948
 30
0.0
 10
115.8380916704243
 20
-81.12601294797109
 30
0.0
 10
115.6743296944676
 20
-79.57960278666675
 30
0.0
 10
115.9494682685907
 20
-77.70839509567544
 30
0.0
 10
116.7127384988499
 20
-75.52951777662074
 30
0.0
 10
117.8861000684694
 20
-73.25018422913521
 30
0.0
 10
119.5256440205447
 20
-70.75837145742658
 30
0.0
 10
121.6716571039692
 20
-68.11205723830672
 30
0.0
 10
123.9476533088773
 20
-65.78980378105977
 30
0.0
 10
125.5178255230678
 20
-64.49061282764508
 30
0.0
 10
126.0730100553618
 20
-64.03124237431943
 30
0.0
  0
LWPOLYLINE
  5
13B
330
1F
100
AcDbEntity
  8
0
  6
Continuous
 62
     7
370
    15
100
AcDbPolyline
 90
       18
 70
   128
 43
0.0
 10
186.0202909185
 20
-27.5482899099
 10
185.6747807464
 20
-28.0779238708
 10
185.1218804362
 20
-28.6189116449
 10
184.5619385317
 20
-28.8
 10
184.0019966273
 20
-28.6189116449
 10
183.4490963171
 20
-28.0779238708
 10
182.9101906435
 20
-27.1838399129
 10
182.392056658
 20
-25.9479033956
 10
181.901210196
 20
-24.3856569378
 10
181.4438239366
 20
-22.5167466951
 10
181.0256497774
 20
-20.3646752982
 10
180.6519465012
 20
-17.9565062935
 10
180.3274136433
 20
-15.3225238036
 10
180.0561323928
 20
-12.4958516866
 10
179.8415142689
 20
-9.5120369843
 10
179.6862582189
 20
-6.4086028979
 10
179.5923166778
 20
-3.2245769118
 10
179.5608710149
 20
0.0
  0
SPLINE
  5
13E
330
1F
100
AcDbEntity
  8
0
  6
Continuous
 62
     7
370
    15
100
AcDbSpline
210
0.0
220
0.0
230
1.0
 70
    11
 71
     3
 72
   112
 73
   108
 74
     0
 42
0.000000001
 43
0.00000001
 40
0.0
 40
0.0
 40
0.0
 40
0.0
 40
0.031250000000015
 40
0.031250000000015
 40
0.0625000000000299
 40
0.0625000000000299
 40
0.0781250000000385
 40
0.0781250000000385
 40
0.0937500000000471
 40
0.0937500000000471
 40
0.1250000000000679
 40
0.1250000000000679
 40
0.1562500000000886
 40
0.1562500000000886
 40
0.1875000000001093
 40
0.1875000000001093
 40
0.21875000000013
 40
0.21875000000013
 40
0.2343750000001379
 40
0.2343750000001379
 40
0.2500000000001457
 40
0.2500000000001457
 40
0.2812500000001558
 40
0.2812500000001558
 40
0.2968750000001609
 40
0.2968750000001609
 40
0.312500000000166
 40
0.312500000000166
 40
0.3281250000001711
 40
0.3281250000001711
 40
0.3437500000001762
 40
0.3437500000001762
 40
0.3593750000001813
 40
0.3593750000001813
 40
0.3671875000001838
 40
0.3671875000001838
 40
0.3750000000001864
 40
0.3750000000001864
 40
0.3906250000001865
 40
0.3906250000001865
 40
0.3984375000001847
 40
0.3984375000001847
 40
0.4062500000001829
 40
0.4062500000001829
 40
0.4218750000001765
 40
0.4218750000001765
 40
0.43750000000017
 40
0.43750000000017
 40
0.4687500000001588
 40
0.4687500000001588
 40
0.4843750000001527
 40
0.4843750000001527
 40
0.5000000000001467
 40
0.5000000000001467
 40
0.5312500000001353
 40
0.5312500000001353
 40
0.5625000000001239
 40
0.5625000000001239
 40
0.5937500000001126
 40
0.5937500000001126
 40
0.6250000000001013
 40
0.6250000000001013
 40
0.6562500000000898
 40
0.6562500000000898
 40
0.6875000000000785
 40
0.6875000000000785
 40
0.7187500000000672
 40
0.7187500000000672
 40
0.7343750000000614
 40
0.7343750000000614
 40
0.7500000000000556
 40
0.7500000000000556
 40
0.7812500000000494
 40
0.7812500000000494
 40
0.7968750000000462
 40
0.7968750000000462
 40
0.8125000000000429
 40
0.8125000000000429
 40
0.8281250000000395
 40
0.8281250000000395
 40
0.8437500000000363
 40
0.8437500000000363
 40
0.859375000000033
 40
0.859375000000033
 40
0.8671875000000292
 40
0.8671875000000292
 40
0.8750000000000253
 40
0.8750000000000253
 40
0.8906250000000215
 40
0.8906250000000215
 40
0.8984375000000199
 40
0.8984375000000199
 40
0.9062500000000183
 40
0.9062500000000183
 40
0.9218750000000144
 40
0.9218750000000144
 40
0.9296875000000121
 40
0.9296875000000121
 40
0.9375000000000098
 40
0.9375000000000098
 40
0.9531250000000073
 40
0.9531250000000073
 40
0.9687500000000049
 40
0.9687500000000049
 40
0.9843750000000026
 40
0.9843750000000026
 40
1.0
 40
1.0
 40
1.0
 40
1.0
 10
126.0730100553507
 20
64.03124237432824
 30
0.0
 10
125.3003993678062
 20
64.64385695407796
 30
0.0
 10
124.5735733246142
 20
65.27820151280709
 30
0.0
 10
123.19265698201
 20
66.57930173083489
 30
0.0
 10
122.5388213766511
 20
67.24620122539342
 30
0.0
 10
121.6079151036965
 20
68.26774412311408
 30
0.0
 10
121.3063151191958
 20
68.61156623355646
 30
0.0
 10
120.7265055448441
 20
69.2977349586687
 30
0.0
 10
120.4473320542378
 20
69.64112475216584
 30
0.0
 10
119.6409605098809
 20
70.67205077529587
 30
0.0
 10
119.1446794660207
 20
71.36031255833824
 30
0.0
 10
118.2352343028625
 20
72.73878288218442
 30
0.0
 10
117.8204839796692
 20
73.43271704826371
 30
0.0
 10
117.0992849974741
 20
74.78895259431637
 30
0.0
 10
116.790155431312
 20
75.45459398049756
 30
0.0
 10
116.2813109022625
 20
76.76116019259238
 30
0.0
 10
116.0814334320573
 20
77.40210355066208
 30
0.0
 10
115.8768687644572
 20
78.3439980288837
 30
0.0
 10
115.8245789598287
 20
78.65606444064254
 30
0.0
 10
115.7566687326954
 20
79.26372701192668
 30
0.0
 10
115.7407723554526
 20
79.55985064083671
 30
0.0
 10
115.7505360420209
 20
80.42443596085214
 30
0.0
 10
115.8327048329495
 20
80.96944273273118
 30
0.0
 10
116.0954759286116
 20
81.73261834942548
 30
0.0
 10
116.2059814507244
 20
81.9755277194751
 30
0.0
 10
116.4734005844808
 20
82.43169858179466
 30
0.0
 10
116.6305876071834
 20
82.64586812824145
 30
0.0
 10
116.9962715471381
 20
83.0444245959588
 30
0.0
 10
117.2053986310761
 20
83.22929993496011
 30
0.0
 10
117.6791561770661
 20
83.56382379312302
 30
0.0
 10
117.9398258522499
 20
83.71083096147294
 30
0.0
 10
118.5107015695088
 20
83.9632398388116
 30
0.0
 10
118.820885263789
 20
84.06865972520248
 30
0.0
 10
119.3264477983506
 20
84.19328279467366
 30
0.0
 10
119.5024695564799
 20
84.22931104210151
 30
0.0
 10
119.8628204467788
 20
84.2886912296358
 30
0.0
 10
120.0475205350393
 20
84.31219606304823
 30
0.0
 10
120.6150425779417
 20
84.3644072082001
 30
0.0
 10
121.0112393791426
 20
84.37488169670944
 30
0.0
 10
121.6325527268186
 20
84.3537997995234
 30
0.0
 10
121.8441718125839
 20
84.34062251494812
 30
0.0
 10
122.2766271308607
 20
84.30169493954796
 30
0.0
 10
122.4971486496778
 20
84.27590987774546
 30
0.0
 10
123.1607537208194
 20
84.18126512631592
 30
0.0
 10
123.6096518599855
 20
84.09489333941578
 30
0.0
 10
124.5195532536874
 20
83.87809731723465
 30
0.0
 10
124.9831425070298
 20
83.74679098993383
 30
0.0
 10
126.3731786533264
 20
83.29351993637063
 30
0.0
 10
127.2841912842469
 20
82.91892333586583
 30
0.0
 10
128.6294812361027
 20
82.26213938590247
 30
0.0
 10
129.0707093863186
 20
82.02888804478836
 30
0.0
 10
129.9334841010913
 20
81.53919046162116
 30
0.0
 10
130.3579285419634
 20
81.28098907186062
 30
0.0
 10
131.5912108796916
 20
80.48168127309985
 30
0.0
 10
132.3590287228083
 20
79.9178925725756
 30
0.0
 10
133.8037555945777
 20
78.73646300934848
 30
0.0
 10
134.4804292174242
 20
78.11870452644389
 30
0.0
 10
135.7486322355951
 20
76.83092509878362
 30
0.0
 10
136.3253885514119
 20
76.17582460825459
 30
0.0
 10
137.3748356632808
 20
74.8478950356365
 30
0.0
 10
137.8480420038693
 20
74.17439458582498
 30
0.0
 10
138.6961294251193
 20
72.80801540049488
 30
0.0
 10
139.0724860430258
 20
72.11103464749412
 30
0.0
 10
139.7104090708468
 20
70.72882169126072
 30
0.0
 10
139.9741709802512
 20
70.04110875691129
 30
0.0
 10
140.3915754002661
 20
68.67275483793391
 30
0.0
 10
140.545315502547
 20
67.99209332053681
 30
0.0
 10
140.6859172484174
 20
66.97790793126568
 30
0.0
 10
140.7174918407438
 20
66.64150342730166
 30
0.0
 10
140.7480940858793
 20
65.98072765796849
 30
0.0
 10
140.747305033434
 20
65.65523560247577
 30
0.0
 10
140.6942317143861
 20
64.69480081606305
 30
0.0
 10
140.592132466177
 20
64.07551913084635
 30
0.0
 10
140.3169619601964
 20
63.18868240042304
 30
0.0
 10
140.2043668423005
 20
62.90016339504459
 30
0.0
 10
139.9374969845927
 20
62.35133772005873
 30
0.0
 10
139.7828850516651
 20
62.08959293012776
 30
0.0
 10
139.4261588378301
 20
61.59544878987248
 30
0.0
 10
139.2241002085818
 20
61.36301163531017
 30
0.0
 10
138.7641267801215
 20
60.9336641620776
 30
0.0
 10
138.509097741818
 20
60.73988068366779
 30
0.0
 10
137.9497073328315
 20
60.40401039648256
 30
0.0
 10
137.6446047468532
 20
60.26113323383564
 30
0.0
 10
137.1433849401579
 20
60.09050965522113
 30
0.0
 10
136.9684407185221
 20
60.04090930794641
 30
0.0
 10
136.6105027317338
 20
59.95915612531436
 30
0.0
 10
136.4267486933076
 20
59.92668461944019
 30
0.0
 10
135.8611208176518
 20
59.85461716653571
 30
0.0
 10
135.4649333882972
 20
59.84029615658688
 30
0.0
 10
134.8410508857735
 20
59.87117510790608
 30
0.0
 10
134.6269782114277
 20
59.89038231572395
 30
0.0
 10
134.1948641776911
 20
59.94592940885786
 30
0.0
 10
133.9773478227552
 20
59.98209067556527
 30
0.0
 10
133.3206276688602
 20
60.11427510977168
 30
0.0
 10
132.8772712322003
 20
60.23391867549503
 30
0.0
 10
132.2043551525222
 20
60.45655250371794
 30
0.0
 10
131.9782390513001
 20
60.53822226148245
 30
0.0
 10
131.5306908738399
 20
60.71249347430417
 30
0.0
 10
131.3083775977191
 20
60.80535517075621
 30
0.0
 10
130.6453757182184
 20
61.0995593420417
 30
0.0
 10
130.2086052344702
 20
61.31644502088981
 30
0.0
 10
129.3437741139577
 20
61.78576797705715
 30
0.0
 10
128.9137481911193
 20
62.03952509911443
 30
0.0
 10
128.0720470260536
 20
62.57182361967711
 30
0.0
 10
127.6608552110284
 20
62.84982758862931
 30
0.0
 10
126.8549808870822
 20
63.42597895628455
 30
0.0
 10
126.4593153991227
 20
63.72493508445358
 30
0.0
 10
126.0730100553507
 20
64.03124237432826
 30
0.0
  0
SPLINE
  5
13F
330
1F
100
AcDbEntity
  8
0
  6
Continuous
 62
     7
370
    15
100
AcDbSpline
210
0.0
220
0.0
230
1.0
 70
     8
 71
     3
 72
    16
 73
    12
 74
     0
 42
0.000000001
 43
0.00000001
 40
0.0
 40
0.0
 40
0.0
 40
0.0
 40
0.1004569423157601
 40
0.2007640300117621
 40
0.3467639743442035
 40
0.4702618058865847
 40
0.5939319417241106
 40
0.7164677556830893
 40
0.8137364933297259
 40
0.9111683902565249
 40
0.9999999999999999
 40
0.9999999999999999
 40
0.9999999999999999
 40
0.9999999999999999
 10
27.59223475411828
 20
64.03124237431938
 30
0.0
 10
26.9967342213732
 20
63.57206994561899
 30
0.0
 10
25.80662148180501
 20
62.65441004943769
 30
0.0
 10
23.72527886908975
 20
61.28667027915058
 30
0.0
 10
21.54059769132751
 20
60.17457689535033
 30
0.0
 10
19.51704241136235
 20
59.72312933556847
 30
0.0
 10
18.14025569818966
 20
60.07384221611831
 30
0.0
 10
17.44219184176517
 20
60.99921159697622
 30
0.0
 10
17.22919514252914
 20
62.17716941562054
 30
0.0
 10
17.27587830230808
 20
63.38566559716391
 30
0.0
 10
17.54814873434071
 20
64.28920184565679
 30
0.0
 10
17.67799822120677
 20
64.72011062027407
 30
0.0
  0
SPLINE
  5
140
330
1F
100
AcDbEntity
  8
0
  6
Continuous
 62
     7
370
    15
100
AcDbSpline
210
0.0
220
0.0
230
1.0
 70
     8
 71
     3
 72
    17
 73
    13
 74
     0
 42
0.000000001
 43
0.00000001
 40
0.0
 40
0.0
 40
0.0
 40
0.0
 40
0.009378287323785
 40
0.0959774197128359
 40
0.1826836575232357
 40
0.2965932651628506
 40
0.4106334140131093
 40
0.5269546123425823
 40
0.6433108557722547
 40
0.7834351531911066
 40
0.923426582065149
 40
0.9999999999999999
 40
0.9999999999999999
 40
0.9999999999999999
 40
0.9999999999999999
 10
42.23393965047651
 20
82.42784161878808
 30
0.0
 10
42.24354511319401
 20
82.39428448207914
 30
0.0
 10
42.34184744654597
 20
82.05086064752606
 30
0.0
 10
42.04760649133407
 20
81.10435135693737
 30
0.0
 10
41.47589699362061
 20
79.58746794162174
 30
0.0
 10
40.39637323071243
 20
77.70604973578858
 30
0.0
 10
38.88004869008439
 20
75.53016024923365
 30
0.0
 10
37.05601301684331
 20
73.25001164299275
 30
0.0
 10
34.84705426098935
 20
70.75842838710341
 30
0.0
 10
32.25946904363673
 20
68.11204057227599
 30
0.0
 10
29.74937632742508
 20
65.78980583676235
 30
0.0
 10
28.15572210157141
 20
64.49061336463456
 30
0.0
 10
27.59223475411828
 20
64.03124237431938
 30
0.0
  0
LWPOLYLINE
  5
141
330
1F
100
AcDbEntity
  8
0
  6
Continuous
 62
     7
370
    15
100
AcDbPolyline
 90
       18
 70
   128
 43
0.0
 10
179.5608710149
 20
0.0
 10
179.5923166778
 20
3.2245769118
 10
179.6862582189
 20
6.4086028979
 10
179.8415142689
 20
9.5120369843
 10
180.0561323928
 20
12.4958516866
 10
180.3274136433
 20
15.3225238036
 10
180.6519465012
 20
17.9565062935
 10
181.0256497774
 20
20.3646752982
 10
181.4438239366
 20
22.5167466951
 10
181.901210196
 20
24.3856569378
 10
182.392056658
 20
25.9479033956
 10
182.9101906435
 20
27.1838399129
 10
183.4490963171
 20
28.0779238708
 10
184.0019966273
 20
28.6189116449
 10
184.5619385317
 20
28.8
 10
185.1218804362
 20
28.6189116449
 10
185.6747807464
 20
28.0779238708
 10
185.9076362131
 20
27.7377767038
  0
SPLINE
  5
148
330
1F
100
AcDbEntity
  8
0
  6
PHANTOM
 62
     8
370
     0
100
AcDbSpline
210
0.0
220
0.0
230
1.0
 70
     8
 71
     3
 72
    13
 73
     9
 74
     0
 42
0.000000001
 43
0.00000001
 40
0.0
 40
0.0
 40
0.0
 40
0.0
 40
0.0871127154412402
 40
0.2691614548861423
 40
0.4522436256785397
 40
0.6351205756060455
 40
0.8176921209378196
 40
1.0
 40
1.0
 40
1.0
 40
1.0
 10
140.6124291067442
 20
65.83685088714294
 30
0.0
 10
140.6195931144397
 20
65.57557526917321
 30
0.0
 10
140.6417285136679
 20
64.76828410504406
 30
0.0
 10
140.3722142812916
 20
63.50209375119366
 30
0.0
 10
139.7703323805467
 20
62.09410134444806
 30
0.0
 10
138.7582934601737
 20
60.92948993066788
 30
0.0
 10
137.3317389161069
 20
60.07854802804661
 30
0.0
 10
136.0380588718559
 20
59.96288042957874
 30
0.0
 10
135.3916862641261
 20
59.90508842174516
 30
0.0
  0
SPLINE
  5
149
330
1F
100
AcDbEntity
  8
0
  6
PHANTOM
 62
     8
370
     0
100
AcDbSpline
210
0.0
220
0.0
230
1.0
 70
     8
 71
     3
 72
    16
 73
    12
 74
     0
 42
0.000000001
 43
0.00000001
 40
0.0
 40
0.0
 40
0.0
 40
0.0
 40
0.125
 40
0.125
 40
0.25
 40
0.25
 40
0.5
 40
0.5
 40
0.75
 40
0.75
 40
1.0
 40
1.0
 40
1.0
 40
1.0
 10
135.3916867321532
 20
59.90508768265152
 30
0.0
 10
135.1396599966511
 20
59.90509305689431
 30
0.0
 10
134.8798468826908
 20
59.91870403654095
 30
0.0
 10
134.3455615841746
 20
59.97395502206017
 30
0.0
 10
134.0734632920249
 20
60.01535567368934
 30
0.0
 10
133.2547219594861
 20
60.17670870649437
 30
0.0
 10
132.6989917389953
 20
60.3347916926483
 30
0.0
 10
131.5779191801803
 20
60.73743639403515
 30
0.0
 10
131.0232307328632
 20
60.97786087471768
 30
0.0
 10
129.933382797722
 20
61.51725475739834
 30
0.0
 10
129.3963362593218
 20
61.81744508644102
 30
0.0
 10
128.8656074992009
 20
62.14265614037127
 30
0.0
  0
SPLINE
  5
14A
330
1F
100
AcDbEntity
  8
0
  6
PHANTOM
 62
     8
370
     0
100
AcDbSpline
210
0.0
220
0.0
230
1.0
 70
     8
 71
     3
 72
    17
 73
    13
 74
     0
 42
0.000000001
 43
0.00000001
 40
0.0
 40
0.0
 40
0.0
 40
0.0
 40
0.0934729350197053
 40
0.1870064951251281
 40
0.2771509679495648
 40
0.3722520900314802
 40
0.4636254695303004
 40
0.5578388188067305
 40
0.6499979750813063
 40
0.742702906345459
 40
0.9278284500241226
 40
1.0
 40
1.0
 40
1.0
 40
1.0
 10
128.8656074992009
 20
62.14265614037129
 30
0.0
 10
128.1737781608131
 20
62.59643310247647
 30
0.0
 10
126.7896707743341
 20
63.50428133933694
 30
0.0
 10
124.9225051456792
 20
65.05451855945816
 30
0.0
 10
123.1864496535637
 20
66.68573777265576
 30
0.0
 10
121.6244616260804
 20
68.3650069379959
 30
0.0
 10
120.2007837661512
 20
70.09628502428065
 30
0.0
 10
118.9662071818989
 20
71.81975101626756
 30
0.0
 10
117.9050015873554
 20
73.54357565018229
 30
0.0
 10
116.7802657903677
 20
75.78892536207155
 30
0.0
 10
116.0673666365045
 20
77.86369712189646
 30
0.0
 10
116.035257519532
 20
79.21608604635323
 30
0.0
 10
116.0262509477617
 20
79.59542964274576
 30
0.0
  0
SPLINE
  5
14B
330
1F
100
AcDbEntity
  8
0
  6
PHANTOM
 62
     8
370
     0
100
AcDbSpline
210
0.0
220
0.0
230
1.0
 70
     8
 71
     3
 72
    21
 73
    17
 74
     0
 42
0.000000001
 43
0.00000001
 40
0.0
 40
0.0
 40
0.0
 40
0.0
 40
0.0069270678402475
 40
0.0639802828877882
 40
0.1307420822171584
 40
0.1930590555123557
 40
0.2510190932026796
 40
0.3490799397158558
 40
0.4382540058127533
 40
0.534181009999409
 40
0.6252429589891659
 40
0.7172204064952663
 40
0.7643627719742933
 40
0.8126889267988298
 40
0.9021185557139645
 40
1.0
 40
1.0
 40
1.0
 40
1.0
 10
140.739741266307
 20
65.70119953927984
 30
0.0
 10
140.7410065809789
 20
65.66884895537994
 30
0.0
 10
140.7526933714814
 20
65.37005016240808
 30
0.0
 10
140.7050963795081
 20
64.77761182244387
 30
0.0
 10
140.5832441264229
 20
63.95458633054196
 30
0.0
 10
140.3584169607171
 20
63.16585206723248
 30
0.0
 10
139.9890153045148
 20
62.29491163667171
 30
0.0
 10
139.4006572857946
 20
61.40937197470921
 30
0.0
 10
138.4558553762432
 20
60.56873254633395
 30
0.0
 10
137.2579213048374
 20
59.9945582168698
 30
0.0
 10
135.7813145371479
 20
59.73638548089721
 30
0.0
 10
134.3979239684052
 20
59.82414621635997
 30
0.0
 10
133.2242945920559
 20
60.06741745483752
 30
0.0
 10
132.0497280367188
 20
60.41538252517662
 30
0.0
 10
130.5427340964508
 20
61.02710172040472
 30
0.0
 10
129.3942284697146
 20
61.68014649260845
 30
0.0
 10
128.7940643278176
 20
62.02140216102319
 30
0.0
  0
SPLINE
  5
14C
330
1F
100
AcDbEntity
  8
0
  6
PHANTOM
 62
     8
370
     0
100
AcDbSpline
210
0.0
220
0.0
230
1.0
 70
     8
 71
     3
 72
    12
 73
     8
 74
     0
 42
0.000000001
 43
0.00000001
 40
0.0
 40
0.0
 40
0.0
 40
0.0
 40
0.2639118157733455
 40
0.512505105195286
 40
0.7579562872418056
 40
0.9550387224451293
 40
1.0
 40
1.0
 40
1.0
 40
1.0
 10
118.0042113233731
 20
72.89783737164542
 30
0.0
 10
117.6591024531102
 20
73.50647690493105
 30
0.0
 10
116.9889162496632
 20
74.68842803174397
 30
0.0
 10
116.2872727937139
 20
76.38915675741193
 30
0.0
 10
115.8882741374713
 20
77.87492073301839
 30
0.0
 10
115.7284360242982
 20
78.88818330399589
 30
0.0
 10
115.7554950617745
 20
79.35069464497008
 30
0.0
 10
115.7605214633302
 20
79.43660929458788
 30
0.0
  0
SPLINE
  5
14D
330
1F
100
AcDbEntity
  8
0
  6
PHANTOM
 62
     8
370
     0
100
AcDbSpline
210
0.0
220
0.0
230
1.0
 70
     8
 71
     3
 72
    27
 73
    23
 74
     0
 42
0.000000001
 43
0.00000001
 40
0.0
 40
0.0
 40
0.0
 40
0.0
 40
0.0226962659917944
 40
0.0459264099913603
 40
0.069696111920292
 40
0.0940106735535593
 40
0.1188750481064513
 40
0.1442938673556415
 40
0.1702714664848734
 40
0.1968119068378615
 40
0.2239189967513326
 40
0.2515963106304527
 40
0.3686149645359744
 40
0.501679814188427
 40
0.5611085291814937
 40
0.6258110230465104
 40
0.7505580970758775
 40
0.8131153977902696
 40
0.8757277762422809
 40
0.9169343412755667
 40
0.9583583283554995
 40
1.0
 40
1.0
 40
1.0
 40
1.0
 10
128.7940643278176
 20
62.02140216102318
 30
0.0
 10
128.6866278167251
 20
62.08688110164662
 30
0.0
 10
128.4692275951089
 20
62.21937922596186
 30
0.0
 10
128.1432370134811
 20
62.42719770020506
 30
0.0
 10
127.812804519676
 20
62.64449408471459
 30
0.0
 10
127.4784479245504
 20
62.87179177189594
 30
0.0
 10
127.1403454677143
 20
63.10894584236747
 30
0.0
 10
126.7987932761064
 20
63.35599659677357
 30
0.0
 10
126.4540783642392
 20
63.61293328029981
 30
0.0
 10
126.1065166941884
 20
63.87975822561426
 30
0.0
 10
125.756433543333
 20
64.15647419427879
 30
0.0
 10
125.0276613235064
 20
64.74944762761501
 30
0.0
 10
123.8954679265109
 20
65.74197073878481
 30
0.0
 10
122.7237408418335
 20
66.88930187000929
 30
0.0
 10
121.810930886341
 20
67.85991152280407
 30
0.0
 10
120.9653103725153
 20
68.8072406802941
 30
0.0
 10
120.1687065842178
 20
69.77682025961698
 30
0.0
 10
119.4398235855725
 20
70.74001483178954
 30
0.0
 10
118.982909304715
 20
71.38214531847456
 30
0.0
 10
118.6055277496803
 20
71.94217560196888
 30
0.0
 10
118.2957233009917
 20
72.41993025035674
 30
0.0
 10
118.1015516001357
 20
72.7382569254728
 30
0.0
 10
118.0042113233731
 20
72.89783737164542
 30
0.0
  0
SPLINE
  5
150
330
1F
100
AcDbEntity
  8
0
  6
PHANTOM
 62
     8
370
     0
100
AcDbSpline
210
0.0
220
0.0
230
1.0
 70
     8
 71
     3
 72
    31
 73
    27
 74
     0
 42
0.000000001
 43
0.00000001
 40
0.0
 40
0.0
 40
0.0
 40
0.0
 40
0.0136805300995372
 40
0.0286779090842947
 40
0.0449921673614204
 40
0.0626233251911583
 40
0.0937730554714156
 40
0.1249370552875961
 40
0.1925362793697586
 40
0.2491996635009612
 40
0.3156364241997761
 40
0.3741607471745292
 40
0.4399800040366486
 40
0.4991788369874786
 40
0.5647440788517782
 40
0.624367459839826
 40
0.6885059764288168
 40
0.7493916298006261
 40
0.8108894019107984
 40
0.8746183787604578
 40
0.8940025271709914
 40
0.9139466709916204
 40
0.9344868768438858
 40
0.9556561649259037
 40
0.9774847007034583
 40
1.0
 40
1.0
 40
1.0
 40
1.0
 10
118.0042115601922
 20
-72.89784815391953
 30
0.0
 10
118.0647008443811
 20
-72.79809582257167
 30
0.0
 10
118.1915019390697
 20
-72.58898928440931
 30
0.0
 10
118.3990933324407
 20
-72.26010075663947
 30
0.0
 10
118.6324397553806
 20
-71.90185185405929
 30
0.0
 10
118.9543155118821
 20
-71.42463900719318
 30
0.0
 10
119.369548788313
 20
-70.83815562090965
 30
0.0
 10
120.0832061059997
 20
-69.88419069689826
 30
0.0
 10
121.011098901029
 20
-68.746078728204
 30
0.0
 10
122.2565604468771
 20
-67.36602472108667
 30
0.0
 10
123.5420431553517
 20
-66.07707167533644
 30
0.0
 10
124.9929539261211
 20
-64.76528693230894
 30
0.0
 10
126.4862734683318
 20
-63.56358143465481
 30
0.0
 10
128.1310506516974
 20
-62.4053264534162
 30
0.0
 10
129.8095262520179
 20
-61.40938876376601
 30
0.0
 10
131.5972523632478
 20
-60.56875062487509
 30
0.0
 10
133.3665335355313
 20
-59.99453084807153
 30
0.0
 10
135.0959378040486
 20
-59.73653301032161
 30
0.0
 10
136.6653190495582
 20
-59.84199802551407
 30
0.0
 10
137.6943701786308
 20
-60.19329991409774
 30
0.0
 10
138.3224311451896
 20
-60.54724817357315
 30
0.0
 10
138.6594834687891
 20
-60.77886097210423
 30
0.0
 10
138.9772416916713
 20
-61.04205800662175
 30
0.0
 10
139.2735111085342
 20
-61.33727198212687
 30
0.0
 10
139.54942092462
 20
-61.66283250411839
 30
0.0
 10
139.7090558952046
 20
-61.90065837497375
 30
0.0
 10
139.7901095328726
 20
-62.0214129433105
 30
0.0
  0
SPLINE
  5
151
330
1F
100
AcDbEntity
  8
0
  6
PHANTOM
 62
     8
370
     0
100
AcDbSpline
210
0.0
220
0.0
230
1.0
 70
     8
 71
     3
 72
    19
 73
    15
 74
     0
 42
0.000000001
 43
0.00000001
 40
0.0
 40
0.0
 40
0.0
 40
0.0
 40
0.0399126196942246
 40
0.0804075637800384
 40
0.1214880947916375
 40
0.1631573377085961
 40
0.2054182869066829
 40
0.3959157134949153
 40
0.6039374457242304
 40
0.6744929721578575
 40
0.7493738665696914
 40
0.8285835103298591
 40
0.9121247495818818
 40
1.0
 40
1.0
 40
1.0
 40
1.0
 10
115.7454675312065
 20
-79.29115128226968
 30
0.0
 10
115.7480516690608
 20
-79.21416527839334
 30
0.0
 10
115.7532576472934
 20
-79.05907004625172
 30
0.0
 10
115.7712615785003
 20
-78.82102209932452
 30
0.0
 10
115.7969642595093
 20
-78.57691429357104
 30
0.0
 10
115.8312824318896
 20
-78.32646243979877
 30
0.0
 10
115.9241324561257
 20
-77.77082843686547
 30
0.0
 10
116.1499876489653
 20
-76.85285832070132
 30
0.0
 10
116.5171836461215
 20
-75.84232120357629
 30
0.0
 10
116.8539063110965
 20
-75.06763298061922
 30
0.0
 10
117.0872013750337
 20
-74.57133349860278
 30
0.0
 10
117.3554484401414
 20
-74.04269546949286
 30
0.0
 10
117.6594925241554
 20
-73.48192193695184
 30
0.0
 10
117.8873845775613
 20
-73.09579364161286
 30
0.0
 10
118.0042115601922
 20
-72.89784815391953
 30
0.0
  0
SPLINE
  5
152
330
1F
100
AcDbEntity
  8
0
  6
PHANTOM
 62
     8
370
     0
100
AcDbSpline
210
0.0
220
0.0
230
1.0
 70
     8
 71
     3
 72
    12
 73
     8
 74
     0
 42
0.000000001
 43
0.00000001
 40
0.0
 40
0.0
 40
0.0
 40
0.0
 40
0.2103410915871316
 40
0.4371095877796932
 40
0.6807563843361415
 40
0.8871374418146536
 40
1.0
 40
1.0
 40
1.0
 40
1.0
 10
139.7901095328726
 20
-62.02141294331049
 30
0.0
 10
139.9213200955412
 20
-62.25007977302472
 30
0.0
 10
140.19398861945
 20
-62.72527205676288
 30
0.0
 10
140.4798585458752
 20
-63.53846742679274
 30
0.0
 10
140.6594534072319
 20
-64.38877342786961
 30
0.0
 10
140.7409768165106
 20
-65.12222032198537
 30
0.0
 10
140.7348095576269
 20
-65.55256652364734
 30
0.0
 10
140.7326292395861
 20
-65.7047073053006
 30
0.0
  0
SPLINE
  5
153
330
1F
100
AcDbEntity
  8
0
  6
PHANTOM
 62
     8
370
     0
100
AcDbSpline
210
0.0
220
0.0
230
1.0
 70
     8
 71
     3
 72
    20
 73
    16
 74
     0
 42
0.000000001
 43
0.00000001
 40
0.0
 40
0.0
 40
0.0
 40
0.0
 40
0.0566928306495221
 40
0.1294456835777567
 40
0.2015141022553446
 40
0.2740601868619079
 40
0.4190707493273323
 40
0.4930673651146865
 40
0.5639827074434188
 40
0.6365709427701253
 40
0.7090462667947367
 40
0.7819330096075103
 40
0.8547380520540719
 40
0.9274215100441763
 40
1.0
 40
1.0
 40
1.0
 40
1.0
 10
116.0249328776119
 20
-79.59516227403164
 30
0.0
 10
116.0332151198609
 20
-79.21401246476908
 30
0.0
 10
116.0521258092231
 20
-78.34374020917235
 30
0.0
 10
116.4328806306663
 20
-76.86753045798619
 30
0.0
 10
117.0566198149549
 20
-75.22254746856365
 30
0.0
 10
118.1998290445451
 20
-72.96813656256126
 30
0.0
 10
119.7519283202572
 20
-70.641520372351
 30
0.0
 10
121.6335633301013
 20
-68.3527774991792
 30
0.0
 10
123.2096701273268
 20
-66.66582375625275
 30
0.0
 10
124.9281903044641
 20
-65.04420699209307
 30
0.0
 10
126.8165630030517
 20
-63.49959403192992
 30
0.0
 10
128.8573507258312
 20
-62.09478538928638
 30
0.0
 10
131.0253436091063
 20
-60.92932158729239
 30
0.0
 10
133.283912815108
 20
-60.07860348516341
 30
0.0
 10
134.6894338148294
 20
-59.96290609630024
 30
0.0
 10
135.3916864914832
 20
-59.90509920403245
 30
0.0
  0
SPLINE
  5
154
330
1F
100
AcDbEntity
  8
0
  6
PHANTOM
 62
     8
370
     0
100
AcDbSpline
210
0.0
220
0.0
230
1.0
 70
     8
 71
     3
 72
    16
 73
    12
 74
     0
 42
0.000000001
 43
0.00000001
 40
0.0
 40
0.0
 40
0.0
 40
0.0
 40
0.1249999999999744
 40
0.1249999999999744
 40
0.2499999999999487
 40
0.2499999999999487
 40
0.4999999999999658
 40
0.4999999999999658
 40
0.7499999999999829
 40
0.7499999999999829
 40
1.0
 40
1.0
 40
1.0
 40
1.0
 10
135.3916869595461
 20
-59.90509846493882
 30
0.0
 10
135.643706889061
 20
-59.9051038391816
 30
0.0
 10
135.8903236460657
 20
-59.91871481882822
 30
0.0
 10
136.3709811512991
 20
-59.97396580434743
 30
0.0
 10
136.6028784140979
 20
-60.01536645597663
 30
0.0
 10
137.2646907801579
 20
-60.17671948878165
 30
0.0
 10
137.6664161787304
 20
-60.33480247493559
 30
0.0
 10
138.392822320039
 20
-60.73744717632238
 30
0.0
 10
138.7108613513483
 20
-60.97787165700495
 30
0.0
 10
139.265786324556
 20
-61.51726553968559
 30
0.0
 10
139.5033665979738
 20
-61.81745586872831
 30
0.0
 10
139.7068696665415
 20
-62.14266692265858
 30
0.0
  0
SPLINE
  5
155
330
1F
100
AcDbEntity
  8
0
  6
PHANTOM
 62
     8
370
     0
100
AcDbSpline
210
0.0
220
0.0
230
1.0
 70
     8
 71
     3
 72
    10
 73
     6
 74
     0
 42
0.000000001
 43
0.00000001
 40
0.0
 40
0.0
 40
0.0
 40
0.0
 40
0.4067399016048083
 40
0.8137436083569446
 40
1.0
 40
1.0
 40
1.0
 40
1.0
 10
139.7068696665415
 20
-62.14266692265858
 30
0.0
 10
139.9366643828611
 20
-62.59714411525652
 30
0.0
 10
140.396402856764
 20
-63.50639326726102
 30
0.0
 10
140.6406249522665
 20
-64.78321926573
 30
0.0
 10
140.6209293061688
 20
-65.58467054686551
 30
0.0
 10
140.6147457789382
 20
-65.83628939685359
 30
0.0
  0
SPLINE
  5
158
330
1F
100
AcDbEntity
  8
0
  6
PHANTOM
 62
     8
370
     0
100
AcDbSpline
210
0.0
220
0.0
230
1.0
 70
     8
 71
     3
 72
    31
 73
    27
 74
     0
 42
0.000000001
 43
0.00000001
 40
0.0
 40
0.0
 40
0.0
 40
0.0
 40
0.0136805300995351
 40
0.0286779090842964
 40
0.0449921673614221
 40
0.0626233251911591
 40
0.0937730554714169
 40
0.124937055287597
 40
0.1925362793697598
 40
0.2491996635009612
 40
0.3156364241997763
 40
0.3741607471745294
 40
0.4399800040366487
 40
0.4991788369874801
 40
0.5647440788517806
 40
0.6243674598398284
 40
0.6885059764288178
 40
0.7493916298006276
 40
0.8108894019107974
 40
0.8746183787604627
 40
0.8940025271709915
 40
0.9139466709916226
 40
0.9344868768438928
 40
0.9556561649259074
 40
0.9774847007034607
 40
1.0
 40
1.0
 40
1.0
 40
1.0
 10
36.93254298050255
 20
72.89783737163222
 30
0.0
 10
36.84660909227151
 20
72.79808504028436
 30
0.0
 10
36.6664695643424
 20
72.58897850212193
 30
0.0
 10
36.37821512403359
 20
72.26008997435223
 30
0.0
 10
36.05980347244597
 20
71.90184107177195
 30
0.0
 10
35.62906726532356
 20
71.42462822490585
 30
0.0
 10
35.08751226201701
 20
70.83814483862233
 30
0.0
 10
34.18466406533724
 20
69.88417991461097
 30
0.0
 10
33.06085498690368
 20
68.74606794591669
 30
0.0
 10
31.62524079523588
 20
67.36601393879933
 30
0.0
 10
30.20870258714014
 20
66.07706089304912
 30
0.0
 10
28.6784308211739
 20
64.76527615002165
 30
0.0
 10
27.16977678262309
 20
63.56357065236748
 30
0.0
 10
25.58104323511044
 20
62.40531567112888
 30
0.0
 10
24.03556553651559
 20
61.40937798147871
 30
0.0
 10
22.4770313984326
 20
60.56873984258779
 30
0.0
 10
21.03016163467131
 20
59.99452006578421
 30
0.0
 10
19.72736789423985
 20
59.73652222803428
 30
0.0
 10
18.66556403236347
 20
59.8419872432268
 30
0.0
 10
18.0719491686648
 20
60.19328913181036
 30
0.0
 10
17.76041006478367
 20
60.54723739128587
 30
0.0
 10
17.60859923454831
 20
60.77885018981694
 30
0.0
 10
17.48224072424972
 20
61.04204722433435
 30
0.0
 10
17.38322410427611
 20
61.33726119983962
 30
0.0
 10
17.31022421597398
 20
61.66282172183107
 30
0.0
 10
17.28683769136779
 20
61.90064759268642
 30
0.0
 10
17.27496333273069
 20
62.02140216102318
 30
0.0
  0
SPLINE
  5
15A
330
1F
100
AcDbEntity
  8
0
  6
PHANTOM
 62
     8
370
     0
100
AcDbSpline
210
0.0
220
0.0
230
1.0
 70
     8
 71
     3
 72
    48
 73
    44
 74
     0
 42
0.000000001
 43
0.00000001
 40
0.0
 40
0.0
 40
0.0
 40
0.0
 40
0.0625000000000157
 40
0.0625000000000157
 40
0.0937500000000168
 40
0.0937500000000168
 40
0.1250000000000178
 40
0.1250000000000178
 40
0.1875000000000061
 40
0.1875000000000061
 40
0.2187499999999998
 40
0.2187499999999998
 40
0.2499999999999935
 40
0.2499999999999935
 40
0.37499999999999
 40
0.37499999999999
 40
0.4374999999999881
 40
0.4374999999999881
 40
0.4999999999999862
 40
0.4999999999999862
 40
0.5624999999999842
 40
0.5624999999999842
 40
0.5937499999999847
 40
0.5937499999999847
 40
0.6249999999999855
 40
0.6249999999999855
 40
0.6874999999999876
 40
0.6874999999999876
 40
0.7499999999999896
 40
0.7499999999999896
 40
0.7812499999999922
 40
0.7812499999999922
 40
0.8124999999999949
 40
0.8124999999999949
 40
0.8437499999999976
 40
0.8437499999999976
 40
0.8750000000000002
 40
0.8750000000000002
 40
0.9375000000000057
 40
0.9375000000000057
 40
0.9687500000000028
 40
0.9687500000000028
 40
1.0
 40
1.0
 40
1.0
 40
1.0
 10
41.96783308840107
 20
82.43445203934174
 30
0.0
 10
41.99064530208034
 20
82.08445715955514
 30
0.0
 10
41.94560775255047
 20
81.6911665097632
 30
0.0
 10
41.79005219178329
 20
81.05204690499319
 30
0.0
 10
41.7234612768101
 20
80.83077597156968
 30
0.0
 10
41.56540828939358
 20
80.37888954700799
 30
0.0
 10
41.47369514724988
 20
80.14754164841881
 30
0.0
 10
41.16416364973524
 20
79.43869344995855
 30
0.0
 10
40.91281989669293
 20
78.94686750125632
 30
0.0
 10
40.47628395750911
 20
78.18173493390691
 30
0.0
 10
40.32076043886136
 20
77.92210072836126
 30
0.0
 10
39.99071141501584
 20
77.39384241807825
 30
0.0
 10
39.81582098132578
 20
77.12476609080144
 30
0.0
 10
38.9041068211389
 20
75.77006913326214
 30
0.0
 10
38.0621579924987
 20
74.66211014258536
 30
0.0
 10
36.65669305062556
 20
72.96009875836839
 30
0.0
 10
36.16209165866317
 20
72.3840421265872
 30
0.0
 10
35.13422499529221
 20
71.22915069670235
 30
0.0
 10
34.60517273230967
 20
70.65484817207091
 30
0.0
 10
33.51630990891408
 20
69.51122954382856
 30
0.0
 10
32.95683525613935
 20
68.94203623906238
 30
0.0
 10
32.0936156474653
 20
68.09277258333472
 30
0.0
 10
31.80184718751714
 20
67.81044869508796
 30
0.0
 10
31.20991720595309
 20
67.24746293253222
 30
0.0
 10
30.90881469968836
 20
66.96599213479533
 30
0.0
 10
29.99825587340274
 20
66.13039205615199
 30
0.0
 10
29.38341469043597
 20
65.58661829823417
 30
0.0
 10
28.13663251291169
 20
64.5305829621095
 30
0.0
 10
27.50499925195603
 20
64.01878169167631
 30
0.0
 10
26.53820769787646
 20
63.27927356482471
 30
0.0
 10
26.21276597747224
 20
63.03766650467897
 30
0.0
 10
25.56350501134907
 20
62.57234507849891
 30
0.0
 10
25.23957270790202
 20
62.34847099841639
 30
0.0
 10
24.59288887739268
 20
61.92040048144452
 30
0.0
 10
24.27013791247947
 20
61.71613615012355
 30
0.0
 10
23.62559439934132
 20
61.33033520366408
 30
0.0
 10
23.30267436519715
 20
61.14821690485186
 30
0.0
 10
22.34546387188664
 20
60.64740054341262
 30
0.0
 10
21.73227047581228
 20
60.37840084527124
 30
0.0
 10
20.85548340603204
 20
60.09743473094425
 30
0.0
 10
20.57215473488624
 20
60.02494080769293
 30
0.0
 10
20.0401986565043
 20
59.92922938139299
 30
0.0
 10
19.78950677032297
 20
59.9050805202512
 30
0.0
 10
19.55432866846854
 20
59.90508768265155
 30
0.0
  0
SPLINE
  5
15B
330
1F
100
AcDbEntity
  8
0
  6
PHANTOM
 62
     8
370
     0
100
AcDbSpline
210
0.0
220
0.0
230
1.0
 70
     8
 71
     3
 72
    16
 73
    12
 74
     0
 42
0.000000001
 43
0.00000001
 40
0.0
 40
0.0
 40
0.0
 40
0.0
 40
0.1250000000000004
 40
0.1250000000000004
 40
0.2500000000000008
 40
0.2500000000000008
 40
0.5000000000000006
 40
0.5000000000000006
 40
0.7500000000000002
 40
0.7500000000000002
 40
1.0
 40
1.0
 40
1.0
 40
1.0
 10
19.55432866846832
 20
59.90508768265151
 30
0.0
 10
19.37786489215256
 20
59.90509305689429
 30
0.0
 10
19.20998506196846
 20
59.91870403654096
 30
0.0
 10
18.89294397607166
 20
59.97395502206015
 30
0.0
 10
18.7451997437247
 20
60.01535567368936
 30
0.0
 10
18.33891121215336
 20
60.17670870649439
 30
0.0
 10
18.11367323324714
 20
60.33479169264833
 30
0.0
 10
17.74868501064591
 20
60.73743639403515
 30
0.0
 10
17.61212502936939
 20
60.9778608747177
 30
0.0
 10
17.41825842082012
 20
61.51725475739833
 30
0.0
 10
17.3608997316271
 20
61.81744508644104
 30
0.0
 10
17.33750576317332
 20
62.14265614037127
 30
0.0
  0
SPLINE
  5
15F
330
1F
100
AcDbEntity
  8
0
  6
PHANTOM
 62
     8
370
     0
100
AcDbSpline
210
0.0
220
0.0
230
1.0
 70
     8
 71
     3
 72
    11
 73
     7
 74
     0
 42
0.000000001
 43
0.00000001
 40
0.0
 40
0.0
 40
0.0
 40
0.0
 40
0.0814809903904374
 40
0.3881427889608601
 40
0.6942924621778367
 40
1.0
 40
1.0
 40
1.0
 40
1.0
 10
17.35860374744343
 20
-62.50375228400194
 30
0.0
 10
17.34883248215516
 20
-62.37884865750254
 30
0.0
 10
17.302286089647
 20
-61.78385782947636
 30
0.0
 10
17.57680538359061
 20
-60.93903424745267
 30
0.0
 10
18.25296286693828
 20
-60.07618109950198
 30
0.0
 10
19.12074927632959
 20
-59.96209902349462
 30
0.0
 10
19.55432894456625
 20
-59.90509920403247
 30
0.0
  0
SPLINE
  5
160
330
1F
100
AcDbEntity
  8
0
  6
PHANTOM
 62
     8
370
     0
100
AcDbSpline
210
0.0
220
0.0
230
1.0
 70
     8
 71
     3
 72
    16
 73
    12
 74
     0
 42
0.000000001
 43
0.00000001
 40
0.0
 40
0.0
 40
0.0
 40
0.0
 40
0.1250000000000236
 40
0.1250000000000236
 40
0.2500000000000473
 40
0.2500000000000473
 40
0.5000000000000315
 40
0.5000000000000315
 40
0.7500000000000158
 40
0.7500000000000158
 40
1.0
 40
1.0
 40
1.0
 40
1.0
 10
19.55432827614117
 20
-59.90509846493885
 30
0.0
 10
19.73080177241431
 20
-59.90510383918165
 30
0.0
 10
19.91752795358029
 20
-59.91871481882826
 30
0.0
 10
20.3111574659647
 20
-59.97396580434746
 30
0.0
 10
20.51631471855163
 20
-60.01536645597667
 30
0.0
 10
21.14672104198427
 20
-60.17671948878169
 30
0.0
 10
21.59190070150419
 20
-60.33480247493566
 30
0.0
 10
22.52053098457434
 20
-60.73744717632244
 30
0.0
 10
22.99506135940509
 20
-60.97787165700502
 30
0.0
 10
23.95287713383799
 20
-61.51726553968565
 30
0.0
 10
24.43791797471259
 20
-61.81745586872833
 30
0.0
 10
24.92863866478288
 20
-62.14266692265859
 30
0.0
  0
SPLINE
  5
161
330
1F
100
AcDbEntity
  8
0
  6
PHANTOM
 62
     8
370
     0
100
AcDbSpline
210
0.0
220
0.0
230
1.0
 70
     8
 71
     3
 72
    46
 73
    42
 74
     0
 42
0.000000001
 43
0.00000001
 40
0.0
 40
0.0
 40
0.0
 40
0.0
 40
0.0624999999999971
 40
0.0624999999999971
 40
0.1249999999999942
 40
0.1249999999999942
 40
0.1874999999999913
 40
0.1874999999999913
 40
0.2499999999999883
 40
0.2499999999999883
 40
0.3124999999999855
 40
0.3124999999999855
 40
0.3749999999999825
 40
0.3749999999999825
 40
0.4999999999999816
 40
0.4999999999999816
 40
0.5312499999999835
 40
0.5312499999999835
 40
0.5624999999999853
 40
0.5624999999999853
 40
0.624999999999999
 40
0.624999999999999
 40
0.6562500000000058
 40
0.6562500000000058
 40
0.6875000000000125
 40
0.6875000000000125
 40
0.7500000000000127
 40
0.7500000000000127
 40
0.7812500000000056
 40
0.7812500000000056
 40
0.8124999999999984
 40
0.8124999999999984
 40
0.8749999999999988
 40
0.8749999999999988
 40
0.9062499999999991
 40
0.9062499999999991
 40
0.9374999999999994
 40
0.9374999999999994
 40
0.9687499999999998
 40
0.9687499999999998
 40
1.0
 40
1.0
 40
1.0
 40
1.0
 10
24.92863866478287
 20
-62.1426669226586
 30
0.0
 10
25.58271508264503
 20
-62.57613729789671
 30
0.0
 10
26.22791236291994
 20
-63.04148234918552
 30
0.0
 10
27.50612081996609
 20
-64.01997890019173
 30
0.0
 10
28.13916012608353
 20
-64.53270042771737
 30
0.0
 10
29.3974557274929
 20
-65.59872154572014
 30
0.0
 10
30.01530310196008
 20
-66.1457114617097
 30
0.0
 10
31.21779302409068
 20
-67.24971433446325
 30
0.0
 10
31.80482231116972
 20
-67.80872675698113
 30
0.0
 10
32.9534946640042
 20
-68.93871320572977
 30
0.0
 10
33.51494224640433
 20
-69.50971225472588
 30
0.0
 10
34.6136916493407
 20
-70.6639715308114
 30
0.0
 10
35.14619564547649
 20
-71.24243856194556
 30
0.0
 10
36.6756335250608
 20
-72.96139049601128
 30
0.0
 10
37.61377694808976
 20
-74.0937441610851
 30
0.0
 10
38.66941314709869
 20
-75.49131648488391
 30
0.0
 10
38.87495368351982
 20
-75.77048685277796
 30
0.0
 10
39.26954928216706
 20
-76.32169362040902
 30
0.0
 10
39.45876611210869
 20
-76.59394693268025
 30
0.0
 10
40.00124452345111
 20
-77.40059792667945
 30
0.0
 10
40.32974525763267
 20
-77.92500597718254
 30
0.0
 10
40.76669364670386
 20
-78.69065513591543
 30
0.0
 10
40.90292220131
 20
-78.94234352554491
 30
0.0
 10
41.15502590643324
 20
-79.43836936666108
 30
0.0
 10
41.27109705560861
 20
-79.68313869185737
 30
0.0
 10
41.58261587319461
 20
-80.39879013530751
 30
0.0
 10
41.74084581960444
 20
-80.84868022237133
 30
0.0
 10
41.89406228227554
 20
-81.47987430755333
 30
0.0
 10
41.93101078141051
 20
-81.68288909174866
 30
0.0
 10
41.97368242517052
 20
-82.07341419928431
 30
0.0
 10
41.97924876150463
 20
-82.26110484811939
 30
0.0
 10
41.94447958181016
 20
-82.78872387200549
 30
0.0
 10
41.85421615640637
 20
-83.09511328711802
 30
0.0
 10
41.60079923168796
 20
-83.47859968128016
 30
0.0
 10
41.49602797309189
 20
-83.59415778827609
 30
0.0
 10
41.24886110344674
 20
-83.79276573557995
 30
0.0
 10
41.10656458066881
 20
-83.8762692443182
 30
0.0
 10
40.78433327178497
 20
-84.01108417559257
 30
0.0
 10
40.60421356448666
 20
-84.06244456514499
 30
0.0
 10
40.2042445484337
 20
-84.13180281014661
 30
0.0
 10
39.98243365807043
 20
-84.14966434546119
 30
0.0
 10
39.74486398721039
 20
-84.14968175144725
 30
0.0
  0
SPLINE
  5
162
330
1F
100
AcDbEntity
  8
0
  6
PHANTOM
 62
     8
370
     0
100
AcDbSpline
210
0.0
220
0.0
230
1.0
 70
     8
 71
     3
 72
    16
 73
    12
 74
     0
 42
0.000000001
 43
0.00000001
 40
0.0
 40
0.0
 40
0.0
 40
0.0
 40
0.1210261031269767
 40
0.2414428503739257
 40
0.3709784690004156
 40
0.4939445304941094
 40
0.6181468410260286
 40
0.6818058234743957
 40
0.7470633431281382
 40
0.8678251911945981
 40
1.0
 40
1.0
 40
1.0
 40
1.0
 10
17.27290701127131
 20
-62.37245102669493
 30
0.0
 10
17.2881564292162
 20
-62.04017922967275
 30
0.0
 10
17.31857848561585
 20
-61.377308595164
 30
0.0
 10
17.67800226409351
 20
-60.57078596226317
 30
0.0
 10
18.30450463223377
 20
-59.99403590343415
 30
0.0
 10
19.24764872642908
 20
-59.73654049156754
 30
0.0
 10
20.24692380450728
 20
-59.82413858543296
 30
0.0
 10
21.15642881746696
 20
-60.06743178915269
 30
0.0
 10
22.10480711498743
 20
-60.41539141516799
 30
0.0
 10
23.38158740003212
 20
-61.02711315136844
 30
0.0
 10
24.42777811483517
 20
-61.68015749752919
 30
0.0
 10
24.97447648356206
 20
-62.02141294331051
 30
0.0
  0
SPLINE
  5
163
330
1F
100
AcDbEntity
  8
0
  6
PHANTOM
 62
     8
370
     0
100
AcDbSpline
210
0.0
220
0.0
230
1.0
 70
     8
 71
     3
 72
    27
 73
    23
 74
     0
 42
0.000000001
 43
0.00000001
 40
0.0
 40
0.0
 40
0.0
 40
0.0
 40
0.0226962659917942
 40
0.0459264099913585
 40
0.0696961119202929
 40
0.0940106735535597
 40
0.1188750481064504
 40
0.1442938673556402
 40
0.1702714664848731
 40
0.1968119068378604
 40
0.2239189967513324
 40
0.2515963106304525
 40
0.3686149645359731
 40
0.5016798141884281
 40
0.5611085291814909
 40
0.6258110230465086
 40
0.7505580970758758
 40
0.8131153977902682
 40
0.8757277762422766
 40
0.9169343412755675
 40
0.9583583283555055
 40
1.0
 40
1.0
 40
1.0
 40
1.0
 10
24.97447648356206
 20
-62.02141294331051
 30
0.0
 10
25.07409029868763
 20
-62.08689188393395
 30
0.0
 10
25.27566111724936
 20
-62.21939000824918
 30
0.0
 10
25.58159021557158
 20
-62.42720848249243
 30
0.0
 10
25.89443655276433
 20
-62.64450486700188
 30
0.0
 10
26.21410592169308
 20
-62.87180255418326
 30
0.0
 10
26.54046770484758
 20
-63.10895662465481
 30
0.0
 10
26.87337771583034
 20
-63.35600737906093
 30
0.0
 10
27.21267164375132
 20
-63.61294406258712
 30
0.0
 10
27.55816381576119
 20
-63.87976900790159
 30
0.0
 10
27.90965549315063
 20
-64.15648497656615
 30
0.0
 10
28.64880374245811
 20
-64.74945840990226
 30
0.0
 10
29.82846261711171
 20
-65.74198152107228
 30
0.0
 10
31.10661019450378
 20
-66.88931265229651
 30
0.0
 10
32.13886086887581
 20
-67.85992230509143
 30
0.0
 10
33.11885257799861
 20
-68.80725146258145
 30
0.0
 10
34.07949646911869
 20
-69.77683104190434
 30
0.0
 10
34.99711059322743
 20
-70.74002561407681
 30
0.0
 10
35.59081964912868
 20
-71.38215610076195
 30
0.0
 10
36.09565786453027
 20
-71.94218638425625
 30
0.0
 10
36.5196722961621
 20
-72.419941032644
 30
0.0
 10
36.79467892063816
 20
-72.7382677077601
 30
0.0
 10
36.93254257852455
 20
-72.89784815393276
 30
0.0
  0
SPLINE
  5
166
330
1F
100
AcDbEntity
  8
0
  6
PHANTOM
 62
     8
370
     0
100
AcDbSpline
210
0.0
220
0.0
230
1.0
 70
     8
 71
     3
 72
    55
 73
    51
 74
     0
 42
0.000000001
 43
0.00000001
 40
0.0
 40
0.0
 40
0.0
 40
0.0
 40
0.0040944355836905
 40
0.0081878695544362
 40
0.0122804707967068
 40
0.0163724082980781
 40
0.0204638511283689
 40
0.0245549684187265
 40
0.0286459293406742
 40
0.0327369030851337
 40
0.0368280588414362
 40
0.0409195657763335
 40
0.0450115930130234
 40
0.0491043096102028
 40
0.0531978845411596
 40
0.0572924866729183
 40
0.0721013100306006
 40
0.0869024418121986
 40
0.1017038927361114
 40
0.1165136730028587
 40
0.1470017420233778
 40
0.1774910777183558
 40
0.208753526651747
 40
0.2400172269409876
 40
0.2719280429039856
 40
0.3038401361716162
 40
0.3686504043676235
 40
0.4341501274496562
 40
0.500000100819629
 40
0.5658500741896018
 40
0.6313497972716344
 40
0.6961600654676418
 40
0.7280708814355122
 40
0.7599829747274384
 40
0.7912454236711366
 40
0.8225091239846327
 40
0.8529971929773374
 40
0.8834865286319857
 40
0.8982953520184794
 40
0.9130964838042784
 40
0.9278979347293983
 40
0.9427077150159789
 40
0.9498722858506571
 40
0.9570341769083824
 40
0.9641942939783275
 40
0.9713535435230007
 40
0.9785128323344316
 40
0.985673067189731
 40
0.99283515450668
 40
1.0
 40
1.0
 40
1.0
 40
1.0
 10
-208.3398920108344
 20
-0.0000000000002699
 30
0.0
 10
-208.3388635503641
 20
-0.557281014171319
 30
0.0
 10
-208.3368068810135
 20
-1.671706716061026
 30
0.0
 10
-208.3201661783658
 20
-3.343094874343487
 30
0.0
 10
-208.2936010743687
 20
-5.014005164277986
 30
0.0
 10
-208.2561390148771
 20
-6.68443757895212
 30
0.0
 10
-208.2080405201955
 20
-8.354392109434258
 30
0.0
 10
-208.1492357994772
 20
-10.02386874704001
 30
0.0
 10
-208.0797435499861
 20
-11.69286748404922
 30
0.0
 10
-207.9995587631691
 20
-13.36138830861478
 30
0.0
 10
-207.9086827794986
 20
-15.02943122445335
 30
0.0
 10
-207.8071152484801
 20
-16.69699617721
 30
0.0
 10
-207.6948562359389
 20
-18.36408332938958
 30
0.0
 10
-207.5719058347815
 20
-20.03069203410781
 30
0.0
 10
-207.4382636143822
 20
-21.69682466616808
 30
0.0
 10
-207.1680569218984
 20
-24.8151067665859
 30
0.0
 10
-206.7045909946376
 20
-29.37934202659106
 30
0.0
 10
-205.9547164978008
 20
-35.37750198330941
 30
0.0
 10
-205.0659557389807
 20
-41.35670820815705
 30
0.0
 10
-203.6761980729788
 20
-49.41738164200005
 30
0.0
 10
-201.5645542929401
 20
-59.51680015408377
 30
0.0
 10
-198.4104090432878
 20
-71.67025417289324
 30
0.0
 10
-194.6425417054589
 20
-83.75750908590038
 30
0.0
 10
-190.2206815348225
 20
-95.82565659633248
 30
0.0
 10
-185.1743133313746
 20
-107.7412105983757
 30
0.0
 10
-177.5514446576874
 20
-123.494951875261
 30
0.0
 10
-166.447511709316
 20
-142.6026182069982
 30
0.0
 10
-150.7402701234804
 20
-164.2053656419664
 30
0.0
 10
-132.8045120835982
 20
-184.1760871911301
 30
0.0
 10
-112.9097851362726
 20
-202.1803568990765
 30
0.0
 10
-91.38924278218504
 20
-217.9475976738952
 30
0.0
 10
-72.35443644050616
 20
-229.0938578336608
 30
0.0
 10
-56.66065148287205
 20
-236.7458607900161
 30
0.0
 10
-44.79060018603504
 20
-241.8114501539938
 30
0.0
 10
-32.76821820503322
 20
-246.2502737021507
 30
0.0
 10
-20.7271257673102
 20
-250.0324929138377
 30
0.0
 10
-8.619759069700304
 20
-253.1987440481236
 30
0.0
 10
1.441100944877036
 20
-255.3184267923787
 30
0.0
 10
9.471095237502356
 20
-256.7135220087172
 30
0.0
 10
15.42741975179253
 20
-257.6056542662723
 30
0.0
 10
21.4028892833942
 20
-258.3584082432597
 30
0.0
 10
26.36405995927839
 20
-258.8660473250251
 30
0.0
 10
30.30062329062133
 20
-259.2002096166014
 30
0.0
 10
33.2062418109095
 20
-259.4138571407025
 30
0.0
 10
36.11334656755581
 20
-259.5946461889405
 30
0.0
 10
39.02194270930189
 20
-259.7425194214833
 30
0.0
 10
41.93202868087649
 20
-259.8576912674596
 30
0.0
 10
44.84360471743602
 20
-259.9393611824488
 30
0.0
 10
47.75667059304838
 20
-259.990517842346
 30
0.0
 10
49.69925186646874
 20
-259.996838875147
 30
0.0
 10
50.67072949301958
 20
-260.0000000000003
 30
0.0
  0
SPLINE
  5
167
330
1F
100
AcDbEntity
  8
0
  6
PHANTOM
 62
     8
370
     0
100
AcDbSpline
210
0.0
220
0.0
230
1.0
 70
     8
 71
     3
 72
    55
 73
    51
 74
     0
 42
0.000000001
 43
0.00000001
 40
0.0
 40
0.0
 40
0.0
 40
0.0
 40
0.0040944355833604
 40
0.0081878695538269
 40
0.012280470795869
 40
0.0163724082970626
 40
0.0204638511272266
 40
0.0245549684175081
 40
0.0286459293394304
 40
0.0327369030839154
 40
0.036828058840294
 40
0.040919565775318
 40
0.0450115930121854
 40
0.0491043096095927
 40
0.0531978845408279
 40
0.0572924866729156
 40
0.0721013100341942
 40
0.0869024418169898
 40
0.1017038927397071
 40
0.1165136730028757
 40
0.1470017420275544
 40
0.1774910777183547
 40
0.2087535266391698
 40
0.2400172269409658
 40
0.2719280428935451
 40
0.3038401361716226
 40
0.3686504043676305
 40
0.4341501274496637
 40
0.5000001008196366
 40
0.5658500741896095
 40
0.6313497972716428
 40
0.6961600654676506
 40
0.728070881437125
 40
0.7599829747274297
 40
0.7912454236647538
 40
0.8225091239846228
 40
0.8529971929700242
 40
0.8834865286319753
 40
0.89829535201062
 40
0.913096483793802
 40
0.9278979347215381
 40
0.9427077150159604
 40
0.9498722858477057
 40
0.9570341769033341
 40
0.9641942939720203
 40
0.9713535435162736
 40
0.9785128323281247
 40
0.9856730671846853
 40
0.9928351545037365
 40
0.9999999999999999
 40
0.9999999999999999
 40
0.9999999999999999
 40
0.9999999999999999
 10
50.67072949301957
 20
-260.0000000000003
 30
0.0
 10
51.22588988463922
 20
-259.9989676109781
 30
0.0
 10
52.3360748601963
 20
-259.9969030854846
 30
0.0
 10
54.00110288181698
 20
-259.9801988180562
 30
0.0
 10
55.66565485354373
 20
-259.9535322396773
 30
0.0
 10
57.3297307684904
 20
-259.9159270812043
 30
0.0
 10
58.99333061775936
 20
-259.867644858087
 30
0.0
 10
60.65645439269924
 20
-259.8086155128887
 30
0.0
 10
62.31910208561933
 20
-259.738857814294
 30
0.0
 10
63.98127368471749
 20
-259.6583667346176
 30
0.0
 10
65.64296919369637
 20
-259.567143619453
 30
0.0
 10
67.30418855840782
 20
-259.4651881169663
 30
0.0
 10
68.96493194073824
 20
-259.3525002932343
 30
0.0
 10
70.62519869626504
 20
-259.2290802415185
 30
0.0
 10
72.28499119075477
 20
-259.0949275295483
 30
0.0
 10
75.39140728691497
 20
-258.8236886913677
 30
0.0
 10
79.93827425447158
 20
-258.3584523995357
 30
0.0
 10
85.91360940214942
 20
-257.6057135039183
 30
0.0
 10
91.87006294165897
 20
-256.7135578234418
 30
0.0
 10
99.90006307937645
 20
-255.3184915086833
 30
0.0
 10
109.9610502543929
 20
-253.1987815923427
 30
0.0
 10
122.0682567098719
 20
-250.032588021023
 30
0.0
 10
134.1095159680551
 20
-246.250328041952
 30
0.0
 10
146.1317405325427
 20
-241.8115770847073
 30
0.0
 10
158.0019522559656
 20
-236.7459325743011
 30
0.0
 10
173.6957457909346
 20
-229.0939457802808
 30
0.0
 10
192.730701684863
 20
-217.9475976114911
 30
0.0
 10
214.2512441437553
 20
-202.1803569144609
 30
0.0
 10
234.1459710681052
 20
-184.1760871926703
 30
0.0
 10
252.081729094188
 20
-164.205365620438
 30
0.0
 10
267.7889707575408
 20
-142.602618290687
 30
0.0
 10
278.8928160325398
 20
-123.4951020810098
 30
0.0
 10
286.5157008070616
 20
-107.7413694142181
 30
0.0
 10
291.5620140741087
 20
-95.82597645072069
 30
0.0
 10
295.9839465584245
 20
-83.7576709238552
 30
0.0
 10
299.7517732839414
 20
-71.67058347015958
 30
0.0
 10
302.9059758770262
 20
-59.51696859786493
 30
0.0
 10
305.0175925882869
 20
-49.41767773353478
 30
0.0
 10
306.4073790462165
 20
-41.35701016768881
 30
0.0
 10
307.2961164709905
 20
-35.37793346244802
 30
0.0
 10
308.0460059919608
 20
-29.3796386069323
 30
0.0
 10
308.5517133540015
 20
-24.39951706403736
 30
0.0
 10
308.8846040573641
 20
-20.44791669992182
 30
0.0
 10
309.0974385881273
 20
-17.53119918978063
 30
0.0
 10
309.2775396794542
 20
-14.61298976575735
 30
0.0
 10
309.4248502097011
 20
-11.69328325944187
 30
0.0
 10
309.5395837920298
 20
-8.772081232046746
 30
0.0
 10
309.6209429283343
 20
-5.849383447517302
 30
0.0
 10
309.6719049216936
 20
-2.925190132648448
 30
0.0
 10
309.6782019010552
 20
-0.9751885136621495
 30
0.0
 10
309.6813509968736
 20
-0.000000000000267
 30
0.0
  0
SPLINE
  5
17C
330
1F
100
AcDbEntity
  8
0
  6
PHANTOM
 62
     8
370
     0
100
AcDbSpline
210
0.0
220
0.0
230
1.0
 70
     8
 71
     3
 72
    12
 73
     8
 74
     0
 42
0.000000001
 43
0.00000001
 40
0.0
 40
0.0
 40
0.0
 40
0.0
 40
0.2124562570510239
 40
0.4315012687934691
 40
0.6567193293404182
 40
0.8327604429767853
 40
1.0
 40
1.0
 40
1.0
 40
1.0
 10
184.630667100374
 20
27.47673532268822
 30
0.0
 10
184.8252531426563
 20
27.54314813050764
 30
0.0
 10
185.2204597856604
 20
27.67803335928832
 30
0.0
 10
185.8219466840367
 20
27.34242630655765
 30
0.0
 10
186.3779388813368
 20
26.63310925710113
 30
0.0
 10
186.8726653189294
 20
25.66718722112671
 30
0.0
 10
187.1554899618943
 20
24.87060666719835
 30
0.0
 10
187.2932765372753
 20
24.48252836754834
 30
0.0
  0
SPLINE
  5
17D
330
1F
100
AcDbEntity
  8
0
  6
PHANTOM
 62
     8
370
     0
100
AcDbSpline
210
0.0
220
0.0
230
1.0
 70
     8
 71
     3
 72
     8
 73
     4
 74
     0
 42
0.000000001
 43
0.00000001
 40
0.0
 40
0.0
 40
0.0
 40
0.0
 40
1.0
 40
1.0
 40
1.0
 40
1.0
 10
185.5355734632877
 20
-27.47673532268823
 30
0.0
 10
186.1368795358489
 20
-27.14836519200447
 30
0.0
 10
186.7219924600203
 20
-26.16839609222285
 30
0.0
 10
187.2600907292997
 20
-24.58844903995933
 30
0.0
  0
SPLINE
  5
17E
330
1F
100
AcDbEntity
  8
0
  6
PHANTOM
 62
     8
370
     0
100
AcDbSpline
210
0.0
220
0.0
230
1.0
 70
     8
 71
     3
 72
    13
 73
     9
 74
     0
 42
0.000000001
 43
0.00000001
 40
0.0
 40
0.0
 40
0.0
 40
0.0
 40
0.2069633128103456
 40
0.420345031543675
 40
0.6397401981611655
 40
0.8112298618442494
 40
0.9827519245883792
 40
1.0
 40
1.0
 40
1.0
 40
1.0
 10
185.5355734632877
 20
-27.47673532268823
 30
0.0
 10
185.3409515311784
 20
-27.54350576922765
 30
0.0
 10
184.9456719954932
 20
-27.67911736664403
 30
0.0
 10
184.3447501101268
 20
-27.33788001276963
 30
0.0
 10
183.7867017304355
 20
-26.64905262612369
 30
0.0
 10
183.2904249199161
 20
-25.60695522157527
 30
0.0
 10
182.9710396792911
 20
-24.89369335228098
 30
0.0
 10
182.8238643670012
 20
-24.32064362710852
 30
0.0
 10
182.8104168434156
 20
-24.26828362477474
 30
0.0
  0
SPLINE
  5
17F
330
1F
100
AcDbEntity
  8
0
  6
PHANTOM
 62
     8
370
     0
100
AcDbSpline
210
0.0
220
0.0
230
1.0
 70
     8
 71
     3
 72
     9
 73
     5
 74
     0
 42
0.000000001
 43
0.00000001
 40
0.0
 40
0.0
 40
0.0
 40
0.0
 40
0.3122357023808403
 40
1.0
 40
1.0
 40
1.0
 40
1.0
 10
183.4000004868612
 20
25.70632405269265
 30
0.0
 10
183.5222642227109
 20
26.00706581667874
 30
0.0
 10
183.913839353029
 20
26.97025408020177
 30
0.0
 10
184.3385596462336
 20
27.27034411244201
 30
0.0
 10
184.6306671003739
 20
27.47673532268822
 30
0.0
  0
LWPOLYLINE
  5
181
330
1F
100
AcDbEntity
  8
0
  6
PHANTOM
 62
     8
370
     0
100
AcDbPolyline
 90
        3
 70
   128
 43
0.0
 10
183.9568026849
 20
-28.5883875196
 10
184.0106409112
 20
-28.5955432796
 10
184.1120494992
 20
-28.5998905927
  0
SPLINE
  5
182
330
1F
100
AcDbEntity
  8
0
  6
PHANTOM
 62
     8
370
     0
100
AcDbSpline
210
0.0
220
0.0
230
1.0
 70
     8
 71
     3
 72
    14
 73
    10
 74
     0
 42
0.000000001
 43
0.00000001
 40
0.0
 40
0.0
 40
0.0
 40
0.0
 40
0.25
 40
0.25
 40
0.4999999999999999
 40
0.4999999999999999
 40
0.75
 40
0.75
 40
1.0
 40
1.0
 40
1.0
 40
1.0
 10
73.11254787542146
 20
-27.47673532268826
 30
0.0
 10
80.28891785949567
 20
-26.78571368241566
 30
0.0
 10
86.90154574966198
 20
-23.22793449953024
 30
0.0
 10
96.08805999060073
 20
-11.94519911768008
 30
0.0
 10
98.28638381528425
 20
-4.681503032188753
 30
0.0
 10
96.92533687760493
 20
9.892651084945353
 30
0.0
 10
93.42160835479392
 20
16.60728941911811
 30
0.0
 10
82.31028307556275
 20
25.93552044983469
 30
0.0
 10
75.15693885504648
 20
28.16775696296078
 30
0.0
 10
67.98056887097225
 20
27.47673532268819
 30
0.0
  0
SPLINE
  5
183
330
1F
100
AcDbEntity
  8
0
  6
PHANTOM
 62
     8
370
     0
100
AcDbSpline
210
0.0
220
0.0
230
1.0
 70
     8
 71
     3
 72
    14
 73
    10
 74
     0
 42
0.000000001
 43
0.00000001
 40
0.0
 40
0.0
 40
0.0
 40
0.0
 40
0.25
 40
0.25
 40
0.5
 40
0.5
 40
0.75
 40
0.75
 40
1.0
 40
1.0
 40
1.0
 40
1.0
 10
67.98056887097225
 20
27.47673532268819
 30
0.0
 10
60.80419888689801
 20
26.78571368241562
 30
0.0
 10
54.19157099673172
 20
23.22793449953018
 30
0.0
 10
45.00505675579299
 20
11.94519911768002
 30
0.0
 10
42.80673293110947
 20
4.681503032188703
 30
0.0
 10
44.1677798687888
 20
-9.89265108494541
 30
0.0
 10
47.67150839159979
 20
-16.60728941911817
 30
0.0
 10
58.78283367083097
 20
-25.93552044983475
 30
0.0
 10
65.93617789134723
 20
-28.16775696296084
 30
0.0
 10
73.11254787542146
 20
-27.47673532268826
 30
0.0
  0
SPLINE
  5
185
330
1F
100
AcDbEntity
  8
0
  6
PHANTOM
 62
     8
370
     0
100
AcDbSpline
210
0.0
220
0.0
230
1.0
 70
     8
 71
     3
 72
    55
 73
    51
 74
     0
 42
0.000000001
 43
0.00000001
 40
0.0
 40
0.0
 40
0.0
 40
0.0
 40
0.0040944355836905
 40
0.0081878695544362
 40
0.0122804707967068
 40
0.0163724082980781
 40
0.0204638511283689
 40
0.0245549684187265
 40
0.0286459293406742
 40
0.0327369030851337
 40
0.0368280588414362
 40
0.0409195657763335
 40
0.0450115930130235
 40
0.0491043096102028
 40
0.0531978845411596
 40
0.0572924866729184
 40
0.0721013100306006
 40
0.0869024418121987
 40
0.1017038927361115
 40
0.1165136730028588
 40
0.1470017420233778
 40
0.1774910777183559
 40
0.2087535266517471
 40
0.2400172269409877
 40
0.2719280429039858
 40
0.3038401361716163
 40
0.3686504043676238
 40
0.4341501274496565
 40
0.5000001008196293
 40
0.5658500741896021
 40
0.6313497972716348
 40
0.696160065467642
 40
0.7280708814355125
 40
0.7599829747274387
 40
0.7912454236711367
 40
0.8225091239846328
 40
0.8529971929773377
 40
0.883486528631986
 40
0.8982953520184797
 40
0.9130964838042787
 40
0.9278979347293985
 40
0.9427077150159792
 40
0.9498722858506573
 40
0.9570341769083824
 40
0.9641942939783276
 40
0.9713535435230009
 40
0.9785128323344316
 40
0.9856730671897311
 40
0.9928351545066801
 40
1.0
 40
1.0
 40
1.0
 40
1.0
 10
309.6813509968737
 20
0.0000000000023183
 30
0.0
 10
309.6803225364034
 20
0.5572810141733674
 30
0.0
 10
309.6782658670528
 20
1.671706716063074
 30
0.0
 10
309.6616251644051
 20
3.343094874345534
 30
0.0
 10
309.6350600604079
 20
5.014005164280032
 30
0.0
 10
309.5975980009163
 20
6.684437578954166
 30
0.0
 10
309.5494995062347
 20
8.354392109436304
 30
0.0
 10
309.4906947855164
 20
10.02386874704206
 30
0.0
 10
309.4212025360254
 20
11.69286748405127
 30
0.0
 10
309.3410177492083
 20
13.36138830861683
 30
0.0
 10
309.2501417655378
 20
15.0294312244554
 30
0.0
 10
309.1485742345192
 20
16.69699617721204
 30
0.0
 10
309.0363152219782
 20
18.36408332939162
 30
0.0
 10
308.9133648208207
 20
20.03069203410986
 30
0.0
 10
308.7797226004213
 20
21.69682466617012
 30
0.0
 10
308.5095159079374
 20
24.81510676658793
 30
0.0
 10
308.0460499806767
 20
29.37934202659309
 30
0.0
 10
307.2961754838399
 20
35.37750198331145
 30
0.0
 10
306.4074147250197
 20
41.35670820815909
 30
0.0
 10
305.0176570590177
 20
49.41738164200208
 30
0.0
 10
302.9060132789791
 20
59.51680015408581
 30
0.0
 10
299.7518680293265
 20
71.67025417289518
 30
0.0
 10
295.9840006914976
 20
83.75750908590237
 30
0.0
 10
291.5621405208611
 20
95.82565659633438
 30
0.0
 10
286.5157723174132
 20
107.7412105983776
 30
0.0
 10
278.8929036437257
 20
123.4949518752629
 30
0.0
 10
267.7889706953542
 20
142.6026182069999
 30
0.0
 10
252.0817291095186
 20
164.2053656419681
 30
0.0
 10
234.1459710696362
 20
184.1760871911316
 30
0.0
 10
214.2512441223105
 20
202.1803568990779
 30
0.0
 10
192.7307017682228
 20
217.9475976738964
 30
0.0
 10
173.6958954265439
 20
229.093857833662
 30
0.0
 10
158.0021104689097
 20
236.7458607900171
 30
0.0
 10
146.1320591720727
 20
241.8114501539947
 30
0.0
 10
134.1096771910708
 20
246.2502737021515
 30
0.0
 10
122.0685847533477
 20
250.0324929138384
 30
0.0
 10
109.9612180557379
 20
253.1987440481243
 30
0.0
 10
99.90035804116049
 20
255.3184267923791
 30
0.0
 10
91.87036374853517
 20
256.7135220087178
 30
0.0
 10
85.91403923424497
 20
257.6056542662727
 30
0.0
 10
79.9385697026433
 20
258.3584082432602
 30
0.0
 10
74.97739902675913
 20
258.8660473250253
 30
0.0
 10
71.04083569541623
 20
259.2002096166019
 30
0.0
 10
68.1352171751279
 20
259.4138571407028
 30
0.0
 10
65.22811241848171
 20
259.5946461889409
 30
0.0
 10
62.31951627673566
 20
259.7425194214836
 30
0.0
 10
59.40943030516097
 20
259.8576912674598
 30
0.0
 10
56.49785426860151
 20
259.9393611824491
 30
0.0
 10
53.58478839298912
 20
259.9905178423462
 30
0.0
 10
51.64220711956877
 20
259.9968388751473
 30
0.0
 10
50.67072949301794
 20
260.0000000000006
 30
0.0
  0
SPLINE
  5
186
330
1F
100
AcDbEntity
  8
0
  6
PHANTOM
 62
     8
370
     0
100
AcDbSpline
210
0.0
220
0.0
230
1.0
 70
     8
 71
     3
 72
    55
 73
    51
 74
     0
 42
0.000000001
 43
0.00000001
 40
0.0
 40
0.0
 40
0.0
 40
0.0
 40
0.0040944355833604
 40
0.0081878695538269
 40
0.012280470795869
 40
0.0163724082970626
 40
0.0204638511272266
 40
0.0245549684175081
 40
0.0286459293394304
 40
0.0327369030839154
 40
0.036828058840294
 40
0.0409195657753181
 40
0.0450115930121854
 40
0.0491043096095927
 40
0.053197884540828
 40
0.0572924866729156
 40
0.0721013100341942
 40
0.0869024418169898
 40
0.1017038927397071
 40
0.1165136730028757
 40
0.1470017420275544
 40
0.1774910777183548
 40
0.2087535266391698
 40
0.2400172269409658
 40
0.2719280428935452
 40
0.3038401361716227
 40
0.3686504043676306
 40
0.4341501274496638
 40
0.5000001008196369
 40
0.5658500741896096
 40
0.6313497972716429
 40
0.6961600654676507
 40
0.7280708814371252
 40
0.7599829747274299
 40
0.7912454236647539
 40
0.822509123984623
 40
0.8529971929700243
 40
0.8834865286319754
 40
0.8982953520106202
 40
0.9130964837938023
 40
0.9278979347215383
 40
0.9427077150159606
 40
0.9498722858477058
 40
0.9570341769033343
 40
0.9641942939720204
 40
0.9713535435162738
 40
0.9785128323281248
 40
0.9856730671846854
 40
0.9928351545037366
 40
1.0
 40
1.0
 40
1.0
 40
1.0
 10
50.67072949301793
 20
260.0000000000005
 30
0.0
 10
50.1155691013983
 20
259.9989676109783
 30
0.0
 10
49.00538412584121
 20
259.9969030854848
 30
0.0
 10
47.34035610422053
 20
259.9801988180564
 30
0.0
 10
45.67580413249376
 20
259.9535322396774
 30
0.0
 10
44.01172821754713
 20
259.9159270812046
 30
0.0
 10
42.34812836827814
 20
259.8676448580871
 30
0.0
 10
40.68500459333825
 20
259.8086155128888
 30
0.0
 10
39.02235690041819
 20
259.7388578142941
 30
0.0
 10
37.36018530131999
 20
259.6583667346179
 30
0.0
 10
35.69848979234112
 20
259.5671436194531
 30
0.0
 10
34.03727042762971
 20
259.4651881169665
 30
0.0
 10
32.37652704529923
 20
259.3525002932344
 30
0.0
 10
30.71626028977244
 20
259.2290802415186
 30
0.0
 10
29.05646779528277
 20
259.0949275295484
 30
0.0
 10
25.95005169912249
 20
258.8236886913677
 30
0.0
 10
21.40318473156593
 20
258.3584523995356
 30
0.0
 10
15.42784958388808
 20
257.6057135039183
 30
0.0
 10
9.471396044378533
 20
256.7135578234418
 30
0.0
 10
1.441395906661084
 20
255.3184915086831
 30
0.0
 10
-8.619591268355293
 20
253.1987815923424
 30
0.0
 10
-20.72679772383438
 20
250.0325880210229
 30
0.0
 10
-32.76805698201743
 20
246.2503280419516
 30
0.0
 10
-44.79028154650511
 20
241.811577084707
 30
0.0
 10
-56.66049326992796
 20
236.7459325743006
 30
0.0
 10
-72.35428680489679
 20
229.0939457802801
 30
0.0
 10
-91.3892426988253
 20
217.9475976114904
 30
0.0
 10
-112.9097851577175
 20
202.18035691446
 30
0.0
 10
-132.8045120820672
 20
184.1760871926693
 30
0.0
 10
-150.7402701081498
 20
164.2053656204367
 30
0.0
 10
-166.4475117715025
 20
142.6026182906858
 30
0.0
 10
-177.5513570465013
 20
123.4951020810084
 30
0.0
 10
-185.174241821023
 20
107.7413694142167
 30
0.0
 10
-190.22055508807
 20
95.82597645071924
 30
0.0
 10
-194.6424875723858
 20
83.75767092385368
 30
0.0
 10
-198.4103142979027
 20
71.67058347015809
 30
0.0
 10
-201.5645168909873
 20
59.5169685978634
 30
0.0
 10
-203.6761336022479
 20
49.41767773353326
 30
0.0
 10
-205.0659200601775
 20
41.35701016768722
 30
0.0
 10
-205.9546574849514
 20
35.37793346244655
 30
0.0
 10
-206.7045470059218
 20
29.37963860693064
 30
0.0
 10
-207.2102543679623
 20
24.39951706403585
 30
0.0
 10
-207.5431450713251
 20
20.44791669992021
 30
0.0
 10
-207.7559796020881
 20
17.53119918977905
 30
0.0
 10
-207.9360806934152
 20
14.61298976575574
 30
0.0
 10
-208.0833912236617
 20
11.69328325944035
 30
0.0
 10
-208.1981248059908
 20
8.772081232045132
 30
0.0
 10
-208.279483942295
 20
5.849383447515722
 30
0.0
 10
-208.3304459356542
 20
2.925190132646863
 30
0.0
 10
-208.3367429150159
 20
0.9751885136605666
 30
0.0
 10
-208.3398920108343
 20
-0.0000000000013157
 30
0.0
  0
LINE
  5
19F
330
1F
100
AcDbEntity
  8
0
  6
Continuous
 62
     7
370
    15
100
AcDbLine
 10
49.3633933518
 20
-265.0
 30
0.0
 11
50.2349507793
 21
-265.0
 31
0.0
  0
LINE
  5
1A0
330
1F
100
AcDbEntity
  8
0
  6
Continuous
 62
     7
370
    15
100
AcDbLine
 10
184.0983125288
 20
28.6
 30
0.0
 11
183.9735811942
 21
28.6
 31
0.0
  0
LINE
  5
1A1
330
1F
100
AcDbEntity
  8
0
  6
Continuous
 62
     7
370
    15
100
AcDbLine
 10
183.9735811942
 20
-28.6
 30
0.0
 11
184.0983125288
 21
-28.6
 31
0.0
  0
LINE
  5
1A2
330
1F
100
AcDbEntity
  8
0
  6
Continuous
 62
     7
370
    15
100
AcDbLine
 10
70.7202065509
 20
-28.6
 30
0.0
 11
71.2585159016
 21
-28.6
 31
0.0
  0
LINE
  5
1A3
330
1F
100
AcDbEntity
  8
0
  6
Continuous
 62
     7
370
    15
100
AcDbLine
 10
71.2585159016
 20
28.6
 30
0.0
 11
70.7202065509
 21
28.6
 31
0.0
  0
LINE
  5
1A4
330
1F
100
AcDbEntity
  8
0
  6
Continuous
 62
     7
370
    15
100
AcDbLine
 10
50.2349507793
 20
265.0
 30
0.0
 11
49.3633933518
 21
265.0
 31
0.0
  0
LINE
  5
1A5
330
1F
100
AcDbEntity
  8
0
  6
Continuous
 62
     7
370
    15
100
AcDbLine
 10
77.6856335089
 20
-102.0061879293
 30
0.0
 11
97.6856335089
 21
-102.0061879293
 31
0.0
  0
LINE
  5
1A6
330
1F
100
AcDbEntity
  8
0
  6
Continuous
 62
     7
370
    15
100
AcDbLine
 10
97.6856335089
 20
102.0061879293
 30
0.0
 11
77.6856335089
 21
102.0061879293
 31
0.0
  0
LINE
  5
1A7
330
1F
100
AcDbEntity
  8
0
  6
Continuous
 62
     7
370
    15
100
AcDbLine
 10
115.7550034607
 20
-79.4398222532
 30
0.0
 11
115.7454675312
 21
-79.2911512823
 31
0.0
  0
LINE
  5
1A8
330
1F
100
AcDbEntity
  8
0
  6
Continuous
 62
     7
370
    15
100
AcDbLine
 10
42.2428070648
 20
82.0769119228
 30
0.0
 11
42.2267603819
 21
81.8536352423
 31
0.0
  0
LINE
  5
1A9
330
1F
100
AcDbEntity
  8
0
  6
Continuous
 62
     7
370
    15
100
AcDbLine
 10
34.2203790791
 20
-82.4393957109
 30
0.0
 11
34.2182861121
 21
-82.4344628216
 31
0.0
  0
LINE
  5
1AA
330
1F
100
AcDbEntity
  8
0
  6
Continuous
 62
     7
370
    15
100
AcDbLine
 10
189.8696268115
 20
0.0
 30
0.0
 11
309.6813509969
 21
0.0
 31
0.0
  0
LINE
  5
1AB
330
1F
100
AcDbEntity
  8
0
  6
Continuous
 62
     7
370
    15
100
AcDbLine
 10
42.2412638553
 20
0.0
 30
0.0
 11
-208.3398920108
 21
0.0
 31
0.0
  0
LINE
  5
1AC
330
1F
100
AcDbEntity
  8
0
  6
Continuous
 62
     7
370
    15
100
AcDbLine
 10
-214.6282016425
 20
0.0
 30
0.0
 11
-213.756644215
 21
0.0
 31
0.0
  0
LINE
  5
1AD
330
1F
100
AcDbEntity
  8
0
  6
Continuous
 62
     7
370
    15
100
AcDbLine
 10
78.4770252968
 20
-114.5392307666
 30
0.0
 11
79.2046805546
 21
-114.4489498301
 31
0.0
  0
LINE
  5
1AE
330
1F
100
AcDbEntity
  8
0
  6
Continuous
 62
     7
370
    15
100
AcDbLine
 10
78.4770252968
 20
-236.3259522642
 30
0.0
 11
78.8331119123
 21
-236.3045814421
 31
0.0
  0
LINE
  5
1AF
330
1F
100
AcDbEntity
  8
0
  6
Continuous
 62
     7
370
    15
100
AcDbLine
 10
78.4770252968
 20
-145.2708684166
 30
0.0
 11
79.0541311909
 21
-145.2144036252
 31
0.0
  0
LINE
  5
1B0
330
1F
100
AcDbEntity
  8
0
  6
Continuous
 62
     7
370
    15
100
AcDbLine
 10
78.4770252968
 20
-206.0788024389
 30
0.0
 11
78.8852221487
 21
-206.0506873526
 31
0.0
  0
LINE
  5
1B1
330
1F
100
AcDbEntity
  8
0
  6
Continuous
 62
     7
370
    15
100
AcDbLine
 10
78.4770252968
 20
-175.7454775095
 30
0.0
 11
78.9551987519
 21
-175.7068285526
 31
0.0
  0
LINE
  5
1B2
330
1F
100
AcDbEntity
  8
0
  6
Continuous
 62
     7
370
    15
100
AcDbLine
 10
78.8331119123
 20
236.3045814421
 30
0.0
 11
78.4770252968
 21
236.3259522642
 31
0.0
  0
LINE
  5
1B3
330
1F
100
AcDbEntity
  8
0
  6
Continuous
 62
     7
370
    15
100
AcDbLine
 10
78.8852221487
 20
206.0506873526
 30
0.0
 11
78.4770252968
 21
206.0788024389
 31
0.0
  0
LINE
  5
1B4
330
1F
100
AcDbEntity
  8
0
  6
Continuous
 62
     7
370
    15
100
AcDbLine
 10
79.0541311909
 20
145.2144036252
 30
0.0
 11
78.4770252968
 21
145.2708684166
 31
0.0
  0
LINE
  5
1B5
330
1F
100
AcDbEntity
  8
0
  6
Continuous
 62
     7
370
    15
100
AcDbLine
 10
79.2046805546
 20
114.4489498301
 30
0.0
 11
78.4770252968
 21
114.5392307666
 31
0.0
  0
LINE
  5
1B6
330
1F
100
AcDbEntity
  8
0
  6
Continuous
 62
     7
370
    15
100
AcDbLine
 10
78.9551987519
 20
175.7068285526
 30
0.0
 11
78.4770252968
 21
175.7454775095
 31
0.0
  0
LINE
  5
1B7
330
1F
100
AcDbEntity
  8
0
  6
Continuous
 62
     7
370
    15
100
AcDbLine
 10
179.5608710149
 20
0.0
 30
0.0
 11
98.9661904288
 21
0.0
 31
0.0
  0
LINE
  5
1B8
330
1F
100
AcDbEntity
  8
0
  6
Continuous
 62
     7
370
    15
100
AcDbLine
 10
42.7744988905
 20
0.0
 30
0.0
 11
42.5547048147
 21
0.0
 31
0.0
  0
LINE
  5
1B9
330
1F
100
AcDbEntity
  8
0
  6
PHANTOM
 62
     8
370
     0
100
AcDbLine
 10
127.9464278085
 20
82.4393335997
 30
0.0
 11
127.9444772989
 21
82.4344520393
 31
0.0
  0
LINE
  5
1BA
330
1F
100
AcDbEntity
  8
0
  6
PHANTOM
 62
     8
370
     0
100
AcDbLine
 10
128.8656074992
 20
62.1426561404
 30
0.0
 11
128.8604969049
 21
62.1335798105
 31
0.0
  0
LINE
  5
1BB
330
1F
100
AcDbEntity
  8
0
  6
PHANTOM
 62
     8
370
     0
100
AcDbLine
 10
116.8673149419
 20
-82.438653394
 30
0.0
 11
116.8769779608
 21
-82.4344628216
 31
0.0
  0
LINE
  5
1BC
330
1F
100
AcDbEntity
  8
0
  6
PHANTOM
 62
     8
370
     0
100
AcDbLine
 10
17.2749633327
 20
62.021402161
 30
0.0
 11
17.2745575218
 21
62.5736399907
 31
0.0
  0
LINE
  5
1BD
330
1F
100
AcDbEntity
  8
0
  6
PHANTOM
 62
     8
370
     0
100
AcDbLine
 10
17.3375057632
 20
62.1426561404
 30
0.0
 11
17.3701431913
 21
62.7129432193
 31
0.0
  0
LINE
  5
1BE
330
1F
100
AcDbEntity
  8
0
  6
PHANTOM
 62
     8
370
     0
100
AcDbLine
 10
17.3375057632
 20
62.1426561404
 30
0.0
 11
17.3272730657
 21
62.1335798105
 31
0.0
  0
LINE
  5
1BF
330
1F
100
AcDbEntity
  8
0
  6
PHANTOM
 62
     8
370
     0
100
AcDbLine
 10
41.9792366042
 20
82.4393335997
 30
0.0
 11
41.9678330884
 21
82.4344520393
 31
0.0
  0
LINE
  5
1C0
330
1F
100
AcDbEntity
  8
0
  6
PHANTOM
 62
     8
370
     0
100
AcDbLine
 10
-178.8000524852
 20
-27.6425531915
 30
0.0
 11
-178.887208228
 21
-27.6425531915
 31
0.0
  0
LINE
  5
1C1
330
1F
100
AcDbEntity
  8
0
  6
PHANTOM
 62
     8
370
     0
100
AcDbLine
 10
23.0462088192
 20
-230.3473230864
 30
0.0
 11
23.1333645619
 21
-230.3473230864
 31
0.0
  0
LINE
  5
1C2
330
1F
100
AcDbEntity
  8
0
  6
PHANTOM
 62
     8
370
     0
100
AcDbLine
 10
-148.674720797
 20
-27.5902439024
 30
0.0
 11
-148.7618765397
 21
-27.5902439024
 31
0.0
  0
LINE
  5
1C3
330
1F
100
AcDbEntity
  8
0
  6
PHANTOM
 62
     8
370
     0
100
AcDbLine
 10
23.0983190556
 20
-200.1069175251
 30
0.0
 11
23.1854747984
 21
-200.1069175251
 31
0.0
  0
LINE
  5
1C4
330
1F
100
AcDbEntity
  8
0
  6
PHANTOM
 62
     8
370
     0
100
AcDbLine
 10
-118.4673171131
 20
-27.52
 30
0.0
 11
-118.5544728558
 21
-27.52
 31
0.0
  0
LINE
  5
1C5
330
1F
100
AcDbEntity
  8
0
  6
PHANTOM
 62
     8
370
     0
100
AcDbLine
 10
23.1682956588
 20
-169.7841264665
 30
0.0
 11
23.2554514015
 21
-169.7841264665
 31
0.0
  0
LINE
  5
1C6
330
1F
100
AcDbEntity
  8
0
  6
PHANTOM
 62
     8
370
     0
100
AcDbLine
 10
-88.126421148
 20
-27.4206896552
 30
0.0
 11
-88.2135768907
 21
-27.4206896552
 31
0.0
  0
LINE
  5
1C7
330
1F
100
AcDbEntity
  8
0
  6
PHANTOM
 62
     8
370
     0
100
AcDbLine
 10
23.2672280978
 20
-139.3273332079
 30
0.0
 11
23.3543838405
 21
-139.3273332079
 31
0.0
  0
LINE
  5
1C8
330
1F
100
AcDbEntity
  8
0
  6
PHANTOM
 62
     8
370
     0
100
AcDbLine
 10
-57.5454141219
 20
-27.2695652174
 30
0.0
 11
-57.6325698647
 21
-27.2695652174
 31
0.0
  0
LINE
  5
1C9
330
1F
100
AcDbEntity
  8
0
  6
PHANTOM
 62
     8
370
     0
100
AcDbLine
 10
23.4177774614
 20
-108.6295117031
 30
0.0
 11
23.5049332042
 21
-108.6295117031
 31
0.0
  0
LINE
  5
1CA
330
1F
100
AcDbEntity
  8
0
  6
PHANTOM
 62
     8
370
     0
100
AcDbLine
 10
79.2046805546
 20
-114.4489498301
 30
0.0
 11
79.2918362973
 21
-114.4489498301
 31
0.0
  0
LINE
  5
1CB
330
1F
100
AcDbEntity
  8
0
  6
PHANTOM
 62
     8
370
     0
100
AcDbLine
 10
78.8331119123
 20
-236.3045814421
 30
0.0
 11
78.9202676551
 21
-236.3045814421
 31
0.0
  0
LINE
  5
1CC
330
1F
100
AcDbEntity
  8
0
  6
PHANTOM
 62
     8
370
     0
100
AcDbLine
 10
79.0541311909
 20
-145.2144036252
 30
0.0
 11
79.1412869337
 21
-145.2144036252
 31
0.0
  0
LINE
  5
1CD
330
1F
100
AcDbEntity
  8
0
  6
PHANTOM
 62
     8
370
     0
100
AcDbLine
 10
78.8852221487
 20
-206.0506873526
 30
0.0
 11
78.9723778915
 21
-206.0506873526
 31
0.0
  0
LINE
  5
1CE
330
1F
100
AcDbEntity
  8
0
  6
PHANTOM
 62
     8
370
     0
100
AcDbLine
 10
78.9551987519
 20
-175.7068285526
 30
0.0
 11
79.0423544947
 21
-175.7068285526
 31
0.0
  0
LINE
  5
1CF
330
1F
100
AcDbEntity
  8
0
  6
PHANTOM
 62
     8
370
     0
100
AcDbLine
 10
285.9889449176
 20
-28.3574468085
 30
0.0
 11
286.0761006604
 21
-28.3574468085
 31
0.0
  0
LINE
  5
1D0
330
1F
100
AcDbEntity
  8
0
  6
PHANTOM
 62
     8
370
     0
100
AcDbLine
 10
255.8501760291
 20
-28.4097560976
 30
0.0
 11
255.9373317718
 21
-28.4097560976
 31
0.0
  0
LINE
  5
1D1
330
1F
100
AcDbEntity
  8
0
  6
PHANTOM
 62
     8
370
     0
100
AcDbLine
 10
225.6217847729
 20
-28.48
 30
0.0
 11
225.7089405156
 21
-28.48
 31
0.0
  0
LINE
  5
1D2
330
1F
100
AcDbEntity
  8
0
  6
PHANTOM
 62
     8
370
     0
100
AcDbLine
 10
195.2453927282
 20
-28.5793103448
 30
0.0
 11
195.332548471
 21
-28.5793103448
 31
0.0
  0
LINE
  5
1D3
330
1F
100
AcDbEntity
  8
0
  6
PHANTOM
 62
     8
370
     0
100
AcDbLine
 10
184.1022825871
 20
28.5999908619
 30
0.0
 11
183.9568026864
 21
28.5883875199
 31
0.0
  0
LINE
  5
1D4
330
1F
100
AcDbEntity
  8
0
  6
PHANTOM
 62
     8
370
     0
100
AcDbLine
 10
-178.887208228
 20
27.6425531915
 30
0.0
 11
-178.8000524852
 21
27.6425531915
 31
0.0
  0
LINE
  5
1D5
330
1F
100
AcDbEntity
  8
0
  6
PHANTOM
 62
     8
370
     0
100
AcDbLine
 10
23.1333645619
 20
230.3473230864
 30
0.0
 11
23.0462088192
 21
230.3473230864
 31
0.0
  0
LINE
  5
1D6
330
1F
100
AcDbEntity
  8
0
  6
PHANTOM
 62
     8
370
     0
100
AcDbLine
 10
-148.7618765397
 20
27.5902439024
 30
0.0
 11
-148.674720797
 21
27.5902439024
 31
0.0
  0
LINE
  5
1D7
330
1F
100
AcDbEntity
  8
0
  6
PHANTOM
 62
     8
370
     0
100
AcDbLine
 10
23.1854747984
 20
200.1069175251
 30
0.0
 11
23.0983190556
 21
200.1069175251
 31
0.0
  0
LINE
  5
1D8
330
1F
100
AcDbEntity
  8
0
  6
PHANTOM
 62
     8
370
     0
100
AcDbLine
 10
-118.5544728558
 20
27.52
 30
0.0
 11
-118.4673171131
 21
27.52
 31
0.0
  0
LINE
  5
1D9
330
1F
100
AcDbEntity
  8
0
  6
PHANTOM
 62
     8
370
     0
100
AcDbLine
 10
23.2554514015
 20
169.7841264665
 30
0.0
 11
23.1682956588
 21
169.7841264665
 31
0.0
  0
LINE
  5
1DA
330
1F
100
AcDbEntity
  8
0
  6
PHANTOM
 62
     8
370
     0
100
AcDbLine
 10
-88.2135768907
 20
27.4206896552
 30
0.0
 11
-88.126421148
 21
27.4206896552
 31
0.0
  0
LINE
  5
1DB
330
1F
100
AcDbEntity
  8
0
  6
PHANTOM
 62
     8
370
     0
100
AcDbLine
 10
23.3543838405
 20
139.3273332079
 30
0.0
 11
23.2672280978
 21
139.3273332079
 31
0.0
  0
LINE
  5
1DC
330
1F
100
AcDbEntity
  8
0
  6
PHANTOM
 62
     8
370
     0
100
AcDbLine
 10
-57.6325698647
 20
27.2695652174
 30
0.0
 11
-57.5454141219
 21
27.2695652174
 31
0.0
  0
LINE
  5
1DD
330
1F
100
AcDbEntity
  8
0
  6
PHANTOM
 62
     8
370
     0
100
AcDbLine
 10
23.5049332042
 20
108.6295117031
 30
0.0
 11
23.4177774614
 21
108.6295117031
 31
0.0
  0
LINE
  5
1DE
330
1F
100
AcDbEntity
  8
0
  6
PHANTOM
 62
     8
370
     0
100
AcDbLine
 10
78.8331119123
 20
236.3045814421
 30
0.0
 11
78.9202676551
 21
236.3045814421
 31
0.0
  0
LINE
  5
1DF
330
1F
100
AcDbEntity
  8
0
  6
PHANTOM
 62
     8
370
     0
100
AcDbLine
 10
78.8852221487
 20
206.0506873526
 30
0.0
 11
78.9723778915
 21
206.0506873526
 31
0.0
  0
LINE
  5
1E0
330
1F
100
AcDbEntity
  8
0
  6
PHANTOM
 62
     8
370
     0
100
AcDbLine
 10
79.0541311909
 20
145.2144036252
 30
0.0
 11
79.1412869337
 21
145.2144036252
 31
0.0
  0
LINE
  5
1E1
330
1F
100
AcDbEntity
  8
0
  6
PHANTOM
 62
     8
370
     0
100
AcDbLine
 10
79.2046805546
 20
114.4489498301
 30
0.0
 11
79.2918362973
 21
114.4489498301
 31
0.0
  0
LINE
  5
1E2
330
1F
100
AcDbEntity
  8
0
  6
PHANTOM
 62
     8
370
     0
100
AcDbLine
 10
78.9551987519
 20
175.7068285526
 30
0.0
 11
79.0423544947
 21
175.7068285526
 31
0.0
  0
LINE
  5
1E3
330
1F
100
AcDbEntity
  8
0
  6
PHANTOM
 62
     8
370
     0
100
AcDbLine
 10
285.9889449176
 20
28.3574468085
 30
0.0
 11
286.0761006604
 21
28.3574468085
 31
0.0
  0
LINE
  5
1E4
330
1F
100
AcDbEntity
  8
0
  6
PHANTOM
 62
     8
370
     0
100
AcDbLine
 10
255.8501760291
 20
28.4097560976
 30
0.0
 11
255.9373317718
 21
28.4097560976
 31
0.0
  0
LINE
  5
1E5
330
1F
100
AcDbEntity
  8
0
  6
PHANTOM
 62
     8
370
     0
100
AcDbLine
 10
225.6217847729
 20
28.48
 30
0.0
 11
225.7089405156
 21
28.48
 31
0.0
  0
LINE
  5
1E6
330
1F
100
AcDbEntity
  8
0
  6
PHANTOM
 62
     8
370
     0
100
AcDbLine
 10
195.2453927282
 20
28.5793103448
 30
0.0
 11
195.332548471
 21
28.5793103448
 31
0.0
  0
LINE
  5
1E7
330
1F
100
AcDbEntity
  8
0
  6
PHANTOM
 62
     8
370
     0
100
AcDbLine
 10
77.5871113414
 20
-102.0013227857
 30
0.0
 11
97.7841556764
 21
-102.0013227857
 31
0.0
  0
LINE
  5
1E8
330
1F
100
AcDbEntity
  8
0
  6
PHANTOM
 62
     8
370
     0
100
AcDbLine
 10
97.7841556764
 20
102.0013227857
 30
0.0
 11
77.5871113414
 21
102.0013227857
 31
0.0
  0
ARC
  5
1E9
330
1F
100
AcDbEntity
  8
0
  6
Continuous
 62
     7
370
    15
100
AcDbCircle
 10
87.6856335089
 20
0.0
 30
0.0
 40
102.5000000000004
100
AcDbArc
 50
275.6540766612
 51
344.8931710396
  0
ARC
  5
1EA
330
1F
100
AcDbEntity
  8
0
  6
Continuous
 62
     7
370
    15
100
AcDbCircle
 10
87.6856335089
 20
0.0
 30
0.0
 40
102.499999999996
100
AcDbArc
 50
192.9617407688
 51
264.3459233388
  0
ARC
  5
1EB
330
1F
100
AcDbEntity
  8
0
  6
Continuous
 62
     7
370
    15
100
AcDbCircle
 10
77.6856335089
 20
-101.0061879293
 30
0.0
 40
1.000000000000298
100
AcDbArc
 50
264.3459233388
 51
270.0
  0
ARC
  5
1EC
330
1F
100
AcDbEntity
  8
0
  6
Continuous
 62
     7
370
    15
100
AcDbCircle
 10
97.6856335089
 20
-101.0061879293
 30
0.0
 40
0.9999999999994174
100
AcDbArc
 50
270.0
 51
275.6540766612
  0
ARC
  5
1ED
330
1F
100
AcDbEntity
  8
0
  6
Continuous
 62
     7
370
    15
100
AcDbCircle
 10
87.6856335089
 20
0.0
 30
0.0
 40
102.5000000000061
100
AcDbArc
 50
95.6540766612
 51
167.0382592312
  0
ARC
  5
1EE
330
1F
100
AcDbEntity
  8
0
  6
Continuous
 62
     7
370
    15
100
AcDbCircle
 10
87.6856335089
 20
0.0
 30
0.0
 40
102.4999999999895
100
AcDbArc
 50
14.7890390785
 51
84.3459233388
  0
ARC
  5
1EF
330
1F
100
AcDbEntity
  8
0
  6
Continuous
 62
     7
370
    15
100
AcDbCircle
 10
97.6856335089
 20
101.0061879292
 30
0.0
 40
1.000000000007035
100
AcDbArc
 50
84.3459233388
 51
90.0
  0
ARC
  5
1F0
330
1F
100
AcDbEntity
  8
0
  6
Continuous
 62
     7
370
    15
100
AcDbCircle
 10
77.6856335089
 20
101.0061879292
 30
0.0
 40
1.000000000007036
100
AcDbArc
 50
90.0
 51
95.6540766612
  0
ARC
  5
1F1
330
1F
100
AcDbEntity
  8
0
  6
Continuous
 62
     7
370
    15
100
AcDbCircle
 10
50.2373919142
 20
-1.5429494816
 30
0.0
 40
263.4276892211222
100
AcDbArc
 50
217.6361466875
 51
323.2341533193
  0
ARC
  5
1F2
330
1F
100
AcDbEntity
  8
0
  6
Continuous
 62
     7
370
    15
100
AcDbCircle
 10
22.7693773766
 20
-172.7442017936
 30
0.0
 40
2.999718970104186
100
AcDbArc
 50
260.9804008402
 51
80.6746834636
  0
ARC
  5
1F3
330
1F
100
AcDbEntity
  8
0
  6
Continuous
 62
     7
370
    15
100
AcDbCircle
 10
51.0364916251
 20
-0.3850029585
 30
0.0
 40
171.6620203806703
100
AcDbArc
 50
189.0950187846
 51
260.6865381194
  0
ARC
  5
1F4
330
1F
100
AcDbEntity
  8
0
  6
Continuous
 62
     7
370
    15
100
AcDbCircle
 10
-121.4187468304
 20
-27.9917182029
 30
0.0
 40
2.98888866292343
100
AcDbArc
 50
9.0806127683
 51
189.4023060237
  0
ARC
  5
1F5
330
1F
100
AcDbEntity
  8
0
  6
Continuous
 62
     7
370
    15
100
AcDbCircle
 10
51.0599677535
 20
-0.3877570914
 30
0.0
 40
177.6625004709636
100
AcDbArc
 50
189.0978722198
 51
260.6836846842
  0
ARC
  5
1F6
330
1F
100
AcDbEntity
  8
0
  6
Continuous
 62
     7
370
    15
100
AcDbCircle
 10
22.7696644205
 20
-142.269375718
 30
0.0
 40
2.999585126524784
100
AcDbArc
 50
259.0555583756
 51
78.7591651616
  0
ARC
  5
1F7
330
1F
100
AcDbEntity
  8
0
  6
Continuous
 62
     7
370
    15
100
AcDbCircle
 10
50.9790712178
 20
-0.3261508956
 30
0.0
 40
141.7196247416906
100
AcDbArc
 50
191.0218949217
 51
258.7596619823
  0
ARC
  5
1F8
330
1F
100
AcDbEntity
  8
0
  6
Continuous
 62
     7
370
    15
100
AcDbCircle
 10
-91.0603506062
 20
-27.9919250145
 30
0.0
 40
2.989021897135101
100
AcDbArc
 50
11.0176357076
 51
191.3331941634
  0
ARC
  5
1F9
330
1F
100
AcDbEntity
  8
0
  6
Continuous
 62
     7
370
    15
100
AcDbCircle
 10
51.0020298192
 20
-0.3300396284
 30
0.0
 40
147.7194162646118
100
AcDbArc
 50
191.0249247008
 51
258.7566322032
  0
ARC
  5
1FA
330
1F
100
AcDbEntity
  8
0
  6
Continuous
 62
     7
370
    15
100
AcDbCircle
 10
50.6385149868
 20
-0.7080587124
 30
0.0
 40
111.2958750665801
100
AcDbArc
 50
284.1449443661
 51
294.4711916241
  0
ARC
  5
1FB
330
1F
100
AcDbEntity
  8
0
  6
Continuous
 62
     7
370
    15
100
AcDbCircle
 10
78.5718844197
 20
-111.5373043246
 30
0.0
 40
2.999334968907305
100
AcDbArc
 50
104.1921106328
 51
283.8887341727
  0
ARC
  5
1FC
330
1F
100
AcDbEntity
  8
0
  6
Continuous
 62
     7
370
    15
100
AcDbCircle
 10
50.6143155075
 20
-0.6814282862
 30
0.0
 40
117.3262509282916
100
AcDbArc
 50
284.1478817135
 51
303.2354614569
  0
ARC
  5
1FD
330
1F
100
AcDbEntity
  8
0
  6
Continuous
 62
     7
370
    15
100
AcDbCircle
 10
192.4017127029
 20
-27.9924154458
 30
0.0
 40
2.989020562304337
100
AcDbArc
 50
348.6763884575
 51
168.9727816716
  0
ARC
  5
1FE
330
1F
100
AcDbEntity
  8
0
  6
Continuous
 62
     7
370
    15
100
AcDbCircle
 10
50.343332754
 20
-0.3071683914
 30
0.0
 40
141.7419582163829
100
AcDbArc
 50
281.2463970985
 51
348.9720459975
  0
ARC
  5
1FF
330
1F
100
AcDbEntity
  8
0
  6
Continuous
 62
     7
370
    15
100
AcDbCircle
 10
78.5722868703
 20
-142.2692791974
 30
0.0
 40
2.999586466073452
100
AcDbArc
 50
101.2504174593
 51
280.9348590035
  0
ARC
  5
200
330
1F
100
AcDbEntity
  8
0
  6
Continuous
 62
     7
370
    15
100
AcDbCircle
 10
50.3394291668
 20
-0.3300396284
 30
0.0
 40
147.7194162646116
100
AcDbArc
 50
281.2433677968
 51
348.9750752992
  0
ARC
  5
201
330
1F
100
AcDbEntity
  8
0
  6
Continuous
 62
     7
370
    15
100
AcDbCircle
 10
283.1097894716
 20
-27.9918363949
 30
0.0
 40
2.98875777594558
100
AcDbArc
 50
352.9734908923
 51
173.2887537849
  0
ARC
  5
202
330
1F
100
AcDbEntity
  8
0
  6
Continuous
 62
     7
370
    15
100
AcDbCircle
 10
50.1789272971
 20
-0.4899307401
 30
0.0
 40
231.560046264596
100
AcDbArc
 50
276.9524116685
 51
353.2660314275
  0
ARC
  5
203
330
1F
100
AcDbEntity
  8
0
  6
Continuous
 62
     7
370
    15
100
AcDbCircle
 10
78.5726868772
 20
-233.3249354156
 30
0.0
 40
2.999850469618365
100
AcDbArc
 50
96.9808083322
 51
276.6535790998
  0
ARC
  5
204
330
1F
100
AcDbEntity
  8
0
  6
Continuous
 62
     7
370
    15
100
AcDbCircle
 10
50.1662082748
 20
-0.5026013627
 30
0.0
 40
237.5486681507493
100
AcDbArc
 50
276.9524116685
 51
353.2660314275
  0
ARC
  5
205
330
1F
100
AcDbEntity
  8
0
  6
Continuous
 62
     7
370
    15
100
AcDbCircle
 10
222.7601388963
 20
-27.9921294942
 30
0.0
 40
2.988887522169112
100
AcDbArc
 50
350.6056819156
 51
170.9113992923
  0
ARC
  5
206
330
1F
100
AcDbEntity
  8
0
  6
Continuous
 62
     7
370
    15
100
AcDbCircle
 10
50.2842558857
 20
-0.3643702967
 30
0.0
 40
171.6857337642245
100
AcDbArc
 50
279.3191683569
 51
350.8992747391
  0
ARC
  5
207
330
1F
100
AcDbEntity
  8
0
  6
Continuous
 62
     7
370
    15
100
AcDbCircle
 10
78.5724944718
 20
-172.7441351281
 30
0.0
 40
2.999720114992503
100
AcDbArc
 50
99.3333044758
 51
279.0116112204
  0
ARC
  5
208
330
1F
100
AcDbEntity
  8
0
  6
Continuous
 62
     7
370
    15
100
AcDbCircle
 10
50.2814912325
 20
-0.3877570914
 30
0.0
 40
177.6625004709637
100
AcDbArc
 50
279.3163153158
 51
350.9021277802
  0
ARC
  5
209
330
1F
100
AcDbEntity
  8
0
  6
Continuous
 62
     7
370
    15
100
AcDbCircle
 10
252.977869477
 20
-27.9919532809
 30
0.0
 40
2.988808503092357
100
AcDbArc
 50
351.9643580975
 51
172.2758122947
  0
ARC
  5
20A
330
1F
100
AcDbEntity
  8
0
  6
Continuous
 62
     7
370
    15
100
AcDbCircle
 10
50.2257058436
 20
-0.4214776786
 30
0.0
 40
201.6293017769536
100
AcDbArc
 50
277.9623826332
 51
352.2560604628
  0
ARC
  5
20B
330
1F
100
AcDbEntity
  8
0
  6
Continuous
 62
     7
370
    15
100
AcDbCircle
 10
78.5726134512
 20
-203.0776442231
 30
0.0
 40
2.999799502873881
100
AcDbArc
 50
97.983371834
 51
277.6582311827
  0
ARC
  5
20C
330
1F
100
AcDbEntity
  8
0
  6
Continuous
 62
     7
370
    15
100
AcDbCircle
 10
50.2350748781
 20
-0.4564984238
 30
0.0
 40
207.5928782635819
100
AcDbArc
 50
277.9570688444
 51
352.2613742516
  0
ARC
  5
20D
330
1F
100
AcDbEntity
  8
0
  6
Continuous
 62
     7
370
    15
100
AcDbCircle
 10
22.7701811181
 20
-111.5374560095
 30
0.0
 40
2.999333378803126
100
AcDbArc
 50
256.0993221908
 51
75.8198330037
  0
ARC
  5
20E
330
1F
100
AcDbEntity
  8
0
  6
Continuous
 62
     7
370
    15
100
AcDbCircle
 10
50.9214490936
 20
-0.2663875486
 30
0.0
 40
111.7776007079782
100
AcDbArc
 50
193.9797829046
 51
255.8017739994
  0
ARC
  5
20F
330
1F
100
AcDbEntity
  8
0
  6
Continuous
 62
     7
370
    15
100
AcDbCircle
 10
-60.4459946266
 20
-27.9923259336
 30
0.0
 40
2.989272539760766
100
AcDbArc
 50
13.9919057213
 51
194.2952821814
  0
ARC
  5
210
330
1F
100
AcDbEntity
  8
0
  6
Continuous
 62
     7
370
    15
100
AcDbCircle
 10
50.9524598723
 20
-0.2631458335
 30
0.0
 40
117.7869764940482
100
AcDbArc
 50
193.9859834795
 51
255.7955734245
  0
ARC
  5
211
330
1F
100
AcDbEntity
  8
0
  6
Continuous
 62
     7
370
    15
100
AcDbCircle
 10
22.7690831577
 20
-233.3249726006
 30
0.0
 40
2.999849591416086
100
AcDbArc
 50
263.3404377303
 51
83.0251748377
  0
ARC
  5
212
330
1F
100
AcDbEntity
  8
0
  6
Continuous
 62
     7
370
    15
100
AcDbCircle
 10
51.1625316889
 20
-0.4899307401
 30
0.0
 40
231.5600462645958
100
AcDbArc
 50
186.7339685725
 51
263.0475883315
  0
ARC
  5
213
330
1F
100
AcDbEntity
  8
0
  6
Continuous
 62
     7
370
    15
100
AcDbCircle
 10
-181.7683678126
 20
-27.9915265297
 30
0.0
 40
2.988758650900739
100
AcDbArc
 50
6.7052630452
 51
187.0324922776
  0
ARC
  5
214
330
1F
100
AcDbEntity
  8
0
  6
Continuous
 62
     7
370
    15
100
AcDbCircle
 10
51.1752507113
 20
-0.5026013627
 30
0.0
 40
237.5486681507492
100
AcDbArc
 50
186.7339685725
 51
263.0475883315
  0
ARC
  5
215
330
1F
100
AcDbEntity
  8
0
  6
Continuous
 62
     7
370
    15
100
AcDbCircle
 10
22.7692004902
 20
-203.0776929772
 30
0.0
 40
2.999798507670012
100
AcDbArc
 50
262.3349255903
 51
82.023471393
  0
ARC
  5
216
330
1F
100
AcDbEntity
  8
0
  6
Continuous
 62
     7
370
    15
100
AcDbCircle
 10
51.0938171479
 20
-0.4433302001
 30
0.0
 40
201.6046221598247
100
AcDbArc
 50
187.7386257484
 51
262.0429311556
  0
ARC
  5
217
330
1F
100
AcDbEntity
  8
0
  6
Continuous
 62
     7
370
    15
100
AcDbCircle
 10
-151.6364594313
 20
-27.9915996763
 30
0.0
 40
2.988809494650268
100
AcDbArc
 50
7.7173444783
 51
188.0424851295
  0
ARC
  5
218
330
1F
100
AcDbEntity
  8
0
  6
Continuous
 62
     7
370
    15
100
AcDbCircle
 10
51.1289716667
 20
-0.4339968176
 30
0.0
 40
207.6182909386456
100
AcDbArc
 50
187.7439395372
 51
262.0376173668
  0
ARC
  5
219
330
1F
100
AcDbEntity
  8
0
  6
Continuous
 62
     7
370
    15
100
AcDbCircle
 10
-181.857947274
 20
-27.9911159473
 30
0.0
 40
2.991117930504688
100
AcDbArc
 50
6.6920310924
 51
89.9340204634
  0
ARC
  5
21A
330
1F
100
AcDbEntity
  8
0
  6
Continuous
 62
     7
370
    15
100
AcDbCircle
 10
51.0753759462
 20
-0.4899307401
 30
0.0
 40
231.5600462645959
100
AcDbArc
 50
186.7339685725
 51
263.0475883315
  0
ARC
  5
21B
330
1F
100
AcDbEntity
  8
0
  6
Continuous
 62
     7
370
    15
100
AcDbCircle
 10
22.6808207692
 20
-233.3254794393
 30
0.0
 40
3.000487242038775
100
AcDbArc
 50
270.1776157504
 51
83.005374549
  0
ARC
  5
21C
330
1F
100
AcDbEntity
  8
0
  6
Continuous
 62
     7
370
    15
100
AcDbCircle
 10
49.4977706613
 20
-1.350078784
 30
0.0
 40
263.6499554607855
100
AcDbArc
 50
217.6518302903
 51
269.9707974423
  0
ARC
  5
21D
330
1F
100
AcDbEntity
  8
0
  6
Continuous
 62
     7
370
    15
100
AcDbCircle
 10
-151.7257370088
 20
-27.9908035981
 30
0.0
 40
2.990805401574542
100
AcDbArc
 50
7.6967733442
 51
89.9370782948
  0
ARC
  5
21E
330
1F
100
AcDbEntity
  8
0
  6
Continuous
 62
     7
370
    15
100
AcDbCircle
 10
51.0066614052
 20
-0.4433302001
 30
0.0
 40
201.6046221598247
100
AcDbArc
 50
187.7386257484
 51
262.0429311556
  0
ARC
  5
21F
330
1F
100
AcDbEntity
  8
0
  6
Continuous
 62
     7
370
    15
100
AcDbCircle
 10
22.6807523504
 20
-203.0782687632
 30
0.0
 40
3.000548305417968
100
AcDbArc
 50
270.1789186073
 51
82.0005574063
  0
ARC
  5
220
330
1F
100
AcDbEntity
  8
0
  6
Continuous
 62
     7
370
    15
100
AcDbCircle
 10
-121.5076296223
 20
-27.9903820306
 30
0.0
 40
2.990383611152994
100
AcDbArc
 50
9.0501101059
 51
89.9410914244
  0
ARC
  5
221
330
1F
100
AcDbEntity
  8
0
  6
Continuous
 62
     7
370
    15
100
AcDbCircle
 10
50.9493358823
 20
-0.3850029585
 30
0.0
 40
171.6620203806703
100
AcDbArc
 50
189.0950187846
 51
260.6865381194
  0
ARC
  5
222
330
1F
100
AcDbEntity
  8
0
  6
Continuous
 62
     7
370
    15
100
AcDbCircle
 10
22.6806710182
 20
-172.7448661997
 30
0.0
 40
3.000626194262366
100
AcDbArc
 50
270.1804669762
 51
80.6475220948
  0
ARC
  5
223
330
1F
100
AcDbEntity
  8
0
  6
Continuous
 62
     7
370
    15
100
AcDbCircle
 10
-91.1501081557
 20
-27.9914897662
 30
0.0
 40
2.991492710502619
100
AcDbArc
 50
10.9999296083
 51
89.9196133775
  0
ARC
  5
224
330
1F
100
AcDbEntity
  8
0
  6
Continuous
 62
     7
370
    15
100
AcDbCircle
 10
50.8919154751
 20
-0.3261508956
 30
0.0
 40
141.7196247416906
100
AcDbArc
 50
191.0218949217
 51
258.7596619823
  0
ARC
  5
225
330
1F
100
AcDbEntity
  8
0
  6
Continuous
 62
     7
370
    15
100
AcDbCircle
 10
22.6805767536
 20
-142.2701560284
 30
0.0
 40
3.000727570460634
100
AcDbArc
 50
270.1822607722
 51
78.7258890721
  0
ARC
  5
226
330
1F
100
AcDbEntity
  8
0
  6
Continuous
 62
     7
370
    15
100
AcDbCircle
 10
-60.5348866875
 20
-27.9905189863
 30
0.0
 40
2.990521238416675
100
AcDbArc
 50
13.9502700517
 51
89.9296837037
  0
ARC
  5
227
330
1F
100
AcDbEntity
  8
0
  6
Continuous
 62
     7
370
    15
100
AcDbCircle
 10
50.8342933509
 20
-0.2663875486
 30
0.0
 40
111.7776007079782
100
AcDbArc
 50
193.9797829046
 51
255.8017739994
  0
ARC
  5
228
330
1F
100
AcDbEntity
  8
0
  6
Continuous
 62
     7
370
    15
100
AcDbCircle
 10
22.6804802407
 20
-111.538386458
 30
0.0
 40
3.000859798720457
100
AcDbArc
 50
270.1840954838
 51
75.7770710674
  0
ARC
  5
229
330
1F
100
AcDbEntity
  8
0
  6
Continuous
 62
     7
370
    15
100
AcDbCircle
 10
50.079052532
 20
-0.5026013627
 30
0.0
 40
237.5486681507492
100
AcDbArc
 50
276.9524116685
 51
353.2660314275
  0
ARC
  5
22A
330
1F
100
AcDbEntity
  8
0
  6
Continuous
 62
     7
370
    15
100
AcDbCircle
 10
50.1253315766
 20
-0.4339968176
 30
0.0
 40
207.6182909386455
100
AcDbArc
 50
277.9623826332
 51
352.2560604628
  0
ARC
  5
22B
330
1F
100
AcDbEntity
  8
0
  6
Continuous
 62
     7
370
    15
100
AcDbCircle
 10
50.1943354898
 20
-0.3877570914
 30
0.0
 40
177.6625004709636
100
AcDbArc
 50
279.3163153158
 51
350.9021277802
  0
ARC
  5
22C
330
1F
100
AcDbEntity
  8
0
  6
Continuous
 62
     7
370
    15
100
AcDbCircle
 10
50.2522734241
 20
-0.3300396284
 30
0.0
 40
147.7194162646115
100
AcDbArc
 50
281.2433677968
 51
348.9750752992
  0
ARC
  5
22D
330
1F
100
AcDbEntity
  8
0
  6
Continuous
 62
     7
370
    15
100
AcDbCircle
 10
50.5272338375
 20
-0.6816417651
 30
0.0
 40
117.3260258193298
100
AcDbArc
 50
284.1478721193
 51
303.1986949996
  0
ARC
  5
22E
330
1F
100
AcDbEntity
  8
0
  6
Continuous
 62
     7
370
    15
100
AcDbCircle
 10
252.8835091317
 20
-27.995450619
 30
0.0
 40
2.995456811557018
100
AcDbArc
 50
352.0498606869
 51
89.8834958074
  0
ARC
  5
22F
330
1F
100
AcDbEntity
  8
0
  6
Continuous
 62
     7
370
    15
100
AcDbCircle
 10
283.0157544156
 20
-27.9951741932
 30
0.0
 40
2.995179996150239
100
AcDbArc
 50
353.0529592476
 51
89.8872151806
  0
ARC
  5
230
330
1F
100
AcDbEntity
  8
0
  6
Continuous
 62
     7
370
    15
100
AcDbCircle
 10
192.307226023
 20
-27.9955843511
 30
0.0
 40
2.995590029240479
100
AcDbArc
 50
348.7633509454
 51
89.8884426952
  0
ARC
  5
231
330
1F
100
AcDbEntity
  8
0
  6
Continuous
 62
     7
370
    15
100
AcDbCircle
 10
222.6653473874
 20
-27.9958163255
 30
0.0
 40
2.995823066320055
100
AcDbArc
 50
350.6990848853
 51
89.8784557376
  0
ARC
  5
232
330
1F
100
AcDbEntity
  8
0
  6
Continuous
 62
     7
370
    15
100
AcDbCircle
 10
70.6967863856
 20
-0.7295183341
 30
0.0
 40
27.87212568695868
100
AcDbArc
 50
275.5226253179
 51
300.9868676649
  0
ARC
  5
233
330
1F
100
AcDbEntity
  8
0
  6
Continuous
 62
     7
370
    15
100
AcDbCircle
 10
50.2325096443
 20
1.5429494816
 30
0.0
 40
263.4276892211225
100
AcDbArc
 50
37.6361466875
 51
143.2341533193
  0
ARC
  5
234
330
1F
100
AcDbEntity
  8
0
  6
Continuous
 62
     7
370
    15
100
AcDbCircle
 10
78.5720816095
 20
172.7442017936
 30
0.0
 40
2.999718970104198
100
AcDbArc
 50
80.9804008402
 51
260.6746834636
  0
ARC
  5
235
330
1F
100
AcDbEntity
  8
0
  6
Continuous
 62
     7
370
    15
100
AcDbCircle
 10
50.304967361
 20
0.3850029585
 30
0.0
 40
171.6620203806703
100
AcDbArc
 50
9.0950187846
 51
80.6865381194
  0
ARC
  5
236
330
1F
100
AcDbEntity
  8
0
  6
Continuous
 62
     7
370
    15
100
AcDbCircle
 10
222.7602058165
 20
27.9917182029
 30
0.0
 40
2.988888662923457
100
AcDbArc
 50
189.0806127683
 51
9.4023060237
  0
ARC
  5
237
330
1F
100
AcDbEntity
  8
0
  6
Continuous
 62
     7
370
    15
100
AcDbCircle
 10
50.2814912325
 20
0.3877570914
 30
0.0
 40
177.6625004709637
100
AcDbArc
 50
9.0978722198
 51
80.6836846842
  0
ARC
  5
238
330
1F
100
AcDbEntity
  8
0
  6
Continuous
 62
     7
370
    15
100
AcDbCircle
 10
78.5717945655
 20
142.269375718
 30
0.0
 40
2.999585126524776
100
AcDbArc
 50
79.0555583756
 51
258.7591651616
  0
ARC
  5
239
330
1F
100
AcDbEntity
  8
0
  6
Continuous
 62
     7
370
    15
100
AcDbCircle
 10
50.3623877682
 20
0.3261508956
 30
0.0
 40
141.7196247416906
100
AcDbArc
 50
11.0218949217
 51
78.7596619823
  0
ARC
  5
23A
330
1F
100
AcDbEntity
  8
0
  6
Continuous
 62
     7
370
    15
100
AcDbCircle
 10
192.4018095923
 20
27.9919250145
 30
0.0
 40
2.989021897135138
100
AcDbArc
 50
191.0176357076
 51
11.3331941634
  0
ARC
  5
23B
330
1F
100
AcDbEntity
  8
0
  6
Continuous
 62
     7
370
    15
100
AcDbCircle
 10
50.3394291668
 20
0.3300396284
 30
0.0
 40
147.7194162646116
100
AcDbArc
 50
11.0249247008
 51
78.7566322032
  0
ARC
  5
23C
330
1F
100
AcDbEntity
  8
0
  6
Continuous
 62
     7
370
    15
100
AcDbCircle
 10
-60.4458423622
 20
27.9929301772
 30
0.0
 40
2.989270954991199
100
AcDbArc
 50
165.7166614551
 51
345.9961506422
  0
ARC
  5
23D
330
1F
100
AcDbEntity
  8
0
  6
Continuous
 62
     7
370
    15
100
AcDbCircle
 10
50.9381345988
 20
0.2497655369
 30
0.0
 40
111.7978081977406
100
AcDbArc
 50
104.2044265755
 51
166.0140165205
  0
ARC
  5
23E
330
1F
100
AcDbEntity
  8
0
  6
Continuous
 62
     7
370
    15
100
AcDbCircle
 10
22.7695745664
 20
111.5373043246
 30
0.0
 40
2.999334968907319
100
AcDbArc
 50
284.1921106328
 51
103.8887341727
  0
ARC
  5
23F
330
1F
100
AcDbEntity
  8
0
  6
Continuous
 62
     7
370
    15
100
AcDbCircle
 10
50.9348805008
 20
0.2806583102
 30
0.0
 40
117.7656864601912
100
AcDbArc
 50
104.1982260006
 51
166.0202170954
  0
ARC
  5
240
330
1F
100
AcDbEntity
  8
0
  6
Continuous
 62
     7
370
    15
100
AcDbCircle
 10
-91.0602537169
 20
27.9924154458
 30
0.0
 40
2.98902056230434
100
AcDbArc
 50
168.6763884575
 51
348.9727816716
  0
ARC
  5
241
330
1F
100
AcDbEntity
  8
0
  6
Continuous
 62
     7
370
    15
100
AcDbCircle
 10
50.998126232
 20
0.3071683914
 30
0.0
 40
141.7419582163829
100
AcDbArc
 50
101.2463970985
 51
168.9720459975
  0
ARC
  5
242
330
1F
100
AcDbEntity
  8
0
  6
Continuous
 62
     7
370
    15
100
AcDbCircle
 10
22.7691721158
 20
142.2692791974
 30
0.0
 40
2.999586466073477
100
AcDbArc
 50
281.2504174593
 51
100.9348590035
  0
ARC
  5
243
330
1F
100
AcDbEntity
  8
0
  6
Continuous
 62
     7
370
    15
100
AcDbCircle
 10
51.0020298192
 20
0.3300396284
 30
0.0
 40
147.7194162646117
100
AcDbArc
 50
101.2433677968
 51
168.9750752992
  0
ARC
  5
244
330
1F
100
AcDbEntity
  8
0
  6
Continuous
 62
     7
370
    15
100
AcDbCircle
 10
-181.7683304856
 20
27.9918363949
 30
0.0
 40
2.988757775945571
100
AcDbArc
 50
172.9734908923
 51
353.2887537849
  0
ARC
  5
245
330
1F
100
AcDbEntity
  8
0
  6
Continuous
 62
     7
370
    15
100
AcDbCircle
 10
51.1625316889
 20
0.4899307401
 30
0.0
 40
231.560046264596
100
AcDbArc
 50
96.9524116685
 51
173.2660314275
  0
ARC
  5
246
330
1F
100
AcDbEntity
  8
0
  6
Continuous
 62
     7
370
    15
100
AcDbCircle
 10
22.7687721089
 20
233.3249354156
 30
0.0
 40
2.999850469618364
100
AcDbArc
 50
276.9808083322
 51
96.6535790998
  0
ARC
  5
247
330
1F
100
AcDbEntity
  8
0
  6
Continuous
 62
     7
370
    15
100
AcDbCircle
 10
51.1752507113
 20
0.5026013627
 30
0.0
 40
237.5486681507493
100
AcDbArc
 50
96.9524116685
 51
173.2660314275
  0
ARC
  5
248
330
1F
100
AcDbEntity
  8
0
  6
Continuous
 62
     7
370
    15
100
AcDbCircle
 10
-121.4186799103
 20
27.9921294942
 30
0.0
 40
2.988887522169112
100
AcDbArc
 50
170.6056819156
 51
350.9113992923
  0
ARC
  5
249
330
1F
100
AcDbEntity
  8
0
  6
Continuous
 62
     7
370
    15
100
AcDbCircle
 10
51.0572031003
 20
0.3643702967
 30
0.0
 40
171.6857337642245
100
AcDbArc
 50
99.3191683569
 51
170.8992747391
  0
ARC
  5
24A
330
1F
100
AcDbEntity
  8
0
  6
Continuous
 62
     7
370
    15
100
AcDbCircle
 10
22.7689645142
 20
172.7441351281
 30
0.0
 40
2.999720114992512
100
AcDbArc
 50
279.3333044758
 51
99.0116112204
  0
ARC
  5
24B
330
1F
100
AcDbEntity
  8
0
  6
Continuous
 62
     7
370
    15
100
AcDbCircle
 10
51.0599677535
 20
0.3877570914
 30
0.0
 40
177.6625004709635
100
AcDbArc
 50
99.3163153158
 51
170.9021277802
  0
ARC
  5
24C
330
1F
100
AcDbEntity
  8
0
  6
Continuous
 62
     7
370
    15
100
AcDbCircle
 10
-151.636410491
 20
27.9919532809
 30
0.0
 40
2.988808503092355
100
AcDbArc
 50
171.9643580975
 51
352.2758122947
  0
ARC
  5
24D
330
1F
100
AcDbEntity
  8
0
  6
Continuous
 62
     7
370
    15
100
AcDbCircle
 10
51.1157531424
 20
0.4214776786
 30
0.0
 40
201.6293017769538
100
AcDbArc
 50
97.9623826332
 51
172.2560604628
  0
ARC
  5
24E
330
1F
100
AcDbEntity
  8
0
  6
Continuous
 62
     7
370
    15
100
AcDbCircle
 10
22.7688455349
 20
203.0776442231
 30
0.0
 40
2.999799502873893
100
AcDbArc
 50
277.983371834
 51
97.6582311827
  0
ARC
  5
24F
330
1F
100
AcDbEntity
  8
0
  6
Continuous
 62
     7
370
    15
100
AcDbCircle
 10
51.106384108
 20
0.4564984238
 30
0.0
 40
207.5928782635821
100
AcDbArc
 50
97.9570688444
 51
172.2613742516
  0
ARC
  5
250
330
1F
100
AcDbEntity
  8
0
  6
Continuous
 62
     7
370
    15
100
AcDbCircle
 10
78.571277868
 20
111.5374560095
 30
0.0
 40
2.999333378803155
100
AcDbArc
 50
76.0993221908
 51
255.8198330037
  0
ARC
  5
251
330
1F
100
AcDbEntity
  8
0
  6
Continuous
 62
     7
370
    15
100
AcDbCircle
 10
50.6385149868
 20
0.7080587124
 30
0.0
 40
111.2958750666165
100
AcDbArc
 50
65.5288083759
 51
75.8550556339
  0
ARC
  5
252
330
1F
100
AcDbEntity
  8
0
  6
Continuous
 62
     7
370
    15
100
AcDbCircle
 10
50.6143155075
 20
0.6814282862
 30
0.0
 40
117.3262509282882
100
AcDbArc
 50
56.7645385431
 51
75.8521182865
  0
ARC
  5
253
330
1F
100
AcDbEntity
  8
0
  6
Continuous
 62
     7
370
    15
100
AcDbCircle
 10
78.5723758283
 20
233.3249726006
 30
0.0
 40
2.999849591416075
100
AcDbArc
 50
83.3404377303
 51
263.0251748377
  0
ARC
  5
254
330
1F
100
AcDbEntity
  8
0
  6
Continuous
 62
     7
370
    15
100
AcDbCircle
 10
50.1789272971
 20
0.4899307401
 30
0.0
 40
231.5600462645959
100
AcDbArc
 50
6.7339685725
 51
83.0475883315
  0
ARC
  5
255
330
1F
100
AcDbEntity
  8
0
  6
Continuous
 62
     7
370
    15
100
AcDbCircle
 10
283.1098267986
 20
27.9915265297
 30
0.0
 40
2.988758650900742
100
AcDbArc
 50
186.7052630452
 51
7.0324922776
  0
ARC
  5
256
330
1F
100
AcDbEntity
  8
0
  6
Continuous
 62
     7
370
    15
100
AcDbCircle
 10
50.1662082748
 20
0.5026013627
 30
0.0
 40
237.5486681507493
100
AcDbArc
 50
6.7339685725
 51
83.0475883315
  0
ARC
  5
257
330
1F
100
AcDbEntity
  8
0
  6
Continuous
 62
     7
370
    15
100
AcDbCircle
 10
78.5722584959
 20
203.0776929772
 30
0.0
 40
2.999798507669947
100
AcDbArc
 50
82.3349255903
 51
262.023471393
  0
ARC
  5
258
330
1F
100
AcDbEntity
  8
0
  6
Continuous
 62
     7
370
    15
100
AcDbCircle
 10
50.2476418381
 20
0.4433302001
 30
0.0
 40
201.6046221598245
100
AcDbArc
 50
7.7386257484
 51
82.0429311556
  0
ARC
  5
259
330
1F
100
AcDbEntity
  8
0
  6
Continuous
 62
     7
370
    15
100
AcDbCircle
 10
252.9779184174
 20
27.9915996763
 30
0.0
 40
2.988809494650287
100
AcDbArc
 50
187.7173444783
 51
8.0424851295
  0
ARC
  5
25A
330
1F
100
AcDbEntity
  8
0
  6
Continuous
 62
     7
370
    15
100
AcDbCircle
 10
50.2124873194
 20
0.4339968176
 30
0.0
 40
207.6182909386454
100
AcDbArc
 50
7.7439395372
 51
82.0376173668
  0
ARC
  5
25B
330
1F
100
AcDbEntity
  8
0
  6
Continuous
 62
     7
370
    15
100
AcDbCircle
 10
-181.8587950008
 20
27.9920678506
 30
0.0
 40
2.992070929177325
100
AcDbArc
 50
270.0821918295
 51
353.2917566148
  0
ARC
  5
25C
330
1F
100
AcDbEntity
  8
0
  6
Continuous
 62
     7
370
    15
100
AcDbCircle
 10
51.0753759462
 20
0.4899307401
 30
0.0
 40
231.5600462645961
100
AcDbArc
 50
96.9524116685
 51
173.2660314275
  0
ARC
  5
25D
330
1F
100
AcDbEntity
  8
0
  6
Continuous
 62
     7
370
    15
100
AcDbCircle
 10
22.6810562915
 20
233.325493467
 30
0.0
 40
3.000472493545995
100
AcDbArc
 50
276.9901288667
 51
89.8268808339
  0
ARC
  5
25E
330
1F
100
AcDbEntity
  8
0
  6
Continuous
 62
     7
370
    15
100
AcDbCircle
 10
49.5060703268
 20
1.3265691676
 30
0.0
 40
263.673469434553
100
AcDbArc
 50
90.0310034563
 51
143.2153614009
  0
ARC
  5
25F
330
1F
100
AcDbEntity
  8
0
  6
Continuous
 62
     7
370
    15
100
AcDbCircle
 10
-151.7265699719
 20
27.9917556515
 30
0.0
 40
2.991758484819172
100
AcDbArc
 50
270.0788539192
 51
352.2872944418
  0
ARC
  5
260
330
1F
100
AcDbEntity
  8
0
  6
Continuous
 62
     7
370
    15
100
AcDbCircle
 10
51.0285973997
 20
0.4214776786
 30
0.0
 40
201.6293017769537
100
AcDbArc
 50
97.9623826332
 51
172.2560604628
  0
ARC
  5
261
330
1F
100
AcDbEntity
  8
0
  6
Continuous
 62
     7
370
    15
100
AcDbCircle
 10
22.6810219328
 20
203.07828719
 30
0.0
 40
3.000529048990355
100
AcDbArc
 50
277.9942959805
 51
89.8262280058
  0
ARC
  5
262
330
1F
100
AcDbEntity
  8
0
  6
Continuous
 62
     7
370
    15
100
AcDbCircle
 10
-121.508441901
 20
27.9913329389
 30
0.0
 40
2.991335464122037
100
AcDbArc
 50
270.0744481569
 51
350.9343503128
  0
ARC
  5
263
330
1F
100
AcDbEntity
  8
0
  6
Continuous
 62
     7
370
    15
100
AcDbCircle
 10
50.9700473576
 20
0.3643702967
 30
0.0
 40
171.6857337642244
100
AcDbArc
 50
99.3191683569
 51
170.8992747391
  0
ARC
  5
264
330
1F
100
AcDbEntity
  8
0
  6
Continuous
 62
     7
370
    15
100
AcDbCircle
 10
22.6809860709
 20
172.7448914708
 30
0.0
 40
3.00059994749927
100
AcDbArc
 50
279.3464635955
 51
89.8255473336
  0
ARC
  5
265
330
1F
100
AcDbEntity
  8
0
  6
Continuous
 62
     7
370
    15
100
AcDbCircle
 10
-91.1501081557
 20
27.9914897662
 30
0.0
 40
2.99149271050263
100
AcDbArc
 50
270.0803866225
 51
349.0000703917
  0
ARC
  5
266
330
1F
100
AcDbEntity
  8
0
  6
Continuous
 62
     7
370
    15
100
AcDbCircle
 10
50.9109704893
 20
0.3071683914
 30
0.0
 40
141.7419582163828
100
AcDbArc
 50
101.2463970985
 51
168.9720459975
  0
ARC
  5
267
330
1F
100
AcDbEntity
  8
0
  6
Continuous
 62
     7
370
    15
100
AcDbCircle
 10
22.6809554712
 20
142.2701928011
 30
0.0
 40
3.000689617064625
100
AcDbArc
 50
281.266881888
 51
89.8249682677
  0
ARC
  5
268
330
1F
100
AcDbEntity
  8
0
  6
Continuous
 62
     7
370
    15
100
AcDbCircle
 10
-60.5348866875
 20
27.9905189863
 30
0.0
 40
2.990521238416569
100
AcDbArc
 50
270.0703162963
 51
346.0497299483
  0
ARC
  5
269
330
1F
100
AcDbEntity
  8
0
  6
Continuous
 62
     7
370
    15
100
AcDbCircle
 10
50.8509788561
 20
0.2497655369
 30
0.0
 40
111.7978081977406
100
AcDbArc
 50
104.2044265755
 51
166.0140165205
  0
ARC
  5
26A
330
1F
100
AcDbEntity
  8
0
  6
Continuous
 62
     7
370
    15
100
AcDbCircle
 10
22.6809541202
 20
111.5384448061
 30
0.0
 40
3.00079996570281
100
AcDbArc
 50
284.2138845406
 51
89.8249489081
  0
ARC
  5
26B
330
1F
100
AcDbEntity
  8
0
  6
Continuous
 62
     7
370
    15
100
AcDbCircle
 10
50.079052532
 20
0.5026013627
 30
0.0
 40
237.5486681507489
100
AcDbArc
 50
6.7339685725
 51
83.0475883315
  0
ARC
  5
26C
330
1F
100
AcDbEntity
  8
0
  6
Continuous
 62
     7
370
    15
100
AcDbCircle
 10
50.1479191353
 20
0.4564984238
 30
0.0
 40
207.592878263582
100
AcDbArc
 50
7.7386257484
 51
82.0429311556
  0
ARC
  5
26D
330
1F
100
AcDbEntity
  8
0
  6
Continuous
 62
     7
370
    15
100
AcDbCircle
 10
50.1943354898
 20
0.3877570914
 30
0.0
 40
177.6625004709634
100
AcDbArc
 50
9.0978722198
 51
80.6836846842
  0
ARC
  5
26E
330
1F
100
AcDbEntity
  8
0
  6
Continuous
 62
     7
370
    15
100
AcDbCircle
 10
50.2522734241
 20
0.3300396284
 30
0.0
 40
147.7194162646113
100
AcDbArc
 50
11.0249247008
 51
78.7566322032
  0
ARC
  5
26F
330
1F
100
AcDbEntity
  8
0
  6
Continuous
 62
     7
370
    15
100
AcDbCircle
 10
50.5272338375
 20
0.6816417651
 30
0.0
 40
117.3260258193293
100
AcDbArc
 50
56.8013050004
 51
75.8521278807
  0
ARC
  5
270
330
1F
100
AcDbEntity
  8
0
  6
Continuous
 62
     7
370
    15
100
AcDbCircle
 10
252.8825179338
 20
27.9963112426
 30
0.0
 40
2.996319612241399
100
AcDbArc
 50
270.1354244279
 51
7.9312190779
  0
ARC
  5
271
330
1F
100
AcDbEntity
  8
0
  6
Continuous
 62
     7
370
    15
100
AcDbCircle
 10
283.0147681108
 20
27.9960458844
 30
0.0
 40
2.996053788948003
100
AcDbArc
 50
270.1316138135
 51
6.9282117583
  0
ARC
  5
272
330
1F
100
AcDbEntity
  8
0
  6
Continuous
 62
     7
370
    15
100
AcDbCircle
 10
192.307226023
 20
27.9955843511
 30
0.0
 40
2.995590029240442
100
AcDbArc
 50
270.1115573048
 51
11.2366490546
  0
ARC
  5
273
330
1F
100
AcDbEntity
  8
0
  6
Continuous
 62
     7
370
    15
100
AcDbCircle
 10
222.6643508877
 20
27.9966610831
 30
0.0
 40
2.996670100954257
100
AcDbArc
 50
270.1405628482
 51
9.281896529
  0
ARC
  5
274
330
1F
100
AcDbEntity
  8
0
  6
Continuous
 62
     7
370
    15
100
AcDbCircle
 10
93.9117119447
 20
-2.2287795566
 30
0.0
 40
108.1264240188438
100
AcDbArc
 50
178.8188945683
 51
191.0704616988
  0
ARC
  5
275
330
1F
100
AcDbEntity
  8
0
  6
Continuous
 62
     7
370
    15
100
AcDbCircle
 10
70.6037271421
 20
-0.3494277427
 30
0.0
 40
28.36461569349615
100
AcDbArc
 50
179.2941472731
 51
0.7058527269
  0
ARC
  5
276
330
1F
100
AcDbEntity
  8
0
  6
Continuous
 62
     7
370
    15
100
AcDbCircle
 10
71.149015228
 20
-0.7698051716
 30
0.0
 40
28.03030758943084
100
AcDbArc
 50
241.0261278652
 51
269.4303697773
  0
ARC
  5
277
330
1F
100
AcDbEntity
  8
0
  6
Continuous
 62
     7
370
    15
100
AcDbCircle
 10
70.6037271421
 20
0.3494277427
 30
0.0
 40
28.36461569349614
100
AcDbArc
 50
359.2941472731
 51
180.7058527269
  0
ARC
  5
278
330
1F
100
AcDbEntity
  8
0
  6
Continuous
 62
     7
370
    15
100
AcDbCircle
 10
96.126981239
 20
2.0371237479
 30
0.0
 40
110.3375272294119
100
AcDbArc
 50
169.0527513909
 51
181.057892342
  0
ARC
  5
279
330
1F
100
AcDbEntity
  8
0
  6
Continuous
 62
     7
370
    15
100
AcDbCircle
 10
71.1511256812
 20
0.7618014508
 30
0.0
 40
28.03833196989295
100
AcDbArc
 50
90.5737800764
 51
118.9697222787
  0
ARC
  5
27A
330
1F
100
AcDbEntity
  8
0
  6
PHANTOM
 62
     8
370
     0
100
AcDbCircle
 10
139.5622614715
 20
-61.9494233192
 30
0.0
 40
0.2413599393737476
100
AcDbArc
 50
306.8082704629
 51
322.9916082638
  0
ARC
  5
27B
330
1F
100
AcDbEntity
  8
0
  6
PHANTOM
 62
     8
370
     0
100
AcDbCircle
 10
25.1498204905
 20
-62.1719911323
 30
0.0
 40
0.2231172545836476
100
AcDbArc
 50
160.7256832038
 51
172.447789236
  0
ARC
  5
27C
330
1F
100
AcDbEntity
  8
0
  6
PHANTOM
 62
     8
370
     0
100
AcDbCircle
 10
51.8868689445
 20
-0.0534666398
 30
0.0
 40
265.6435185401805
100
AcDbArc
 50
179.9884679557
 51
217.6733059634
  0
ARC
  5
27D
330
1F
100
AcDbEntity
  8
0
  6
PHANTOM
 62
     8
370
     0
100
AcDbCircle
 10
51.015311517
 20
-0.0534666398
 30
0.0
 40
265.6435185401807
100
AcDbArc
 50
179.9884679557
 51
217.6733059634
  0
ARC
  5
27E
330
1F
100
AcDbEntity
  8
0
  6
PHANTOM
 62
     8
370
     0
100
AcDbCircle
 10
51.8977892212
 20
0.0516034313
 30
0.0
 40
265.6544384482477
100
AcDbArc
 50
143.1914592084
 51
180.0111297175
  0
ARC
  5
27F
330
1F
100
AcDbEntity
  8
0
  6
PHANTOM
 62
     8
370
     0
100
AcDbCircle
 10
51.0262317938
 20
0.0516034313
 30
0.0
 40
265.6544384482472
100
AcDbArc
 50
143.1914592083
 51
180.0111297175
  0
ENDSEC
  0
SECTION
  2
OBJECTS
  0
DICTIONARY
  5
C
330
0
100
AcDbDictionary
281
     1
  3
ACAD_GROUP
350
D
  3
ACAD_LAYOUT
350
1A
  3
ACAD_MLINESTYLE
350
17
  3
ACAD_PLOTSETTINGS
350
19
  3
ACAD_PLOTSTYLENAME
350
E
  3
ACAD_SCALELIST
350
47
  0
DICTIONARY
  5
D
102
{ACAD_REACTORS
330
C
102
}
330
C
100
AcDbDictionary
281
     1
  0
DICTIONARY
  5
1A
102
{ACAD_REACTORS
330
C
102
}
330
C
100
AcDbDictionary
281
     1
  3
Layout1
350
1E
  3
Layout2
350
26
  3
Model
350
22
  0
DICTIONARY
  5
17
102
{ACAD_REACTORS
330
C
102
}
330
C
100
AcDbDictionary
281
     1
  3
Standard
350
18
  0
DICTIONARY
  5
19
102
{ACAD_REACTORS
330
C
102
}
330
C
100
AcDbDictionary
281
     1
  0
ACDBDICTIONARYWDFLT
  5
E
102
{ACAD_REACTORS
330
C
102
}
330
C
100
AcDbDictionary
281
     1
  3
Normal
350
F
100
AcDbDictionaryWithDefault
340
F
  0
DICTIONARY
  5
47
102
{ACAD_REACTORS
330
C
102
}
330
C
100
AcDbDictionary
281
     1
  3
A0
350
48
  3
A1
350
49
  3
A2
350
4A
  3
A3
350
4B
  3
A4
350
4C
  3
A5
350
4D
  3
A6
350
4E
  3
A7
350
4F
  3
A8
350
50
  3
A9
350
51
  3
B0
350
52
  3
B1
350
53
  3
B2
350
54
  3
B3
350
55
  3
B4
350
56
  3
B5
350
57
  3
B6
350
58
  3
B7
350
59
  3
B8
350
5A
  3
B9
350
5B
  3
C0
350
5C
  3
C1
350
5D
  3
C2
350
5E
  3
C3
350
5F
  3
C4
350
60
  3
C5
350
61
  3
C6
350
62
  3
C7
350
63
  3
C8
350
64
  3
C9
350
65
  3
D0
350
66
  3
D1
350
67
  3
D2
350
68
  0
LAYOUT
  5
1E
102
{ACAD_REACTORS
330
1A
102
}
330
1A
100
AcDbPlotSettings
  1

  2
none_device
  4

  6

 40
0.0
 41
0.0
 42
0.0
 43
0.0
 44
0.0
 45
0.0
 46
0.0
 47
0.0
 48
0.0
 49
0.0
140
0.0
141
0.0
142
1.0
143
1.0
 70
   688
 72
     1
 73
     0
 74
     5
  7

 75
    16
147
1.0
148
0.0
149
0.0
100
AcDbLayout
  1
Layout1
 70
     1
 71
     1
 10
0.0
 20
0.0
 11
420.0
 21
297.0
 12
0.0
 22
0.0
 32
0.0
 14
1.0000000000E+20
 24
1.0000000000E+20
 34
1.0000000000E+20
 15
-1.0000000000E+20
 25
-1.0000000000E+20
 35
-1.0000000000E+20
146
0.0
 13
0.0
 23
0.0
 33
0.0
 16
1.0
 26
0.0
 36
0.0
 17
0.0
 27
1.0
 37
0.0
 76
     0
330
1B
  0
LAYOUT
  5
26
102
{ACAD_REACTORS
330
1A
102
}
330
1A
100
AcDbPlotSettings
  1

  2
none_device
  4

  6

 40
0.0
 41
0.0
 42
0.0
 43
0.0
 44
0.0
 45
0.0
 46
0.0
 47
0.0
 48
0.0
 49
0.0
140
0.0
141
0.0
142
1.0
143
1.0
 70
   688
 72
     1
 73
     0
 74
     5
  7

 75
    16
147
1.0
148
0.0
149
0.0
100
AcDbLayout
  1
Layout2
 70
     1
 71
     2
 10
0.0
 20
0.0
 11
0.0
 21
0.0
 12
0.0
 22
0.0
 32
0.0
 14
0.0
 24
0.0
 34
0.0
 15
0.0
 25
0.0
 35
0.0
146
0.0
 13
0.0
 23
0.0
 33
0.0
 16
1.0
 26
0.0
 36
0.0
 17
0.0
 27
1.0
 37
0.0
 76
     0
330
23
  0
LAYOUT
  5
22
102
{ACAD_REACTORS
330
1A
102
}
330
1A
100
AcDbPlotSettings
  1

  2
none_device
  4
ANSI_A_(11.00_x_8.50_Inches)
  6

 40
6.35
 41
19.05
 42
6.35000508
 43
19.05000254
 44
279.4
 45
215.9
 46
133.3499974605
 47
88.89999873
 48
0.0
 49
0.0
140
0.0
141
0.0
142
0.00187
143
1.0
 70
  1696
 72
     0
 73
     0
 74
     0
  7

 75
     0
147
0.0179189148
148
-1300.4909072572
149
0.0
100
AcDbLayout
  1
Model
 70
     1
 71
     0
 10
0.0
 20
0.0
 11
420.0
 21
297.0
 12
0.0
 22
0.0
 32
0.0
 14
-2250.0000000105
 24
-2250.0
 34
0.0
 15
2249.9999999895
 25
2250.0
 35
0.0
146
0.0
 13
0.0
 23
0.0
 33
0.0
 16
1.0
 26
0.0
 36
0.0
 17
0.0
 27
1.0
 37
0.0
 76
     0
330
1F
331
29
  0
MLINESTYLE
  5
18
102
{ACAD_REACTORS
330
17
102
}
330
17
100
AcDbMlineStyle
  2
Standard
 70
     0
  3

 62
   256
 51
90.0
 52
90.0
 71
     2
 49
0.5
 62
   256
  6
BYLAYER
 49
-0.5
 62
   256
  6
BYLAYER
  0
ACDBPLACEHOLDER
  5
F
102
{ACAD_REACTORS
330
E
102
}
330
E
  0
SCALE
  5
48
102
{ACAD_REACTORS
330
47
102
}
330
47
100
AcDbScale
 70
     0
300
1:1
140
1.0
141
1.0
290
     1
  0
SCALE
  5
49
102
{ACAD_REACTORS
330
47
102
}
330
47
100
AcDbScale
 70
     0
300
1:2
140
1.0
141
2.0
290
     0
  0
SCALE
  5
4A
102
{ACAD_REACTORS
330
47
102
}
330
47
100
AcDbScale
 70
     0
300
1:4
140
1.0
141
4.0
290
     0
  0
SCALE
  5
4B
102
{ACAD_REACTORS
330
47
102
}
330
47
100
AcDbScale
 70
     0
300
1:5
140
1.0
141
5.0
290
     0
  0
SCALE
  5
4C
102
{ACAD_REACTORS
330
47
102
}
330
47
100
AcDbScale
 70
     0
300
1:8
140
1.0
141
8.0
290
     0
  0
SCALE
  5
4D
102
{ACAD_REACTORS
330
47
102
}
330
47
100
AcDbScale
 70
     0
300
1:10
140
1.0
141
10.0
290
     0
  0
SCALE
  5
4E
102
{ACAD_REACTORS
330
47
102
}
330
47
100
AcDbScale
 70
     0
300
1:16
140
1.0
141
16.0
290
     0
  0
SCALE
  5
4F
102
{ACAD_REACTORS
330
47
102
}
330
47
100
AcDbScale
 70
     0
300
1:20
140
1.0
141
20.0
290
     0
  0
SCALE
  5
50
102
{ACAD_REACTORS
330
47
102
}
330
47
100
AcDbScale
 70
     0
300
1:30
140
1.0
141
30.0
290
     0
  0
SCALE
  5
51
102
{ACAD_REACTORS
330
47
102
}
330
47
100
AcDbScale
 70
     0
300
1:40
140
1.0
141
40.0
290
     0
  0
SCALE
  5
52
102
{ACAD_REACTORS
330
47
102
}
330
47
100
AcDbScale
 70
     0
300
1:50
140
1.0
141
50.0
290
     0
  0
SCALE
  5
53
102
{ACAD_REACTORS
330
47
102
}
330
47
100
AcDbScale
 70
     0
300
1:100
140
1.0
141
100.0
290
     0
  0
SCALE
  5
54
102
{ACAD_REACTORS
330
47
102
}
330
47
100
AcDbScale
 70
     0
300
2:1
140
2.0
141
1.0
290
     0
  0
SCALE
  5
55
102
{ACAD_REACTORS
330
47
102
}
330
47
100
AcDbScale
 70
     0
300
4:1
140
4.0
141
1.0
290
     0
  0
SCALE
  5
56
102
{ACAD_REACTORS
330
47
102
}
330
47
100
AcDbScale
 70
     0
300
8:1
140
8.0
141
1.0
290
     0
  0
SCALE
  5
57
102
{ACAD_REACTORS
330
47
102
}
330
47
100
AcDbScale
 70
     0
300
10:1
140
10.0
141
1.0
290
     0
  0
SCALE
  5
58
102
{ACAD_REACTORS
330
47
102
}
330
47
100
AcDbScale
 70
     0
300
100:1
140
100.0
141
1.0
290
     0
  0
SCALE
  5
59
102
{ACAD_REACTORS
330
47
102
}
330
47
100
AcDbScale
 70
     0
300
1/128" = 1'-0"
140
0.0078125
141
12.0
290
     0
  0
SCALE
  5
5A
102
{ACAD_REACTORS
330
47
102
}
330
47
100
AcDbScale
 70
     0
300
1/64" = 1'-0"
140
0.015625
141
12.0
290
     0
  0
SCALE
  5
5B
102
{ACAD_REACTORS
330
47
102
}
330
47
100
AcDbScale
 70
     0
300
1/32" = 1'-0"
140
0.03125
141
12.0
290
     0
  0
SCALE
  5
5C
102
{ACAD_REACTORS
330
47
102
}
330
47
100
AcDbScale
 70
     0
300
1/16" = 1'-0"
140
0.0625
141
12.0
290
     0
  0
SCALE
  5
5D
102
{ACAD_REACTORS
330
47
102
}
330
47
100
AcDbScale
 70
     0
300
3/32" = 1'-0"
140
0.09375
141
12.0
290
     0
  0
SCALE
  5
5E
102
{ACAD_REACTORS
330
47
102
}
330
47
100
AcDbScale
 70
     0
300
1/8" = 1'-0"
140
0.125
141
12.0
290
     0
  0
SCALE
  5
5F
102
{ACAD_REACTORS
330
47
102
}
330
47
100
AcDbScale
 70
     0
300
3/16" = 1'-0"
140
0.1875
141
12.0
290
     0
  0
SCALE
  5
60
102
{ACAD_REACTORS
330
47
102
}
330
47
100
AcDbScale
 70
     0
300
1/4" = 1'-0"
140
0.25
141
12.0
290
     0
  0
SCALE
  5
61
102
{ACAD_REACTORS
330
47
102
}
330
47
100
AcDbScale
 70
     0
300
3/8" = 1'-0"
140
0.375
141
12.0
290
     0
  0
SCALE
  5
62
102
{ACAD_REACTORS
330
47
102
}
330
47
100
AcDbScale
 70
     0
300
1/2" = 1'-0"
140
0.5
141
12.0
290
     0
  0
SCALE
  5
63
102
{ACAD_REACTORS
330
47
102
}
330
47
100
AcDbScale
 70
     0
300
3/4" = 1'-0"
140
0.75
141
12.0
290
     0
  0
SCALE
  5
64
102
{ACAD_REACTORS
330
47
102
}
330
47
100
AcDbScale
 70
     0
300
1" = 1'-0"
140
1.0
141
12.0
290
     0
  0
SCALE
  5
65
102
{ACAD_REACTORS
330
47
102
}
330
47
100
AcDbScale
 70
     0
300
1-1/2" = 1'-0"
140
1.5
141
12.0
290
     0
  0
SCALE
  5
66
102
{ACAD_REACTORS
330
47
102
}
330
47
100
AcDbScale
 70
     0
300
3" = 1'-0"
140
3.0
141
12.0
290
     0
  0
SCALE
  5
67
102
{ACAD_REACTORS
330
47
102
}
330
47
100
AcDbScale
 70
     0
300
6" = 1'-0"
140
6.0
141
12.0
290
     0
  0
SCALE
  5
68
102
{ACAD_REACTORS
330
47
102
}
330
47
100
AcDbScale
 70
     0
300
1'-0" = 1'-0"
140
12.0
141
12.0
290
     0
  0
ENDSEC
  0
EOF
