  0
SECTION
  2
HEADER
  9
$ACADVER
  1
AC1015
  9
$ACADMAINTVER
 70
     6
  9
$DWGCODEPAGE
  3
ANSI_1251
  9
$INSBASE
 10
0.0
 20
0.0
 30
0.0
  9
$EXTMIN
 10
-3919.8202931545
 20
-3454.45089333
 30
0.0
  9
$EXTMAX
 10
747.2973567989
 20
1008.745683712
 30
0.0
  9
$LIMMIN
 10
0.0
 20
0.0
  9
$LIMMAX
 10
420.0
 20
297.0
  9
$ORTHOMODE
 70
     0
  9
$REGENMODE
 70
     1
  9
$FILLMODE
 70
     1
  9
$QTEXTMODE
 70
     0
  9
$MIRRTEXT
 70
     1
  9
$LTSCALE
 40
1.0
  9
$ATTMODE
 70
     1
  9
$TEXTSIZE
 40
3.0
  9
$TRACEWID
 40
1.0
  9
$TEXTSTYLE
  7
Standard
  9
$CLAYER
  8
0
  9
$CELTYPE
  6
ByLayer
  9
$CECOLOR
 62
   256
  9
$CELTSCALE
 40
1.0
  9
$DISPSILH
 70
     0
  9
$DIMSCALE
 40
1.0
  9
$DIMASZ
 40
3.0
  9
$DIMEXO
 40
0.0
  9
$DIMDLI
 40
3.75
  9
$DIMRND
 40
0.0
  9
$DIMDLE
 40
0.0
  9
$DIMEXE
 40
2.0
  9
$DIMTP
 40
0.0
  9
$DIMTM
 40
0.0
  9
$DIMTXT
 40
3.0
  9
$DIMCEN
 40
2.5
  9
$DIMTSZ
 40
0.0
  9
$DIMTOL
 70
     0
  9
$DIMLIM
 70
     0
  9
$DIMTIH
 70
     1
  9
$DIMTOH
 70
     1
  9
$DIMSE1
 70
     0
  9
$DIMSE2
 70
     0
  9
$DIMTAD
 70
     1
  9
$DIMZIN
 70
     0
  9
$DIMBLK
  1

  9
$DIMASO
 70
     1
  9
$DIMSHO
 70
     1
  9
$DIMPOST
  1

  9
$DIMAPOST
  1

  9
$DIMALT
 70
     0
  9
$DIMALTD
 70
     3
  9
$DIMALTF
 40
0.0393700787
  9
$DIMLFAC
 40
1.0
  9
$DIMTOFL
 70
     1
  9
$DIMTVP
 40
0.0
  9
$DIMTIX
 70
     0
  9
$DIMSOXD
 70
     0
  9
$DIMSAH
 70
     0
  9
$DIMBLK1
  1

  9
$DIMBLK2
  1

  9
$DIMSTYLE
  2
ISO-25
  9
$DIMCLRD
 70
     0
  9
$DIMCLRE
 70
     0
  9
$DIMCLRT
 70
     0
  9
$DIMTFAC
 40
1.0
  9
$DIMGAP
 40
2.0
  9
$DIMJUST
 70
     0
  9
$DIMSD1
 70
     0
  9
$DIMSD2
 70
     0
  9
$DIMTOLJ
 70
     0
  9
$DIMTZIN
 70
     0
  9
$DIMALTZ
 70
     0
  9
$DIMALTTZ
 70
     0
  9
$DIMUPT
 70
     0
  9
$DIMDEC
 70
     2
  9
$DIMTDEC
 70
     2
  9
$DIMALTU
 70
     2
  9
$DIMALTTD
 70
     3
  9
$DIMTXSTY
  7
Standard
  9
$DIMAUNIT
 70
     0
  9
$DIMADEC
 70
     2
  9
$DIMALTRND
 40
0.0
  9
$DIMAZIN
 70
     0
  9
$DIMDSEP
 70
    44
  9
$DIMATFIT
 70
     3
  9
$DIMFRAC
 70
     0
  9
$DIMLDRBLK
  1

  9
$DIMLUNIT
 70
     2
  9
$DIMLWD
 70
    -2
  9
$DIMLWE
 70
    -2
  9
$DIMTMOVE
 70
     0
  9
$LUNITS
 70
     2
  9
$LUPREC
 70
     2
  9
$SKETCHINC
 40
1.0
  9
$FILLETRAD
 40
10.0
  9
$AUNITS
 70
     1
  9
$AUPREC
 70
     2
  9
$MENU
  1
.
  9
$ELEVATION
 40
0.0
  9
$PELEVATION
 40
0.0
  9
$THICKNESS
 40
0.0
  9
$LIMCHECK
 70
     0
  9
$CHAMFERA
 40
0.0
  9
$CHAMFERB
 40
0.0
  9
$CHAMFERC
 40
0.0
  9
$CHAMFERD
 40
0.0
  9
$SKPOLY
 70
     0
  9
$TDCREATE
 40
2459310.480032674
  9
$TDUCREATE
 40
2459310.355032674
  9
$TDUPDATE
 40
2459310.480066736
  9
$TDUUPDATE
 40
2459310.355066736
  9
$TDINDWG
 40
0.0000000116
  9
$TDUSRTIMER
 40
0.0000000116
  9
$USRTIMER
 70
     1
  9
$ANGBASE
 50
0.0
  9
$ANGDIR
 70
     0
  9
$PDMODE
 70
     0
  9
$PDSIZE
 40
-1.0
  9
$PLINEWID
 40
0.0
  9
$SPLFRAME
 70
     0
  9
$SPLINETYPE
 70
     6
  9
$SPLINESEGS
 70
     8
  9
$HANDSEED
  5
306
  9
$SURFTAB1
 70
     6
  9
$SURFTAB2
 70
     6
  9
$SURFTYPE
 70
     6
  9
$SURFU
 70
     6
  9
$SURFV
 70
     6
  9
$UCSBASE
  2

  9
$UCSNAME
  2

  9
$UCSORG
 10
0.0
 20
0.0
 30
0.0
  9
$UCSXDIR
 10
1.0
 20
0.0
 30
0.0
  9
$UCSYDIR
 10
0.0
 20
1.0
 30
0.0
  9
$UCSORTHOREF
  2

  9
$UCSORTHOVIEW
 70
     0
  9
$UCSORGTOP
 10
0.0
 20
0.0
 30
0.0
  9
$UCSORGBOTTOM
 10
0.0
 20
0.0
 30
0.0
  9
$UCSORGLEFT
 10
0.0
 20
0.0
 30
0.0
  9
$UCSORGRIGHT
 10
0.0
 20
0.0
 30
0.0
  9
$UCSORGFRONT
 10
0.0
 20
0.0
 30
0.0
  9
$UCSORGBACK
 10
0.0
 20
0.0
 30
0.0
  9
$PUCSBASE
  2

  9
$PUCSNAME
  2

  9
$PUCSORG
 10
0.0
 20
0.0
 30
0.0
  9
$PUCSXDIR
 10
1.0
 20
0.0
 30
0.0
  9
$PUCSYDIR
 10
0.0
 20
1.0
 30
0.0
  9
$PUCSORTHOREF
  2

  9
$PUCSORTHOVIEW
 70
     0
  9
$PUCSORGTOP
 10
0.0
 20
0.0
 30
0.0
  9
$PUCSORGBOTTOM
 10
0.0
 20
0.0
 30
0.0
  9
$PUCSORGLEFT
 10
0.0
 20
0.0
 30
0.0
  9
$PUCSORGRIGHT
 10
0.0
 20
0.0
 30
0.0
  9
$PUCSORGFRONT
 10
0.0
 20
0.0
 30
0.0
  9
$PUCSORGBACK
 10
0.0
 20
0.0
 30
0.0
  9
$USERI1
 70
     0
  9
$USERI2
 70
     0
  9
$USERI3
 70
     0
  9
$USERI4
 70
     0
  9
$USERI5
 70
     0
  9
$USERR1
 40
0.0
  9
$USERR2
 40
0.0
  9
$USERR3
 40
0.0
  9
$USERR4
 40
0.0
  9
$USERR5
 40
0.0
  9
$WORLDVIEW
 70
     1
  9
$SHADEDGE
 70
     3
  9
$SHADEDIF
 70
    70
  9
$TILEMODE
 70
     1
  9
$MAXACTVP
 70
    64
  9
$PINSBASE
 10
0.0
 20
0.0
 30
0.0
  9
$PLIMCHECK
 70
     0
  9
$PEXTMIN
 10
1.0000000000E+20
 20
1.0000000000E+20
 30
1.0000000000E+20
  9
$PEXTMAX
 10
-1.0000000000E+20
 20
-1.0000000000E+20
 30
-1.0000000000E+20
  9
$PLIMMIN
 10
0.0
 20
0.0
  9
$PLIMMAX
 10
420.0
 20
297.0
  9
$UNITMODE
 70
     0
  9
$VISRETAIN
 70
     1
  9
$PLINEGEN
 70
     0
  9
$PSLTSCALE
 70
     1
  9
$TREEDEPTH
 70
  3020
  9
$CMLSTYLE
  2
Standard
  9
$CMLJUST
 70
     0
  9
$CMLSCALE
 40
20.0
  9
$PROXYGRAPHICS
 70
     1
  9
$MEASUREMENT
 70
     1
  9
$CELWEIGHT
370
    -1
  9
$ENDCAPS
280
     0
  9
$JOINSTYLE
280
     0
  9
$LWDISPLAY
290
     1
  9
$INSUNITS
 70
     4
  9
$HYPERLINKBASE
  1

  9
$STYLESHEET
  1

  9
$XEDIT
290
     1
  9
$CEPSNTYPE
380
     0
  9
$PSTYLEMODE
290
     1
  9
$FINGERPRINTGUID
  2
{04C4087A-4AB3-47EA-901B-B6B808E693DA}
  9
$VERSIONGUID
  2
{FAEB1C32-E019-11D5-929B-00C0DF256EC4}
  9
$EXTNAMES
290
     1
  9
$PSVPSCALE
 40
0.0
  9
$OLESTARTUP
290
     0
  0
ENDSEC
  0
SECTION
  2
CLASSES
  0
CLASS
  1
ACDBDICTIONARYWDFLT
  2
AcDbDictionaryWithDefault
  3
ObjectDBX Classes
 90
        0
280
     0
281
     0
  0
CLASS
  1
VISUALSTYLE
  2
AcDbVisualStyle
  3
ObjectDBX Classes
 90
     4095
280
     0
281
     0
  0
CLASS
  1
MATERIAL
  2
AcDbMaterial
  3
ObjectDBX Classes
 90
     1153
280
     0
281
     0
  0
CLASS
  1
SCALE
  2
AcDbScale
  3
ObjectDBX Classes
 90
     1153
280
     0
281
     0
  0
CLASS
  1
SUN
  2
AcDbSun
  3
SCENEOE
 90
     1153
280
     0
281
     0
  0
CLASS
  1
ACDBPLACEHOLDER
  2
AcDbPlaceHolder
  3
ObjectDBX Classes
 90
        0
280
     0
281
     0
  0
CLASS
  1
LAYOUT
  2
AcDbLayout
  3
ObjectDBX Classes
 90
        0
280
     0
281
     0
  0
ENDSEC
  0
SECTION
  2
TABLES
  0
TABLE
  2
VPORT
  5
8
330
0
100
AcDbSymbolTable
 70
     1
  0
VPORT
  5
29
330
8
100
AcDbSymbolTableRecord
100
AcDbViewportTableRecord
  2
*Active
 70
     0
 10
0.0
 20
0.0
 11
1.0
 21
1.0
 12
-1586.2614681778
 22
-1222.852604809
 13
0.0
 23
0.0
 14
10.0
 24
10.0
 15
10.0
 25
10.0
 16
0.0
 26
0.0
 36
1.0
 17
0.0
 27
0.0
 37
0.0
 40
4552.4605085828
 41
1.045689467
 42
50.0
 43
0.0
 44
0.0
 50
0.0
 51
0.0
 71
     0
 72
   100
 73
     1
 74
     3
 75
     0
 76
     0
 77
     0
 78
     0
281
     0
 65
     1
110
0.0
120
0.0
130
0.0
111
1.0
121
0.0
131
0.0
112
0.0
122
1.0
132
0.0
 79
     0
146
0.0
  0
ENDTAB
  0
TABLE
  2
LTYPE
  5
5
330
0
100
AcDbSymbolTable
 70
     6
  0
LTYPE
  5
14
330
5
100
AcDbSymbolTableRecord
100
AcDbLinetypeTableRecord
  2
ByBlock
 70
     0
  3

 72
    65
 73
     0
 40
0.0
  0
LTYPE
  5
15
330
5
100
AcDbSymbolTableRecord
100
AcDbLinetypeTableRecord
  2
ByLayer
 70
     0
  3

 72
    65
 73
     0
 40
0.0
  0
LTYPE
  5
16
330
5
100
AcDbSymbolTableRecord
100
AcDbLinetypeTableRecord
  2
Continuous
 70
     0
  3
Solid line
 72
    65
 73
     0
 40
0.0
  0
LTYPE
  5
6A
330
5
100
AcDbSymbolTableRecord
100
AcDbLinetypeTableRecord
  2
HIDDEN
 70
     0
  3
Hidden __ __ __ __ __ __ __ __ __ __ __ __ __ __
 72
    65
 73
     2
 40
1.905
 49
1.27
 74
     0
 49
-0.635
 74
     0
  0
LTYPE
  5
6B
330
5
100
AcDbSymbolTableRecord
100
AcDbLinetypeTableRecord
  2
PHANTOM
 70
     0
  3
Phantom ______  __  __  ______  __  __  ______
 72
    65
 73
     6
 40
12.7
 49
6.35
 74
     0
 49
-1.27
 74
     0
 49
1.27
 74
     0
 49
-1.27
 74
     0
 49
1.27
 74
     0
 49
-1.27
 74
     0
  0
LTYPE
  5
6C
330
5
100
AcDbSymbolTableRecord
100
AcDbLinetypeTableRecord
  2
CENTER
 70
     0
  3
Center ____ _ ____ _ ____ _ ____ _ ____ _ ____
 72
    65
 73
     4
 40
10.16
 49
6.35
 74
     0
 49
-1.27
 74
     0
 49
1.27
 74
     0
 49
-1.27
 74
     0
  0
LTYPE
  5
6D
330
5
100
AcDbSymbolTableRecord
100
AcDbLinetypeTableRecord
  2
CENTERX2
 70
     0
  3
Center (2x) ________  __  ________  __  _____
 72
    65
 73
     4
 40
20.32
 49
12.7
 74
     0
 49
-2.54
 74
     0
 49
2.54
 74
     0
 49
-2.54
 74
     0
  0
LTYPE
  5
6E
330
5
100
AcDbSymbolTableRecord
100
AcDbLinetypeTableRecord
  2
DOT2
 70
     0
  3
Dot (.5x) ........................................
 72
    65
 73
     2
 40
0.635
 49
0.0
 74
     0
 49
-0.635
 74
     0
  0
ENDTAB
  0
TABLE
  2
LAYER
  5
2
330
0
100
AcDbSymbolTable
 70
     1
  0
LAYER
  5
10
330
2
100
AcDbSymbolTableRecord
100
AcDbLayerTableRecord
  2
0
 70
     0
 62
     7
  6
Continuous
370
    -3
390
F
  0
ENDTAB
  0
TABLE
  2
STYLE
  5
3
330
0
100
AcDbSymbolTable
 70
     1
  0
STYLE
  5
11
330
3
100
AcDbSymbolTableRecord
100
AcDbTextStyleTableRecord
  2
Standard
 70
     0
 40
0.0
 41
1.0
 50
0.0
 71
     0
 42
3.0
  3
txt
  4

  0
ENDTAB
  0
TABLE
  2
VIEW
  5
6
330
0
100
AcDbSymbolTable
 70
     0
  0
ENDTAB
  0
TABLE
  2
UCS
  5
7
330
0
100
AcDbSymbolTable
 70
     0
  0
ENDTAB
  0
TABLE
  2
APPID
  5
9
330
0
100
AcDbSymbolTable
 70
     1
  0
APPID
  5
12
330
9
100
AcDbSymbolTableRecord
100
AcDbRegAppTableRecord
  2
ACAD
 70
     0
  0
ENDTAB
  0
TABLE
  2
DIMSTYLE
  5
A
330
0
100
AcDbSymbolTable
 70
     1
100
AcDbDimStyleTable
  0
DIMSTYLE
105
27
330
A
100
AcDbSymbolTableRecord
100
AcDbDimStyleTableRecord
  2
ISO-25
 70
     0
 41
2.5
 42
0.625
 43
3.75
 44
1.25
 73
     0
 74
     0
 77
     1
 78
     8
140
2.5
141
2.5
143
0.0393700787
147
0.625
171
     3
172
     1
178
     0
271
     2
272
     2
274
     3
278
    44
283
     0
284
     8
340
11
  0
ENDTAB
  0
TABLE
  2
BLOCK_RECORD
  5
1
330
0
100
AcDbSymbolTable
 70
     1
  0
BLOCK_RECORD
  5
1F
330
1
100
AcDbSymbolTableRecord
100
AcDbBlockTableRecord
  2
*Model_Space
340
22
  0
BLOCK_RECORD
  5
1B
330
1
100
AcDbSymbolTableRecord
100
AcDbBlockTableRecord
  2
*Paper_Space
340
1E
  0
BLOCK_RECORD
  5
23
330
1
100
AcDbSymbolTableRecord
100
AcDbBlockTableRecord
  2
*Paper_Space0
340
26
  0
ENDTAB
  0
ENDSEC
  0
SECTION
  2
BLOCKS
  0
BLOCK
  5
20
330
1F
100
AcDbEntity
  8
0
100
AcDbBlockBegin
  2
*Model_Space
 70
     0
 10
0.0
 20
0.0
 30
0.0
  3
*Model_Space
  1
*Model_Space
  0
ENDBLK
  5
21
330
1F
100
AcDbEntity
  8
0
100
AcDbBlockEnd
  0
BLOCK
  5
1C
330
1B
100
AcDbEntity
 67
     1
  8
0
100
AcDbBlockBegin
  2
*Paper_Space
 70
     0
 10
0.0
 20
0.0
 30
0.0
  3
*Paper_Space
  1
*Paper_Space
  0
ENDBLK
  5
1D
330
1B
100
AcDbEntity
 67
     1
  8
0
100
AcDbBlockEnd
  0
BLOCK
  5
24
330
23
100
AcDbEntity
  8
0
100
AcDbBlockBegin
  2
*Paper_Space0
 70
     0
 10
0.0
 20
0.0
 30
0.0
  3
*Paper_Space0
  1
*Paper_Space0
  0
ENDBLK
  5
25
330
23
100
AcDbEntity
  8
0
100
AcDbBlockEnd
  0
ENDSEC
  0
SECTION
  2
ENTITIES
  0
CIRCLE
  5
9F
330
1F
100
AcDbEntity
  8
0
  6
Continuous
 62
     7
370
    15
100
AcDbCircle
 10
-1556.1017102072
 20
-1118.3267243496
 30
0.0
 40
80.00000000000128
  0
SPLINE
  5
AE
330
1F
100
AcDbEntity
  8
0
  6
Continuous
 62
     7
370
    15
100
AcDbSpline
210
0.0
220
0.0
230
1.0
 70
    24
 71
     3
 72
     8
 73
     4
 74
     0
 42
0.000000001
 43
0.00000001
 40
0.0
 40
0.0
 40
0.0
 40
0.0
 40
1.0
 40
1.0
 40
1.0
 40
1.0
 10
-2150.973316703758
 20
-784.7305255701439
 30
0.0
 10
-2150.011759868548
 20
-784.6939964230602
 30
0.0
 10
-2149.050203033339
 20
-784.6574672759762
 30
0.0
 10
-2148.088646198128
 20
-784.6209381288925
 30
0.0
  0
SPLINE
  5
AF
330
1F
100
AcDbEntity
  8
0
  6
Continuous
 62
     7
370
    15
100
AcDbSpline
210
0.0
220
0.0
230
1.0
 70
    24
 71
     3
 72
     8
 73
     4
 74
     0
 42
0.000000001
 43
0.00000001
 40
0.0
 40
0.0
 40
0.0
 40
0.0
 40
1.0
 40
1.0
 40
1.0
 40
1.0
 10
-2152.320746448514
 20
-787.2835172301931
 30
0.0
 10
-2151.871603200262
 20
-786.4325200101767
 30
0.0
 10
-2151.42245995201
 20
-785.5815227901602
 30
0.0
 10
-2150.973316703758
 20
-784.7305255701439
 30
0.0
  0
SPLINE
  5
B0
330
1F
100
AcDbEntity
  8
0
  6
Continuous
 62
     7
370
    15
100
AcDbSpline
210
0.0
220
0.0
230
1.0
 70
    24
 71
     3
 72
     8
 73
     4
 74
     0
 42
0.000000001
 43
0.00000001
 40
0.0
 40
0.0
 40
0.0
 40
0.0
 40
1.0
 40
1.0
 40
1.0
 40
1.0
 10
-2150.78350568764
 20
-789.7269214489909
 30
0.0
 10
-2151.295919274598
 20
-788.9124533760584
 30
0.0
 10
-2151.808332861556
 20
-788.0979853031257
 30
0.0
 10
-2152.320746448514
 20
-787.2835172301931
 30
0.0
  0
SPLINE
  5
B1
330
1F
100
AcDbEntity
  8
0
  6
Continuous
 62
     7
370
    15
100
AcDbSpline
210
0.0
220
0.0
230
1.0
 70
    24
 71
     3
 72
     8
 73
     4
 74
     0
 42
0.000000001
 43
0.00000001
 40
0.0
 40
0.0
 40
0.0
 40
0.0
 40
1.0
 40
1.0
 40
1.0
 40
1.0
 10
-2147.898835182009
 20
-789.6173340077395
 30
0.0
 10
-2148.86039201722
 20
-789.6538631548233
 30
0.0
 10
-2149.82194885243
 20
-789.6903923019071
 30
0.0
 10
-2150.78350568764
 20
-789.7269214489909
 30
0.0
  0
SPLINE
  5
B2
330
1F
100
AcDbEntity
  8
0
  6
Continuous
 62
     7
370
    15
100
AcDbSpline
210
0.0
220
0.0
230
1.0
 70
    24
 71
     3
 72
     8
 73
     4
 74
     0
 42
0.000000001
 43
0.00000001
 40
0.0
 40
0.0
 40
0.0
 40
0.0
 40
1.0
 40
1.0
 40
1.0
 40
1.0
 10
-2146.551405437254
 20
-787.0643423476903
 30
0.0
 10
-2147.000548685506
 20
-787.9153395677066
 30
0.0
 10
-2147.449691933758
 20
-788.7663367877232
 30
0.0
 10
-2147.898835182009
 20
-789.6173340077395
 30
0.0
  0
SPLINE
  5
B3
330
1F
100
AcDbEntity
  8
0
  6
Continuous
 62
     7
370
    15
100
AcDbSpline
210
0.0
220
0.0
230
1.0
 70
    24
 71
     3
 72
     8
 73
     4
 74
     0
 42
0.000000001
 43
0.00000001
 40
0.0
 40
0.0
 40
0.0
 40
0.0
 40
1.0
 40
1.0
 40
1.0
 40
1.0
 10
-2148.088646198128
 20
-784.6209381288925
 30
0.0
 10
-2147.57623261117
 20
-785.435406201825
 30
0.0
 10
-2147.063819024212
 20
-786.2498742747576
 30
0.0
 10
-2146.551405437254
 20
-787.0643423476903
 30
0.0
  0
CIRCLE
  5
B4
330
1F
100
AcDbEntity
  8
0
  6
Continuous
 62
     7
370
    15
100
AcDbCircle
 10
-2149.4360759429
 20
-787.1739297889
 30
0.0
 40
6.999999999999898
  0
SPLINE
  5
B5
330
1F
100
AcDbEntity
  8
0
  6
Continuous
 62
     7
370
    15
100
AcDbSpline
210
0.0
220
0.0
230
1.0
 70
    24
 71
     3
 72
     8
 73
     4
 74
     0
 42
0.000000001
 43
0.00000001
 40
0.0
 40
0.0
 40
0.0
 40
0.0
 40
1.0
 40
1.0
 40
1.0
 40
1.0
 10
-2151.349239223166
 20
-692.943496626728
 30
0.0
 10
-2150.387682387955
 20
-692.9069674796443
 30
0.0
 10
-2149.426125552746
 20
-692.8704383325603
 30
0.0
 10
-2148.464568717535
 20
-692.8339091854766
 30
0.0
  0
SPLINE
  5
B6
330
1F
100
AcDbEntity
  8
0
  6
Continuous
 62
     7
370
    15
100
AcDbSpline
210
0.0
220
0.0
230
1.0
 70
    24
 71
     3
 72
     8
 73
     4
 74
     0
 42
0.000000001
 43
0.00000001
 40
0.0
 40
0.0
 40
0.0
 40
0.0
 40
1.0
 40
1.0
 40
1.0
 40
1.0
 10
-2152.696668967921
 20
-695.4964882867772
 30
0.0
 10
-2152.247525719669
 20
-694.6454910667609
 30
0.0
 10
-2151.798382471417
 20
-693.7944938467444
 30
0.0
 10
-2151.349239223166
 20
-692.943496626728
 30
0.0
  0
SPLINE
  5
B7
330
1F
100
AcDbEntity
  8
0
  6
Continuous
 62
     7
370
    15
100
AcDbSpline
210
0.0
220
0.0
230
1.0
 70
    24
 71
     3
 72
     8
 73
     4
 74
     0
 42
0.000000001
 43
0.00000001
 40
0.0
 40
0.0
 40
0.0
 40
0.0
 40
1.0
 40
1.0
 40
1.0
 40
1.0
 10
-2151.159428207047
 20
-697.9398925055751
 30
0.0
 10
-2151.671841794005
 20
-697.1254244326425
 30
0.0
 10
-2152.184255380963
 20
-696.3109563597098
 30
0.0
 10
-2152.696668967921
 20
-695.4964882867772
 30
0.0
  0
SPLINE
  5
B8
330
1F
100
AcDbEntity
  8
0
  6
Continuous
 62
     7
370
    15
100
AcDbSpline
210
0.0
220
0.0
230
1.0
 70
    24
 71
     3
 72
     8
 73
     4
 74
     0
 42
0.000000001
 43
0.00000001
 40
0.0
 40
0.0
 40
0.0
 40
0.0
 40
1.0
 40
1.0
 40
1.0
 40
1.0
 10
-2148.274757701417
 20
-697.8303050643236
 30
0.0
 10
-2149.236314536627
 20
-697.8668342114075
 30
0.0
 10
-2150.197871371837
 20
-697.9033633584912
 30
0.0
 10
-2151.159428207047
 20
-697.9398925055751
 30
0.0
  0
SPLINE
  5
B9
330
1F
100
AcDbEntity
  8
0
  6
Continuous
 62
     7
370
    15
100
AcDbSpline
210
0.0
220
0.0
230
1.0
 70
    24
 71
     3
 72
     8
 73
     4
 74
     0
 42
0.000000001
 43
0.00000001
 40
0.0
 40
0.0
 40
0.0
 40
0.0
 40
1.0
 40
1.0
 40
1.0
 40
1.0
 10
-2146.927327956661
 20
-695.2773134042744
 30
0.0
 10
-2147.376471204913
 20
-696.1283106242909
 30
0.0
 10
-2147.825614453164
 20
-696.9793078443073
 30
0.0
 10
-2148.274757701417
 20
-697.8303050643236
 30
0.0
  0
SPLINE
  5
BA
330
1F
100
AcDbEntity
  8
0
  6
Continuous
 62
     7
370
    15
100
AcDbSpline
210
0.0
220
0.0
230
1.0
 70
    24
 71
     3
 72
     8
 73
     4
 74
     0
 42
0.000000001
 43
0.00000001
 40
0.0
 40
0.0
 40
0.0
 40
0.0
 40
1.0
 40
1.0
 40
1.0
 40
1.0
 10
-2148.464568717535
 20
-692.8339091854766
 30
0.0
 10
-2147.952155130577
 20
-693.6483772584093
 30
0.0
 10
-2147.439741543619
 20
-694.4628453313418
 30
0.0
 10
-2146.927327956661
 20
-695.2773134042744
 30
0.0
  0
CIRCLE
  5
BB
330
1F
100
AcDbEntity
  8
0
  6
Continuous
 62
     7
370
    15
100
AcDbCircle
 10
-2149.8119984623
 20
-695.3869008455
 30
0.0
 40
7.0000000000002
  0
SPLINE
  5
BC
330
1F
100
AcDbEntity
  8
0
  6
Continuous
 62
     7
370
    15
100
AcDbSpline
210
0.0
220
0.0
230
1.0
 70
    24
 71
     3
 72
     8
 73
     4
 74
     0
 42
0.000000001
 43
0.00000001
 40
0.0
 40
0.0
 40
0.0
 40
0.0
 40
1.0
 40
1.0
 40
1.0
 40
1.0
 10
-2029.610792660081
 20
-623.80775602603
 30
0.0
 10
-2028.649235824871
 20
-623.7712268789462
 30
0.0
 10
-2027.687678989662
 20
-623.7346977318623
 30
0.0
 10
-2026.726122154452
 20
-623.6981685847785
 30
0.0
  0
SPLINE
  5
BD
330
1F
100
AcDbEntity
  8
0
  6
Continuous
 62
     7
370
    15
100
AcDbSpline
210
0.0
220
0.0
230
1.0
 70
    24
 71
     3
 72
     8
 73
     4
 74
     0
 42
0.000000001
 43
0.00000001
 40
0.0
 40
0.0
 40
0.0
 40
0.0
 40
1.0
 40
1.0
 40
1.0
 40
1.0
 10
-2030.958222404837
 20
-626.3607476860792
 30
0.0
 10
-2030.509079156585
 20
-625.5097504660629
 30
0.0
 10
-2030.059935908334
 20
-624.6587532460463
 30
0.0
 10
-2029.610792660081
 20
-623.80775602603
 30
0.0
  0
SPLINE
  5
BE
330
1F
100
AcDbEntity
  8
0
  6
Continuous
 62
     7
370
    15
100
AcDbSpline
210
0.0
220
0.0
230
1.0
 70
    24
 71
     3
 72
     8
 73
     4
 74
     0
 42
0.000000001
 43
0.00000001
 40
0.0
 40
0.0
 40
0.0
 40
0.0
 40
1.0
 40
1.0
 40
1.0
 40
1.0
 10
-2029.420981643963
 20
-628.804151904877
 30
0.0
 10
-2029.933395230921
 20
-627.9896838319444
 30
0.0
 10
-2030.445808817879
 20
-627.1752157590118
 30
0.0
 10
-2030.958222404837
 20
-626.3607476860792
 30
0.0
  0
SPLINE
  5
BF
330
1F
100
AcDbEntity
  8
0
  6
Continuous
 62
     7
370
    15
100
AcDbSpline
210
0.0
220
0.0
230
1.0
 70
    24
 71
     3
 72
     8
 73
     4
 74
     0
 42
0.000000001
 43
0.00000001
 40
0.0
 40
0.0
 40
0.0
 40
0.0
 40
1.0
 40
1.0
 40
1.0
 40
1.0
 10
-2026.536311138333
 20
-628.6945644636256
 30
0.0
 10
-2027.497867973543
 20
-628.7310936107094
 30
0.0
 10
-2028.459424808753
 20
-628.7676227577932
 30
0.0
 10
-2029.420981643963
 20
-628.804151904877
 30
0.0
  0
SPLINE
  5
C0
330
1F
100
AcDbEntity
  8
0
  6
Continuous
 62
     7
370
    15
100
AcDbSpline
210
0.0
220
0.0
230
1.0
 70
    24
 71
     3
 72
     8
 73
     4
 74
     0
 42
0.000000001
 43
0.00000001
 40
0.0
 40
0.0
 40
0.0
 40
0.0
 40
1.0
 40
1.0
 40
1.0
 40
1.0
 10
-2025.188881393577
 20
-626.1415728035764
 30
0.0
 10
-2025.638024641829
 20
-626.9925700235927
 30
0.0
 10
-2026.087167890081
 20
-627.8435672436092
 30
0.0
 10
-2026.536311138333
 20
-628.6945644636256
 30
0.0
  0
SPLINE
  5
C1
330
1F
100
AcDbEntity
  8
0
  6
Continuous
 62
     7
370
    15
100
AcDbSpline
210
0.0
220
0.0
230
1.0
 70
    24
 71
     3
 72
     8
 73
     4
 74
     0
 42
0.000000001
 43
0.00000001
 40
0.0
 40
0.0
 40
0.0
 40
0.0
 40
1.0
 40
1.0
 40
1.0
 40
1.0
 10
-2026.726122154452
 20
-623.6981685847785
 30
0.0
 10
-2026.213708567493
 20
-624.5126366577111
 30
0.0
 10
-2025.701294980535
 20
-625.3271047306438
 30
0.0
 10
-2025.188881393577
 20
-626.1415728035764
 30
0.0
  0
CIRCLE
  5
C2
330
1F
100
AcDbEntity
  8
0
  6
Continuous
 62
     7
370
    15
100
AcDbCircle
 10
-2028.0735518992
 20
-626.2511602448
 30
0.0
 40
7.00000000000011
  0
SPLINE
  5
C3
330
1F
100
AcDbEntity
  8
0
  6
Continuous
 62
     7
370
    15
100
AcDbSpline
210
0.0
220
0.0
230
1.0
 70
    24
 71
     3
 72
     8
 73
     4
 74
     0
 42
0.000000001
 43
0.00000001
 40
0.0
 40
0.0
 40
0.0
 40
0.0
 40
1.0
 40
1.0
 40
1.0
 40
1.0
 10
-1950.974440207263
 20
-671.1503802975683
 30
0.0
 10
-1950.012883372053
 20
-671.1138511504845
 30
0.0
 10
-1949.051326536842
 20
-671.0773220034006
 30
0.0
 10
-1948.089769701632
 20
-671.0407928563168
 30
0.0
  0
SPLINE
  5
C4
330
1F
100
AcDbEntity
  8
0
  6
Continuous
 62
     7
370
    15
100
AcDbSpline
210
0.0
220
0.0
230
1.0
 70
    24
 71
     3
 72
     8
 73
     4
 74
     0
 42
0.000000001
 43
0.00000001
 40
0.0
 40
0.0
 40
0.0
 40
0.0
 40
1.0
 40
1.0
 40
1.0
 40
1.0
 10
-1952.321869952018
 20
-673.7033719576174
 30
0.0
 10
-1951.872726703767
 20
-672.852374737601
 30
0.0
 10
-1951.423583455515
 20
-672.0013775175846
 30
0.0
 10
-1950.974440207263
 20
-671.1503802975683
 30
0.0
  0
SPLINE
  5
C5
330
1F
100
AcDbEntity
  8
0
  6
Continuous
 62
     7
370
    15
100
AcDbSpline
210
0.0
220
0.0
230
1.0
 70
    24
 71
     3
 72
     8
 73
     4
 74
     0
 42
0.000000001
 43
0.00000001
 40
0.0
 40
0.0
 40
0.0
 40
0.0
 40
1.0
 40
1.0
 40
1.0
 40
1.0
 10
-1950.784629191144
 20
-676.1467761764153
 30
0.0
 10
-1951.297042778102
 20
-675.3323081034827
 30
0.0
 10
-1951.80945636506
 20
-674.51784003055
 30
0.0
 10
-1952.321869952018
 20
-673.7033719576174
 30
0.0
  0
SPLINE
  5
C6
330
1F
100
AcDbEntity
  8
0
  6
Continuous
 62
     7
370
    15
100
AcDbSpline
210
0.0
220
0.0
230
1.0
 70
    24
 71
     3
 72
     8
 73
     4
 74
     0
 42
0.000000001
 43
0.00000001
 40
0.0
 40
0.0
 40
0.0
 40
0.0
 40
1.0
 40
1.0
 40
1.0
 40
1.0
 10
-1947.899958685513
 20
-676.0371887351638
 30
0.0
 10
-1948.861515520724
 20
-676.0737178822476
 30
0.0
 10
-1949.823072355934
 20
-676.1102470293315
 30
0.0
 10
-1950.784629191144
 20
-676.1467761764153
 30
0.0
  0
SPLINE
  5
C7
330
1F
100
AcDbEntity
  8
0
  6
Continuous
 62
     7
370
    15
100
AcDbSpline
210
0.0
220
0.0
230
1.0
 70
    24
 71
     3
 72
     8
 73
     4
 74
     0
 42
0.000000001
 43
0.00000001
 40
0.0
 40
0.0
 40
0.0
 40
0.0
 40
1.0
 40
1.0
 40
1.0
 40
1.0
 10
-1946.552528940758
 20
-673.4841970751146
 30
0.0
 10
-1947.001672189009
 20
-674.335194295131
 30
0.0
 10
-1947.450815437262
 20
-675.1861915151475
 30
0.0
 10
-1947.899958685513
 20
-676.0371887351638
 30
0.0
  0
SPLINE
  5
C8
330
1F
100
AcDbEntity
  8
0
  6
Continuous
 62
     7
370
    15
100
AcDbSpline
210
0.0
220
0.0
230
1.0
 70
    24
 71
     3
 72
     8
 73
     4
 74
     0
 42
0.000000001
 43
0.00000001
 40
0.0
 40
0.0
 40
0.0
 40
0.0
 40
1.0
 40
1.0
 40
1.0
 40
1.0
 10
-1948.089769701632
 20
-671.0407928563168
 30
0.0
 10
-1947.577356114674
 20
-671.8552609292494
 30
0.0
 10
-1947.064942527716
 20
-672.6697290021821
 30
0.0
 10
-1946.552528940758
 20
-673.4841970751146
 30
0.0
  0
CIRCLE
  5
C9
330
1F
100
AcDbEntity
  8
0
  6
Continuous
 62
     7
370
    15
100
AcDbCircle
 10
-1949.4371994464
 20
-673.5937845164
 30
0.0
 40
7.000000000000222
  0
SPLINE
  5
D5
330
1F
100
AcDbEntity
  8
0
  6
Continuous
 62
     7
370
    15
100
AcDbSpline
210
0.0
220
0.0
230
1.0
 70
    24
 71
     3
 72
     8
 73
     4
 74
     0
 42
0.000000001
 43
0.00000001
 40
0.0
 40
0.0
 40
0.0
 40
0.0
 40
1.0
 40
1.0
 40
1.0
 40
1.0
 10
-2353.24526439475
 20
-559.386022511683
 30
0.0
 10
-2353.211897291133
 20
-560.347694265621
 30
0.0
 10
-2353.178530187517
 20
-561.309366019559
 30
0.0
 10
-2353.1451630839
 20
-562.2710377734969
 30
0.0
  0
SPLINE
  5
D6
330
1F
100
AcDbEntity
  8
0
  6
Continuous
 62
     7
370
    15
100
AcDbSpline
210
0.0
220
0.0
230
1.0
 70
    24
 71
     3
 72
     8
 73
     4
 74
     0
 42
0.000000001
 43
0.00000001
 40
0.0
 40
0.0
 40
0.0
 40
0.0
 40
1.0
 40
1.0
 40
1.0
 40
1.0
 10
-2355.793811557213
 20
-558.030205158925
 30
0.0
 10
-2354.944295836392
 20
-558.482144276511
 30
0.0
 10
-2354.094780115571
 20
-558.934083394097
 30
0.0
 10
-2353.24526439475
 20
-559.386022511683
 30
0.0
  0
SPLINE
  5
D7
330
1F
100
AcDbEntity
  8
0
  6
Continuous
 62
     7
370
    15
100
AcDbSpline
210
0.0
220
0.0
230
1.0
 70
    24
 71
     3
 72
     8
 73
     4
 74
     0
 42
0.000000001
 43
0.00000001
 40
0.0
 40
0.0
 40
0.0
 40
0.0
 40
1.0
 40
1.0
 40
1.0
 40
1.0
 10
-2358.242257408824
 20
-559.559403067981
 30
0.0
 10
-2357.42610879162
 20
-559.049670431629
 30
0.0
 10
-2356.609960174417
 20
-558.5399377952768
 30
0.0
 10
-2355.793811557213
 20
-558.030205158925
 30
0.0
  0
SPLINE
  5
D8
330
1F
100
AcDbEntity
  8
0
  6
Continuous
 62
     7
370
    15
100
AcDbSpline
210
0.0
220
0.0
230
1.0
 70
    24
 71
     3
 72
     8
 73
     4
 74
     0
 42
0.000000001
 43
0.00000001
 40
0.0
 40
0.0
 40
0.0
 40
0.0
 40
1.0
 40
1.0
 40
1.0
 40
1.0
 10
-2358.142156097973
 20
-562.4444183297949
 30
0.0
 10
-2358.17552320159
 20
-561.4827465758568
 30
0.0
 10
-2358.208890305207
 20
-560.5210748219189
 30
0.0
 10
-2358.242257408824
 20
-559.559403067981
 30
0.0
  0
SPLINE
  5
D9
330
1F
100
AcDbEntity
  8
0
  6
Continuous
 62
     7
370
    15
100
AcDbSpline
210
0.0
220
0.0
230
1.0
 70
    24
 71
     3
 72
     8
 73
     4
 74
     0
 42
0.000000001
 43
0.00000001
 40
0.0
 40
0.0
 40
0.0
 40
0.0
 40
1.0
 40
1.0
 40
1.0
 40
1.0
 10
-2355.593608935511
 20
-563.8002356825529
 30
0.0
 10
-2356.443124656332
 20
-563.3482965649669
 30
0.0
 10
-2357.292640377153
 20
-562.8963574473809
 30
0.0
 10
-2358.142156097973
 20
-562.4444183297949
 30
0.0
  0
SPLINE
  5
DA
330
1F
100
AcDbEntity
  8
0
  6
Continuous
 62
     7
370
    15
100
AcDbSpline
210
0.0
220
0.0
230
1.0
 70
    24
 71
     3
 72
     8
 73
     4
 74
     0
 42
0.000000001
 43
0.00000001
 40
0.0
 40
0.0
 40
0.0
 40
0.0
 40
1.0
 40
1.0
 40
1.0
 40
1.0
 10
-2353.1451630839
 20
-562.2710377734969
 30
0.0
 10
-2353.961311701104
 20
-562.780770409849
 30
0.0
 10
-2354.777460318307
 20
-563.2905030462009
 30
0.0
 10
-2355.593608935511
 20
-563.8002356825529
 30
0.0
  0
CIRCLE
  5
DB
330
1F
100
AcDbEntity
  8
0
  6
Continuous
 62
     7
370
    15
100
AcDbCircle
 10
-2355.6937102464
 20
-560.9152204207
 30
0.0
 40
6.999999999999889
  0
SPLINE
  5
DC
330
1F
100
AcDbEntity
  8
0
  6
Continuous
 62
     7
370
    15
100
AcDbSpline
210
0.0
220
0.0
230
1.0
 70
    24
 71
     3
 72
     8
 73
     4
 74
     0
 42
0.000000001
 43
0.00000001
 40
0.0
 40
0.0
 40
0.0
 40
0.0
 40
1.0
 40
1.0
 40
1.0
 40
1.0
 10
-2261.457495552601
 20
-559.3119213635326
 30
0.0
 10
-2261.424128448984
 20
-560.2735931174706
 30
0.0
 10
-2261.390761345367
 20
-561.2352648714085
 30
0.0
 10
-2261.35739424175
 20
-562.1969366253466
 30
0.0
  0
SPLINE
  5
DD
330
1F
100
AcDbEntity
  8
0
  6
Continuous
 62
     7
370
    15
100
AcDbSpline
210
0.0
220
0.0
230
1.0
 70
    24
 71
     3
 72
     8
 73
     4
 74
     0
 42
0.000000001
 43
0.00000001
 40
0.0
 40
0.0
 40
0.0
 40
0.0
 40
1.0
 40
1.0
 40
1.0
 40
1.0
 10
-2264.006042715063
 20
-557.9561040107745
 30
0.0
 10
-2263.156526994243
 20
-558.4080431283605
 30
0.0
 10
-2262.307011273422
 20
-558.8599822459465
 30
0.0
 10
-2261.457495552601
 20
-559.3119213635326
 30
0.0
  0
SPLINE
  5
DE
330
1F
100
AcDbEntity
  8
0
  6
Continuous
 62
     7
370
    15
100
AcDbSpline
210
0.0
220
0.0
230
1.0
 70
    24
 71
     3
 72
     8
 73
     4
 74
     0
 42
0.000000001
 43
0.00000001
 40
0.0
 40
0.0
 40
0.0
 40
0.0
 40
1.0
 40
1.0
 40
1.0
 40
1.0
 10
-2266.454488566674
 20
-559.4853019198305
 30
0.0
 10
-2265.63833994947
 20
-558.9755692834785
 30
0.0
 10
-2264.822191332267
 20
-558.4658366471265
 30
0.0
 10
-2264.006042715063
 20
-557.9561040107745
 30
0.0
  0
SPLINE
  5
DF
330
1F
100
AcDbEntity
  8
0
  6
Continuous
 62
     7
370
    15
100
AcDbSpline
210
0.0
220
0.0
230
1.0
 70
    24
 71
     3
 72
     8
 73
     4
 74
     0
 42
0.000000001
 43
0.00000001
 40
0.0
 40
0.0
 40
0.0
 40
0.0
 40
1.0
 40
1.0
 40
1.0
 40
1.0
 10
-2266.354387255823
 20
-562.3703171816444
 30
0.0
 10
-2266.387754359441
 20
-561.4086454277065
 30
0.0
 10
-2266.421121463057
 20
-560.4469736737685
 30
0.0
 10
-2266.454488566674
 20
-559.4853019198305
 30
0.0
  0
SPLINE
  5
E0
330
1F
100
AcDbEntity
  8
0
  6
Continuous
 62
     7
370
    15
100
AcDbSpline
210
0.0
220
0.0
230
1.0
 70
    24
 71
     3
 72
     8
 73
     4
 74
     0
 42
0.000000001
 43
0.00000001
 40
0.0
 40
0.0
 40
0.0
 40
0.0
 40
1.0
 40
1.0
 40
1.0
 40
1.0
 10
-2263.805840093361
 20
-563.7261345344025
 30
0.0
 10
-2264.655355814182
 20
-563.2741954168165
 30
0.0
 10
-2265.504871535003
 20
-562.8222562992304
 30
0.0
 10
-2266.354387255823
 20
-562.3703171816444
 30
0.0
  0
SPLINE
  5
E1
330
1F
100
AcDbEntity
  8
0
  6
Continuous
 62
     7
370
    15
100
AcDbSpline
210
0.0
220
0.0
230
1.0
 70
    24
 71
     3
 72
     8
 73
     4
 74
     0
 42
0.000000001
 43
0.00000001
 40
0.0
 40
0.0
 40
0.0
 40
0.0
 40
1.0
 40
1.0
 40
1.0
 40
1.0
 10
-2261.35739424175
 20
-562.1969366253466
 30
0.0
 10
-2262.173542858954
 20
-562.7066692616985
 30
0.0
 10
-2262.989691476158
 20
-563.2164018980504
 30
0.0
 10
-2263.805840093361
 20
-563.7261345344025
 30
0.0
  0
CIRCLE
  5
E2
330
1F
100
AcDbEntity
  8
0
  6
Continuous
 62
     7
370
    15
100
AcDbCircle
 10
-2263.9059414042
 20
-560.8411192726
 30
0.0
 40
6.999999999999648
  0
SPLINE
  5
E3
330
1F
100
AcDbEntity
  8
0
  6
Continuous
 62
     7
370
    15
100
AcDbSpline
210
0.0
220
0.0
230
1.0
 70
    24
 71
     3
 72
     8
 73
     4
 74
     0
 42
0.000000001
 43
0.00000001
 40
0.0
 40
0.0
 40
0.0
 40
0.0
 40
1.0
 40
1.0
 40
1.0
 40
1.0
 10
-2192.722436019684
 20
-681.2770458500277
 30
0.0
 10
-2192.689068916067
 20
-682.2387176039657
 30
0.0
 10
-2192.65570181245
 20
-683.2003893579036
 30
0.0
 10
-2192.622334708833
 20
-684.1620611118416
 30
0.0
  0
SPLINE
  5
E4
330
1F
100
AcDbEntity
  8
0
  6
Continuous
 62
     7
370
    15
100
AcDbSpline
210
0.0
220
0.0
230
1.0
 70
    24
 71
     3
 72
     8
 73
     4
 74
     0
 42
0.000000001
 43
0.00000001
 40
0.0
 40
0.0
 40
0.0
 40
0.0
 40
1.0
 40
1.0
 40
1.0
 40
1.0
 10
-2195.270983182146
 20
-679.9212284972697
 30
0.0
 10
-2194.421467461325
 20
-680.3731676148557
 30
0.0
 10
-2193.571951740505
 20
-680.8251067324417
 30
0.0
 10
-2192.722436019684
 20
-681.2770458500277
 30
0.0
  0
SPLINE
  5
E5
330
1F
100
AcDbEntity
  8
0
  6
Continuous
 62
     7
370
    15
100
AcDbSpline
210
0.0
220
0.0
230
1.0
 70
    24
 71
     3
 72
     8
 73
     4
 74
     0
 42
0.000000001
 43
0.00000001
 40
0.0
 40
0.0
 40
0.0
 40
0.0
 40
1.0
 40
1.0
 40
1.0
 40
1.0
 10
-2197.719429033757
 20
-681.4504264063256
 30
0.0
 10
-2196.903280416554
 20
-680.9406937699737
 30
0.0
 10
-2196.08713179935
 20
-680.4309611336215
 30
0.0
 10
-2195.270983182146
 20
-679.9212284972697
 30
0.0
  0
SPLINE
  5
E6
330
1F
100
AcDbEntity
  8
0
  6
Continuous
 62
     7
370
    15
100
AcDbSpline
210
0.0
220
0.0
230
1.0
 70
    24
 71
     3
 72
     8
 73
     4
 74
     0
 42
0.000000001
 43
0.00000001
 40
0.0
 40
0.0
 40
0.0
 40
0.0
 40
1.0
 40
1.0
 40
1.0
 40
1.0
 10
-2197.619327722907
 20
-684.3354416681395
 30
0.0
 10
-2197.652694826524
 20
-683.3737699142015
 30
0.0
 10
-2197.68606193014
 20
-682.4120981602636
 30
0.0
 10
-2197.719429033757
 20
-681.4504264063256
 30
0.0
  0
SPLINE
  5
E7
330
1F
100
AcDbEntity
  8
0
  6
Continuous
 62
     7
370
    15
100
AcDbSpline
210
0.0
220
0.0
230
1.0
 70
    24
 71
     3
 72
     8
 73
     4
 74
     0
 42
0.000000001
 43
0.00000001
 40
0.0
 40
0.0
 40
0.0
 40
0.0
 40
1.0
 40
1.0
 40
1.0
 40
1.0
 10
-2195.070780560445
 20
-685.6912590208975
 30
0.0
 10
-2195.920296281266
 20
-685.2393199033115
 30
0.0
 10
-2196.769812002086
 20
-684.7873807857255
 30
0.0
 10
-2197.619327722907
 20
-684.3354416681395
 30
0.0
  0
SPLINE
  5
E8
330
1F
100
AcDbEntity
  8
0
  6
Continuous
 62
     7
370
    15
100
AcDbSpline
210
0.0
220
0.0
230
1.0
 70
    24
 71
     3
 72
     8
 73
     4
 74
     0
 42
0.000000001
 43
0.00000001
 40
0.0
 40
0.0
 40
0.0
 40
0.0
 40
1.0
 40
1.0
 40
1.0
 40
1.0
 10
-2192.622334708833
 20
-684.1620611118416
 30
0.0
 10
-2193.438483326037
 20
-684.6717937481936
 30
0.0
 10
-2194.254631943241
 20
-685.1815263845456
 30
0.0
 10
-2195.070780560445
 20
-685.6912590208975
 30
0.0
  0
SPLINE
  5
EA
330
1F
100
AcDbEntity
  8
0
  6
Continuous
 62
     7
370
    15
100
AcDbSpline
210
0.0
220
0.0
230
1.0
 70
    24
 71
     3
 72
     8
 73
     4
 74
     0
 42
0.000000001
 43
0.00000001
 40
0.0
 40
0.0
 40
0.0
 40
0.0
 40
1.0
 40
1.0
 40
1.0
 40
1.0
 10
-2240.323380876386
 20
-759.7572984537825
 30
0.0
 10
-2240.290013772769
 20
-760.7189702077205
 30
0.0
 10
-2240.256646669152
 20
-761.6806419616585
 30
0.0
 10
-2240.223279565535
 20
-762.6423137155964
 30
0.0
  0
SPLINE
  5
EB
330
1F
100
AcDbEntity
  8
0
  6
Continuous
 62
     7
370
    15
100
AcDbSpline
210
0.0
220
0.0
230
1.0
 70
    24
 71
     3
 72
     8
 73
     4
 74
     0
 42
0.000000001
 43
0.00000001
 40
0.0
 40
0.0
 40
0.0
 40
0.0
 40
1.0
 40
1.0
 40
1.0
 40
1.0
 10
-2242.871928038849
 20
-758.4014811010245
 30
0.0
 10
-2242.022412318028
 20
-758.8534202186105
 30
0.0
 10
-2241.172896597207
 20
-759.3053593361965
 30
0.0
 10
-2240.323380876386
 20
-759.7572984537825
 30
0.0
  0
SPLINE
  5
EC
330
1F
100
AcDbEntity
  8
0
  6
Continuous
 62
     7
370
    15
100
AcDbSpline
210
0.0
220
0.0
230
1.0
 70
    24
 71
     3
 72
     8
 73
     4
 74
     0
 42
0.000000001
 43
0.00000001
 40
0.0
 40
0.0
 40
0.0
 40
0.0
 40
1.0
 40
1.0
 40
1.0
 40
1.0
 10
-2245.320373890459
 20
-759.9306790100803
 30
0.0
 10
-2244.504225273256
 20
-759.4209463737285
 30
0.0
 10
-2243.688076656052
 20
-758.9112137373763
 30
0.0
 10
-2242.871928038849
 20
-758.4014811010245
 30
0.0
  0
SPLINE
  5
ED
330
1F
100
AcDbEntity
  8
0
  6
Continuous
 62
     7
370
    15
100
AcDbSpline
210
0.0
220
0.0
230
1.0
 70
    24
 71
     3
 72
     8
 73
     4
 74
     0
 42
0.000000001
 43
0.00000001
 40
0.0
 40
0.0
 40
0.0
 40
0.0
 40
1.0
 40
1.0
 40
1.0
 40
1.0
 10
-2245.220272579609
 20
-762.8156942718944
 30
0.0
 10
-2245.253639683226
 20
-761.8540225179563
 30
0.0
 10
-2245.287006786843
 20
-760.8923507640184
 30
0.0
 10
-2245.320373890459
 20
-759.9306790100803
 30
0.0
  0
SPLINE
  5
EE
330
1F
100
AcDbEntity
  8
0
  6
Continuous
 62
     7
370
    15
100
AcDbSpline
210
0.0
220
0.0
230
1.0
 70
    24
 71
     3
 72
     8
 73
     4
 74
     0
 42
0.000000001
 43
0.00000001
 40
0.0
 40
0.0
 40
0.0
 40
0.0
 40
1.0
 40
1.0
 40
1.0
 40
1.0
 10
-2242.671725417147
 20
-764.1715116246523
 30
0.0
 10
-2243.521241137968
 20
-763.7195725070663
 30
0.0
 10
-2244.370756858788
 20
-763.2676333894804
 30
0.0
 10
-2245.220272579609
 20
-762.8156942718944
 30
0.0
  0
SPLINE
  5
EF
330
1F
100
AcDbEntity
  8
0
  6
Continuous
 62
     7
370
    15
100
AcDbSpline
210
0.0
220
0.0
230
1.0
 70
    24
 71
     3
 72
     8
 73
     4
 74
     0
 42
0.000000001
 43
0.00000001
 40
0.0
 40
0.0
 40
0.0
 40
0.0
 40
1.0
 40
1.0
 40
1.0
 40
1.0
 10
-2240.223279565535
 20
-762.6423137155964
 30
0.0
 10
-2241.039428182739
 20
-763.1520463519485
 30
0.0
 10
-2241.855576799943
 20
-763.6617789883004
 30
0.0
 10
-2242.671725417147
 20
-764.1715116246523
 30
0.0
  0
CIRCLE
  5
F0
330
1F
100
AcDbEntity
  8
0
  6
Continuous
 62
     7
370
    15
100
AcDbCircle
 10
-2242.771826728
 20
-761.2864963628
 30
0.0
 40
7.00000000000029
  0
SPLINE
  5
FF
330
1F
100
AcDbEntity
  8
0
  6
Continuous
 62
     7
370
    15
100
AcDbSpline
210
0.0
220
0.0
230
1.0
 70
    24
 71
     3
 72
     8
 73
     4
 74
     0
 42
0.000000001
 43
0.00000001
 40
0.0
 40
0.0
 40
0.0
 40
0.0
 40
1.0
 40
1.0
 40
1.0
 40
1.0
 10
-1544.937238629388
 20
-904.8504147540589
 30
0.0
 10
-1545.898795136371
 20
-904.8869525400431
 30
0.0
 10
-1546.860351643354
 20
-904.9234903260274
 30
0.0
 10
-1547.821908150337
 20
-904.9600281120116
 30
0.0
  0
SPLINE
  5
100
330
1F
100
AcDbEntity
  8
0
  6
Continuous
 62
     7
370
    15
100
AcDbSpline
210
0.0
220
0.0
230
1.0
 70
    24
 71
     3
 72
     8
 73
     4
 74
     0
 42
0.000000001
 43
0.00000001
 40
0.0
 40
0.0
 40
0.0
 40
0.0
 40
1.0
 40
1.0
 40
1.0
 40
1.0
 10
-1543.589831821494
 20
-902.297410988418
 30
0.0
 10
-1544.038967424126
 20
-903.1484122436317
 30
0.0
 10
-1544.488103026757
 20
-903.9994134988452
 30
0.0
 10
-1544.937238629388
 20
-904.8504147540589
 30
0.0
  0
SPLINE
  5
101
330
1F
100
AcDbEntity
  8
0
  6
Continuous
 62
     7
370
    15
100
AcDbSpline
210
0.0
220
0.0
230
1.0
 70
    24
 71
     3
 72
     8
 73
     4
 74
     0
 42
0.000000001
 43
0.00000001
 40
0.0
 40
0.0
 40
0.0
 40
0.0
 40
1.0
 40
1.0
 40
1.0
 40
1.0
 10
-1545.12709453455
 20
-899.85402058073
 30
0.0
 10
-1544.614673630198
 20
-900.6684840499594
 30
0.0
 10
-1544.102252725846
 20
-901.4829475191887
 30
0.0
 10
-1543.589831821494
 20
-902.297410988418
 30
0.0
  0
SPLINE
  5
102
330
1F
100
AcDbEntity
  8
0
  6
Continuous
 62
     7
370
    15
100
AcDbSpline
210
0.0
220
0.0
230
1.0
 70
    24
 71
     3
 72
     8
 73
     4
 74
     0
 42
0.000000001
 43
0.00000001
 40
0.0
 40
0.0
 40
0.0
 40
0.0
 40
1.0
 40
1.0
 40
1.0
 40
1.0
 10
-1548.011764055499
 20
-899.9636339386827
 30
0.0
 10
-1547.050207548516
 20
-899.9270961526985
 30
0.0
 10
-1546.088651041533
 20
-899.8905583667141
 30
0.0
 10
-1545.12709453455
 20
-899.85402058073
 30
0.0
  0
SPLINE
  5
103
330
1F
100
AcDbEntity
  8
0
  6
Continuous
 62
     7
370
    15
100
AcDbSpline
210
0.0
220
0.0
230
1.0
 70
    24
 71
     3
 72
     8
 73
     4
 74
     0
 42
0.000000001
 43
0.00000001
 40
0.0
 40
0.0
 40
0.0
 40
0.0
 40
1.0
 40
1.0
 40
1.0
 40
1.0
 10
-1549.359170863392
 20
-902.5166377043236
 30
0.0
 10
-1548.910035260761
 20
-901.6656364491099
 30
0.0
 10
-1548.46089965813
 20
-900.8146351938964
 30
0.0
 10
-1548.011764055499
 20
-899.9636339386827
 30
0.0
  0
SPLINE
  5
104
330
1F
100
AcDbEntity
  8
0
  6
Continuous
 62
     7
370
    15
100
AcDbSpline
210
0.0
220
0.0
230
1.0
 70
    24
 71
     3
 72
     8
 73
     4
 74
     0
 42
0.000000001
 43
0.00000001
 40
0.0
 40
0.0
 40
0.0
 40
0.0
 40
1.0
 40
1.0
 40
1.0
 40
1.0
 10
-1547.821908150337
 20
-904.9600281120116
 30
0.0
 10
-1548.334329054688
 20
-904.1455646427822
 30
0.0
 10
-1548.84674995904
 20
-903.3311011735528
 30
0.0
 10
-1549.359170863392
 20
-902.5166377043236
 30
0.0
  0
CIRCLE
  5
105
330
1F
100
AcDbEntity
  8
0
  6
Continuous
 62
     7
370
    15
100
AcDbCircle
 10
-1546.4745013424
 20
-902.4070243464
 30
0.0
 40
7.000000000000094
  0
SPLINE
  5
106
330
1F
100
AcDbEntity
  8
0
  6
Continuous
 62
     7
370
    15
100
AcDbSpline
210
0.0
220
0.0
230
1.0
 70
    24
 71
     3
 72
     8
 73
     4
 74
     0
 42
0.000000001
 43
0.00000001
 40
0.0
 40
0.0
 40
0.0
 40
0.0
 40
1.0
 40
1.0
 40
1.0
 40
1.0
 10
-1544.560491469046
 20
-996.6374403163748
 30
0.0
 10
-1545.522047976029
 20
-996.673978102359
 30
0.0
 10
-1546.483604483012
 20
-996.7105158883433
 30
0.0
 10
-1547.445160989995
 20
-996.7470536743275
 30
0.0
  0
SPLINE
  5
107
330
1F
100
AcDbEntity
  8
0
  6
Continuous
 62
     7
370
    15
100
AcDbSpline
210
0.0
220
0.0
230
1.0
 70
    24
 71
     3
 72
     8
 73
     4
 74
     0
 42
0.000000001
 43
0.00000001
 40
0.0
 40
0.0
 40
0.0
 40
0.0
 40
1.0
 40
1.0
 40
1.0
 40
1.0
 10
-1543.213084661153
 20
-994.0844365507339
 30
0.0
 10
-1543.662220263784
 20
-994.9354378059476
 30
0.0
 10
-1544.111355866415
 20
-995.7864390611611
 30
0.0
 10
-1544.560491469046
 20
-996.6374403163748
 30
0.0
  0
SPLINE
  5
108
330
1F
100
AcDbEntity
  8
0
  6
Continuous
 62
     7
370
    15
100
AcDbSpline
210
0.0
220
0.0
230
1.0
 70
    24
 71
     3
 72
     8
 73
     4
 74
     0
 42
0.000000001
 43
0.00000001
 40
0.0
 40
0.0
 40
0.0
 40
0.0
 40
1.0
 40
1.0
 40
1.0
 40
1.0
 10
-1544.750347374209
 20
-991.6410461430459
 30
0.0
 10
-1544.237926469857
 20
-992.4555096122753
 30
0.0
 10
-1543.725505565505
 20
-993.2699730815045
 30
0.0
 10
-1543.213084661153
 20
-994.0844365507339
 30
0.0
  0
SPLINE
  5
109
330
1F
100
AcDbEntity
  8
0
  6
Continuous
 62
     7
370
    15
100
AcDbSpline
210
0.0
220
0.0
230
1.0
 70
    24
 71
     3
 72
     8
 73
     4
 74
     0
 42
0.000000001
 43
0.00000001
 40
0.0
 40
0.0
 40
0.0
 40
0.0
 40
1.0
 40
1.0
 40
1.0
 40
1.0
 10
-1547.635016895158
 20
-991.7506595009986
 30
0.0
 10
-1546.673460388175
 20
-991.7141217150144
 30
0.0
 10
-1545.711903881192
 20
-991.67758392903
 30
0.0
 10
-1544.750347374209
 20
-991.6410461430459
 30
0.0
  0
SPLINE
  5
10A
330
1F
100
AcDbEntity
  8
0
  6
Continuous
 62
     7
370
    15
100
AcDbSpline
210
0.0
220
0.0
230
1.0
 70
    24
 71
     3
 72
     8
 73
     4
 74
     0
 42
0.000000001
 43
0.00000001
 40
0.0
 40
0.0
 40
0.0
 40
0.0
 40
1.0
 40
1.0
 40
1.0
 40
1.0
 10
-1548.982423703051
 20
-994.3036632666394
 30
0.0
 10
-1548.53328810042
 20
-993.4526620114258
 30
0.0
 10
-1548.084152497789
 20
-992.6016607562123
 30
0.0
 10
-1547.635016895158
 20
-991.7506595009986
 30
0.0
  0
SPLINE
  5
10B
330
1F
100
AcDbEntity
  8
0
  6
Continuous
 62
     7
370
    15
100
AcDbSpline
210
0.0
220
0.0
230
1.0
 70
    24
 71
     3
 72
     8
 73
     4
 74
     0
 42
0.000000001
 43
0.00000001
 40
0.0
 40
0.0
 40
0.0
 40
0.0
 40
1.0
 40
1.0
 40
1.0
 40
1.0
 10
-1547.445160989995
 20
-996.7470536743275
 30
0.0
 10
-1547.957581894347
 20
-995.9325902050982
 30
0.0
 10
-1548.470002798699
 20
-995.1181267358687
 30
0.0
 10
-1548.982423703051
 20
-994.3036632666394
 30
0.0
  0
CIRCLE
  5
10C
330
1F
100
AcDbEntity
  8
0
  6
Continuous
 62
     7
370
    15
100
AcDbCircle
 10
-1546.0977541821
 20
-994.1940499087
 30
0.0
 40
6.99999999999967
  0
SPLINE
  5
10D
330
1F
100
AcDbEntity
  8
0
  6
Continuous
 62
     7
370
    15
100
AcDbSpline
210
0.0
220
0.0
230
1.0
 70
    24
 71
     3
 72
     8
 73
     4
 74
     0
 42
0.000000001
 43
0.00000001
 40
0.0
 40
0.0
 40
0.0
 40
0.0
 40
1.0
 40
1.0
 40
1.0
 40
1.0
 10
-1666.298316891928
 20
-1065.774274647344
 30
0.0
 10
-1667.25987339891
 20
-1065.810812433328
 30
0.0
 10
-1668.221429905894
 20
-1065.847350219312
 30
0.0
 10
-1669.182986412877
 20
-1065.883888005297
 30
0.0
  0
SPLINE
  5
10E
330
1F
100
AcDbEntity
  8
0
  6
Continuous
 62
     7
370
    15
100
AcDbSpline
210
0.0
220
0.0
230
1.0
 70
    24
 71
     3
 72
     8
 73
     4
 74
     0
 42
0.000000001
 43
0.00000001
 40
0.0
 40
0.0
 40
0.0
 40
0.0
 40
1.0
 40
1.0
 40
1.0
 40
1.0
 10
-1664.950910084035
 20
-1063.221270881703
 30
0.0
 10
-1665.400045686666
 20
-1064.072272136917
 30
0.0
 10
-1665.849181289297
 20
-1064.92327339213
 30
0.0
 10
-1666.298316891928
 20
-1065.774274647344
 30
0.0
  0
SPLINE
  5
10F
330
1F
100
AcDbEntity
  8
0
  6
Continuous
 62
     7
370
    15
100
AcDbSpline
210
0.0
220
0.0
230
1.0
 70
    24
 71
     3
 72
     8
 73
     4
 74
     0
 42
0.000000001
 43
0.00000001
 40
0.0
 40
0.0
 40
0.0
 40
0.0
 40
1.0
 40
1.0
 40
1.0
 40
1.0
 10
-1666.48817279709
 20
-1060.777880474015
 30
0.0
 10
-1665.975751892738
 20
-1061.592343943244
 30
0.0
 10
-1665.463330988386
 20
-1062.406807412474
 30
0.0
 10
-1664.950910084035
 20
-1063.221270881703
 30
0.0
  0
SPLINE
  5
110
330
1F
100
AcDbEntity
  8
0
  6
Continuous
 62
     7
370
    15
100
AcDbSpline
210
0.0
220
0.0
230
1.0
 70
    24
 71
     3
 72
     8
 73
     4
 74
     0
 42
0.000000001
 43
0.00000001
 40
0.0
 40
0.0
 40
0.0
 40
0.0
 40
1.0
 40
1.0
 40
1.0
 40
1.0
 10
-1669.372842318039
 20
-1060.887493831968
 30
0.0
 10
-1668.411285811056
 20
-1060.850956045983
 30
0.0
 10
-1667.449729304073
 20
-1060.814418259999
 30
0.0
 10
-1666.48817279709
 20
-1060.777880474015
 30
0.0
  0
SPLINE
  5
111
330
1F
100
AcDbEntity
  8
0
  6
Continuous
 62
     7
370
    15
100
AcDbSpline
210
0.0
220
0.0
230
1.0
 70
    24
 71
     3
 72
     8
 73
     4
 74
     0
 42
0.000000001
 43
0.00000001
 40
0.0
 40
0.0
 40
0.0
 40
0.0
 40
1.0
 40
1.0
 40
1.0
 40
1.0
 10
-1670.720249125932
 20
-1063.440497597609
 30
0.0
 10
-1670.271113523301
 20
-1062.589496342395
 30
0.0
 10
-1669.82197792067
 20
-1061.738495087181
 30
0.0
 10
-1669.372842318039
 20
-1060.887493831968
 30
0.0
  0
SPLINE
  5
112
330
1F
100
AcDbEntity
  8
0
  6
Continuous
 62
     7
370
    15
100
AcDbSpline
210
0.0
220
0.0
230
1.0
 70
    24
 71
     3
 72
     8
 73
     4
 74
     0
 42
0.000000001
 43
0.00000001
 40
0.0
 40
0.0
 40
0.0
 40
0.0
 40
1.0
 40
1.0
 40
1.0
 40
1.0
 10
-1669.182986412877
 20
-1065.883888005297
 30
0.0
 10
-1669.695407317229
 20
-1065.069424536067
 30
0.0
 10
-1670.20782822158
 20
-1064.254961066838
 30
0.0
 10
-1670.720249125932
 20
-1063.440497597609
 30
0.0
  0
CIRCLE
  5
113
330
1F
100
AcDbEntity
  8
0
  6
Continuous
 62
     7
370
    15
100
AcDbCircle
 10
-1667.835579605
 20
-1063.3308842397
 30
0.0
 40
6.999999999999848
  0
SPLINE
  5
114
330
1F
100
AcDbEntity
  8
0
  6
Continuous
 62
     7
370
    15
100
AcDbSpline
210
0.0
220
0.0
230
1.0
 70
    24
 71
     3
 72
     8
 73
     4
 74
     0
 42
0.000000001
 43
0.00000001
 40
0.0
 40
0.0
 40
0.0
 40
0.0
 40
1.0
 40
1.0
 40
1.0
 40
1.0
 10
-1744.935094681265
 20
-1018.432356869223
 30
0.0
 10
-1745.896651188248
 20
-1018.468894655207
 30
0.0
 10
-1746.858207695231
 20
-1018.505432441191
 30
0.0
 10
-1747.819764202214
 20
-1018.541970227175
 30
0.0
  0
SPLINE
  5
115
330
1F
100
AcDbEntity
  8
0
  6
Continuous
 62
     7
370
    15
100
AcDbSpline
210
0.0
220
0.0
230
1.0
 70
    24
 71
     3
 72
     8
 73
     4
 74
     0
 42
0.000000001
 43
0.00000001
 40
0.0
 40
0.0
 40
0.0
 40
0.0
 40
1.0
 40
1.0
 40
1.0
 40
1.0
 10
-1743.587687873372
 20
-1015.879353103582
 30
0.0
 10
-1744.036823476003
 20
-1016.730354358796
 30
0.0
 10
-1744.485959078634
 20
-1017.581355614009
 30
0.0
 10
-1744.935094681265
 20
-1018.432356869223
 30
0.0
  0
SPLINE
  5
116
330
1F
100
AcDbEntity
  8
0
  6
Continuous
 62
     7
370
    15
100
AcDbSpline
210
0.0
220
0.0
230
1.0
 70
    24
 71
     3
 72
     8
 73
     4
 74
     0
 42
0.000000001
 43
0.00000001
 40
0.0
 40
0.0
 40
0.0
 40
0.0
 40
1.0
 40
1.0
 40
1.0
 40
1.0
 10
-1745.124950586428
 20
-1013.435962695894
 30
0.0
 10
-1744.612529682076
 20
-1014.250426165123
 30
0.0
 10
-1744.100108777724
 20
-1015.064889634353
 30
0.0
 10
-1743.587687873372
 20
-1015.879353103582
 30
0.0
  0
SPLINE
  5
117
330
1F
100
AcDbEntity
  8
0
  6
Continuous
 62
     7
370
    15
100
AcDbSpline
210
0.0
220
0.0
230
1.0
 70
    24
 71
     3
 72
     8
 73
     4
 74
     0
 42
0.000000001
 43
0.00000001
 40
0.0
 40
0.0
 40
0.0
 40
0.0
 40
1.0
 40
1.0
 40
1.0
 40
1.0
 10
-1748.009620107377
 20
-1013.545576053847
 30
0.0
 10
-1747.048063600394
 20
-1013.509038267862
 30
0.0
 10
-1746.086507093411
 20
-1013.472500481878
 30
0.0
 10
-1745.124950586428
 20
-1013.435962695894
 30
0.0
  0
SPLINE
  5
118
330
1F
100
AcDbEntity
  8
0
  6
Continuous
 62
     7
370
    15
100
AcDbSpline
210
0.0
220
0.0
230
1.0
 70
    24
 71
     3
 72
     8
 73
     4
 74
     0
 42
0.000000001
 43
0.00000001
 40
0.0
 40
0.0
 40
0.0
 40
0.0
 40
1.0
 40
1.0
 40
1.0
 40
1.0
 10
-1749.35702691527
 20
-1016.098579819487
 30
0.0
 10
-1748.907891312639
 20
-1015.247578564274
 30
0.0
 10
-1748.458755710008
 20
-1014.39657730906
 30
0.0
 10
-1748.009620107377
 20
-1013.545576053847
 30
0.0
  0
SPLINE
  5
119
330
1F
100
AcDbEntity
  8
0
  6
Continuous
 62
     7
370
    15
100
AcDbSpline
210
0.0
220
0.0
230
1.0
 70
    24
 71
     3
 72
     8
 73
     4
 74
     0
 42
0.000000001
 43
0.00000001
 40
0.0
 40
0.0
 40
0.0
 40
0.0
 40
1.0
 40
1.0
 40
1.0
 40
1.0
 10
-1747.819764202214
 20
-1018.541970227175
 30
0.0
 10
-1748.332185106566
 20
-1017.727506757946
 30
0.0
 10
-1748.844606010918
 20
-1016.913043288717
 30
0.0
 10
-1749.35702691527
 20
-1016.098579819487
 30
0.0
  0
CIRCLE
  5
11A
330
1F
100
AcDbEntity
  8
0
  6
Continuous
 62
     7
370
    15
100
AcDbCircle
 10
-1746.4723573943
 20
-1015.9889664615
 30
0.0
 40
6.999999999999877
  0
SPLINE
  5
129
330
1F
100
AcDbEntity
  8
0
  6
Continuous
 62
     7
370
    15
100
AcDbSpline
210
0.0
220
0.0
230
1.0
 70
    24
 71
     3
 72
     8
 73
     4
 74
     0
 42
0.000000001
 43
0.00000001
 40
0.0
 40
0.0
 40
0.0
 40
0.0
 40
1.0
 40
1.0
 40
1.0
 40
1.0
 10
-1747.419101307969
 20
-1213.691476991864
 30
0.0
 10
-1746.913974098987
 20
-1214.510483969046
 30
0.0
 10
-1746.408846890004
 20
-1215.329490946227
 30
0.0
 10
-1745.903719681022
 20
-1216.148497923408
 30
0.0
  0
SPLINE
  5
12A
330
1F
100
AcDbEntity
  8
0
  6
Continuous
 62
     7
370
    15
100
AcDbSpline
210
0.0
220
0.0
230
1.0
 70
    24
 71
     3
 72
     8
 73
     4
 74
     0
 42
0.000000001
 43
0.00000001
 40
0.0
 40
0.0
 40
0.0
 40
0.0
 40
1.0
 40
1.0
 40
1.0
 40
1.0
 10
-1750.30463466579
 20
-1213.775325511458
 30
0.0
 10
-1749.342790213183
 20
-1213.747376004927
 30
0.0
 10
-1748.380945760576
 20
-1213.719426498395
 30
0.0
 10
-1747.419101307969
 20
-1213.691476991864
 30
0.0
  0
SPLINE
  5
12B
330
1F
100
AcDbEntity
  8
0
  6
Continuous
 62
     7
370
    15
100
AcDbSpline
210
0.0
220
0.0
230
1.0
 70
    24
 71
     3
 72
     8
 73
     4
 74
     0
 42
0.000000001
 43
0.00000001
 40
0.0
 40
0.0
 40
0.0
 40
0.0
 40
1.0
 40
1.0
 40
1.0
 40
1.0
 10
-1751.674786396663
 20
-1216.316194962594
 30
0.0
 10
-1751.218069153039
 20
-1215.469238478882
 30
0.0
 10
-1750.761351909414
 20
-1214.62228199517
 30
0.0
 10
-1750.30463466579
 20
-1213.775325511458
 30
0.0
  0
SPLINE
  5
12C
330
1F
100
AcDbEntity
  8
0
  6
Continuous
 62
     7
370
    15
100
AcDbSpline
210
0.0
220
0.0
230
1.0
 70
    24
 71
     3
 72
     8
 73
     4
 74
     0
 42
0.000000001
 43
0.00000001
 40
0.0
 40
0.0
 40
0.0
 40
0.0
 40
1.0
 40
1.0
 40
1.0
 40
1.0
 10
-1750.159404769716
 20
-1218.773215894138
 30
0.0
 10
-1750.664531978698
 20
-1217.954208916956
 30
0.0
 10
-1751.169659187681
 20
-1217.135201939775
 30
0.0
 10
-1751.674786396663
 20
-1216.316194962594
 30
0.0
  0
SPLINE
  5
12D
330
1F
100
AcDbEntity
  8
0
  6
Continuous
 62
     7
370
    15
100
AcDbSpline
210
0.0
220
0.0
230
1.0
 70
    24
 71
     3
 72
     8
 73
     4
 74
     0
 42
0.000000001
 43
0.00000001
 40
0.0
 40
0.0
 40
0.0
 40
0.0
 40
1.0
 40
1.0
 40
1.0
 40
1.0
 10
-1747.273871411895
 20
-1218.689367374544
 30
0.0
 10
-1748.235715864502
 20
-1218.717316881075
 30
0.0
 10
-1749.197560317109
 20
-1218.745266387607
 30
0.0
 10
-1750.159404769716
 20
-1218.773215894138
 30
0.0
  0
SPLINE
  5
12E
330
1F
100
AcDbEntity
  8
0
  6
Continuous
 62
     7
370
    15
100
AcDbSpline
210
0.0
220
0.0
230
1.0
 70
    24
 71
     3
 72
     8
 73
     4
 74
     0
 42
0.000000001
 43
0.00000001
 40
0.0
 40
0.0
 40
0.0
 40
0.0
 40
1.0
 40
1.0
 40
1.0
 40
1.0
 10
-1745.903719681022
 20
-1216.148497923408
 30
0.0
 10
-1746.360436924646
 20
-1216.99545440712
 30
0.0
 10
-1746.817154168271
 20
-1217.842410890833
 30
0.0
 10
-1747.273871411895
 20
-1218.689367374545
 30
0.0
  0
CIRCLE
  5
12F
330
1F
100
AcDbEntity
  8
0
  6
Continuous
 62
     7
370
    15
100
AcDbCircle
 10
-1748.7892530388
 20
-1216.232346443
 30
0.0
 40
7.000000000000202
  0
SPLINE
  5
130
330
1F
100
AcDbEntity
  8
0
  6
Continuous
 62
     7
370
    15
100
AcDbSpline
210
0.0
220
0.0
230
1.0
 70
    24
 71
     3
 72
     8
 73
     4
 74
     0
 42
0.000000001
 43
0.00000001
 40
0.0
 40
0.0
 40
0.0
 40
0.0
 40
1.0
 40
1.0
 40
1.0
 40
1.0
 10
-1667.707992520688
 20
-1168.181707316527
 30
0.0
 10
-1667.202865311706
 20
-1169.000714293708
 30
0.0
 10
-1666.697738102723
 20
-1169.819721270889
 30
0.0
 10
-1666.19261089374
 20
-1170.63872824807
 30
0.0
  0
SPLINE
  5
131
330
1F
100
AcDbEntity
  8
0
  6
Continuous
 62
     7
370
    15
100
AcDbSpline
210
0.0
220
0.0
230
1.0
 70
    24
 71
     3
 72
     8
 73
     4
 74
     0
 42
0.000000001
 43
0.00000001
 40
0.0
 40
0.0
 40
0.0
 40
0.0
 40
1.0
 40
1.0
 40
1.0
 40
1.0
 10
-1670.593525878509
 20
-1168.26555583612
 30
0.0
 10
-1669.631681425902
 20
-1168.237606329589
 30
0.0
 10
-1668.669836973295
 20
-1168.209656823058
 30
0.0
 10
-1667.707992520688
 20
-1168.181707316527
 30
0.0
  0
SPLINE
  5
132
330
1F
100
AcDbEntity
  8
0
  6
Continuous
 62
     7
370
    15
100
AcDbSpline
210
0.0
220
0.0
230
1.0
 70
    24
 71
     3
 72
     8
 73
     4
 74
     0
 42
0.000000001
 43
0.00000001
 40
0.0
 40
0.0
 40
0.0
 40
0.0
 40
1.0
 40
1.0
 40
1.0
 40
1.0
 10
-1671.963677609382
 20
-1170.806425287257
 30
0.0
 10
-1671.506960365758
 20
-1169.959468803544
 30
0.0
 10
-1671.050243122133
 20
-1169.112512319832
 30
0.0
 10
-1670.593525878509
 20
-1168.26555583612
 30
0.0
  0
SPLINE
  5
133
330
1F
100
AcDbEntity
  8
0
  6
Continuous
 62
     7
370
    15
100
AcDbSpline
210
0.0
220
0.0
230
1.0
 70
    24
 71
     3
 72
     8
 73
     4
 74
     0
 42
0.000000001
 43
0.00000001
 40
0.0
 40
0.0
 40
0.0
 40
0.0
 40
1.0
 40
1.0
 40
1.0
 40
1.0
 10
-1670.448295982434
 20
-1173.2634462188
 30
0.0
 10
-1670.953423191417
 20
-1172.444439241619
 30
0.0
 10
-1671.458550400399
 20
-1171.625432264438
 30
0.0
 10
-1671.963677609382
 20
-1170.806425287257
 30
0.0
  0
SPLINE
  5
134
330
1F
100
AcDbEntity
  8
0
  6
Continuous
 62
     7
370
    15
100
AcDbSpline
210
0.0
220
0.0
230
1.0
 70
    24
 71
     3
 72
     8
 73
     4
 74
     0
 42
0.000000001
 43
0.00000001
 40
0.0
 40
0.0
 40
0.0
 40
0.0
 40
1.0
 40
1.0
 40
1.0
 40
1.0
 10
-1667.562762624614
 20
-1173.179597699207
 30
0.0
 10
-1668.524607077221
 20
-1173.207547205738
 30
0.0
 10
-1669.486451529827
 20
-1173.235496712269
 30
0.0
 10
-1670.448295982434
 20
-1173.2634462188
 30
0.0
  0
SPLINE
  5
135
330
1F
100
AcDbEntity
  8
0
  6
Continuous
 62
     7
370
    15
100
AcDbSpline
210
0.0
220
0.0
230
1.0
 70
    24
 71
     3
 72
     8
 73
     4
 74
     0
 42
0.000000001
 43
0.00000001
 40
0.0
 40
0.0
 40
0.0
 40
0.0
 40
1.0
 40
1.0
 40
1.0
 40
1.0
 10
-1666.19261089374
 20
-1170.63872824807
 30
0.0
 10
-1666.649328137365
 20
-1171.485684731782
 30
0.0
 10
-1667.106045380989
 20
-1172.332641215495
 30
0.0
 10
-1667.562762624614
 20
-1173.179597699207
 30
0.0
  0
CIRCLE
  5
136
330
1F
100
AcDbEntity
  8
0
  6
Continuous
 62
     7
370
    15
100
AcDbCircle
 10
-1669.0781442516
 20
-1170.7225767677
 30
0.0
 40
7.000000000000435
  0
SPLINE
  5
137
330
1F
100
AcDbEntity
  8
0
  6
Continuous
 62
     7
370
    15
100
AcDbSpline
210
0.0
220
0.0
230
1.0
 70
    24
 71
     3
 72
     8
 73
     4
 74
     0
 42
0.000000001
 43
0.00000001
 40
0.0
 40
0.0
 40
0.0
 40
0.0
 40
1.0
 40
1.0
 40
1.0
 40
1.0
 10
-1547.602425075745
 20
-1240.116766006487
 30
0.0
 10
-1547.097297866762
 20
-1240.935772983668
 30
0.0
 10
-1546.592170657779
 20
-1241.754779960849
 30
0.0
 10
-1546.087043448797
 20
-1242.57378693803
 30
0.0
  0
SPLINE
  5
138
330
1F
100
AcDbEntity
  8
0
  6
Continuous
 62
     7
370
    15
100
AcDbSpline
210
0.0
220
0.0
230
1.0
 70
    24
 71
     3
 72
     8
 73
     4
 74
     0
 42
0.000000001
 43
0.00000001
 40
0.0
 40
0.0
 40
0.0
 40
0.0
 40
1.0
 40
1.0
 40
1.0
 40
1.0
 10
-1550.487958433565
 20
-1240.20061452608
 30
0.0
 10
-1549.526113980958
 20
-1240.172665019549
 30
0.0
 10
-1548.564269528351
 20
-1240.144715513018
 30
0.0
 10
-1547.602425075745
 20
-1240.116766006487
 30
0.0
  0
SPLINE
  5
139
330
1F
100
AcDbEntity
  8
0
  6
Continuous
 62
     7
370
    15
100
AcDbSpline
210
0.0
220
0.0
230
1.0
 70
    24
 71
     3
 72
     8
 73
     4
 74
     0
 42
0.000000001
 43
0.00000001
 40
0.0
 40
0.0
 40
0.0
 40
0.0
 40
1.0
 40
1.0
 40
1.0
 40
1.0
 10
-1551.858110164438
 20
-1242.741483977217
 30
0.0
 10
-1551.401392920814
 20
-1241.894527493504
 30
0.0
 10
-1550.944675677189
 20
-1241.047571009792
 30
0.0
 10
-1550.487958433565
 20
-1240.20061452608
 30
0.0
  0
SPLINE
  5
13A
330
1F
100
AcDbEntity
  8
0
  6
Continuous
 62
     7
370
    15
100
AcDbSpline
210
0.0
220
0.0
230
1.0
 70
    24
 71
     3
 72
     8
 73
     4
 74
     0
 42
0.000000001
 43
0.00000001
 40
0.0
 40
0.0
 40
0.0
 40
0.0
 40
1.0
 40
1.0
 40
1.0
 40
1.0
 10
-1550.342728537491
 20
-1245.19850490876
 30
0.0
 10
-1550.847855746473
 20
-1244.379497931579
 30
0.0
 10
-1551.352982955456
 20
-1243.560490954398
 30
0.0
 10
-1551.858110164438
 20
-1242.741483977217
 30
0.0
  0
SPLINE
  5
13B
330
1F
100
AcDbEntity
  8
0
  6
Continuous
 62
     7
370
    15
100
AcDbSpline
210
0.0
220
0.0
230
1.0
 70
    24
 71
     3
 72
     8
 73
     4
 74
     0
 42
0.000000001
 43
0.00000001
 40
0.0
 40
0.0
 40
0.0
 40
0.0
 40
1.0
 40
1.0
 40
1.0
 40
1.0
 10
-1547.45719517967
 20
-1245.114656389167
 30
0.0
 10
-1548.419039632277
 20
-1245.142605895698
 30
0.0
 10
-1549.380884084884
 20
-1245.170555402229
 30
0.0
 10
-1550.342728537491
 20
-1245.19850490876
 30
0.0
  0
SPLINE
  5
13C
330
1F
100
AcDbEntity
  8
0
  6
Continuous
 62
     7
370
    15
100
AcDbSpline
210
0.0
220
0.0
230
1.0
 70
    24
 71
     3
 72
     8
 73
     4
 74
     0
 42
0.000000001
 43
0.00000001
 40
0.0
 40
0.0
 40
0.0
 40
0.0
 40
1.0
 40
1.0
 40
1.0
 40
1.0
 10
-1546.087043448797
 20
-1242.57378693803
 30
0.0
 10
-1546.543760692421
 20
-1243.420743421743
 30
0.0
 10
-1547.000477936046
 20
-1244.267699905455
 30
0.0
 10
-1547.45719517967
 20
-1245.114656389167
 30
0.0
  0
CIRCLE
  5
13D
330
1F
100
AcDbEntity
  8
0
  6
Continuous
 62
     7
370
    15
100
AcDbCircle
 10
-1548.9725768066
 20
-1242.6576354576
 30
0.0
 40
7.00000000000067
  0
SPLINE
  5
13E
330
1F
100
AcDbEntity
  8
0
  6
Continuous
 62
     7
370
    15
100
AcDbSpline
210
0.0
220
0.0
230
1.0
 70
    24
 71
     3
 72
     8
 73
     4
 74
     0
 42
0.000000001
 43
0.00000001
 40
0.0
 40
0.0
 40
0.0
 40
0.0
 40
1.0
 40
1.0
 40
1.0
 40
1.0
 10
-1550.102811934133
 20
-1331.870501982514
 30
0.0
 10
-1549.59768472515
 20
-1332.689508959695
 30
0.0
 10
-1549.092557516168
 20
-1333.508515936876
 30
0.0
 10
-1548.587430307185
 20
-1334.327522914057
 30
0.0
  0
SPLINE
  5
13F
330
1F
100
AcDbEntity
  8
0
  6
Continuous
 62
     7
370
    15
100
AcDbSpline
210
0.0
220
0.0
230
1.0
 70
    24
 71
     3
 72
     8
 73
     4
 74
     0
 42
0.000000001
 43
0.00000001
 40
0.0
 40
0.0
 40
0.0
 40
0.0
 40
1.0
 40
1.0
 40
1.0
 40
1.0
 10
-1552.988345291953
 20
-1331.954350502107
 30
0.0
 10
-1552.026500839347
 20
-1331.926400995576
 30
0.0
 10
-1551.06465638674
 20
-1331.898451489045
 30
0.0
 10
-1550.102811934133
 20
-1331.870501982514
 30
0.0
  0
SPLINE
  5
140
330
1F
100
AcDbEntity
  8
0
  6
Continuous
 62
     7
370
    15
100
AcDbSpline
210
0.0
220
0.0
230
1.0
 70
    24
 71
     3
 72
     8
 73
     4
 74
     0
 42
0.000000001
 43
0.00000001
 40
0.0
 40
0.0
 40
0.0
 40
0.0
 40
1.0
 40
1.0
 40
1.0
 40
1.0
 10
-1554.358497022827
 20
-1334.495219953243
 30
0.0
 10
-1553.901779779202
 20
-1333.648263469531
 30
0.0
 10
-1553.445062535578
 20
-1332.801306985819
 30
0.0
 10
-1552.988345291953
 20
-1331.954350502107
 30
0.0
  0
SPLINE
  5
141
330
1F
100
AcDbEntity
  8
0
  6
Continuous
 62
     7
370
    15
100
AcDbSpline
210
0.0
220
0.0
230
1.0
 70
    24
 71
     3
 72
     8
 73
     4
 74
     0
 42
0.000000001
 43
0.00000001
 40
0.0
 40
0.0
 40
0.0
 40
0.0
 40
1.0
 40
1.0
 40
1.0
 40
1.0
 10
-1552.843115395879
 20
-1336.952240884787
 30
0.0
 10
-1553.348242604862
 20
-1336.133233907605
 30
0.0
 10
-1553.853369813844
 20
-1335.314226930425
 30
0.0
 10
-1554.358497022827
 20
-1334.495219953243
 30
0.0
  0
SPLINE
  5
142
330
1F
100
AcDbEntity
  8
0
  6
Continuous
 62
     7
370
    15
100
AcDbSpline
210
0.0
220
0.0
230
1.0
 70
    24
 71
     3
 72
     8
 73
     4
 74
     0
 42
0.000000001
 43
0.00000001
 40
0.0
 40
0.0
 40
0.0
 40
0.0
 40
1.0
 40
1.0
 40
1.0
 40
1.0
 10
-1549.957582038058
 20
-1336.868392365194
 30
0.0
 10
-1550.919426490666
 20
-1336.896341871725
 30
0.0
 10
-1551.881270943272
 20
-1336.924291378256
 30
0.0
 10
-1552.843115395879
 20
-1336.952240884787
 30
0.0
  0
SPLINE
  5
143
330
1F
100
AcDbEntity
  8
0
  6
Continuous
 62
     7
370
    15
100
AcDbSpline
210
0.0
220
0.0
230
1.0
 70
    24
 71
     3
 72
     8
 73
     4
 74
     0
 42
0.000000001
 43
0.00000001
 40
0.0
 40
0.0
 40
0.0
 40
0.0
 40
1.0
 40
1.0
 40
1.0
 40
1.0
 10
-1548.587430307185
 20
-1334.327522914057
 30
0.0
 10
-1549.04414755081
 20
-1335.174479397769
 30
0.0
 10
-1549.500864794434
 20
-1336.021435881482
 30
0.0
 10
-1549.957582038058
 20
-1336.868392365194
 30
0.0
  0
CIRCLE
  5
144
330
1F
100
AcDbEntity
  8
0
  6
Continuous
 62
     7
370
    15
100
AcDbCircle
 10
-1551.472963665
 20
-1334.4113714337
 30
0.0
 40
6.999999999999332
  0
CIRCLE
  5
145
330
1F
100
AcDbEntity
  8
0
  6
Continuous
 62
     7
370
    15
100
AcDbCircle
 10
-2132.3593791181
 20
-1674.6783209334
 30
0.0
 40
80.00000000000128
  0
SPLINE
  5
154
330
1F
100
AcDbEntity
  8
0
  6
Continuous
 62
     7
370
    15
100
AcDbSpline
210
0.0
220
0.0
230
1.0
 70
    24
 71
     3
 72
     8
 73
     4
 74
     0
 42
0.000000001
 43
0.00000001
 40
0.0
 40
0.0
 40
0.0
 40
0.0
 40
1.0
 40
1.0
 40
1.0
 40
1.0
 10
-1146.344388335285
 20
-1541.14572211913
 30
0.0
 10
-1146.830868797935
 20
-1541.975940575553
 30
0.0
 10
-1147.317349260585
 20
-1542.806159031976
 30
0.0
 10
-1147.803829723235
 20
-1543.6363774884
 30
0.0
  0
SPLINE
  5
155
330
1F
100
AcDbEntity
  8
0
  6
Continuous
 62
     7
370
    15
100
AcDbSpline
210
0.0
220
0.0
230
1.0
 70
    24
 71
     3
 72
     8
 73
     4
 74
     0
 42
0.000000001
 43
0.00000001
 40
0.0
 40
0.0
 40
0.0
 40
0.0
 40
1.0
 40
1.0
 40
1.0
 40
1.0
 10
-1147.771638463169
 20
-1538.636481117196
 30
0.0
 10
-1147.295888420541
 20
-1539.472894784507
 30
0.0
 10
-1146.820138377913
 20
-1540.309308451819
 30
0.0
 10
-1146.344388335285
 20
-1541.14572211913
 30
0.0
  0
SPLINE
  5
156
330
1F
100
AcDbEntity
  8
0
  6
Continuous
 62
     7
370
    15
100
AcDbSpline
210
0.0
220
0.0
230
1.0
 70
    24
 71
     3
 72
     8
 73
     4
 74
     0
 42
0.000000001
 43
0.00000001
 40
0.0
 40
0.0
 40
0.0
 40
0.0
 40
1.0
 40
1.0
 40
1.0
 40
1.0
 10
-1150.658329979004
 20
-1538.617895484532
 30
0.0
 10
-1149.696099473726
 20
-1538.62409069542
 30
0.0
 10
-1148.733868968448
 20
-1538.630285906308
 30
0.0
 10
-1147.771638463169
 20
-1538.636481117196
 30
0.0
  0
SPLINE
  5
157
330
1F
100
AcDbEntity
  8
0
  6
Continuous
 62
     7
370
    15
100
AcDbSpline
210
0.0
220
0.0
230
1.0
 70
    24
 71
     3
 72
     8
 73
     4
 74
     0
 42
0.000000001
 43
0.00000001
 40
0.0
 40
0.0
 40
0.0
 40
0.0
 40
1.0
 40
1.0
 40
1.0
 40
1.0
 10
-1152.117771366954
 20
-1541.108550853801
 30
0.0
 10
-1151.631290904304
 20
-1540.278332397378
 30
0.0
 10
-1151.144810441654
 20
-1539.448113940955
 30
0.0
 10
-1150.658329979004
 20
-1538.617895484532
 30
0.0
  0
SPLINE
  5
158
330
1F
100
AcDbEntity
  8
0
  6
Continuous
 62
     7
370
    15
100
AcDbSpline
210
0.0
220
0.0
230
1.0
 70
    24
 71
     3
 72
     8
 73
     4
 74
     0
 42
0.000000001
 43
0.00000001
 40
0.0
 40
0.0
 40
0.0
 40
0.0
 40
1.0
 40
1.0
 40
1.0
 40
1.0
 10
-1150.69052123907
 20
-1543.617791855735
 30
0.0
 10
-1151.166271281698
 20
-1542.781378188424
 30
0.0
 10
-1151.642021324326
 20
-1541.944964521113
 30
0.0
 10
-1152.117771366954
 20
-1541.108550853801
 30
0.0
  0
SPLINE
  5
159
330
1F
100
AcDbEntity
  8
0
  6
Continuous
 62
     7
370
    15
100
AcDbSpline
210
0.0
220
0.0
230
1.0
 70
    24
 71
     3
 72
     8
 73
     4
 74
     0
 42
0.000000001
 43
0.00000001
 40
0.0
 40
0.0
 40
0.0
 40
0.0
 40
1.0
 40
1.0
 40
1.0
 40
1.0
 10
-1147.803829723235
 20
-1543.6363774884
 30
0.0
 10
-1148.766060228513
 20
-1543.630182277511
 30
0.0
 10
-1149.728290733791
 20
-1543.623987066623
 30
0.0
 10
-1150.69052123907
 20
-1543.617791855735
 30
0.0
  0
CIRCLE
  5
15A
330
1F
100
AcDbEntity
  8
0
  6
Continuous
 62
     7
370
    15
100
AcDbCircle
 10
-1149.2310798511
 20
-1541.1271364865
 30
0.0
 40
6.999999999999771
  0
SPLINE
  5
15B
330
1F
100
AcDbEntity
  8
0
  6
Continuous
 62
     7
370
    15
100
AcDbSpline
210
0.0
220
0.0
230
1.0
 70
    24
 71
     3
 72
     8
 73
     4
 74
     0
 42
0.000000001
 43
0.00000001
 40
0.0
 40
0.0
 40
0.0
 40
0.0
 40
1.0
 40
1.0
 40
1.0
 40
1.0
 10
-1068.76807694774
 20
-1590.206051424005
 30
0.0
 10
-1069.25455741039
 20
-1591.036269880428
 30
0.0
 10
-1069.74103787304
 20
-1591.866488336851
 30
0.0
 10
-1070.22751833569
 20
-1592.696706793274
 30
0.0
  0
SPLINE
  5
15C
330
1F
100
AcDbEntity
  8
0
  6
Continuous
 62
     7
370
    15
100
AcDbSpline
210
0.0
220
0.0
230
1.0
 70
    24
 71
     3
 72
     8
 73
     4
 74
     0
 42
0.000000001
 43
0.00000001
 40
0.0
 40
0.0
 40
0.0
 40
0.0
 40
1.0
 40
1.0
 40
1.0
 40
1.0
 10
-1070.195327075625
 20
-1587.696810422071
 30
0.0
 10
-1069.719577032997
 20
-1588.533224089382
 30
0.0
 10
-1069.243826990368
 20
-1589.369637756693
 30
0.0
 10
-1068.76807694774
 20
-1590.206051424005
 30
0.0
  0
SPLINE
  5
15D
330
1F
100
AcDbEntity
  8
0
  6
Continuous
 62
     7
370
    15
100
AcDbSpline
210
0.0
220
0.0
230
1.0
 70
    24
 71
     3
 72
     8
 73
     4
 74
     0
 42
0.000000001
 43
0.00000001
 40
0.0
 40
0.0
 40
0.0
 40
0.0
 40
1.0
 40
1.0
 40
1.0
 40
1.0
 10
-1073.082018591459
 20
-1587.678224789407
 30
0.0
 10
-1072.119788086181
 20
-1587.684420000295
 30
0.0
 10
-1071.157557580903
 20
-1587.690615211183
 30
0.0
 10
-1070.195327075625
 20
-1587.696810422071
 30
0.0
  0
SPLINE
  5
15E
330
1F
100
AcDbEntity
  8
0
  6
Continuous
 62
     7
370
    15
100
AcDbSpline
210
0.0
220
0.0
230
1.0
 70
    24
 71
     3
 72
     8
 73
     4
 74
     0
 42
0.000000001
 43
0.00000001
 40
0.0
 40
0.0
 40
0.0
 40
0.0
 40
1.0
 40
1.0
 40
1.0
 40
1.0
 10
-1074.541459979409
 20
-1590.168880158676
 30
0.0
 10
-1074.054979516759
 20
-1589.338661702253
 30
0.0
 10
-1073.568499054109
 20
-1588.50844324583
 30
0.0
 10
-1073.082018591459
 20
-1587.678224789407
 30
0.0
  0
SPLINE
  5
15F
330
1F
100
AcDbEntity
  8
0
  6
Continuous
 62
     7
370
    15
100
AcDbSpline
210
0.0
220
0.0
230
1.0
 70
    24
 71
     3
 72
     8
 73
     4
 74
     0
 42
0.000000001
 43
0.00000001
 40
0.0
 40
0.0
 40
0.0
 40
0.0
 40
1.0
 40
1.0
 40
1.0
 40
1.0
 10
-1073.114209851525
 20
-1592.67812116061
 30
0.0
 10
-1073.589959894153
 20
-1591.841707493299
 30
0.0
 10
-1074.065709936781
 20
-1591.005293825988
 30
0.0
 10
-1074.541459979409
 20
-1590.168880158676
 30
0.0
  0
SPLINE
  5
160
330
1F
100
AcDbEntity
  8
0
  6
Continuous
 62
     7
370
    15
100
AcDbSpline
210
0.0
220
0.0
230
1.0
 70
    24
 71
     3
 72
     8
 73
     4
 74
     0
 42
0.000000001
 43
0.00000001
 40
0.0
 40
0.0
 40
0.0
 40
0.0
 40
1.0
 40
1.0
 40
1.0
 40
1.0
 10
-1070.22751833569
 20
-1592.696706793274
 30
0.0
 10
-1071.189748840968
 20
-1592.690511582386
 30
0.0
 10
-1072.151979346247
 20
-1592.684316371498
 30
0.0
 10
-1073.114209851525
 20
-1592.67812116061
 30
0.0
  0
CIRCLE
  5
161
330
1F
100
AcDbEntity
  8
0
  6
Continuous
 62
     7
370
    15
100
AcDbCircle
 10
-1071.6547684636
 20
-1590.1874657913
 30
0.0
 40
7.000000000000279
  0
SPLINE
  5
162
330
1F
100
AcDbEntity
  8
0
  6
Continuous
 62
     7
370
    15
100
AcDbSpline
210
0.0
220
0.0
230
1.0
 70
    24
 71
     3
 72
     8
 73
     4
 74
     0
 42
0.000000001
 43
0.00000001
 40
0.0
 40
0.0
 40
0.0
 40
0.0
 40
1.0
 40
1.0
 40
1.0
 40
1.0
 10
-1075.978157241278
 20
-1730.020266517323
 30
0.0
 10
-1076.464637703929
 20
-1730.850484973746
 30
0.0
 10
-1076.951118166578
 20
-1731.680703430169
 30
0.0
 10
-1077.437598629229
 20
-1732.510921886593
 30
0.0
  0
SPLINE
  5
163
330
1F
100
AcDbEntity
  8
0
  6
Continuous
 62
     7
370
    15
100
AcDbSpline
210
0.0
220
0.0
230
1.0
 70
    24
 71
     3
 72
     8
 73
     4
 74
     0
 42
0.000000001
 43
0.00000001
 40
0.0
 40
0.0
 40
0.0
 40
0.0
 40
1.0
 40
1.0
 40
1.0
 40
1.0
 10
-1077.405407369163
 20
-1727.511025515389
 30
0.0
 10
-1076.929657326535
 20
-1728.3474391827
 30
0.0
 10
-1076.453907283907
 20
-1729.183852850012
 30
0.0
 10
-1075.978157241278
 20
-1730.020266517323
 30
0.0
  0
SPLINE
  5
164
330
1F
100
AcDbEntity
  8
0
  6
Continuous
 62
     7
370
    15
100
AcDbSpline
210
0.0
220
0.0
230
1.0
 70
    24
 71
     3
 72
     8
 73
     4
 74
     0
 42
0.000000001
 43
0.00000001
 40
0.0
 40
0.0
 40
0.0
 40
0.0
 40
1.0
 40
1.0
 40
1.0
 40
1.0
 10
-1080.292098884998
 20
-1727.492439882725
 30
0.0
 10
-1079.32986837972
 20
-1727.498635093613
 30
0.0
 10
-1078.367637874441
 20
-1727.504830304501
 30
0.0
 10
-1077.405407369163
 20
-1727.511025515389
 30
0.0
  0
SPLINE
  5
165
330
1F
100
AcDbEntity
  8
0
  6
Continuous
 62
     7
370
    15
100
AcDbSpline
210
0.0
220
0.0
230
1.0
 70
    24
 71
     3
 72
     8
 73
     4
 74
     0
 42
0.000000001
 43
0.00000001
 40
0.0
 40
0.0
 40
0.0
 40
0.0
 40
1.0
 40
1.0
 40
1.0
 40
1.0
 10
-1081.751540272948
 20
-1729.983095251994
 30
0.0
 10
-1081.265059810298
 20
-1729.152876795571
 30
0.0
 10
-1080.778579347648
 20
-1728.322658339148
 30
0.0
 10
-1080.292098884998
 20
-1727.492439882725
 30
0.0
  0
SPLINE
  5
166
330
1F
100
AcDbEntity
  8
0
  6
Continuous
 62
     7
370
    15
100
AcDbSpline
210
0.0
220
0.0
230
1.0
 70
    24
 71
     3
 72
     8
 73
     4
 74
     0
 42
0.000000001
 43
0.00000001
 40
0.0
 40
0.0
 40
0.0
 40
0.0
 40
1.0
 40
1.0
 40
1.0
 40
1.0
 10
-1080.324290145063
 20
-1732.492336253928
 30
0.0
 10
-1080.800040187691
 20
-1731.655922586617
 30
0.0
 10
-1081.27579023032
 20
-1730.819508919306
 30
0.0
 10
-1081.751540272948
 20
-1729.983095251994
 30
0.0
  0
SPLINE
  5
167
330
1F
100
AcDbEntity
  8
0
  6
Continuous
 62
     7
370
    15
100
AcDbSpline
210
0.0
220
0.0
230
1.0
 70
    24
 71
     3
 72
     8
 73
     4
 74
     0
 42
0.000000001
 43
0.00000001
 40
0.0
 40
0.0
 40
0.0
 40
0.0
 40
1.0
 40
1.0
 40
1.0
 40
1.0
 10
-1077.437598629229
 20
-1732.510921886593
 30
0.0
 10
-1078.399829134507
 20
-1732.504726675704
 30
0.0
 10
-1079.362059639785
 20
-1732.498531464816
 30
0.0
 10
-1080.324290145063
 20
-1732.492336253928
 30
0.0
  0
CIRCLE
  5
168
330
1F
100
AcDbEntity
  8
0
  6
Continuous
 62
     7
370
    15
100
AcDbCircle
 10
-1078.8648487571
 20
-1730.0016808847
 30
0.0
 40
7.000000000000279
  0
SPLINE
  5
169
330
1F
100
AcDbEntity
  8
0
  6
Continuous
 62
     7
370
    15
100
AcDbSpline
210
0.0
220
0.0
230
1.0
 70
    24
 71
     3
 72
     8
 73
     4
 74
     0
 42
0.000000001
 43
0.00000001
 40
0.0
 40
0.0
 40
0.0
 40
0.0
 40
1.0
 40
1.0
 40
1.0
 40
1.0
 10
-1158.189520246098
 20
-1770.840504058153
 30
0.0
 10
-1158.676000708748
 20
-1771.670722514577
 30
0.0
 10
-1159.162481171398
 20
-1772.500940971
 30
0.0
 10
-1159.648961634048
 20
-1773.331159427423
 30
0.0
  0
SPLINE
  5
16A
330
1F
100
AcDbEntity
  8
0
  6
Continuous
 62
     7
370
    15
100
AcDbSpline
210
0.0
220
0.0
230
1.0
 70
    24
 71
     3
 72
     8
 73
     4
 74
     0
 42
0.000000001
 43
0.00000001
 40
0.0
 40
0.0
 40
0.0
 40
0.0
 40
1.0
 40
1.0
 40
1.0
 40
1.0
 10
-1159.616770373983
 20
-1768.331263056219
 30
0.0
 10
-1159.141020331355
 20
-1769.167676723531
 30
0.0
 10
-1158.665270288726
 20
-1770.004090390842
 30
0.0
 10
-1158.189520246098
 20
-1770.840504058153
 30
0.0
  0
SPLINE
  5
16B
330
1F
100
AcDbEntity
  8
0
  6
Continuous
 62
     7
370
    15
100
AcDbSpline
210
0.0
220
0.0
230
1.0
 70
    24
 71
     3
 72
     8
 73
     4
 74
     0
 42
0.000000001
 43
0.00000001
 40
0.0
 40
0.0
 40
0.0
 40
0.0
 40
1.0
 40
1.0
 40
1.0
 40
1.0
 10
-1162.503461889817
 20
-1768.312677423555
 30
0.0
 10
-1161.541231384539
 20
-1768.318872634443
 30
0.0
 10
-1160.579000879261
 20
-1768.325067845331
 30
0.0
 10
-1159.616770373983
 20
-1768.331263056219
 30
0.0
  0
SPLINE
  5
16C
330
1F
100
AcDbEntity
  8
0
  6
Continuous
 62
     7
370
    15
100
AcDbSpline
210
0.0
220
0.0
230
1.0
 70
    24
 71
     3
 72
     8
 73
     4
 74
     0
 42
0.000000001
 43
0.00000001
 40
0.0
 40
0.0
 40
0.0
 40
0.0
 40
1.0
 40
1.0
 40
1.0
 40
1.0
 10
-1163.962903277768
 20
-1770.803332792825
 30
0.0
 10
-1163.476422815117
 20
-1769.973114336402
 30
0.0
 10
-1162.989942352468
 20
-1769.142895879978
 30
0.0
 10
-1162.503461889817
 20
-1768.312677423555
 30
0.0
  0
SPLINE
  5
16D
330
1F
100
AcDbEntity
  8
0
  6
Continuous
 62
     7
370
    15
100
AcDbSpline
210
0.0
220
0.0
230
1.0
 70
    24
 71
     3
 72
     8
 73
     4
 74
     0
 42
0.000000001
 43
0.00000001
 40
0.0
 40
0.0
 40
0.0
 40
0.0
 40
1.0
 40
1.0
 40
1.0
 40
1.0
 10
-1162.535653149883
 20
-1773.312573794759
 30
0.0
 10
-1163.011403192511
 20
-1772.476160127447
 30
0.0
 10
-1163.487153235139
 20
-1771.639746460136
 30
0.0
 10
-1163.962903277768
 20
-1770.803332792825
 30
0.0
  0
SPLINE
  5
16E
330
1F
100
AcDbEntity
  8
0
  6
Continuous
 62
     7
370
    15
100
AcDbSpline
210
0.0
220
0.0
230
1.0
 70
    24
 71
     3
 72
     8
 73
     4
 74
     0
 42
0.000000001
 43
0.00000001
 40
0.0
 40
0.0
 40
0.0
 40
0.0
 40
1.0
 40
1.0
 40
1.0
 40
1.0
 10
-1159.648961634048
 20
-1773.331159427423
 30
0.0
 10
-1160.611192139326
 20
-1773.324964216535
 30
0.0
 10
-1161.573422644605
 20
-1773.318769005647
 30
0.0
 10
-1162.535653149883
 20
-1773.312573794759
 30
0.0
  0
CIRCLE
  5
16F
330
1F
100
AcDbEntity
  8
0
  6
Continuous
 62
     7
370
    15
100
AcDbCircle
 10
-1161.0762117619
 20
-1770.8219184255
 30
0.0
 40
7.000000000000589
  0
SPLINE
  5
17D
330
1F
100
AcDbEntity
  8
0
  6
Continuous
 62
     7
370
    15
100
AcDbSpline
210
0.0
220
0.0
230
1.0
 70
    24
 71
     3
 72
     8
 73
     4
 74
     0
 42
0.000000001
 43
0.00000001
 40
0.0
 40
0.0
 40
0.0
 40
0.0
 40
1.0
 40
1.0
 40
1.0
 40
1.0
 10
-1049.253795316206
 20
-1864.87277803545
 30
0.0
 10
-1048.328367767851
 20
-1865.136425107633
 30
0.0
 10
-1047.402940219495
 20
-1865.400072179816
 30
0.0
 10
-1046.47751267114
 20
-1865.663719251999
 30
0.0
  0
SPLINE
  5
17E
330
1F
100
AcDbEntity
  8
0
  6
Continuous
 62
     7
370
    15
100
AcDbSpline
210
0.0
220
0.0
230
1.0
 70
    24
 71
     3
 72
     8
 73
     4
 74
     0
 42
0.000000001
 43
0.00000001
 40
0.0
 40
0.0
 40
0.0
 40
0.0
 40
1.0
 40
1.0
 40
1.0
 40
1.0
 10
-1051.326911825171
 20
-1866.881638725889
 30
0.0
 10
-1050.63587298885
 20
-1866.212018495743
 30
0.0
 10
-1049.944834152528
 20
-1865.542398265597
 30
0.0
 10
-1049.253795316206
 20
-1864.87277803545
 30
0.0
  0
SPLINE
  5
17F
330
1F
100
AcDbEntity
  8
0
  6
Continuous
 62
     7
370
    15
100
AcDbSpline
210
0.0
220
0.0
230
1.0
 70
    24
 71
     3
 72
     8
 73
     4
 74
     0
 42
0.000000001
 43
0.00000001
 40
0.0
 40
0.0
 40
0.0
 40
0.0
 40
1.0
 40
1.0
 40
1.0
 40
1.0
 10
-1050.623745689069
 20
-1869.681440632877
 30
0.0
 10
-1050.858134401103
 20
-1868.748173330548
 30
0.0
 10
-1051.092523113137
 20
-1867.814906028219
 30
0.0
 10
-1051.326911825171
 20
-1866.881638725889
 30
0.0
  0
SPLINE
  5
180
330
1F
100
AcDbEntity
  8
0
  6
Continuous
 62
     7
370
    15
100
AcDbSpline
210
0.0
220
0.0
230
1.0
 70
    24
 71
     3
 72
     8
 73
     4
 74
     0
 42
0.000000001
 43
0.00000001
 40
0.0
 40
0.0
 40
0.0
 40
0.0
 40
1.0
 40
1.0
 40
1.0
 40
1.0
 10
-1047.847463044003
 20
-1870.472381849426
 30
0.0
 10
-1048.772890592358
 20
-1870.208734777243
 30
0.0
 10
-1049.698318140714
 20
-1869.94508770506
 30
0.0
 10
-1050.623745689069
 20
-1869.681440632877
 30
0.0
  0
SPLINE
  5
181
330
1F
100
AcDbEntity
  8
0
  6
Continuous
 62
     7
370
    15
100
AcDbSpline
210
0.0
220
0.0
230
1.0
 70
    24
 71
     3
 72
     8
 73
     4
 74
     0
 42
0.000000001
 43
0.00000001
 40
0.0
 40
0.0
 40
0.0
 40
0.0
 40
1.0
 40
1.0
 40
1.0
 40
1.0
 10
-1045.774346535038
 20
-1868.463521158987
 30
0.0
 10
-1046.465385371359
 20
-1869.133141389133
 30
0.0
 10
-1047.156424207681
 20
-1869.802761619279
 30
0.0
 10
-1047.847463044003
 20
-1870.472381849426
 30
0.0
  0
SPLINE
  5
182
330
1F
100
AcDbEntity
  8
0
  6
Continuous
 62
     7
370
    15
100
AcDbSpline
210
0.0
220
0.0
230
1.0
 70
    24
 71
     3
 72
     8
 73
     4
 74
     0
 42
0.000000001
 43
0.00000001
 40
0.0
 40
0.0
 40
0.0
 40
0.0
 40
1.0
 40
1.0
 40
1.0
 40
1.0
 10
-1046.47751267114
 20
-1865.663719251999
 30
0.0
 10
-1046.243123959106
 20
-1866.596986554328
 30
0.0
 10
-1046.008735247072
 20
-1867.530253856657
 30
0.0
 10
-1045.774346535038
 20
-1868.463521158987
 30
0.0
  0
CIRCLE
  5
183
330
1F
100
AcDbEntity
  8
0
  6
Continuous
 62
     7
370
    15
100
AcDbCircle
 10
-1048.5506291801
 20
-1867.6725799424
 30
0.0
 40
7.000000000000414
  0
SPLINE
  5
184
330
1F
100
AcDbEntity
  8
0
  6
Continuous
 62
     7
370
    15
100
AcDbSpline
210
0.0
220
0.0
230
1.0
 70
    24
 71
     3
 72
     8
 73
     4
 74
     0
 42
0.000000001
 43
0.00000001
 40
0.0
 40
0.0
 40
0.0
 40
0.0
 40
1.0
 40
1.0
 40
1.0
 40
1.0
 10
-1021.12945727672
 20
-1777.499889735699
 30
0.0
 10
-1020.204029728365
 20
-1777.763536807882
 30
0.0
 10
-1019.278602180009
 20
-1778.027183880065
 30
0.0
 10
-1018.353174631654
 20
-1778.290830952248
 30
0.0
  0
SPLINE
  5
185
330
1F
100
AcDbEntity
  8
0
  6
Continuous
 62
     7
370
    15
100
AcDbSpline
210
0.0
220
0.0
230
1.0
 70
    24
 71
     3
 72
     8
 73
     4
 74
     0
 42
0.000000001
 43
0.00000001
 40
0.0
 40
0.0
 40
0.0
 40
0.0
 40
1.0
 40
1.0
 40
1.0
 40
1.0
 10
-1023.202573785685
 20
-1779.508750426138
 30
0.0
 10
-1022.511534949363
 20
-1778.839130195992
 30
0.0
 10
-1021.820496113042
 20
-1778.169509965846
 30
0.0
 10
-1021.12945727672
 20
-1777.499889735699
 30
0.0
  0
SPLINE
  5
186
330
1F
100
AcDbEntity
  8
0
  6
Continuous
 62
     7
370
    15
100
AcDbSpline
210
0.0
220
0.0
230
1.0
 70
    24
 71
     3
 72
     8
 73
     4
 74
     0
 42
0.000000001
 43
0.00000001
 40
0.0
 40
0.0
 40
0.0
 40
0.0
 40
1.0
 40
1.0
 40
1.0
 40
1.0
 10
-1022.499407649583
 20
-1782.308552333126
 30
0.0
 10
-1022.733796361617
 20
-1781.375285030797
 30
0.0
 10
-1022.968185073651
 20
-1780.442017728468
 30
0.0
 10
-1023.202573785685
 20
-1779.508750426138
 30
0.0
  0
SPLINE
  5
187
330
1F
100
AcDbEntity
  8
0
  6
Continuous
 62
     7
370
    15
100
AcDbSpline
210
0.0
220
0.0
230
1.0
 70
    24
 71
     3
 72
     8
 73
     4
 74
     0
 42
0.000000001
 43
0.00000001
 40
0.0
 40
0.0
 40
0.0
 40
0.0
 40
1.0
 40
1.0
 40
1.0
 40
1.0
 10
-1019.723125004516
 20
-1783.099493549675
 30
0.0
 10
-1020.648552552872
 20
-1782.835846477492
 30
0.0
 10
-1021.573980101227
 20
-1782.572199405309
 30
0.0
 10
-1022.499407649583
 20
-1782.308552333126
 30
0.0
  0
SPLINE
  5
188
330
1F
100
AcDbEntity
  8
0
  6
Continuous
 62
     7
370
    15
100
AcDbSpline
210
0.0
220
0.0
230
1.0
 70
    24
 71
     3
 72
     8
 73
     4
 74
     0
 42
0.000000001
 43
0.00000001
 40
0.0
 40
0.0
 40
0.0
 40
0.0
 40
1.0
 40
1.0
 40
1.0
 40
1.0
 10
-1017.650008495552
 20
-1781.090632859236
 30
0.0
 10
-1018.341047331873
 20
-1781.760253089382
 30
0.0
 10
-1019.032086168195
 20
-1782.429873319528
 30
0.0
 10
-1019.723125004516
 20
-1783.099493549675
 30
0.0
  0
SPLINE
  5
189
330
1F
100
AcDbEntity
  8
0
  6
Continuous
 62
     7
370
    15
100
AcDbSpline
210
0.0
220
0.0
230
1.0
 70
    24
 71
     3
 72
     8
 73
     4
 74
     0
 42
0.000000001
 43
0.00000001
 40
0.0
 40
0.0
 40
0.0
 40
0.0
 40
1.0
 40
1.0
 40
1.0
 40
1.0
 10
-1018.353174631654
 20
-1778.290830952248
 30
0.0
 10
-1018.11878591962
 20
-1779.224098254577
 30
0.0
 10
-1017.884397207585
 20
-1780.157365556907
 30
0.0
 10
-1017.650008495552
 20
-1781.090632859236
 30
0.0
  0
CIRCLE
  5
18A
330
1F
100
AcDbEntity
  8
0
  6
Continuous
 62
     7
370
    15
100
AcDbCircle
 10
-1020.4262911406
 20
-1780.2996916427
 30
0.0
 40
6.999999999999766
  0
SPLINE
  5
18B
330
1F
100
AcDbEntity
  8
0
  6
Continuous
 62
     7
370
    15
100
AcDbSpline
210
0.0
220
0.0
230
1.0
 70
    24
 71
     3
 72
     8
 73
     4
 74
     0
 42
0.000000001
 43
0.00000001
 40
0.0
 40
0.0
 40
0.0
 40
0.0
 40
1.0
 40
1.0
 40
1.0
 40
1.0
 10
-883.9472995786828
 20
-1749.552517599653
 30
0.0
 10
-883.0218720303272
 20
-1749.816164671836
 30
0.0
 10
-882.0964444819717
 20
-1750.079811744018
 30
0.0
 10
-881.1710169336162
 20
-1750.343458816201
 30
0.0
  0
SPLINE
  5
18C
330
1F
100
AcDbEntity
  8
0
  6
Continuous
 62
     7
370
    15
100
AcDbSpline
210
0.0
220
0.0
230
1.0
 70
    24
 71
     3
 72
     8
 73
     4
 74
     0
 42
0.000000001
 43
0.00000001
 40
0.0
 40
0.0
 40
0.0
 40
0.0
 40
1.0
 40
1.0
 40
1.0
 40
1.0
 10
-886.0204160876474
 20
-1751.561378290092
 30
0.0
 10
-885.3293772513259
 20
-1750.891758059945
 30
0.0
 10
-884.6383384150042
 20
-1750.222137829799
 30
0.0
 10
-883.9472995786828
 20
-1749.552517599653
 30
0.0
  0
SPLINE
  5
18D
330
1F
100
AcDbEntity
  8
0
  6
Continuous
 62
     7
370
    15
100
AcDbSpline
210
0.0
220
0.0
230
1.0
 70
    24
 71
     3
 72
     8
 73
     4
 74
     0
 42
0.000000001
 43
0.00000001
 40
0.0
 40
0.0
 40
0.0
 40
0.0
 40
1.0
 40
1.0
 40
1.0
 40
1.0
 10
-885.3172499515454
 20
-1754.36118019708
 30
0.0
 10
-885.5516386635793
 20
-1753.427912894751
 30
0.0
 10
-885.7860273756135
 20
-1752.494645592421
 30
0.0
 10
-886.0204160876474
 20
-1751.561378290092
 30
0.0
  0
SPLINE
  5
18E
330
1F
100
AcDbEntity
  8
0
  6
Continuous
 62
     7
370
    15
100
AcDbSpline
210
0.0
220
0.0
230
1.0
 70
    24
 71
     3
 72
     8
 73
     4
 74
     0
 42
0.000000001
 43
0.00000001
 40
0.0
 40
0.0
 40
0.0
 40
0.0
 40
1.0
 40
1.0
 40
1.0
 40
1.0
 10
-882.5409673064788
 20
-1755.152121413628
 30
0.0
 10
-883.4663948548343
 20
-1754.888474341446
 30
0.0
 10
-884.3918224031898
 20
-1754.624827269263
 30
0.0
 10
-885.3172499515454
 20
-1754.36118019708
 30
0.0
  0
SPLINE
  5
18F
330
1F
100
AcDbEntity
  8
0
  6
Continuous
 62
     7
370
    15
100
AcDbSpline
210
0.0
220
0.0
230
1.0
 70
    24
 71
     3
 72
     8
 73
     4
 74
     0
 42
0.000000001
 43
0.00000001
 40
0.0
 40
0.0
 40
0.0
 40
0.0
 40
1.0
 40
1.0
 40
1.0
 40
1.0
 10
-880.4678507975142
 20
-1753.143260723189
 30
0.0
 10
-881.1588896338357
 20
-1753.812880953335
 30
0.0
 10
-881.8499284701574
 20
-1754.482501183482
 30
0.0
 10
-882.5409673064788
 20
-1755.152121413628
 30
0.0
  0
SPLINE
  5
190
330
1F
100
AcDbEntity
  8
0
  6
Continuous
 62
     7
370
    15
100
AcDbSpline
210
0.0
220
0.0
230
1.0
 70
    24
 71
     3
 72
     8
 73
     4
 74
     0
 42
0.000000001
 43
0.00000001
 40
0.0
 40
0.0
 40
0.0
 40
0.0
 40
1.0
 40
1.0
 40
1.0
 40
1.0
 10
-881.1710169336162
 20
-1750.343458816201
 30
0.0
 10
-880.9366282215823
 20
-1751.27672611853
 30
0.0
 10
-880.7022395095482
 20
-1752.20999342086
 30
0.0
 10
-880.4678507975142
 20
-1753.143260723189
 30
0.0
  0
CIRCLE
  5
191
330
1F
100
AcDbEntity
  8
0
  6
Continuous
 62
     7
370
    15
100
AcDbCircle
 10
-883.2441334426
 20
-1752.3523195066
 30
0.0
 40
7.000000000000012
  0
SPLINE
  5
192
330
1F
100
AcDbEntity
  8
0
  6
Continuous
 62
     7
370
    15
100
AcDbSpline
210
0.0
220
0.0
230
1.0
 70
    24
 71
     3
 72
     8
 73
     4
 74
     0
 42
0.000000001
 43
0.00000001
 40
0.0
 40
0.0
 40
0.0
 40
0.0
 40
1.0
 40
1.0
 40
1.0
 40
1.0
 10
-823.8831076694298
 20
-1818.95923809766
 30
0.0
 10
-822.9576801210743
 20
-1819.222885169842
 30
0.0
 10
-822.0322525727188
 20
-1819.486532242025
 30
0.0
 10
-821.1068250243633
 20
-1819.750179314208
 30
0.0
  0
SPLINE
  5
193
330
1F
100
AcDbEntity
  8
0
  6
Continuous
 62
     7
370
    15
100
AcDbSpline
210
0.0
220
0.0
230
1.0
 70
    24
 71
     3
 72
     8
 73
     4
 74
     0
 42
0.000000001
 43
0.00000001
 40
0.0
 40
0.0
 40
0.0
 40
0.0
 40
1.0
 40
1.0
 40
1.0
 40
1.0
 10
-825.9562241783945
 20
-1820.968098788099
 30
0.0
 10
-825.265185342073
 20
-1820.298478557952
 30
0.0
 10
-824.5741465057513
 20
-1819.628858327806
 30
0.0
 10
-823.8831076694298
 20
-1818.95923809766
 30
0.0
  0
SPLINE
  5
194
330
1F
100
AcDbEntity
  8
0
  6
Continuous
 62
     7
370
    15
100
AcDbSpline
210
0.0
220
0.0
230
1.0
 70
    24
 71
     3
 72
     8
 73
     4
 74
     0
 42
0.000000001
 43
0.00000001
 40
0.0
 40
0.0
 40
0.0
 40
0.0
 40
1.0
 40
1.0
 40
1.0
 40
1.0
 10
-825.2530580422924
 20
-1823.767900695087
 30
0.0
 10
-825.4874467543264
 20
-1822.834633392757
 30
0.0
 10
-825.7218354663605
 20
-1821.901366090428
 30
0.0
 10
-825.9562241783945
 20
-1820.968098788099
 30
0.0
  0
SPLINE
  5
195
330
1F
100
AcDbEntity
  8
0
  6
Continuous
 62
     7
370
    15
100
AcDbSpline
210
0.0
220
0.0
230
1.0
 70
    24
 71
     3
 72
     8
 73
     4
 74
     0
 42
0.000000001
 43
0.00000001
 40
0.0
 40
0.0
 40
0.0
 40
0.0
 40
1.0
 40
1.0
 40
1.0
 40
1.0
 10
-822.4767753972259
 20
-1824.558841911635
 30
0.0
 10
-823.4022029455814
 20
-1824.295194839452
 30
0.0
 10
-824.3276304939369
 20
-1824.03154776727
 30
0.0
 10
-825.2530580422924
 20
-1823.767900695087
 30
0.0
  0
SPLINE
  5
196
330
1F
100
AcDbEntity
  8
0
  6
Continuous
 62
     7
370
    15
100
AcDbSpline
210
0.0
220
0.0
230
1.0
 70
    24
 71
     3
 72
     8
 73
     4
 74
     0
 42
0.000000001
 43
0.00000001
 40
0.0
 40
0.0
 40
0.0
 40
0.0
 40
1.0
 40
1.0
 40
1.0
 40
1.0
 10
-820.4036588882612
 20
-1822.549981221196
 30
0.0
 10
-821.0946977245827
 20
-1823.219601451342
 30
0.0
 10
-821.7857365609044
 20
-1823.889221681489
 30
0.0
 10
-822.4767753972259
 20
-1824.558841911635
 30
0.0
  0
SPLINE
  5
197
330
1F
100
AcDbEntity
  8
0
  6
Continuous
 62
     7
370
    15
100
AcDbSpline
210
0.0
220
0.0
230
1.0
 70
    24
 71
     3
 72
     8
 73
     4
 74
     0
 42
0.000000001
 43
0.00000001
 40
0.0
 40
0.0
 40
0.0
 40
0.0
 40
1.0
 40
1.0
 40
1.0
 40
1.0
 10
-821.1068250243633
 20
-1819.750179314208
 30
0.0
 10
-820.8724363123293
 20
-1820.683446616537
 30
0.0
 10
-820.6380476002953
 20
-1821.616713918867
 30
0.0
 10
-820.4036588882612
 20
-1822.549981221196
 30
0.0
  0
CIRCLE
  5
198
330
1F
100
AcDbEntity
  8
0
  6
Continuous
 62
     7
370
    15
100
AcDbCircle
 10
-823.1799415333
 20
-1821.7590400046
 30
0.0
 40
6.999999999999782
  0
SPLINE
  5
1A6
330
1F
100
AcDbEntity
  8
0
  6
Continuous
 62
     7
370
    15
100
AcDbSpline
210
0.0
220
0.0
230
1.0
 70
    24
 71
     3
 72
     8
 73
     4
 74
     0
 42
0.000000001
 43
0.00000001
 40
0.0
 40
0.0
 40
0.0
 40
0.0
 40
1.0
 40
1.0
 40
1.0
 40
1.0
 10
-1941.033664553939
 20
-1579.330268354176
 30
0.0
 10
-1941.538720271571
 20
-1578.511217288604
 30
0.0
 10
-1942.043775989203
 20
-1577.692166223033
 30
0.0
 10
-1942.548831706834
 20
-1576.873115157462
 30
0.0
  0
SPLINE
  5
1A7
330
1F
100
AcDbEntity
  8
0
  6
Continuous
 62
     7
370
    15
100
AcDbSpline
210
0.0
220
0.0
230
1.0
 70
    24
 71
     3
 72
     8
 73
     4
 74
     0
 42
0.000000001
 43
0.00000001
 40
0.0
 40
0.0
 40
0.0
 40
0.0
 40
1.0
 40
1.0
 40
1.0
 40
1.0
 10
-1938.148123888147
 20
-1579.246671707146
 30
0.0
 10
-1939.109970776745
 20
-1579.274537256156
 30
0.0
 10
-1940.071817665342
 20
-1579.302402805166
 30
0.0
 10
-1941.033664553939
 20
-1579.330268354176
 30
0.0
  0
SPLINE
  5
1A8
330
1F
100
AcDbEntity
  8
0
  6
Continuous
 62
     7
370
    15
100
AcDbSpline
210
0.0
220
0.0
230
1.0
 70
    24
 71
     3
 72
     8
 73
     4
 74
     0
 42
0.000000001
 43
0.00000001
 40
0.0
 40
0.0
 40
0.0
 40
0.0
 40
1.0
 40
1.0
 40
1.0
 40
1.0
 10
-1936.77775037525
 20
-1576.705921863402
 30
0.0
 10
-1937.234541546216
 20
-1577.552838477984
 30
0.0
 10
-1937.691332717182
 20
-1578.399755092565
 30
0.0
 10
-1938.148123888147
 20
-1579.246671707146
 30
0.0
  0
SPLINE
  5
1A9
330
1F
100
AcDbEntity
  8
0
  6
Continuous
 62
     7
370
    15
100
AcDbSpline
210
0.0
220
0.0
230
1.0
 70
    24
 71
     3
 72
     8
 73
     4
 74
     0
 42
0.000000001
 43
0.00000001
 40
0.0
 40
0.0
 40
0.0
 40
0.0
 40
1.0
 40
1.0
 40
1.0
 40
1.0
 10
-1938.292917528145
 20
-1574.248768666688
 30
0.0
 10
-1937.787861810514
 20
-1575.06781973226
 30
0.0
 10
-1937.282806092882
 20
-1575.886870797831
 30
0.0
 10
-1936.77775037525
 20
-1576.705921863402
 30
0.0
  0
SPLINE
  5
1AA
330
1F
100
AcDbEntity
  8
0
  6
Continuous
 62
     7
370
    15
100
AcDbSpline
210
0.0
220
0.0
230
1.0
 70
    24
 71
     3
 72
     8
 73
     4
 74
     0
 42
0.000000001
 43
0.00000001
 40
0.0
 40
0.0
 40
0.0
 40
0.0
 40
1.0
 40
1.0
 40
1.0
 40
1.0
 10
-1941.178458193937
 20
-1574.332365313718
 30
0.0
 10
-1940.21661130534
 20
-1574.304499764708
 30
0.0
 10
-1939.254764416742
 20
-1574.276634215698
 30
0.0
 10
-1938.292917528145
 20
-1574.248768666688
 30
0.0
  0
SPLINE
  5
1AB
330
1F
100
AcDbEntity
  8
0
  6
Continuous
 62
     7
370
    15
100
AcDbSpline
210
0.0
220
0.0
230
1.0
 70
    24
 71
     3
 72
     8
 73
     4
 74
     0
 42
0.000000001
 43
0.00000001
 40
0.0
 40
0.0
 40
0.0
 40
0.0
 40
1.0
 40
1.0
 40
1.0
 40
1.0
 10
-1942.548831706834
 20
-1576.873115157462
 30
0.0
 10
-1942.092040535869
 20
-1576.026198542881
 30
0.0
 10
-1941.635249364903
 20
-1575.179281928299
 30
0.0
 10
-1941.178458193937
 20
-1574.332365313718
 30
0.0
  0
CIRCLE
  5
1AC
330
1F
100
AcDbEntity
  8
0
  6
Continuous
 62
     7
370
    15
100
AcDbCircle
 10
-1939.663291041
 20
-1576.7895185104
 30
0.0
 40
6.999999999999893
  0
SPLINE
  5
1AD
330
1F
100
AcDbEntity
  8
0
  6
Continuous
 62
     7
370
    15
100
AcDbSpline
210
0.0
220
0.0
230
1.0
 70
    24
 71
     3
 72
     8
 73
     4
 74
     0
 42
0.000000001
 43
0.00000001
 40
0.0
 40
0.0
 40
0.0
 40
0.0
 40
1.0
 40
1.0
 40
1.0
 40
1.0
 10
-2020.748745491305
 20
-1624.833080038173
 30
0.0
 10
-2021.253801208937
 20
-1624.014028972601
 30
0.0
 10
-2021.758856926569
 20
-1623.19497790703
 30
0.0
 10
-2022.2639126442
 20
-1622.375926841459
 30
0.0
  0
SPLINE
  5
1AE
330
1F
100
AcDbEntity
  8
0
  6
Continuous
 62
     7
370
    15
100
AcDbSpline
210
0.0
220
0.0
230
1.0
 70
    24
 71
     3
 72
     8
 73
     4
 74
     0
 42
0.000000001
 43
0.00000001
 40
0.0
 40
0.0
 40
0.0
 40
0.0
 40
1.0
 40
1.0
 40
1.0
 40
1.0
 10
-2017.863204825513
 20
-1624.749483391143
 30
0.0
 10
-2018.82505171411
 20
-1624.777348940153
 30
0.0
 10
-2019.786898602708
 20
-1624.805214489163
 30
0.0
 10
-2020.748745491305
 20
-1624.833080038173
 30
0.0
  0
SPLINE
  5
1AF
330
1F
100
AcDbEntity
  8
0
  6
Continuous
 62
     7
370
    15
100
AcDbSpline
210
0.0
220
0.0
230
1.0
 70
    24
 71
     3
 72
     8
 73
     4
 74
     0
 42
0.000000001
 43
0.00000001
 40
0.0
 40
0.0
 40
0.0
 40
0.0
 40
1.0
 40
1.0
 40
1.0
 40
1.0
 10
-2016.492831312617
 20
-1622.208733547399
 30
0.0
 10
-2016.949622483582
 20
-1623.055650161981
 30
0.0
 10
-2017.406413654547
 20
-1623.902566776562
 30
0.0
 10
-2017.863204825513
 20
-1624.749483391143
 30
0.0
  0
SPLINE
  5
1B0
330
1F
100
AcDbEntity
  8
0
  6
Continuous
 62
     7
370
    15
100
AcDbSpline
210
0.0
220
0.0
230
1.0
 70
    24
 71
     3
 72
     8
 73
     4
 74
     0
 42
0.000000001
 43
0.00000001
 40
0.0
 40
0.0
 40
0.0
 40
0.0
 40
1.0
 40
1.0
 40
1.0
 40
1.0
 10
-2018.007998465511
 20
-1619.751580350685
 30
0.0
 10
-2017.50294274788
 20
-1620.570631416257
 30
0.0
 10
-2016.997887030248
 20
-1621.389682481828
 30
0.0
 10
-2016.492831312617
 20
-1622.208733547399
 30
0.0
  0
SPLINE
  5
1B1
330
1F
100
AcDbEntity
  8
0
  6
Continuous
 62
     7
370
    15
100
AcDbSpline
210
0.0
220
0.0
230
1.0
 70
    24
 71
     3
 72
     8
 73
     4
 74
     0
 42
0.000000001
 43
0.00000001
 40
0.0
 40
0.0
 40
0.0
 40
0.0
 40
1.0
 40
1.0
 40
1.0
 40
1.0
 10
-2020.893539131303
 20
-1619.835176997715
 30
0.0
 10
-2019.931692242706
 20
-1619.807311448705
 30
0.0
 10
-2018.969845354108
 20
-1619.779445899695
 30
0.0
 10
-2018.007998465511
 20
-1619.751580350685
 30
0.0
  0
SPLINE
  5
1B2
330
1F
100
AcDbEntity
  8
0
  6
Continuous
 62
     7
370
    15
100
AcDbSpline
210
0.0
220
0.0
230
1.0
 70
    24
 71
     3
 72
     8
 73
     4
 74
     0
 42
0.000000001
 43
0.00000001
 40
0.0
 40
0.0
 40
0.0
 40
0.0
 40
1.0
 40
1.0
 40
1.0
 40
1.0
 10
-2022.2639126442
 20
-1622.375926841459
 30
0.0
 10
-2021.807121473234
 20
-1621.529010226878
 30
0.0
 10
-2021.350330302269
 20
-1620.682093612296
 30
0.0
 10
-2020.893539131303
 20
-1619.835176997715
 30
0.0
  0
CIRCLE
  5
1B3
330
1F
100
AcDbEntity
  8
0
  6
Continuous
 62
     7
370
    15
100
AcDbCircle
 10
-2019.3783719784
 20
-1622.2923301944
 30
0.0
 40
7.000000000000075
  0
SPLINE
  5
1B4
330
1F
100
AcDbEntity
  8
0
  6
Continuous
 62
     7
370
    15
100
AcDbSpline
210
0.0
220
0.0
230
1.0
 70
    24
 71
     3
 72
     8
 73
     4
 74
     0
 42
0.000000001
 43
0.00000001
 40
0.0
 40
0.0
 40
0.0
 40
0.0
 40
1.0
 40
1.0
 40
1.0
 40
1.0
 10
-2140.848033416073
 20
-1552.887537855466
 30
0.0
 10
-2141.353089133704
 20
-1552.068486789895
 30
0.0
 10
-2141.858144851336
 20
-1551.249435724323
 30
0.0
 10
-2142.363200568967
 20
-1550.430384658752
 30
0.0
  0
SPLINE
  5
1B5
330
1F
100
AcDbEntity
  8
0
  6
Continuous
 62
     7
370
    15
100
AcDbSpline
210
0.0
220
0.0
230
1.0
 70
    24
 71
     3
 72
     8
 73
     4
 74
     0
 42
0.000000001
 43
0.00000001
 40
0.0
 40
0.0
 40
0.0
 40
0.0
 40
1.0
 40
1.0
 40
1.0
 40
1.0
 10
-2137.96249275028
 20
-1552.803941208436
 30
0.0
 10
-2138.924339638878
 20
-1552.831806757446
 30
0.0
 10
-2139.886186527475
 20
-1552.859672306456
 30
0.0
 10
-2140.848033416073
 20
-1552.887537855466
 30
0.0
  0
SPLINE
  5
1B6
330
1F
100
AcDbEntity
  8
0
  6
Continuous
 62
     7
370
    15
100
AcDbSpline
210
0.0
220
0.0
230
1.0
 70
    24
 71
     3
 72
     8
 73
     4
 74
     0
 42
0.000000001
 43
0.00000001
 40
0.0
 40
0.0
 40
0.0
 40
0.0
 40
1.0
 40
1.0
 40
1.0
 40
1.0
 10
-2136.592119237384
 20
-1550.263191364692
 30
0.0
 10
-2137.048910408349
 20
-1551.110107979274
 30
0.0
 10
-2137.505701579315
 20
-1551.957024593855
 30
0.0
 10
-2137.96249275028
 20
-1552.803941208436
 30
0.0
  0
SPLINE
  5
1B7
330
1F
100
AcDbEntity
  8
0
  6
Continuous
 62
     7
370
    15
100
AcDbSpline
210
0.0
220
0.0
230
1.0
 70
    24
 71
     3
 72
     8
 73
     4
 74
     0
 42
0.000000001
 43
0.00000001
 40
0.0
 40
0.0
 40
0.0
 40
0.0
 40
1.0
 40
1.0
 40
1.0
 40
1.0
 10
-2138.107286390278
 20
-1547.806038167979
 30
0.0
 10
-2137.602230672647
 20
-1548.62508923355
 30
0.0
 10
-2137.097174955015
 20
-1549.444140299121
 30
0.0
 10
-2136.592119237384
 20
-1550.263191364692
 30
0.0
  0
SPLINE
  5
1B8
330
1F
100
AcDbEntity
  8
0
  6
Continuous
 62
     7
370
    15
100
AcDbSpline
210
0.0
220
0.0
230
1.0
 70
    24
 71
     3
 72
     8
 73
     4
 74
     0
 42
0.000000001
 43
0.00000001
 40
0.0
 40
0.0
 40
0.0
 40
0.0
 40
1.0
 40
1.0
 40
1.0
 40
1.0
 10
-2140.99282705607
 20
-1547.889634815008
 30
0.0
 10
-2140.030980167473
 20
-1547.861769265998
 30
0.0
 10
-2139.069133278876
 20
-1547.833903716988
 30
0.0
 10
-2138.107286390278
 20
-1547.806038167979
 30
0.0
  0
SPLINE
  5
1B9
330
1F
100
AcDbEntity
  8
0
  6
Continuous
 62
     7
370
    15
100
AcDbSpline
210
0.0
220
0.0
230
1.0
 70
    24
 71
     3
 72
     8
 73
     4
 74
     0
 42
0.000000001
 43
0.00000001
 40
0.0
 40
0.0
 40
0.0
 40
0.0
 40
1.0
 40
1.0
 40
1.0
 40
1.0
 10
-2142.363200568967
 20
-1550.430384658752
 30
0.0
 10
-2141.906409398001
 20
-1549.583468044171
 30
0.0
 10
-2141.449618227036
 20
-1548.736551429589
 30
0.0
 10
-2140.99282705607
 20
-1547.889634815008
 30
0.0
  0
CIRCLE
  5
1BA
330
1F
100
AcDbEntity
  8
0
  6
Continuous
 62
     7
370
    15
100
AcDbCircle
 10
-2139.4776599032
 20
-1550.3467880117
 30
0.0
 40
7.000000000000107
  0
SPLINE
  5
1BB
330
1F
100
AcDbEntity
  8
0
  6
Continuous
 62
     7
370
    15
100
AcDbSpline
210
0.0
220
0.0
230
1.0
 70
    24
 71
     3
 72
     8
 73
     4
 74
     0
 42
0.000000001
 43
0.00000001
 40
0.0
 40
0.0
 40
0.0
 40
0.0
 40
1.0
 40
1.0
 40
1.0
 40
1.0
 10
-2138.339637573201
 20
-1461.134020482585
 30
0.0
 10
-2138.844693290832
 20
-1460.314969417014
 30
0.0
 10
-2139.349749008464
 20
-1459.495918351443
 30
0.0
 10
-2139.854804726096
 20
-1458.676867285871
 30
0.0
  0
SPLINE
  5
1BC
330
1F
100
AcDbEntity
  8
0
  6
Continuous
 62
     7
370
    15
100
AcDbSpline
210
0.0
220
0.0
230
1.0
 70
    24
 71
     3
 72
     8
 73
     4
 74
     0
 42
0.000000001
 43
0.00000001
 40
0.0
 40
0.0
 40
0.0
 40
0.0
 40
1.0
 40
1.0
 40
1.0
 40
1.0
 10
-2135.454096907409
 20
-1461.050423835556
 30
0.0
 10
-2136.415943796006
 20
-1461.078289384566
 30
0.0
 10
-2137.377790684604
 20
-1461.106154933575
 30
0.0
 10
-2138.339637573201
 20
-1461.134020482585
 30
0.0
  0
SPLINE
  5
1BD
330
1F
100
AcDbEntity
  8
0
  6
Continuous
 62
     7
370
    15
100
AcDbSpline
210
0.0
220
0.0
230
1.0
 70
    24
 71
     3
 72
     8
 73
     4
 74
     0
 42
0.000000001
 43
0.00000001
 40
0.0
 40
0.0
 40
0.0
 40
0.0
 40
1.0
 40
1.0
 40
1.0
 40
1.0
 10
-2134.083723394512
 20
-1458.509673991812
 30
0.0
 10
-2134.540514565478
 20
-1459.356590606393
 30
0.0
 10
-2134.997305736443
 20
-1460.203507220974
 30
0.0
 10
-2135.454096907409
 20
-1461.050423835556
 30
0.0
  0
SPLINE
  5
1BE
330
1F
100
AcDbEntity
  8
0
  6
Continuous
 62
     7
370
    15
100
AcDbSpline
210
0.0
220
0.0
230
1.0
 70
    24
 71
     3
 72
     8
 73
     4
 74
     0
 42
0.000000001
 43
0.00000001
 40
0.0
 40
0.0
 40
0.0
 40
0.0
 40
1.0
 40
1.0
 40
1.0
 40
1.0
 10
-2135.598890547407
 20
-1456.052520795098
 30
0.0
 10
-2135.093834829775
 20
-1456.871571860669
 30
0.0
 10
-2134.588779112144
 20
-1457.690622926241
 30
0.0
 10
-2134.083723394512
 20
-1458.509673991812
 30
0.0
  0
SPLINE
  5
1BF
330
1F
100
AcDbEntity
  8
0
  6
Continuous
 62
     7
370
    15
100
AcDbSpline
210
0.0
220
0.0
230
1.0
 70
    24
 71
     3
 72
     8
 73
     4
 74
     0
 42
0.000000001
 43
0.00000001
 40
0.0
 40
0.0
 40
0.0
 40
0.0
 40
1.0
 40
1.0
 40
1.0
 40
1.0
 10
-2138.484431213199
 20
-1456.136117442128
 30
0.0
 10
-2137.522584324602
 20
-1456.108251893118
 30
0.0
 10
-2136.560737436004
 20
-1456.080386344108
 30
0.0
 10
-2135.598890547407
 20
-1456.052520795098
 30
0.0
  0
SPLINE
  5
1C0
330
1F
100
AcDbEntity
  8
0
  6
Continuous
 62
     7
370
    15
100
AcDbSpline
210
0.0
220
0.0
230
1.0
 70
    24
 71
     3
 72
     8
 73
     4
 74
     0
 42
0.000000001
 43
0.00000001
 40
0.0
 40
0.0
 40
0.0
 40
0.0
 40
1.0
 40
1.0
 40
1.0
 40
1.0
 10
-2139.854804726096
 20
-1458.676867285871
 30
0.0
 10
-2139.39801355513
 20
-1457.82995067129
 30
0.0
 10
-2138.941222384165
 20
-1456.983034056709
 30
0.0
 10
-2138.484431213199
 20
-1456.136117442128
 30
0.0
  0
CIRCLE
  5
1C1
330
1F
100
AcDbEntity
  8
0
  6
Continuous
 62
     7
370
    15
100
AcDbCircle
 10
-2136.9692640603
 20
-1458.5932706388
 30
0.0
 40
6.999999999999665
  0
SPLINE
  5
1D0
330
1F
100
AcDbEntity
  8
0
  6
Continuous
 62
     7
370
    15
100
AcDbSpline
210
0.0
220
0.0
230
1.0
 70
    24
 71
     3
 72
     8
 73
     4
 74
     0
 42
0.000000001
 43
0.00000001
 40
0.0
 40
0.0
 40
0.0
 40
0.0
 40
1.0
 40
1.0
 40
1.0
 40
1.0
 10
-2087.832270537336
 20
-1883.757532682416
 30
0.0
 10
-2086.913015749123
 20
-1883.473109476129
 30
0.0
 10
-2085.993760960911
 20
-1883.188686269843
 30
0.0
 10
-2085.074506172698
 20
-1882.904263063557
 30
0.0
  0
SPLINE
  5
1D1
330
1F
100
AcDbEntity
  8
0
  6
Continuous
 62
     7
370
    15
100
AcDbSpline
210
0.0
220
0.0
230
1.0
 70
    24
 71
     3
 72
     8
 73
     4
 74
     0
 42
0.000000001
 43
0.00000001
 40
0.0
 40
0.0
 40
0.0
 40
0.0
 40
1.0
 40
1.0
 40
1.0
 40
1.0
 10
-2088.472199553445
 20
-1886.572461489273
 30
0.0
 10
-2088.258889881409
 20
-1885.634151886987
 30
0.0
 10
-2088.045580209372
 20
-1884.695842284701
 30
0.0
 10
-2087.832270537336
 20
-1883.757532682416
 30
0.0
  0
SPLINE
  5
1D2
330
1F
100
AcDbEntity
  8
0
  6
Continuous
 62
     7
370
    15
100
AcDbSpline
210
0.0
220
0.0
230
1.0
 70
    24
 71
     3
 72
     8
 73
     4
 74
     0
 42
0.000000001
 43
0.00000001
 40
0.0
 40
0.0
 40
0.0
 40
0.0
 40
1.0
 40
1.0
 40
1.0
 40
1.0
 10
-2086.354364204917
 20
-1888.534120677271
 30
0.0
 10
-2087.060309321093
 20
-1887.880234281272
 30
0.0
 10
-2087.766254437269
 20
-1887.226347885272
 30
0.0
 10
-2088.472199553445
 20
-1886.572461489273
 30
0.0
  0
SPLINE
  5
1D3
330
1F
100
AcDbEntity
  8
0
  6
Continuous
 62
     7
370
    15
100
AcDbSpline
210
0.0
220
0.0
230
1.0
 70
    24
 71
     3
 72
     8
 73
     4
 74
     0
 42
0.000000001
 43
0.00000001
 40
0.0
 40
0.0
 40
0.0
 40
0.0
 40
1.0
 40
1.0
 40
1.0
 40
1.0
 10
-2083.596599840279
 20
-1887.680851058412
 30
0.0
 10
-2084.515854628492
 20
-1887.965274264698
 30
0.0
 10
-2085.435109416705
 20
-1888.249697470985
 30
0.0
 10
-2086.354364204917
 20
-1888.534120677271
 30
0.0
  0
SPLINE
  5
1D4
330
1F
100
AcDbEntity
  8
0
  6
Continuous
 62
     7
370
    15
100
AcDbSpline
210
0.0
220
0.0
230
1.0
 70
    24
 71
     3
 72
     8
 73
     4
 74
     0
 42
0.000000001
 43
0.00000001
 40
0.0
 40
0.0
 40
0.0
 40
0.0
 40
1.0
 40
1.0
 40
1.0
 40
1.0
 10
-2082.95667082417
 20
-1884.865922251555
 30
0.0
 10
-2083.169980496206
 20
-1885.804231853841
 30
0.0
 10
-2083.383290168243
 20
-1886.742541456126
 30
0.0
 10
-2083.596599840279
 20
-1887.680851058412
 30
0.0
  0
SPLINE
  5
1D5
330
1F
100
AcDbEntity
  8
0
  6
Continuous
 62
     7
370
    15
100
AcDbSpline
210
0.0
220
0.0
230
1.0
 70
    24
 71
     3
 72
     8
 73
     4
 74
     0
 42
0.000000001
 43
0.00000001
 40
0.0
 40
0.0
 40
0.0
 40
0.0
 40
1.0
 40
1.0
 40
1.0
 40
1.0
 10
-2085.074506172698
 20
-1882.904263063557
 30
0.0
 10
-2084.368561056522
 20
-1883.558149459556
 30
0.0
 10
-2083.662615940346
 20
-1884.212035855556
 30
0.0
 10
-2082.95667082417
 20
-1884.865922251555
 30
0.0
  0
CIRCLE
  5
1D6
330
1F
100
AcDbEntity
  8
0
  6
Continuous
 62
     7
370
    15
100
AcDbCircle
 10
-2085.7144351888
 20
-1885.7191918704
 30
0.0
 40
6.999999999999931
  0
SPLINE
  5
1D7
330
1F
100
AcDbEntity
  8
0
  6
Continuous
 62
     7
370
    15
100
AcDbSpline
210
0.0
220
0.0
230
1.0
 70
    24
 71
     3
 72
     8
 73
     4
 74
     0
 42
0.000000001
 43
0.00000001
 40
0.0
 40
0.0
 40
0.0
 40
0.0
 40
1.0
 40
1.0
 40
1.0
 40
1.0
 10
-2111.977580389042
 20
-1795.202442415593
 30
0.0
 10
-2111.058325600829
 20
-1794.918019209306
 30
0.0
 10
-2110.139070812616
 20
-1794.63359600302
 30
0.0
 10
-2109.219816024404
 20
-1794.349172796733
 30
0.0
  0
SPLINE
  5
1D8
330
1F
100
AcDbEntity
  8
0
  6
Continuous
 62
     7
370
    15
100
AcDbSpline
210
0.0
220
0.0
230
1.0
 70
    24
 71
     3
 72
     8
 73
     4
 74
     0
 42
0.000000001
 43
0.00000001
 40
0.0
 40
0.0
 40
0.0
 40
0.0
 40
1.0
 40
1.0
 40
1.0
 40
1.0
 10
-2112.617509405151
 20
-1798.01737122245
 30
0.0
 10
-2112.404199733115
 20
-1797.079061620164
 30
0.0
 10
-2112.190890061078
 20
-1796.140752017878
 30
0.0
 10
-2111.977580389042
 20
-1795.202442415593
 30
0.0
  0
SPLINE
  5
1D9
330
1F
100
AcDbEntity
  8
0
  6
Continuous
 62
     7
370
    15
100
AcDbSpline
210
0.0
220
0.0
230
1.0
 70
    24
 71
     3
 72
     8
 73
     4
 74
     0
 42
0.000000001
 43
0.00000001
 40
0.0
 40
0.0
 40
0.0
 40
0.0
 40
1.0
 40
1.0
 40
1.0
 40
1.0
 10
-2110.499674056623
 20
-1799.979030410448
 30
0.0
 10
-2111.205619172799
 20
-1799.325144014449
 30
0.0
 10
-2111.911564288975
 20
-1798.671257618449
 30
0.0
 10
-2112.617509405151
 20
-1798.01737122245
 30
0.0
  0
SPLINE
  5
1DA
330
1F
100
AcDbEntity
  8
0
  6
Continuous
 62
     7
370
    15
100
AcDbSpline
210
0.0
220
0.0
230
1.0
 70
    24
 71
     3
 72
     8
 73
     4
 74
     0
 42
0.000000001
 43
0.00000001
 40
0.0
 40
0.0
 40
0.0
 40
0.0
 40
1.0
 40
1.0
 40
1.0
 40
1.0
 10
-2107.741909691985
 20
-1799.125760791589
 30
0.0
 10
-2108.661164480197
 20
-1799.410183997875
 30
0.0
 10
-2109.58041926841
 20
-1799.694607204162
 30
0.0
 10
-2110.499674056623
 20
-1799.979030410448
 30
0.0
  0
SPLINE
  5
1DB
330
1F
100
AcDbEntity
  8
0
  6
Continuous
 62
     7
370
    15
100
AcDbSpline
210
0.0
220
0.0
230
1.0
 70
    24
 71
     3
 72
     8
 73
     4
 74
     0
 42
0.000000001
 43
0.00000001
 40
0.0
 40
0.0
 40
0.0
 40
0.0
 40
1.0
 40
1.0
 40
1.0
 40
1.0
 10
-2107.101980675876
 20
-1796.310831984732
 30
0.0
 10
-2107.315290347912
 20
-1797.249141587017
 30
0.0
 10
-2107.528600019948
 20
-1798.187451189303
 30
0.0
 10
-2107.741909691985
 20
-1799.125760791589
 30
0.0
  0
SPLINE
  5
1DC
330
1F
100
AcDbEntity
  8
0
  6
Continuous
 62
     7
370
    15
100
AcDbSpline
210
0.0
220
0.0
230
1.0
 70
    24
 71
     3
 72
     8
 73
     4
 74
     0
 42
0.000000001
 43
0.00000001
 40
0.0
 40
0.0
 40
0.0
 40
0.0
 40
1.0
 40
1.0
 40
1.0
 40
1.0
 10
-2109.219816024404
 20
-1794.349172796733
 30
0.0
 10
-2108.513870908228
 20
-1795.003059192733
 30
0.0
 10
-2107.807925792052
 20
-1795.656945588732
 30
0.0
 10
-2107.101980675876
 20
-1796.310831984732
 30
0.0
  0
CIRCLE
  5
1DD
330
1F
100
AcDbEntity
  8
0
  6
Continuous
 62
     7
370
    15
100
AcDbCircle
 10
-2109.8597450405
 20
-1797.1641016036
 30
0.0
 40
7.000000000000354
  0
SPLINE
  5
1DE
330
1F
100
AcDbEntity
  8
0
  6
Continuous
 62
     7
370
    15
100
AcDbSpline
210
0.0
220
0.0
230
1.0
 70
    24
 71
     3
 72
     8
 73
     4
 74
     0
 42
0.000000001
 43
0.00000001
 40
0.0
 40
0.0
 40
0.0
 40
0.0
 40
1.0
 40
1.0
 40
1.0
 40
1.0
 10
-2012.309739567361
 20
-1696.884989712911
 30
0.0
 10
-2011.390484779148
 20
-1696.600566506625
 30
0.0
 10
-2010.471229990936
 20
-1696.316143300339
 30
0.0
 10
-2009.551975202723
 20
-1696.031720094052
 30
0.0
  0
SPLINE
  5
1DF
330
1F
100
AcDbEntity
  8
0
  6
Continuous
 62
     7
370
    15
100
AcDbSpline
210
0.0
220
0.0
230
1.0
 70
    24
 71
     3
 72
     8
 73
     4
 74
     0
 42
0.000000001
 43
0.00000001
 40
0.0
 40
0.0
 40
0.0
 40
0.0
 40
1.0
 40
1.0
 40
1.0
 40
1.0
 10
-2012.94966858347
 20
-1699.699918519769
 30
0.0
 10
-2012.736358911434
 20
-1698.761608917483
 30
0.0
 10
-2012.523049239397
 20
-1697.823299315197
 30
0.0
 10
-2012.309739567361
 20
-1696.884989712911
 30
0.0
  0
SPLINE
  5
1E0
330
1F
100
AcDbEntity
  8
0
  6
Continuous
 62
     7
370
    15
100
AcDbSpline
210
0.0
220
0.0
230
1.0
 70
    24
 71
     3
 72
     8
 73
     4
 74
     0
 42
0.000000001
 43
0.00000001
 40
0.0
 40
0.0
 40
0.0
 40
0.0
 40
1.0
 40
1.0
 40
1.0
 40
1.0
 10
-2010.831833234942
 20
-1701.661577707767
 30
0.0
 10
-2011.537778351118
 20
-1701.007691311768
 30
0.0
 10
-2012.243723467294
 20
-1700.353804915768
 30
0.0
 10
-2012.94966858347
 20
-1699.699918519769
 30
0.0
  0
SPLINE
  5
1E1
330
1F
100
AcDbEntity
  8
0
  6
Continuous
 62
     7
370
    15
100
AcDbSpline
210
0.0
220
0.0
230
1.0
 70
    24
 71
     3
 72
     8
 73
     4
 74
     0
 42
0.000000001
 43
0.00000001
 40
0.0
 40
0.0
 40
0.0
 40
0.0
 40
1.0
 40
1.0
 40
1.0
 40
1.0
 10
-2008.074068870304
 20
-1700.808308088908
 30
0.0
 10
-2008.993323658517
 20
-1701.092731295194
 30
0.0
 10
-2009.91257844673
 20
-1701.37715450148
 30
0.0
 10
-2010.831833234942
 20
-1701.661577707767
 30
0.0
  0
SPLINE
  5
1E2
330
1F
100
AcDbEntity
  8
0
  6
Continuous
 62
     7
370
    15
100
AcDbSpline
210
0.0
220
0.0
230
1.0
 70
    24
 71
     3
 72
     8
 73
     4
 74
     0
 42
0.000000001
 43
0.00000001
 40
0.0
 40
0.0
 40
0.0
 40
0.0
 40
1.0
 40
1.0
 40
1.0
 40
1.0
 10
-2007.434139854195
 20
-1697.99337928205
 30
0.0
 10
-2007.647449526231
 20
-1698.931688884336
 30
0.0
 10
-2007.860759198268
 20
-1699.869998486622
 30
0.0
 10
-2008.074068870304
 20
-1700.808308088908
 30
0.0
  0
SPLINE
  5
1E3
330
1F
100
AcDbEntity
  8
0
  6
Continuous
 62
     7
370
    15
100
AcDbSpline
210
0.0
220
0.0
230
1.0
 70
    24
 71
     3
 72
     8
 73
     4
 74
     0
 42
0.000000001
 43
0.00000001
 40
0.0
 40
0.0
 40
0.0
 40
0.0
 40
1.0
 40
1.0
 40
1.0
 40
1.0
 10
-2009.551975202723
 20
-1696.031720094052
 30
0.0
 10
-2008.846030086547
 20
-1696.685606490051
 30
0.0
 10
-2008.140084970371
 20
-1697.339492886051
 30
0.0
 10
-2007.434139854195
 20
-1697.99337928205
 30
0.0
  0
CIRCLE
  5
1E4
330
1F
100
AcDbEntity
  8
0
  6
Continuous
 62
     7
370
    15
100
AcDbCircle
 10
-2010.1919042188
 20
-1698.8466489009
 30
0.0
 40
7.000000000000766
  0
SPLINE
  5
1E5
330
1F
100
AcDbEntity
  8
0
  6
Continuous
 62
     7
370
    15
100
AcDbSpline
210
0.0
220
0.0
230
1.0
 70
    24
 71
     3
 72
     8
 73
     4
 74
     0
 42
0.000000001
 43
0.00000001
 40
0.0
 40
0.0
 40
0.0
 40
0.0
 40
1.0
 40
1.0
 40
1.0
 40
1.0
 10
-1924.092246330288
 20
-1722.236003242296
 30
0.0
 10
-1923.172991542075
 20
-1721.95158003601
 30
0.0
 10
-1922.253736753863
 20
-1721.667156829724
 30
0.0
 10
-1921.33448196565
 20
-1721.382733623437
 30
0.0
  0
SPLINE
  5
1E6
330
1F
100
AcDbEntity
  8
0
  6
Continuous
 62
     7
370
    15
100
AcDbSpline
210
0.0
220
0.0
230
1.0
 70
    24
 71
     3
 72
     8
 73
     4
 74
     0
 42
0.000000001
 43
0.00000001
 40
0.0
 40
0.0
 40
0.0
 40
0.0
 40
1.0
 40
1.0
 40
1.0
 40
1.0
 10
-1924.732175346397
 20
-1725.050932049154
 30
0.0
 10
-1924.518865674361
 20
-1724.112622446868
 30
0.0
 10
-1924.305556002324
 20
-1723.174312844582
 30
0.0
 10
-1924.092246330288
 20
-1722.236003242296
 30
0.0
  0
SPLINE
  5
1E7
330
1F
100
AcDbEntity
  8
0
  6
Continuous
 62
     7
370
    15
100
AcDbSpline
210
0.0
220
0.0
230
1.0
 70
    24
 71
     3
 72
     8
 73
     4
 74
     0
 42
0.000000001
 43
0.00000001
 40
0.0
 40
0.0
 40
0.0
 40
0.0
 40
1.0
 40
1.0
 40
1.0
 40
1.0
 10
-1922.614339997869
 20
-1727.012591237152
 30
0.0
 10
-1923.320285114045
 20
-1726.358704841152
 30
0.0
 10
-1924.026230230221
 20
-1725.704818445153
 30
0.0
 10
-1924.732175346397
 20
-1725.050932049154
 30
0.0
  0
SPLINE
  5
1E8
330
1F
100
AcDbEntity
  8
0
  6
Continuous
 62
     7
370
    15
100
AcDbSpline
210
0.0
220
0.0
230
1.0
 70
    24
 71
     3
 72
     8
 73
     4
 74
     0
 42
0.000000001
 43
0.00000001
 40
0.0
 40
0.0
 40
0.0
 40
0.0
 40
1.0
 40
1.0
 40
1.0
 40
1.0
 10
-1919.856575633231
 20
-1726.159321618293
 30
0.0
 10
-1920.775830421444
 20
-1726.443744824579
 30
0.0
 10
-1921.695085209656
 20
-1726.728168030865
 30
0.0
 10
-1922.614339997869
 20
-1727.012591237152
 30
0.0
  0
SPLINE
  5
1E9
330
1F
100
AcDbEntity
  8
0
  6
Continuous
 62
     7
370
    15
100
AcDbSpline
210
0.0
220
0.0
230
1.0
 70
    24
 71
     3
 72
     8
 73
     4
 74
     0
 42
0.000000001
 43
0.00000001
 40
0.0
 40
0.0
 40
0.0
 40
0.0
 40
1.0
 40
1.0
 40
1.0
 40
1.0
 10
-1919.216646617122
 20
-1723.344392811435
 30
0.0
 10
-1919.429956289159
 20
-1724.282702413721
 30
0.0
 10
-1919.643265961195
 20
-1725.221012016007
 30
0.0
 10
-1919.856575633231
 20
-1726.159321618293
 30
0.0
  0
SPLINE
  5
1EA
330
1F
100
AcDbEntity
  8
0
  6
Continuous
 62
     7
370
    15
100
AcDbSpline
210
0.0
220
0.0
230
1.0
 70
    24
 71
     3
 72
     8
 73
     4
 74
     0
 42
0.000000001
 43
0.00000001
 40
0.0
 40
0.0
 40
0.0
 40
0.0
 40
1.0
 40
1.0
 40
1.0
 40
1.0
 10
-1921.33448196565
 20
-1721.382733623437
 30
0.0
 10
-1920.628536849474
 20
-1722.036620019436
 30
0.0
 10
-1919.922591733298
 20
-1722.690506415436
 30
0.0
 10
-1919.216646617122
 20
-1723.344392811435
 30
0.0
  0
CIRCLE
  5
1EB
330
1F
100
AcDbEntity
  8
0
  6
Continuous
 62
     7
370
    15
100
AcDbCircle
 10
-1921.9744109818
 20
-1724.1976624303
 30
0.0
 40
7.000000000000001
  0
CIRCLE
  5
234
330
1F
100
AcDbEntity
  8
0
  6
Continuous
 62
     7
370
    15
100
AcDbCircle
 10
-2139.8069271941
 20
-571.2543162881
 30
0.0
 40
79.99999999999896
  0
CIRCLE
  5
235
330
1F
100
AcDbEntity
  8
0
  6
Continuous
 62
     7
370
    15
100
AcDbCircle
 10
-972.3964932203
 20
-1665.3991324111
 30
0.0
 40
79.99999999999913
  0
LINE
  5
243
330
1F
100
AcDbEntity
  8
0
  6
Continuous
 62
     7
370
    15
100
AcDbLine
 10
-2157.085351416
 20
-649.3661339369
 30
0.0
 11
-2157.0947408003
 21
-649.4172545399
 31
0.0
  0
LINE
  5
244
330
1F
100
AcDbEntity
  8
0
  6
Continuous
 62
     7
370
    15
100
AcDbLine
 10
-2147.2592652325
 20
-651.2237484803
 30
0.0
 11
-2147.20196773
 21
-650.9117916151
 31
0.0
  0
LINE
  5
245
330
1F
100
AcDbEntity
  8
0
  6
Continuous
 62
     7
370
    15
100
AcDbLine
 10
-2104.7258272953
 20
-643.1522747423
 30
0.0
 11
-2104.648591371
 21
-643.2882764884
 31
0.0
  0
LINE
  5
246
330
1F
100
AcDbEntity
  8
0
  6
Continuous
 62
     7
370
    15
100
AcDbLine
 10
-2095.952988045
 20
-638.3500093026
 30
0.0
 11
-2096.0302239693
 21
-638.2140075565
 31
0.0
  0
LINE
  5
247
330
1F
100
AcDbEntity
  8
0
  6
Continuous
 62
     7
370
    15
100
AcDbLine
 10
-2067.6068956266
 20
-605.7094384277
 30
0.0
 11
-2067.3096276941
 21
-605.8200361936
 31
0.0
  0
LINE
  5
248
330
1F
100
AcDbEntity
  8
0
  6
Continuous
 62
     7
370
    15
100
AcDbLine
 10
-2063.822666047
 20
-596.4476779806
 30
0.0
 11
-2063.8713795637
 21
-596.4295542427
 31
0.0
  0
LINE
  5
249
330
1F
100
AcDbEntity
  8
0
  6
Continuous
 62
     7
370
    15
100
AcDbLine
 10
-2217.8615066455
 20
-553.7191337492
 30
0.0
 11
-2217.9125960974
 21
-553.709576318
 31
0.0
  0
LINE
  5
24A
330
1F
100
AcDbEntity
  8
0
  6
Continuous
 62
     7
370
    15
100
AcDbLine
 10
-2219.7514218425
 20
-563.5390584956
 30
0.0
 11
-2219.4396550727
 21
-563.5973814827
 31
0.0
  0
LINE
  5
24B
330
1F
100
AcDbEntity
  8
0
  6
Continuous
 62
     7
370
    15
100
AcDbLine
 10
-2211.8198526159
 20
-606.0988075629
 30
0.0
 11
-2211.9561075983
 21
-606.1755958609
 31
0.0
  0
LINE
  5
24C
330
1F
100
AcDbEntity
  8
0
  6
Continuous
 62
     7
370
    15
100
AcDbLine
 10
-2207.0464604888
 20
-614.8873904671
 30
0.0
 11
-2206.9102055064
 21
-614.8106021691
 31
0.0
  0
LINE
  5
24D
330
1F
100
AcDbEntity
  8
0
  6
Continuous
 62
     7
370
    15
100
AcDbLine
 10
-2174.4992753159
 20
-643.3406602222
 30
0.0
 11
-2174.6108499773
 21
-643.6375628738
 31
0.0
  0
LINE
  5
24E
330
1F
100
AcDbEntity
  8
0
  6
Continuous
 62
     7
370
    15
100
AcDbLine
 10
-2165.2500084604
 20
-647.1553243915
 30
0.0
 11
-2165.2317246378
 21
-647.1066707337
 31
0.0
  0
LINE
  5
24F
330
1F
100
AcDbEntity
  8
0
  6
Continuous
 62
     7
370
    15
100
AcDbLine
 10
-1538.8239877649
 20
-1040.2147514696
 30
0.0
 11
-1538.81459884
 21
-1040.1636307822
 31
0.0
  0
LINE
  5
250
330
1F
100
AcDbEntity
  8
0
  6
Continuous
 62
     7
370
    15
100
AcDbLine
 10
-1548.6500906373
 20
-1038.3572252066
 30
0.0
 11
-1548.7073853372
 21
-1038.6691825866
 31
0.0
  0
LINE
  5
251
330
1F
100
AcDbEntity
  8
0
  6
Continuous
 62
     7
370
    15
100
AcDbLine
 10
-1591.1834560565
 20
-1046.4290810769
 30
0.0
 11
-1591.2606932026
 21
-1046.2930800247
 31
0.0
  0
LINE
  5
252
330
1F
100
AcDbEntity
  8
0
  6
Continuous
 62
     7
370
    15
100
AcDbLine
 10
-1599.9562521614
 20
-1051.231425334
 30
0.0
 11
-1599.8790150153
 21
-1051.3674263863
 31
0.0
  0
LINE
  5
253
330
1F
100
AcDbEntity
  8
0
  6
Continuous
 62
     7
370
    15
100
AcDbLine
 10
-1628.3020513264
 20
-1083.8722508771
 30
0.0
 11
-1628.5993202526
 21
-1083.7616557819
 31
0.0
  0
LINE
  5
254
330
1F
100
AcDbEntity
  8
0
  6
Continuous
 62
     7
370
    15
100
AcDbLine
 10
-1632.0861976956
 20
-1093.1340453224
 30
0.0
 11
-1632.0374840161
 21
-1093.1521686227
 31
0.0
  0
LINE
  5
255
330
1F
100
AcDbEntity
  8
0
  6
Continuous
 62
     7
370
    15
100
AcDbLine
 10
-1632.5996363583
 20
-1141.7375614679
 30
0.0
 11
-1632.648756328
 21
-1141.754552794
 31
0.0
  0
LINE
  5
256
330
1F
100
AcDbEntity
  8
0
  6
Continuous
 62
     7
370
    15
100
AcDbLine
 10
-1629.3796678923
 20
-1151.2051115499
 30
0.0
 11
-1629.0799196326
 21
-1151.1014241813
 31
0.0
  0
LINE
  5
257
330
1F
100
AcDbEntity
  8
0
  6
Continuous
 62
     7
370
    15
100
AcDbLine
 10
-1601.4165793614
 20
-1184.2551903831
 30
0.0
 11
-1601.4969425816
 21
-1184.3893679363
 31
0.0
  0
LINE
  5
258
330
1F
100
AcDbEntity
  8
0
  6
Continuous
 62
     7
370
    15
100
AcDbLine
 10
-1592.9179734784
 20
-1189.5275864142
 30
0.0
 11
-1592.8376102582
 21
-1189.393408861
 31
0.0
  0
LINE
  5
259
330
1F
100
AcDbEntity
  8
0
  6
Continuous
 62
     7
370
    15
100
AcDbLine
 10
-1550.5524571039
 20
-1198.1340284639
 30
0.0
 11
-1550.5023957184
 21
-1198.4472279965
 31
0.0
  0
LINE
  5
25A
330
1F
100
AcDbEntity
  8
0
  6
Continuous
 62
     7
370
    15
100
AcDbLine
 10
-1540.6277409358
 20
-1196.8688766656
 30
0.0
 11
-1540.6359445322
 21
-1196.8175524258
 31
0.0
  0
LINE
  5
25B
330
1F
100
AcDbEntity
  8
0
  6
Continuous
 62
     7
370
    15
100
AcDbLine
 10
-1028.9477257014
 20
-1608.8132851977
 30
0.0
 11
-1028.9857679833
 21
-1608.7778696449
 31
0.0
  0
LINE
  5
25C
330
1F
100
AcDbEntity
  8
0
  6
Continuous
 62
     7
370
    15
100
AcDbLine
 10
-1035.799631345
 20
-1616.0971090923
 30
0.0
 11
-1035.5674832421
 21
-1616.3132279205
 31
0.0
  0
LINE
  5
25D
330
1F
100
AcDbEntity
  8
0
  6
Continuous
 62
     7
370
    15
100
AcDbLine
 10
-1051.8766322143
 20
-1656.2937765427
 30
0.0
 11
-1052.0328275488
 21
-1656.2857217043
 31
0.0
  0
LINE
  5
25E
330
1F
100
AcDbEntity
  8
0
  6
Continuous
 62
     7
370
    15
100
AcDbLine
 10
-1052.5478332841
 20
-1666.2724513538
 30
0.0
 11
-1052.3916379495
 21
-1666.2805061922
 31
0.0
  0
LINE
  5
25F
330
1F
100
AcDbEntity
  8
0
  6
Continuous
 62
     7
370
    15
100
AcDbLine
 10
-1040.2815803662
 20
-1707.7266050877
 30
0.0
 11
-1040.5347279588
 21
-1707.9176976986
 31
0.0
  0
LINE
  5
260
330
1F
100
AcDbEntity
  8
0
  6
Continuous
 62
     7
370
    15
100
AcDbLine
 10
-1034.5098991604
 20
-1715.8990157571
 30
0.0
 11
-1034.4684156766
 21
-1715.8677012691
 31
0.0
  0
LINE
  5
261
330
1F
100
AcDbEntity
  8
0
  6
Continuous
 62
     7
370
    15
100
AcDbLine
 10
-1013.0602781051
 20
-1734.2936648418
 30
0.0
 11
-1013.0850668392
 21
-1734.3393484849
 31
0.0
  0
LINE
  5
262
330
1F
100
AcDbEntity
  8
0
  6
Continuous
 62
     7
370
    15
100
AcDbLine
 10
-1004.2956486869
 20
-1739.1086386359
 30
0.0
 11
-1004.1443786446
 21
-1738.8298601147
 31
0.0
  0
LINE
  5
263
330
1F
100
AcDbEntity
  8
0
  6
Continuous
 62
     7
370
    15
100
AcDbLine
 10
-961.3571508437
 20
-1744.6338023473
 30
0.0
 11
-961.3259290603
 21
-1744.7870572434
 31
0.0
  0
LINE
  5
264
330
1F
100
AcDbEntity
  8
0
  6
Continuous
 62
     7
370
    15
100
AcDbLine
 10
-951.5272035104
 20
-1742.7908163766
 30
0.0
 11
-951.5584252938
 21
-1742.6375614804
 31
0.0
  0
LINE
  5
265
330
1F
100
AcDbEntity
  8
0
  6
Continuous
 62
     7
370
    15
100
AcDbLine
 10
-914.4518941294
 20
-1720.5572998589
 30
0.0
 11
-914.2036186476
 21
-1720.7546811516
 31
0.0
  0
LINE
  5
266
330
1F
100
AcDbEntity
  8
0
  6
Continuous
 62
     7
370
    15
100
AcDbLine
 10
-907.9805182856
 20
-1712.9269725542
 30
0.0
 11
-908.0212033731
 21
-1712.8946275353
 31
0.0
  0
LINE
  5
267
330
1F
100
AcDbEntity
  8
0
  6
Continuous
 62
     7
370
    15
100
AcDbLine
 10
-2055.8594097748
 20
-1651.2741612502
 30
0.0
 11
-2055.8102883221
 21
-1651.2571742118
 31
0.0
  0
LINE
  5
268
330
1F
100
AcDbEntity
  8
0
  6
Continuous
 62
     7
370
    15
100
AcDbLine
 10
-2059.0785518257
 20
-1641.8063301399
 30
0.0
 11
-2059.3783091348
 21
-1641.9099913437
 31
0.0
  0
LINE
  5
269
330
1F
100
AcDbEntity
  8
0
  6
Continuous
 62
     7
370
    15
100
AcDbLine
 10
-2087.0387553769
 20
-1608.7538105923
 30
0.0
 11
-2086.9583804449
 21
-1608.6196400544
 31
0.0
  0
LINE
  5
26A
330
1F
100
AcDbEntity
  8
0
  6
Continuous
 62
     7
370
    15
100
AcDbLine
 10
-2095.536901011
 20
-1603.4806727556
 30
0.0
 11
-2095.617275943
 21
-1603.6148432936
 31
0.0
  0
LINE
  5
26B
330
1F
100
AcDbEntity
  8
0
  6
Continuous
 62
     7
370
    15
100
AcDbLine
 10
-2137.9016659856
 20
-1594.8705327403
 30
0.0
 11
-2137.9517000323
 21
-1594.5573288391
 31
0.0
  0
LINE
  5
26C
330
1F
100
AcDbEntity
  8
0
  6
Continuous
 62
     7
370
    15
100
AcDbLine
 10
-2147.8264925483
 20
-1596.1348182258
 30
0.0
 11
-2147.818293432
 21
-1596.1861431815
 31
0.0
  0
LINE
  5
26D
330
1F
100
AcDbEntity
  8
0
  6
Continuous
 62
     7
370
    15
100
AcDbLine
 10
-2128.8087962103
 20
-1754.5994906009
 30
0.0
 11
-2128.8046194832
 21
-1754.6512982407
 31
0.0
  0
LINE
  5
26E
330
1F
100
AcDbEntity
  8
0
  6
Continuous
 62
     7
370
    15
100
AcDbLine
 10
-2118.8369597666
 20
-1753.847706445
 30
0.0
 11
-2118.8624477032
 21
-1753.5315570267
 31
0.0
  0
LINE
  5
26F
330
1F
100
AcDbEntity
  8
0
  6
Continuous
 62
     7
370
    15
100
AcDbLine
 10
-2079.8473799845
 20
-1735.0313651566
 30
0.0
 11
-2079.7375433173
 21
-1735.1427104281
 31
0.0
  0
LINE
  5
270
330
1F
100
AcDbEntity
  8
0
  6
Continuous
 62
     7
370
    15
100
AcDbLine
 10
-2072.6184118301
 20
-1728.120035235
 30
0.0
 11
-2072.7282484973
 21
-1728.0086899635
 31
0.0
  0
LINE
  5
271
330
1F
100
AcDbEntity
  8
0
  6
Continuous
 62
     7
370
    15
100
AcDbLine
 10
-2053.6975864737
 20
-1689.2496070116
 30
0.0
 11
-2053.3818141418
 21
-1689.2794050644
 31
0.0
  0
LINE
  5
272
330
1F
100
AcDbEntity
  8
0
  6
Continuous
 62
     7
370
    15
100
AcDbLine
 10
-2052.442331627
 20
-1679.3236342452
 30
0.0
 11
-2052.4940774734
 21
-1679.3187512162
 31
0.0
  0
LINE
  5
273
330
1F
100
AcDbEntity
  8
0
  6
Continuous
 62
     7
370
    15
100
AcDbLine
 10
-2153.0054508234
 20
-846.7013147723
 30
0.0
 11
-1896.4851527083
 21
-701.0224327923
 31
0.0
  0
LINE
  5
274
330
1F
100
AcDbEntity
  8
0
  6
Continuous
 62
     7
370
    15
100
AcDbLine
 10
-2203.0056550011
 20
-786.5461291204
 30
0.0
 11
-1922.5342631913
 21
-627.2653272249
 31
0.0
  0
LINE
  5
275
330
1F
100
AcDbEntity
  8
0
  6
Continuous
 62
     7
370
    15
100
AcDbLine
 10
-2206.1796845765
 20
-810.9594903748
 30
0.0
 11
-2185.0850168727
 21
-648.7077750179
 31
0.0
  0
LINE
  5
276
330
1F
100
AcDbEntity
  8
0
  6
Continuous
 62
     7
370
    15
100
AcDbLine
 10
-1929.4287877654
 20
-624.2807159723
 30
0.0
 11
-2202.03705105
 21
-779.0960163818
 31
0.0
  0
LINE
  5
277
330
1F
100
AcDbEntity
  8
0
  6
Continuous
 62
     7
370
    15
100
AcDbLine
 10
-1899.9415152677
 20
-637.0456346202
 30
0.0
 11
-2050.0933959129
 21
-572.0455047703
 31
0.0
  0
LINE
  5
278
330
1F
100
AcDbEntity
  8
0
  6
Continuous
 62
     7
370
    15
100
AcDbLine
 10
-2206.3866289524
 20
-810.9020926605
 30
0.0
 11
-2206.0813616926
 21
-810.2032302248
 31
0.0
  0
LINE
  5
279
330
1F
100
AcDbEntity
  8
0
  6
Continuous
 62
     7
370
    15
100
AcDbLine
 10
-2415.2090363831
 20
-557.1501234981
 30
0.0
 11
-2270.374446653
 21
-814.1480643804
 31
0.0
  0
LINE
  5
27A
330
1F
100
AcDbEntity
  8
0
  6
Continuous
 62
     7
370
    15
100
AcDbLine
 10
-2354.8897624295
 20
-507.3479953474
 30
0.0
 11
-2201.9818499983
 21
-778.6714320531
 31
0.0
  0
LINE
  5
27B
330
1F
100
AcDbEntity
  8
0
  6
Continuous
 62
     7
370
    15
100
AcDbLine
 10
-2379.2925546723
 20
-504.0937055262
 30
0.0
 11
-2217.1110811903
 21
-525.7217845213
 31
0.0
  0
LINE
  5
27C
330
1F
100
AcDbEntity
  8
0
  6
Continuous
 62
     7
370
    15
100
AcDbLine
 10
-2200.6908285768
 20
-768.7414135697
 30
0.0
 11
-2347.4428749874
 21
-508.3410919472
 31
0.0
  0
LINE
  5
27D
330
1F
100
AcDbEntity
  8
0
  6
Continuous
 62
     7
370
    15
100
AcDbLine
 10
-1542.9056612732
 20
-842.8796072971
 30
0.0
 11
-1799.4246505571
 21
-988.5607939231
 31
0.0
  0
LINE
  5
27E
330
1F
100
AcDbEntity
  8
0
  6
Continuous
 62
     7
370
    15
100
AcDbLine
 10
-1492.904916646
 20
-903.0343437305
 30
0.0
 11
-1773.3748774202
 21
-1062.3176654548
 31
0.0
  0
LINE
  5
27F
330
1F
100
AcDbEntity
  8
0
  6
Continuous
 62
     7
370
    15
100
AcDbLine
 10
-1489.7311064074
 20
-878.6209539606
 30
0.0
 11
-1510.8243163945
 21
-1040.8728588316
 31
0.0
  0
LINE
  5
280
330
1F
100
AcDbEntity
  8
0
  6
Continuous
 62
     7
370
    15
100
AcDbLine
 10
-1766.4803260318
 20
-1065.3022147649
 30
0.0
 11
-1493.8734536632
 21
-910.4844651709
 31
0.0
  0
LINE
  5
281
330
1F
100
AcDbEntity
  8
0
  6
Continuous
 62
     7
370
    15
100
AcDbLine
 10
-1795.9677132119
 20
-1052.5375610396
 30
0.0
 11
-1645.815248593
 21
-1117.5363418794
 31
0.0
  0
LINE
  5
282
330
1F
100
AcDbEntity
  8
0
  6
Continuous
 62
     7
370
    15
100
AcDbLine
 10
-1802.3619950135
 20
-1242.427981906
 30
0.0
 11
-1549.2824064688
 21
-1394.0054270027
 31
0.0
  0
LINE
  5
283
330
1F
100
AcDbEntity
  8
0
  6
Continuous
 62
     7
370
    15
100
AcDbLine
 10
-1774.6126314403
 20
-1169.2935878091
 30
0.0
 11
-1497.9032054831
 21
-1335.0236969102
 31
0.0
  0
LINE
  5
284
330
1F
100
AcDbEntity
  8
0
  6
Continuous
 62
     7
370
    15
100
AcDbLine
 10
-1797.4257079609
 20
-1178.548327738
 30
0.0
 11
-1646.4030249727
 21
-1117.2819021792
 31
0.0
  0
LINE
  5
285
330
1F
100
AcDbEntity
  8
0
  6
Continuous
 62
     7
370
    15
100
AcDbLine
 10
-1498.6991045445
 20
-1327.5531602417
 30
0.0
 11
-1767.6508702055
 21
-1166.4693615538
 31
0.0
  0
LINE
  5
286
330
1F
100
AcDbEntity
  8
0
  6
Continuous
 62
     7
370
    15
100
AcDbLine
 10
-1495.2951145738
 20
-1359.5039855787
 30
0.0
 11
-1512.6285419307
 21
-1196.807469212
 31
0.0
  0
LINE
  5
287
330
1F
100
AcDbEntity
  8
0
  6
Continuous
 62
     7
370
    15
100
AcDbLine
 10
-1197.4909594592
 20
-1506.0952364493
 30
0.0
 11
-1212.6836286491
 21
-1800.7037611102
 31
0.0
  0
LINE
  5
288
330
1F
100
AcDbEntity
  8
0
  6
Continuous
 62
     7
370
    15
100
AcDbLine
 10
-1119.883877513
 20
-1496.3071002406
 30
0.0
 11
-1136.4950739927
 21
-1818.4229856417
 31
0.0
  0
LINE
  5
289
330
1F
100
AcDbEntity
  8
0
  6
Continuous
 62
     7
370
    15
100
AcDbLine
 10
-1138.7562244932
 20
-1480.4982042975
 30
0.0
 11
-1013.3302072215
 21
-1585.5644611697
 31
0.0
  0
LINE
  5
28A
330
1F
100
AcDbEntity
  8
0
  6
Continuous
 62
     7
370
    15
100
AcDbLine
 10
-1130.2701854084
 20
-1814.216664738
 30
0.0
 11
-1114.1246905178
 21
-1501.1314280266
 31
0.0
  0
LINE
  5
28B
330
1F
100
AcDbEntity
  8
0
  6
Continuous
 62
     7
370
    15
100
AcDbLine
 10
-1156.8934839376
 20
-1832.2067276301
 30
0.0
 11
-1021.3252199192
 21
-1740.5996867825
 31
0.0
  0
LINE
  5
28C
330
1F
100
AcDbEntity
  8
0
  6
Continuous
 62
     7
370
    15
100
AcDbLine
 10
-1070.4152828828
 20
-1923.153990509
 30
0.0
 11
-781.352879162
 21
-1864.2648849367
 31
0.0
  0
LINE
  5
28D
330
1F
100
AcDbEntity
  8
0
  6
Continuous
 62
     7
370
    15
100
AcDbLine
 10
-1099.2810995044
 20
-1850.4530179611
 30
0.0
 11
-783.2291718901
 21
-1786.0654840167
 31
0.0
  0
LINE
  5
28E
330
1F
100
AcDbEntity
  8
0
  6
Continuous
 62
     7
370
    15
100
AcDbLine
 10
-1109.8739689905
 20
-1872.6763792626
 30
0.0
 11
-1059.0790549082
 21
-1766.1109458448
 31
0.0
  0
LINE
  5
28F
330
1F
100
AcDbEntity
  8
0
  6
Continuous
 62
     7
370
    15
100
AcDbLine
 10
-788.8572380045
 20
-1781.0888139209
 30
0.0
 11
-1096.0485224302
 21
-1843.6712173971
 31
0.0
  0
LINE
  5
290
330
1F
100
AcDbEntity
  8
0
  6
Continuous
 62
     7
370
    15
100
AcDbLine
 10
-764.7864964517
 20
-1802.3735922503
 30
0.0
 11
-887.3569075665
 21
-1693.989559935
 31
0.0
  0
LINE
  5
291
330
1F
100
AcDbEntity
  8
0
  6
Continuous
 62
     7
370
    15
100
AcDbLine
 10
-2189.7437216189
 20
-1465.4468752836
 30
0.0
 11
-1920.8060176543
 21
-1626.5541496017
 31
0.0
  0
LINE
  5
292
330
1F
100
AcDbEntity
  8
0
  6
Continuous
 62
     7
370
    15
100
AcDbLine
 10
-1886.0882627075
 20
-1550.5985594011
 30
0.0
 11
-2139.1546194062
 21
-1398.9990240876
 31
0.0
  0
LINE
  5
293
330
1F
100
AcDbEntity
  8
0
  6
Continuous
 62
     7
370
    15
100
AcDbLine
 10
-1891.0301256644
 20
-1614.4777824475
 30
0.0
 11
-2000.4272340144
 21
-1658.8465505262
 31
0.0
  0
LINE
  5
294
330
1F
100
AcDbEntity
  8
0
  6
Continuous
 62
     7
370
    15
100
AcDbLine
 10
-1913.8440099252
 20
-1623.7305310348
 30
0.0
 11
-2190.5389685895
 21
-1457.9762691711
 31
0.0
  0
LINE
  5
295
330
1F
100
AcDbEntity
  8
0
  6
Continuous
 62
     7
370
    15
100
AcDbLine
 10
-2193.144922655
 20
-1433.495752941
 30
0.0
 11
-2175.8256968069
 21
-1596.193781687
 31
0.0
  0
LINE
  5
296
330
1F
100
AcDbEntity
  8
0
  6
Continuous
 62
     7
370
    15
100
AcDbLine
 10
-2073.7382365572
 20
-1944.1385436841
 30
0.0
 11
-1863.7238576829
 21
-1736.9696254892
 31
0.0
  0
LINE
  5
297
330
1F
100
AcDbEntity
  8
0
  6
Continuous
 62
     7
370
    15
100
AcDbLine
 10
-2137.6172722736
 20
-1898.9928287759
 30
0.0
 11
-1907.9940199394
 21
-1672.4807154936
 31
0.0
  0
LINE
  5
298
330
1F
100
AcDbEntity
  8
0
  6
Continuous
 62
     7
370
    15
100
AcDbLine
 10
-2134.3573517458
 20
-1923.3948694618
 30
0.0
 11
-2156.0228525368
 21
-1761.2183908428
 31
0.0
  0
LINE
  5
299
330
1F
100
AcDbEntity
  8
0
  6
Continuous
 62
     7
370
    15
100
AcDbLine
 10
-1915.4264152745
 20
-1671.3844158018
 30
0.0
 11
-2138.6120871702
 21
-1891.546170683
 31
0.0
  0
LINE
  5
29A
330
1F
100
AcDbEntity
  8
0
  6
Continuous
 62
     7
370
    15
100
AcDbLine
 10
-1883.6387170508
 20
-1676.0731927296
 30
0.0
 11
-2045.50457528
 21
-1652.197513021
 31
0.0
  0
LINE
  5
29B
330
1F
100
AcDbEntity
  8
0
  6
Continuous
 62
     7
370
    15
100
AcDbLine
 10
-2102.2138224397
 20
-641.9055616764
 30
0.0
 11
-2101.2403983557
 21
-643.619626425
 31
0.0
  0
LINE
  5
29C
330
1F
100
AcDbEntity
  8
0
  6
Continuous
 62
     7
370
    15
100
AcDbLine
 10
-2135.6439970955
 20
-653.3571391192
 30
0.0
 11
-2175.4026090708
 21
-646.0546257719
 31
0.0
  0
LINE
  5
29D
330
1F
100
AcDbEntity
  8
0
  6
Continuous
 62
     7
370
    15
100
AcDbLine
 10
-2098.3877569763
 20
-639.7327241147
 30
0.0
 11
-2097.4143328923
 21
-641.4467888633
 31
0.0
  0
LINE
  5
29E
330
1F
100
AcDbEntity
  8
0
  6
Continuous
 62
     7
370
    15
100
AcDbLine
 10
-2084.4566464017
 20
-631.8211918571
 30
0.0
 11
-2116.1449330143
 21
-649.8170939339
 31
0.0
  0
LINE
  5
29F
330
1F
100
AcDbEntity
  8
0
  6
Continuous
 62
     7
370
    15
100
AcDbLine
 10
-2057.3319952036
 20
-579.0018617245
 30
0.0
 11
-2071.4275774806
 21
-616.8883829116
 31
0.0
  0
LINE
  5
2A0
330
1F
100
AcDbEntity
  8
0
  6
Continuous
 62
     7
370
    15
100
AcDbLine
 10
-2147.1764489693
 20
-653.2724147536
 30
0.0
 11
-2164.5927547731
 21
-650.0735403645
 31
0.0
  0
LINE
  5
2A1
330
1F
100
AcDbEntity
  8
0
  6
Continuous
 62
     7
370
    15
100
AcDbLine
 10
-2059.4180216676
 20
-590.3443975094
 30
0.0
 11
-2065.5926077314
 21
-606.9406317855
 31
0.0
  0
LINE
  5
2A2
330
1F
100
AcDbEntity
  8
0
  6
Continuous
 62
     7
370
    15
100
AcDbLine
 10
-2210.5814064076
 20
-608.6148983506
 30
0.0
 11
-2212.298662758
 21
-609.5826808866
 31
0.0
  0
LINE
  5
2A3
330
1F
100
AcDbEntity
  8
0
  6
Continuous
 62
     7
370
    15
100
AcDbLine
 10
-2221.9229949341
 20
-575.1472487
 30
0.0
 11
-2214.4897845331
 21
-535.4128642135
 31
0.0
  0
LINE
  5
2A4
330
1F
100
AcDbEntity
  8
0
  6
Continuous
 62
     7
370
    15
100
AcDbLine
 10
-2208.4211616795
 20
-612.4480879774
 30
0.0
 11
-2210.1384180298
 21
-613.4158705133
 31
0.0
  0
LINE
  5
2A5
330
1F
100
AcDbEntity
  8
0
  6
Continuous
 62
     7
370
    15
100
AcDbLine
 10
-2200.5554812659
 20
-626.4051383869
 30
0.0
 11
-2218.4470868212
 21
-594.6578479411
 31
0.0
  0
LINE
  5
2A6
330
1F
100
AcDbEntity
  8
0
  6
Continuous
 62
     7
370
    15
100
AcDbLine
 10
-2161.2731952124
 20
-648.6497926593
 30
0.0
 11
-2185.6655959789
 21
-639.4832397819
 31
0.0
  0
LINE
  5
2A7
330
1F
100
AcDbEntity
  8
0
  6
Continuous
 62
     7
370
    15
100
AcDbLine
 10
-2221.8003493612
 20
-563.6151377699
 30
0.0
 11
-2218.5442229771
 21
-546.2094448455
 31
0.0
  0
LINE
  5
2A8
330
1F
100
AcDbEntity
  8
0
  6
Continuous
 62
     7
370
    15
100
AcDbLine
 10
-2172.3939183385
 20
-646.6072357132
 30
0.0
 11
-2175.7370855137
 21
-645.3508887474
 31
0.0
  0
LINE
  5
2A9
330
1F
100
AcDbEntity
  8
0
  6
Continuous
 62
     7
370
    15
100
AcDbLine
 10
-1597.521495653
 20
-1049.8486886474
 30
0.0
 11
-1598.4949351366
 21
-1048.1346326444
 31
0.0
  0
LINE
  5
2AA
330
1F
100
AcDbEntity
  8
0
  6
Continuous
 62
     7
370
    15
100
AcDbLine
 10
-1638.5767118006
 20
-1110.5799198919
 30
0.0
 11
-1624.4814699075
 21
-1072.6932720676
 31
0.0
  0
LINE
  5
2AB
330
1F
100
AcDbEntity
  8
0
  6
Continuous
 62
     7
370
    15
100
AcDbLine
 10
-1593.6954497111
 20
-1047.6758167113
 30
0.0
 11
-1594.6688891947
 21
-1045.9617607083
 31
0.0
  0
LINE
  5
2AC
330
1F
100
AcDbEntity
  8
0
  6
Continuous
 62
     7
370
    15
100
AcDbLine
 10
-1611.4525351475
 20
-1057.7603460657
 30
0.0
 11
-1579.7644102165
 21
-1039.764159293
 31
0.0
  0
LINE
  5
2AD
330
1F
100
AcDbEntity
  8
0
  6
Continuous
 62
     7
370
    15
100
AcDbLine
 10
-1560.2653779409
 20
-1036.2239389227
 30
0.0
 11
-1520.5067003594
 21
-1043.526095067
 31
0.0
  0
LINE
  5
2AE
330
1F
100
AcDbEntity
  8
0
  6
Continuous
 62
     7
370
    15
100
AcDbLine
 10
-1636.4907872412
 20
-1099.2373653659
 30
0.0
 11
-1630.316350283
 21
-1082.6410756163
 31
0.0
  0
LINE
  5
2AF
330
1F
100
AcDbEntity
  8
0
  6
Continuous
 62
     7
370
    15
100
AcDbLine
 10
-1548.7329253064
 20
-1036.3085596774
 30
0.0
 11
-1531.3165907637
 21
-1039.5072775933
 31
0.0
  0
LINE
  5
2B0
330
1F
100
AcDbEntity
  8
0
  6
Continuous
 62
     7
370
    15
100
AcDbLine
 10
-1599.0948312327
 20
-1185.8280691101
 30
0.0
 11
-1600.1076694262
 21
-1187.5191430895
 31
0.0
  0
LINE
  5
2B1
330
1F
100
AcDbEntity
  8
0
  6
Continuous
 62
     7
370
    15
100
AcDbLine
 10
-1625.5190168761
 20
-1162.3658097021
 30
0.0
 11
-1638.7338754496
 21
-1124.1631731403
 31
0.0
  0
LINE
  5
2B2
330
1F
100
AcDbEntity
  8
0
  6
Continuous
 62
     7
370
    15
100
AcDbLine
 10
-1595.3200848273
 20
-1188.0888852404
 30
0.0
 11
-1596.3329230208
 21
-1189.7799592198
 31
0.0
  0
LINE
  5
2B3
330
1F
100
AcDbEntity
  8
0
  6
Continuous
 62
     7
370
    15
100
AcDbLine
 10
-1581.5758323916
 20
-1196.3207568068
 30
0.0
 11
-1612.8390836685
 21
-1177.5961975437
 31
0.0
  0
LINE
  5
2B4
330
1F
100
AcDbEntity
  8
0
  6
Continuous
 62
     7
370
    15
100
AcDbLine
 10
-1522.2469440204
 20
-1193.9309151962
 30
0.0
 11
-1562.1639328013
 21
-1200.3111921533
 31
0.0
  0
LINE
  5
2B5
330
1F
100
AcDbEntity
  8
0
  6
Continuous
 62
     7
370
    15
100
AcDbLine
 10
-1631.1221658989
 20
-1152.2856635985
 30
0.0
 11
-1636.9109499292
 21
-1135.5509546182
 31
0.0
  0
LINE
  5
2B6
330
1F
100
AcDbEntity
  8
0
  6
Continuous
 62
     7
370
    15
100
AcDbLine
 10
-1533.1469266717
 20
-1197.6985407936
 30
0.0
 11
-1550.6326096177
 21
-1200.493428469
 31
0.0
  0
LINE
  5
2B7
330
1F
100
AcDbEntity
  8
0
  6
Continuous
 62
     7
370
    15
100
AcDbLine
 10
-1052.4036316782
 20
-1663.476167052
 30
0.0
 11
-1054.37220138
 21
-1663.3746498664
 31
0.0
  0
LINE
  5
2B8
330
1F
100
AcDbEntity
  8
0
  6
Continuous
 62
     7
370
    15
100
AcDbLine
 10
-1023.2952129734
 20
-1730.7555337397
 30
0.0
 11
-1047.6497882821
 21
-1698.4921087987
 31
0.0
  0
LINE
  5
2B9
330
1F
100
AcDbEntity
  8
0
  6
Continuous
 62
     7
370
    15
100
AcDbLine
 10
-1043.8465071112
 20
-1624.7408119977
 30
0.0
 11
-1016.3023637107
 21
-1595.1537524662
 31
0.0
  0
LINE
  5
2BA
330
1F
100
AcDbEntity
  8
0
  6
Continuous
 62
     7
370
    15
100
AcDbLine
 10
-1053.2287155252
 20
-1679.4757739581
 30
0.0
 11
-1051.3519453077
 21
-1643.0823991001
 31
0.0
  0
LINE
  5
2BB
330
1F
100
AcDbEntity
  8
0
  6
Continuous
 62
     7
370
    15
100
AcDbLine
 10
-1052.1770291547
 20
-1659.0820060062
 30
0.0
 11
-1054.1455988565
 21
-1658.9804888207
 31
0.0
  0
LINE
  5
2BC
330
1F
100
AcDbEntity
  8
0
  6
Continuous
 62
     7
370
    15
100
AcDbLine
 10
-1037.5711551832
 20
-1615.0648323254
 30
0.0
 11
-1025.5054114177
 21
-1602.1041867939
 31
0.0
  0
LINE
  5
2BD
330
1F
100
AcDbEntity
  8
0
  6
Continuous
 62
     7
370
    15
100
AcDbLine
 10
-1031.7344893463
 20
-1722.8953022709
 30
0.0
 11
-1042.4030391326
 21
-1708.7622717869
 31
0.0
  0
LINE
  5
2BE
330
1F
100
AcDbEntity
  8
0
  6
Continuous
 62
     7
370
    15
100
AcDbLine
 10
-954.2708466644
 20
-1743.3497638193
 30
0.0
 11
-953.8773505525
 21
-1745.2812744249
 31
0.0
  0
LINE
  5
2BF
330
1F
100
AcDbEntity
  8
0
  6
Continuous
 62
     7
370
    15
100
AcDbLine
 10
-896.396767111
 20
-1698.3563850037
 30
0.0
 11
-921.5528290492
 21
-1729.9988639702
 31
0.0
  0
LINE
  5
2C0
330
1F
100
AcDbEntity
  8
0
  6
Continuous
 62
     7
370
    15
100
AcDbLine
 10
-958.5822859063
 20
-1744.2281098007
 30
0.0
 11
-958.1887897944
 21
-1746.1596204063
 31
0.0
  0
LINE
  5
2C1
330
1F
100
AcDbEntity
  8
0
  6
Continuous
 62
     7
370
    15
100
AcDbLine
 10
-993.9157287833
 20
-1744.7409625175
 30
0.0
 11
-1025.7966012656
 21
-1727.4418502782
 31
0.0
  0
LINE
  5
2C2
330
1F
100
AcDbEntity
  8
0
  6
Continuous
 62
     7
370
    15
100
AcDbLine
 10
-938.5724386289
 20
-1740.1516128449
 30
0.0
 11
-974.2806939418
 21
-1747.4262607751
 31
0.0
  0
LINE
  5
2C3
330
1F
100
AcDbEntity
  8
0
  6
Continuous
 62
     7
370
    15
100
AcDbLine
 10
-1004.8526257664
 20
-1741.0818767274
 30
0.0
 11
-1020.4166107841
 21
-1732.6365895459
 31
0.0
  0
LINE
  5
2C4
330
1F
100
AcDbEntity
  8
0
  6
Continuous
 62
     7
370
    15
100
AcDbLine
 10
-901.8994353965
 20
-1708.4917323673
 30
0.0
 11
-912.9190773248
 21
-1722.3527567515
 31
0.0
  0
LINE
  5
2C5
330
1F
100
AcDbEntity
  8
0
  6
Continuous
 62
     7
370
    15
100
AcDbLine
 10
-2089.3603662034
 20
-1607.1807292107
 30
0.0
 11
-2088.3473804035
 21
-1605.4897436464
 31
0.0
  0
LINE
  5
2C6
330
1F
100
AcDbEntity
  8
0
  6
Continuous
 62
     7
370
    15
100
AcDbLine
 10
-2062.9382286329
 20
-1630.645295042
 30
0.0
 11
-2051.0836223107
 21
-1664.9252837154
 31
0.0
  0
LINE
  5
2C7
330
1F
100
AcDbEntity
  8
0
  6
Continuous
 62
     7
370
    15
100
AcDbLine
 10
-2093.1349152525
 20
-1604.9195835993
 30
0.0
 11
-2092.1219294525
 21
-1603.2285980349
 31
0.0
  0
LINE
  5
2C8
330
1F
100
AcDbEntity
  8
0
  6
Continuous
 62
     7
370
    15
100
AcDbLine
 10
-2106.8784490928
 20
-1596.6865123568
 30
0.0
 11
-2075.6168323631
 21
-1615.4138004532
 31
0.0
  0
LINE
  5
2C9
330
1F
100
AcDbEntity
  8
0
  6
Continuous
 62
     7
370
    15
100
AcDbLine
 10
-2166.2075458423
 20
-1599.0711752623
 30
0.0
 11
-2126.2900002923
 21
-1592.6943826009
 31
0.0
  0
LINE
  5
2CA
330
1F
100
AcDbEntity
  8
0
  6
Continuous
 62
     7
370
    15
100
AcDbLine
 10
-2155.3072343643
 20
-1595.3045011161
 30
0.0
 11
-2137.8213075249
 21
-1592.5111397406
 31
0.0
  0
LINE
  5
2CB
330
1F
100
AcDbEntity
  8
0
  6
Continuous
 62
     7
370
    15
100
AcDbLine
 10
-2057.3359595066
 20
-1640.7259301944
 30
0.0
 11
-2051.5486362365
 21
-1657.461144402
 31
0.0
  0
LINE
  5
2CC
330
1F
100
AcDbEntity
  8
0
  6
Continuous
 62
     7
370
    15
100
AcDbLine
 10
-2074.6117686465
 20
-1730.0863842891
 30
0.0
 11
-2073.2274690714
 21
-1731.4896971894
 31
0.0
  0
LINE
  5
2CD
330
1F
100
AcDbEntity
  8
0
  6
Continuous
 62
     7
370
    15
100
AcDbLine
 10
-2050.6935679803
 20
-1660.7918469987
 30
0.0
 11
-2054.4913020606
 21
-1701.0367366525
 31
0.0
  0
LINE
  5
2CE
330
1F
100
AcDbEntity
  8
0
  6
Continuous
 62
     7
370
    15
100
AcDbLine
 10
-2107.0655879088
 20
-1752.8986995448
 30
0.0
 11
-2147.3585368612
 21
-1756.1471133274
 31
0.0
  0
LINE
  5
2CF
330
1F
100
AcDbEntity
  8
0
  6
Continuous
 62
     7
370
    15
100
AcDbLine
 10
-2063.2063026625
 20
-1718.8354496527
 30
0.0
 11
-2089.1496524849
 21
-1744.4272960104
 31
0.0
  0
LINE
  5
2D0
330
1F
100
AcDbEntity
  8
0
  6
Continuous
 62
     7
370
    15
100
AcDbLine
 10
-2077.7441865009
 20
-1733.176361374
 30
0.0
 11
-2076.3598869258
 21
-1734.5796742743
 31
0.0
  0
LINE
  5
2D1
330
1F
100
AcDbEntity
  8
0
  6
Continuous
 62
     7
370
    15
100
AcDbLine
 10
-2118.2261576596
 20
-1755.8049526785
 30
0.0
 11
-2135.8765303921
 21
-1757.2279240803
 31
0.0
  0
LINE
  5
2D2
330
1F
100
AcDbEntity
  8
0
  6
Continuous
 62
     7
370
    15
100
AcDbLine
 10
-2049.7694799609
 20
-1672.2875281779
 30
0.0
 11
-2051.4330817523
 21
-1689.9168484792
 31
0.0
  0
LINE
  5
2D3
330
1F
100
AcDbEntity
  8
0
  6
Continuous
 62
     7
370
    15
100
AcDbLine
 10
-756.7961436207
 20
455.6264010501
 30
0.0
 11
-1351.4253401443
 21
797.99893757
 31
0.0
  0
LINE
  5
2D4
330
1F
100
AcDbEntity
  8
0
  6
Continuous
 62
     7
370
    15
100
AcDbLine
 10
464.2380003014
 20
-940.7524264165
 30
0.0
 11
-317.9431982096
 21
72.3700768991
 31
0.0
  0
LINE
  5
2D5
330
1F
100
AcDbEntity
  8
0
  6
Continuous
 62
     7
370
    15
100
AcDbLine
 10
-896.6239138442
 20
-3418.5597442733
 30
0.0
 11
-481.9167491329
 21
-3334.0737174156
 31
0.0
  0
LINE
  5
2D6
330
1F
100
AcDbEntity
  8
0
  6
Continuous
 62
     7
370
    15
100
AcDbLine
 10
-2059.2924693403
 20
-3453.9406814571
 30
0.0
 11
-896.6239138442
 21
-3418.5597442733
 31
0.0
  0
LINE
  5
2D7
330
1F
100
AcDbEntity
  8
0
  6
Continuous
 62
     7
370
    15
100
AcDbLine
 10
-3633.9776465297
 20
-2165.767929798
 30
0.0
 11
-3570.310921652
 21
-2358.5984087992
 31
0.0
  0
LINE
  5
2D8
330
1F
100
AcDbEntity
  8
0
  6
Continuous
 62
     7
370
    15
100
AcDbLine
 10
-3902.0043519105
 20
-772.8262735849
 30
0.0
 11
-3685.4004418373
 21
-1963.872369967
 31
0.0
  0
LINE
  5
2D9
330
1F
100
AcDbEntity
  8
0
  6
Continuous
 62
     7
370
    15
100
AcDbLine
 10
-2205.3743101798
 20
1007.3846285909
 30
0.0
 11
-2422.6976412149
 21
995.7334123276
 31
0.0
  0
ARC
  5
2DA
330
1F
100
AcDbEntity
  8
0
  6
Continuous
 62
     7
370
    15
100
AcDbCircle
 10
-1914.1621614434
 20
-669.8956731077
 30
0.0
 40
35.79597472179165
100
AcDbArc
 50
299.592412553
 51
66.592412553
  0
ARC
  5
2DB
330
1F
100
AcDbEntity
  8
0
  6
Continuous
 62
     7
370
    15
100
AcDbCircle
 10
-2170.6824595585
 20
-815.5745550878
 30
0.0
 40
35.79597472179194
100
AcDbArc
 50
172.592412553
 51
299.592412553
  0
ARC
  5
2DC
330
1F
100
AcDbEntity
  8
0
  6
Continuous
 62
     7
370
    15
100
AcDbCircle
 10
-2180.1267463836
 20
-649.35240961
 30
0.0
 40
5.000000000000308
100
AcDbArc
 50
63.7726282775
 51
172.592412553
  0
ARC
  5
2DD
330
1F
100
AcDbEntity
  8
0
  6
Continuous
 62
     7
370
    15
100
AcDbCircle
 10
-2140.7945806313
 20
-569.5151956229
 30
0.0
 40
83.99999999999969
100
AcDbArc
 50
243.7726282775
 51
355.4121968284
  0
ARC
  5
2DE
330
1F
100
AcDbEntity
  8
0
  6
Continuous
 62
     7
370
    15
100
AcDbCircle
 10
-2052.0797430213
 20
-576.6340148951
 30
0.0
 40
5.000000000000109
100
AcDbArc
 50
66.5924125529
 51
175.4121968284
  0
ARC
  5
2DF
330
1F
100
AcDbEntity
  8
0
  6
Continuous
 62
     7
370
    15
100
AcDbCircle
 10
-2239.1897287026
 20
-796.573503998
 30
0.0
 40
35.79597472179181
100
AcDbArc
 50
209.4040089663
 51
336.4040089663
  0
ARC
  5
2E0
330
1F
100
AcDbEntity
  8
0
  6
Continuous
 62
     7
370
    15
100
AcDbCircle
 10
-2384.0243184327
 20
-539.5755631157
 30
0.0
 40
35.79597472179172
100
AcDbArc
 50
82.4040089663
 51
209.4040089663
  0
ARC
  5
2E1
330
1F
100
AcDbEntity
  8
0
  6
Continuous
 62
     7
370
    15
100
AcDbCircle
 10
-2217.7720163649
 20
-530.6779084801
 30
0.0
 40
5.000000000000028
100
AcDbArc
 50
333.5842246909
 51
82.4040089663
  0
ARC
  5
2E2
330
1F
100
AcDbEntity
  8
0
  6
Continuous
 62
     7
370
    15
100
AcDbCircle
 10
-2138.0645682729
 20
-570.2723868661
 30
0.0
 40
84.00000000000095
100
AcDbArc
 50
153.5842246909
 51
244.9733747787
  0
ARC
  5
2E3
330
1F
100
AcDbEntity
  8
0
  6
Continuous
 62
     7
370
    15
100
AcDbCircle
 10
-2195.1708818713
 20
-682.8062437591
 30
0.0
 40
6.999999999999583
100
AcDbArc
 50
30.3923187462
 51
315.7973218125
  0
ARC
  5
2E4
330
1F
100
AcDbEntity
  8
0
  6
Continuous
 62
     7
370
    15
100
AcDbCircle
 10
-1781.747362171
 20
-1019.6873947911
 30
0.0
 40
35.79597472179186
100
AcDbArc
 50
119.5929273146
 51
246.5929273146
  0
ARC
  5
2E5
330
1F
100
AcDbEntity
  8
0
  6
Continuous
 62
     7
370
    15
100
AcDbCircle
 10
-1525.2283728871
 20
-874.0062081651
 30
0.0
 40
35.7959747217917
100
AcDbArc
 50
352.5929273146
 51
119.5929273146
  0
ARC
  5
2E6
330
1F
100
AcDbEntity
  8
0
  6
Continuous
 62
     7
370
    15
100
AcDbCircle
 10
-1515.7825926749
 20
-1040.228268786
 30
0.0
 40
4.999999999999957
100
AcDbArc
 50
243.7731430392
 51
352.5929273146
  0
ARC
  5
2E7
330
1F
100
AcDbEntity
  8
0
  6
Continuous
 62
     7
370
    15
100
AcDbCircle
 10
-1555.1140411453
 20
-1120.0658361413
 30
0.0
 40
84.00000000000024
100
AcDbArc
 50
63.7731430392
 51
175.4127115901
  0
ARC
  5
2E8
330
1F
100
AcDbEntity
  8
0
  6
Continuous
 62
     7
370
    15
100
AcDbCircle
 10
-1643.8289427093
 20
-1112.9478139089
 30
0.0
 40
4.999999999999926
100
AcDbArc
 50
246.5929273146
 51
355.4127115901
  0
ARC
  5
2E9
330
1F
100
AcDbEntity
  8
0
  6
Continuous
 62
     7
370
    15
100
AcDbCircle
 10
-1530.889652594
 20
-1363.296170887
 30
0.0
 40
35.79597472179175
100
AcDbArc
 50
239.0812618782
 51
6.0812618782
  0
ARC
  5
2EA
330
1F
100
AcDbEntity
  8
0
  6
Continuous
 62
     7
370
    15
100
AcDbCircle
 10
-1783.9692411387
 20
-1211.7187257903
 30
0.0
 40
35.79597472179181
100
AcDbArc
 50
112.0812618782
 51
239.0812618782
  0
ARC
  5
2EB
330
1F
100
AcDbEntity
  8
0
  6
Continuous
 62
     7
370
    15
100
AcDbCircle
 10
-1643.9299126523
 20
-1121.6743885007
 30
0.0
 40
4.99999999999795
100
AcDbArc
 50
3.2614776027
 51
60.1128861541
  0
ARC
  5
2EC
330
1F
100
AcDbEntity
  8
0
  6
Continuous
 62
     7
370
    15
100
AcDbCircle
 10
-1555.0740665116
 20
-1116.6109305289
 30
0.0
 40
84.00000000000004
100
AcDbArc
 50
183.2614776028
 51
294.9010461536
  0
ARC
  5
2ED
330
1F
100
AcDbEntity
  8
0
  6
Continuous
 62
     7
370
    15
100
AcDbCircle
 10
-1517.6004051495
 20
-1197.3371635893
 30
0.0
 40
5.000000000000199
100
AcDbArc
 50
6.0812618782
 51
114.9010461536
  0
ARC
  5
2EE
330
1F
100
AcDbEntity
  8
0
  6
Continuous
 62
     7
370
    15
100
AcDbCircle
 10
-1176.9351564403
 20
-1802.5472743382
 30
0.0
 40
35.79597472179167
100
AcDbArc
 50
177.0479285448
 51
304.0479285448
  0
ARC
  5
2EF
330
1F
100
AcDbEntity
  8
0
  6
Continuous
 62
     7
370
    15
100
AcDbCircle
 10
-1161.7424872504
 20
-1507.9387496773
 30
0.0
 40
35.79597472179211
100
AcDbArc
 50
50.0479285448
 51
177.0479285448
  0
ARC
  5
2F0
330
1F
100
AcDbEntity
  8
0
  6
Continuous
 62
     7
370
    15
100
AcDbCircle
 10
-1016.5409401231
 20
-1589.3973705392
 30
0.0
 40
4.99999999999974
100
AcDbArc
 50
301.2281442694
 51
50.0479285448
  0
ARC
  5
2F1
330
1F
100
AcDbEntity
  8
0
  6
Continuous
 62
     7
370
    15
100
AcDbCircle
 10
-970.3991472904
 20
-1665.5021335582
 30
0.0
 40
84.00000000000055
100
AcDbArc
 50
121.2281442694
 51
232.8677128203
  0
ARC
  5
2F2
330
1F
100
AcDbEntity
  8
0
  6
Continuous
 62
     7
370
    15
100
AcDbCircle
 10
-1024.1246509528
 20
-1736.4568392246
 30
0.0
 40
5.000000000000099
100
AcDbArc
 50
304.0479285448
 51
52.8677128203
  0
ARC
  5
2F3
330
1F
100
AcDbEntity
  8
0
  6
Continuous
 62
     7
370
    15
100
AcDbCircle
 10
-788.4986179229
 20
-1829.1893917278
 30
0.0
 40
35.79597472179169
100
AcDbArc
 50
281.5149775124
 51
48.5149775124
  0
ARC
  5
2F4
330
1F
100
AcDbEntity
  8
0
  6
Continuous
 62
     7
370
    15
100
AcDbCircle
 10
-1077.5610216437
 20
-1888.0784973002
 30
0.0
 40
35.7959747217916
100
AcDbArc
 50
154.5149775124
 51
281.5149775124
  0
ARC
  5
2F5
330
1F
100
AcDbEntity
  8
0
  6
Continuous
 62
     7
370
    15
100
AcDbCircle
 10
-972.7957413936
 20
-1663.4393873011
 30
0.0
 40
84.00000000000031
100
AcDbArc
 50
232.7581251504
 51
337.3347617878
  0
ARC
  5
2F6
330
1F
100
AcDbEntity
  8
0
  6
Continuous
 62
     7
370
    15
100
AcDbCircle
 10
-890.6690287835
 20
-1697.7352044782
 30
0.0
 40
4.999999999999913
100
AcDbArc
 50
48.5149775124
 51
157.3347617878
  0
ARC
  5
2F7
330
1F
100
AcDbEntity
  8
0
  6
Continuous
 62
     7
370
    15
100
AcDbCircle
 10
-2133.3871725778
 20
-1676.3940250467
 30
0.0
 40
84.00000000000102
100
AcDbArc
 50
10.319408286
 51
114.8960449234
  0
ARC
  5
2F8
330
1F
100
AcDbEntity
  8
0
  6
Continuous
 62
     7
370
    15
100
AcDbCircle
 10
-2170.8537873711
 20
-1595.6645212953
 30
0.0
 40
4.999999999999451
100
AcDbArc
 50
186.076260648
 51
294.8960449234
  0
ARC
  5
2F9
330
1F
100
AcDbEntity
  8
0
  6
Continuous
 62
     7
370
    15
100
AcDbCircle
 10
-2157.5500537584
 20
-1429.7066746209
 30
0.0
 40
35.79597472179245
100
AcDbArc
 50
59.076260648
 51
186.076260648
  0
ARC
  5
2FA
330
1F
100
AcDbEntity
  8
0
  6
Continuous
 62
     7
370
    15
100
AcDbCircle
 10
-1904.4836970598
 20
-1581.3062099344
 30
0.0
 40
35.79597472179211
100
AcDbArc
 50
292.076260648
 51
59.076260648
  0
ARC
  5
2FB
330
1F
100
AcDbEntity
  8
0
  6
Continuous
 62
     7
370
    15
100
AcDbCircle
 10
-1888.8622080519
 20
-1711.4860004133
 30
0.0
 40
35.79597472179142
100
AcDbArc
 50
314.6092116805
 51
81.6092116805
  0
ARC
  5
2FC
330
1F
100
AcDbEntity
  8
0
  6
Continuous
 62
     7
370
    15
100
AcDbCircle
 10
-2098.8765869261
 20
-1918.6549186082
 30
0.0
 40
35.79597472179199
100
AcDbArc
 50
187.6092116805
 51
314.6092116805
  0
ARC
  5
2FD
330
1F
100
AcDbEntity
  8
0
  6
Continuous
 62
     7
370
    15
100
AcDbCircle
 10
-2151.0668812167
 20
-1760.5563120908
 30
0.0
 40
5.000000000000787
100
AcDbArc
 50
78.789427405
 51
187.6092116805
  0
ARC
  5
2FE
330
1F
100
AcDbEntity
  8
0
  6
Continuous
 62
     7
370
    15
100
AcDbCircle
 10
-2133.7639141567
 20
-1673.254494636
 30
0.0
 40
84.00000000000058
100
AcDbArc
 50
258.789427405
 51
10.4289959559
  0
ARC
  5
2FF
330
1F
100
AcDbEntity
  8
0
  6
Continuous
 62
     7
370
    15
100
AcDbCircle
 10
-2046.2341951662
 20
-1657.1439920538
 30
0.0
 40
5.000000000000035
100
AcDbArc
 50
81.6092116805
 51
190.4289959559
  0
ARC
  5
300
330
1F
100
AcDbEntity
  8
0
  6
Continuous
 62
     7
370
    15
100
AcDbCircle
 10
-1505.25967563
 20
-844.2975741316
 30
0.0
 40
1499.999999999995
100
AcDbArc
 50
37.6699344663
 51
60.0677448291
  0
ARC
  5
301
330
1F
100
AcDbEntity
  8
0
  6
Continuous
 62
     7
370
    15
100
AcDbCircle
 10
-788.4986179229
 20
-1829.1893917278
 30
0.0
 40
1535.795974721797
100
AcDbArc
 50
281.5149775124
 51
35.3441488955
  0
ARC
  5
302
330
1F
100
AcDbEntity
  8
0
  6
Continuous
 62
     7
370
    15
100
AcDbCircle
 10
-2098.8765869262
 20
-1918.6549186082
 30
0.0
 40
1535.79597472178
100
AcDbArc
 50
196.6461152562
 51
271.4769240822
  0
ARC
  5
303
330
1F
100
AcDbEntity
  8
0
  6
Continuous
 62
     7
370
    15
100
AcDbCircle
 10
-2384.0243184327
 20
-539.5755631157
 30
0.0
 40
1535.795974721799
100
AcDbArc
 50
91.4429341218
 51
188.7356652602
  0
ARC
  5
304
330
1F
100
AcDbEntity
  8
0
  6
Continuous
 62
     7
370
    15
100
AcDbCircle
 10
-2139.8069271941
 20
-571.254316288
 30
0.0
 40
1579.999999999975
100
AcDbArc
 50
60.0677448291
 51
92.3783629167
  0
ARC
  5
305
330
1F
100
AcDbEntity
  8
0
  6
Continuous
 62
     7
370
    15
100
AcDbCircle
 10
-2209.6064979761
 20
-1695.4841525221
 30
0.0
 40
1500.00000000021
100
AcDbArc
 50
190.3071782171
 51
198.2716425881
  0
ENDSEC
  0
SECTION
  2
OBJECTS
  0
DICTIONARY
  5
C
330
0
100
AcDbDictionary
281
     1
  3
ACAD_GROUP
350
D
  3
ACAD_LAYOUT
350
1A
  3
ACAD_MLINESTYLE
350
17
  3
ACAD_PLOTSETTINGS
350
19
  3
ACAD_PLOTSTYLENAME
350
E
  3
ACAD_SCALELIST
350
47
  0
DICTIONARY
  5
D
102
{ACAD_REACTORS
330
C
102
}
330
C
100
AcDbDictionary
281
     1
  0
DICTIONARY
  5
1A
102
{ACAD_REACTORS
330
C
102
}
330
C
100
AcDbDictionary
281
     1
  3
Layout1
350
1E
  3
Layout2
350
26
  3
Model
350
22
  0
DICTIONARY
  5
17
102
{ACAD_REACTORS
330
C
102
}
330
C
100
AcDbDictionary
281
     1
  3
Standard
350
18
  0
DICTIONARY
  5
19
102
{ACAD_REACTORS
330
C
102
}
330
C
100
AcDbDictionary
281
     1
  0
ACDBDICTIONARYWDFLT
  5
E
102
{ACAD_REACTORS
330
C
102
}
330
C
100
AcDbDictionary
281
     1
  3
Normal
350
F
100
AcDbDictionaryWithDefault
340
F
  0
DICTIONARY
  5
47
102
{ACAD_REACTORS
330
C
102
}
330
C
100
AcDbDictionary
281
     1
  3
A0
350
48
  3
A1
350
49
  3
A2
350
4A
  3
A3
350
4B
  3
A4
350
4C
  3
A5
350
4D
  3
A6
350
4E
  3
A7
350
4F
  3
A8
350
50
  3
A9
350
51
  3
B0
350
52
  3
B1
350
53
  3
B2
350
54
  3
B3
350
55
  3
B4
350
56
  3
B5
350
57
  3
B6
350
58
  3
B7
350
59
  3
B8
350
5A
  3
B9
350
5B
  3
C0
350
5C
  3
C1
350
5D
  3
C2
350
5E
  3
C3
350
5F
  3
C4
350
60
  3
C5
350
61
  3
C6
350
62
  3
C7
350
63
  3
C8
350
64
  3
C9
350
65
  3
D0
350
66
  3
D1
350
67
  3
D2
350
68
  0
LAYOUT
  5
1E
102
{ACAD_REACTORS
330
1A
102
}
330
1A
100
AcDbPlotSettings
  1

  2
none_device
  4

  6

 40
0.0
 41
0.0
 42
0.0
 43
0.0
 44
0.0
 45
0.0
 46
0.0
 47
0.0
 48
0.0
 49
0.0
140
0.0
141
0.0
142
1.0
143
1.0
 70
   688
 72
     1
 73
     0
 74
     5
  7

 75
    16
147
1.0
148
0.0
149
0.0
100
AcDbLayout
  1
Layout1
 70
     1
 71
     1
 10
0.0
 20
0.0
 11
420.0
 21
297.0
 12
0.0
 22
0.0
 32
0.0
 14
1.0000000000E+20
 24
1.0000000000E+20
 34
1.0000000000E+20
 15
-1.0000000000E+20
 25
-1.0000000000E+20
 35
-1.0000000000E+20
146
0.0
 13
0.0
 23
0.0
 33
0.0
 16
1.0
 26
0.0
 36
0.0
 17
0.0
 27
1.0
 37
0.0
 76
     0
330
1B
  0
LAYOUT
  5
26
102
{ACAD_REACTORS
330
1A
102
}
330
1A
100
AcDbPlotSettings
  1

  2
none_device
  4

  6

 40
0.0
 41
0.0
 42
0.0
 43
0.0
 44
0.0
 45
0.0
 46
0.0
 47
0.0
 48
0.0
 49
0.0
140
0.0
141
0.0
142
1.0
143
1.0
 70
   688
 72
     1
 73
     0
 74
     5
  7

 75
    16
147
1.0
148
0.0
149
0.0
100
AcDbLayout
  1
Layout2
 70
     1
 71
     2
 10
0.0
 20
0.0
 11
0.0
 21
0.0
 12
0.0
 22
0.0
 32
0.0
 14
0.0
 24
0.0
 34
0.0
 15
0.0
 25
0.0
 35
0.0
146
0.0
 13
0.0
 23
0.0
 33
0.0
 16
1.0
 26
0.0
 36
0.0
 17
0.0
 27
1.0
 37
0.0
 76
     0
330
23
  0
LAYOUT
  5
22
102
{ACAD_REACTORS
330
1A
102
}
330
1A
100
AcDbPlotSettings
  1

  2
none_device
  4
ANSI_A_(11.00_x_8.50_Inches)
  6

 40
6.35
 41
19.05
 42
6.35000508
 43
19.05000254
 44
279.4
 45
215.9
 46
209.3155317172
 47
147.4620033589
 48
0.0
 49
0.0
140
0.0
141
0.0
142
0.00188542
143
1.0
 70
  1696
 72
     0
 73
     0
 74
     0
  7

 75
     0
147
0.0179189148
148
-1300.4909072572
149
0.0
100
AcDbLayout
  1
Model
 70
     1
 71
     0
 10
0.0
 20
0.0
 11
420.0
 21
297.0
 12
0.0
 22
0.0
 32
0.0
 14
-3919.8202931545
 24
-3454.45089333
 34
0.0
 15
747.2973567989
 25
1008.745683712
 35
0.0
146
0.0
 13
0.0
 23
0.0
 33
0.0
 16
1.0
 26
0.0
 36
0.0
 17
0.0
 27
1.0
 37
0.0
 76
     0
330
1F
331
29
  0
MLINESTYLE
  5
18
102
{ACAD_REACTORS
330
17
102
}
330
17
100
AcDbMlineStyle
  2
Standard
 70
     0
  3

 62
   256
 51
90.0
 52
90.0
 71
     2
 49
0.5
 62
   256
  6
BYLAYER
 49
-0.5
 62
   256
  6
BYLAYER
  0
ACDBPLACEHOLDER
  5
F
102
{ACAD_REACTORS
330
E
102
}
330
E
  0
SCALE
  5
48
102
{ACAD_REACTORS
330
47
102
}
330
47
100
AcDbScale
 70
     0
300
1:1
140
1.0
141
1.0
290
     1
  0
SCALE
  5
49
102
{ACAD_REACTORS
330
47
102
}
330
47
100
AcDbScale
 70
     0
300
1:2
140
1.0
141
2.0
290
     0
  0
SCALE
  5
4A
102
{ACAD_REACTORS
330
47
102
}
330
47
100
AcDbScale
 70
     0
300
1:4
140
1.0
141
4.0
290
     0
  0
SCALE
  5
4B
102
{ACAD_REACTORS
330
47
102
}
330
47
100
AcDbScale
 70
     0
300
1:5
140
1.0
141
5.0
290
     0
  0
SCALE
  5
4C
102
{ACAD_REACTORS
330
47
102
}
330
47
100
AcDbScale
 70
     0
300
1:8
140
1.0
141
8.0
290
     0
  0
SCALE
  5
4D
102
{ACAD_REACTORS
330
47
102
}
330
47
100
AcDbScale
 70
     0
300
1:10
140
1.0
141
10.0
290
     0
  0
SCALE
  5
4E
102
{ACAD_REACTORS
330
47
102
}
330
47
100
AcDbScale
 70
     0
300
1:16
140
1.0
141
16.0
290
     0
  0
SCALE
  5
4F
102
{ACAD_REACTORS
330
47
102
}
330
47
100
AcDbScale
 70
     0
300
1:20
140
1.0
141
20.0
290
     0
  0
SCALE
  5
50
102
{ACAD_REACTORS
330
47
102
}
330
47
100
AcDbScale
 70
     0
300
1:30
140
1.0
141
30.0
290
     0
  0
SCALE
  5
51
102
{ACAD_REACTORS
330
47
102
}
330
47
100
AcDbScale
 70
     0
300
1:40
140
1.0
141
40.0
290
     0
  0
SCALE
  5
52
102
{ACAD_REACTORS
330
47
102
}
330
47
100
AcDbScale
 70
     0
300
1:50
140
1.0
141
50.0
290
     0
  0
SCALE
  5
53
102
{ACAD_REACTORS
330
47
102
}
330
47
100
AcDbScale
 70
     0
300
1:100
140
1.0
141
100.0
290
     0
  0
SCALE
  5
54
102
{ACAD_REACTORS
330
47
102
}
330
47
100
AcDbScale
 70
     0
300
2:1
140
2.0
141
1.0
290
     0
  0
SCALE
  5
55
102
{ACAD_REACTORS
330
47
102
}
330
47
100
AcDbScale
 70
     0
300
4:1
140
4.0
141
1.0
290
     0
  0
SCALE
  5
56
102
{ACAD_REACTORS
330
47
102
}
330
47
100
AcDbScale
 70
     0
300
8:1
140
8.0
141
1.0
290
     0
  0
SCALE
  5
57
102
{ACAD_REACTORS
330
47
102
}
330
47
100
AcDbScale
 70
     0
300
10:1
140
10.0
141
1.0
290
     0
  0
SCALE
  5
58
102
{ACAD_REACTORS
330
47
102
}
330
47
100
AcDbScale
 70
     0
300
100:1
140
100.0
141
1.0
290
     0
  0
SCALE
  5
59
102
{ACAD_REACTORS
330
47
102
}
330
47
100
AcDbScale
 70
     0
300
1/128" = 1'-0"
140
0.0078125
141
12.0
290
     0
  0
SCALE
  5
5A
102
{ACAD_REACTORS
330
47
102
}
330
47
100
AcDbScale
 70
     0
300
1/64" = 1'-0"
140
0.015625
141
12.0
290
     0
  0
SCALE
  5
5B
102
{ACAD_REACTORS
330
47
102
}
330
47
100
AcDbScale
 70
     0
300
1/32" = 1'-0"
140
0.03125
141
12.0
290
     0
  0
SCALE
  5
5C
102
{ACAD_REACTORS
330
47
102
}
330
47
100
AcDbScale
 70
     0
300
1/16" = 1'-0"
140
0.0625
141
12.0
290
     0
  0
SCALE
  5
5D
102
{ACAD_REACTORS
330
47
102
}
330
47
100
AcDbScale
 70
     0
300
3/32" = 1'-0"
140
0.09375
141
12.0
290
     0
  0
SCALE
  5
5E
102
{ACAD_REACTORS
330
47
102
}
330
47
100
AcDbScale
 70
     0
300
1/8" = 1'-0"
140
0.125
141
12.0
290
     0
  0
SCALE
  5
5F
102
{ACAD_REACTORS
330
47
102
}
330
47
100
AcDbScale
 70
     0
300
3/16" = 1'-0"
140
0.1875
141
12.0
290
     0
  0
SCALE
  5
60
102
{ACAD_REACTORS
330
47
102
}
330
47
100
AcDbScale
 70
     0
300
1/4" = 1'-0"
140
0.25
141
12.0
290
     0
  0
SCALE
  5
61
102
{ACAD_REACTORS
330
47
102
}
330
47
100
AcDbScale
 70
     0
300
3/8" = 1'-0"
140
0.375
141
12.0
290
     0
  0
SCALE
  5
62
102
{ACAD_REACTORS
330
47
102
}
330
47
100
AcDbScale
 70
     0
300
1/2" = 1'-0"
140
0.5
141
12.0
290
     0
  0
SCALE
  5
63
102
{ACAD_REACTORS
330
47
102
}
330
47
100
AcDbScale
 70
     0
300
3/4" = 1'-0"
140
0.75
141
12.0
290
     0
  0
SCALE
  5
64
102
{ACAD_REACTORS
330
47
102
}
330
47
100
AcDbScale
 70
     0
300
1" = 1'-0"
140
1.0
141
12.0
290
     0
  0
SCALE
  5
65
102
{ACAD_REACTORS
330
47
102
}
330
47
100
AcDbScale
 70
     0
300
1-1/2" = 1'-0"
140
1.5
141
12.0
290
     0
  0
SCALE
  5
66
102
{ACAD_REACTORS
330
47
102
}
330
47
100
AcDbScale
 70
     0
300
3" = 1'-0"
140
3.0
141
12.0
290
     0
  0
SCALE
  5
67
102
{ACAD_REACTORS
330
47
102
}
330
47
100
AcDbScale
 70
     0
300
6" = 1'-0"
140
6.0
141
12.0
290
     0
  0
SCALE
  5
68
102
{ACAD_REACTORS
330
47
102
}
330
47
100
AcDbScale
 70
     0
300
1'-0" = 1'-0"
140
12.0
141
12.0
290
     0
  0
ENDSEC
  0
EOF
