  0
SECTION
  2
HEADER
  9
$ACADVER
  1
AC1015
  9
$ACADMAINTVER
 70
     6
  9
$DWGCODEPAGE
  3
ANSI_1251
  9
$INSBASE
 10
0.0
 20
0.0
 30
0.0
  9
$EXTMIN
 10
-2092.0
 20
-1550.0
 30
0.0
  9
$EXTMAX
 10
2092.0
 20
1550.0
 30
0.0
  9
$LIMMIN
 10
0.0
 20
0.0
  9
$LIMMAX
 10
420.0
 20
297.0
  9
$ORTHOMODE
 70
     0
  9
$REGENMODE
 70
     1
  9
$FILLMODE
 70
     1
  9
$QTEXTMODE
 70
     0
  9
$MIRRTEXT
 70
     1
  9
$LTSCALE
 40
1.0
  9
$ATTMODE
 70
     1
  9
$TEXTSIZE
 40
3.0
  9
$TRACEWID
 40
1.0
  9
$TEXTSTYLE
  7
Standard
  9
$CLAYER
  8
0
  9
$CELTYPE
  6
ByLayer
  9
$CECOLOR
 62
   256
  9
$CELTSCALE
 40
1.0
  9
$DISPSILH
 70
     0
  9
$DIMSCALE
 40
1.0
  9
$DIMASZ
 40
3.0
  9
$DIMEXO
 40
0.0
  9
$DIMDLI
 40
3.75
  9
$DIMRND
 40
0.0
  9
$DIMDLE
 40
0.0
  9
$DIMEXE
 40
2.0
  9
$DIMTP
 40
0.0
  9
$DIMTM
 40
0.0
  9
$DIMTXT
 40
3.0
  9
$DIMCEN
 40
2.5
  9
$DIMTSZ
 40
0.0
  9
$DIMTOL
 70
     0
  9
$DIMLIM
 70
     0
  9
$DIMTIH
 70
     1
  9
$DIMTOH
 70
     1
  9
$DIMSE1
 70
     0
  9
$DIMSE2
 70
     0
  9
$DIMTAD
 70
     1
  9
$DIMZIN
 70
     0
  9
$DIMBLK
  1

  9
$DIMASO
 70
     1
  9
$DIMSHO
 70
     1
  9
$DIMPOST
  1

  9
$DIMAPOST
  1

  9
$DIMALT
 70
     0
  9
$DIMALTD
 70
     3
  9
$DIMALTF
 40
0.0393700787
  9
$DIMLFAC
 40
1.0
  9
$DIMTOFL
 70
     1
  9
$DIMTVP
 40
0.0
  9
$DIMTIX
 70
     0
  9
$DIMSOXD
 70
     0
  9
$DIMSAH
 70
     0
  9
$DIMBLK1
  1

  9
$DIMBLK2
  1

  9
$DIMSTYLE
  2
ISO-25
  9
$DIMCLRD
 70
     0
  9
$DIMCLRE
 70
     0
  9
$DIMCLRT
 70
     0
  9
$DIMTFAC
 40
1.0
  9
$DIMGAP
 40
2.0
  9
$DIMJUST
 70
     0
  9
$DIMSD1
 70
     0
  9
$DIMSD2
 70
     0
  9
$DIMTOLJ
 70
     0
  9
$DIMTZIN
 70
     0
  9
$DIMALTZ
 70
     0
  9
$DIMALTTZ
 70
     0
  9
$DIMUPT
 70
     0
  9
$DIMDEC
 70
     2
  9
$DIMTDEC
 70
     2
  9
$DIMALTU
 70
     2
  9
$DIMALTTD
 70
     3
  9
$DIMTXSTY
  7
Standard
  9
$DIMAUNIT
 70
     0
  9
$DIMADEC
 70
     2
  9
$DIMALTRND
 40
0.0
  9
$DIMAZIN
 70
     0
  9
$DIMDSEP
 70
    44
  9
$DIMATFIT
 70
     3
  9
$DIMFRAC
 70
     0
  9
$DIMLDRBLK
  1

  9
$DIMLUNIT
 70
     2
  9
$DIMLWD
 70
    -2
  9
$DIMLWE
 70
    -2
  9
$DIMTMOVE
 70
     0
  9
$LUNITS
 70
     2
  9
$LUPREC
 70
     2
  9
$SKETCHINC
 40
1.0
  9
$FILLETRAD
 40
10.0
  9
$AUNITS
 70
     1
  9
$AUPREC
 70
     2
  9
$MENU
  1
.
  9
$ELEVATION
 40
0.0
  9
$PELEVATION
 40
0.0
  9
$THICKNESS
 40
0.0
  9
$LIMCHECK
 70
     0
  9
$CHAMFERA
 40
0.0
  9
$CHAMFERB
 40
0.0
  9
$CHAMFERC
 40
0.0
  9
$CHAMFERD
 40
0.0
  9
$SKPOLY
 70
     0
  9
$TDCREATE
 40
2459296.680988437
  9
$TDUCREATE
 40
2459296.555988437
  9
$TDUPDATE
 40
2459296.681029063
  9
$TDUUPDATE
 40
2459296.556029063
  9
$TDINDWG
 40
0.0000000116
  9
$TDUSRTIMER
 40
0.0000000116
  9
$USRTIMER
 70
     1
  9
$ANGBASE
 50
0.0
  9
$ANGDIR
 70
     0
  9
$PDMODE
 70
     0
  9
$PDSIZE
 40
-1.0
  9
$PLINEWID
 40
0.0
  9
$SPLFRAME
 70
     0
  9
$SPLINETYPE
 70
     6
  9
$SPLINESEGS
 70
     8
  9
$HANDSEED
  5
204
  9
$SURFTAB1
 70
     6
  9
$SURFTAB2
 70
     6
  9
$SURFTYPE
 70
     6
  9
$SURFU
 70
     6
  9
$SURFV
 70
     6
  9
$UCSBASE
  2

  9
$UCSNAME
  2

  9
$UCSORG
 10
0.0
 20
0.0
 30
0.0
  9
$UCSXDIR
 10
1.0
 20
0.0
 30
0.0
  9
$UCSYDIR
 10
0.0
 20
1.0
 30
0.0
  9
$UCSORTHOREF
  2

  9
$UCSORTHOVIEW
 70
     0
  9
$UCSORGTOP
 10
0.0
 20
0.0
 30
0.0
  9
$UCSORGBOTTOM
 10
0.0
 20
0.0
 30
0.0
  9
$UCSORGLEFT
 10
0.0
 20
0.0
 30
0.0
  9
$UCSORGRIGHT
 10
0.0
 20
0.0
 30
0.0
  9
$UCSORGFRONT
 10
0.0
 20
0.0
 30
0.0
  9
$UCSORGBACK
 10
0.0
 20
0.0
 30
0.0
  9
$PUCSBASE
  2

  9
$PUCSNAME
  2

  9
$PUCSORG
 10
0.0
 20
0.0
 30
0.0
  9
$PUCSXDIR
 10
1.0
 20
0.0
 30
0.0
  9
$PUCSYDIR
 10
0.0
 20
1.0
 30
0.0
  9
$PUCSORTHOREF
  2

  9
$PUCSORTHOVIEW
 70
     0
  9
$PUCSORGTOP
 10
0.0
 20
0.0
 30
0.0
  9
$PUCSORGBOTTOM
 10
0.0
 20
0.0
 30
0.0
  9
$PUCSORGLEFT
 10
0.0
 20
0.0
 30
0.0
  9
$PUCSORGRIGHT
 10
0.0
 20
0.0
 30
0.0
  9
$PUCSORGFRONT
 10
0.0
 20
0.0
 30
0.0
  9
$PUCSORGBACK
 10
0.0
 20
0.0
 30
0.0
  9
$USERI1
 70
     0
  9
$USERI2
 70
     0
  9
$USERI3
 70
     0
  9
$USERI4
 70
     0
  9
$USERI5
 70
     0
  9
$USERR1
 40
0.0
  9
$USERR2
 40
0.0
  9
$USERR3
 40
0.0
  9
$USERR4
 40
0.0
  9
$USERR5
 40
0.0
  9
$WORLDVIEW
 70
     1
  9
$SHADEDGE
 70
     3
  9
$SHADEDIF
 70
    70
  9
$TILEMODE
 70
     1
  9
$MAXACTVP
 70
    64
  9
$PINSBASE
 10
0.0
 20
0.0
 30
0.0
  9
$PLIMCHECK
 70
     0
  9
$PEXTMIN
 10
1.0000000000E+20
 20
1.0000000000E+20
 30
1.0000000000E+20
  9
$PEXTMAX
 10
-1.0000000000E+20
 20
-1.0000000000E+20
 30
-1.0000000000E+20
  9
$PLIMMIN
 10
0.0
 20
0.0
  9
$PLIMMAX
 10
420.0
 20
297.0
  9
$UNITMODE
 70
     0
  9
$VISRETAIN
 70
     1
  9
$PLINEGEN
 70
     0
  9
$PSLTSCALE
 70
     1
  9
$TREEDEPTH
 70
  3020
  9
$CMLSTYLE
  2
Standard
  9
$CMLJUST
 70
     0
  9
$CMLSCALE
 40
20.0
  9
$PROXYGRAPHICS
 70
     1
  9
$MEASUREMENT
 70
     1
  9
$CELWEIGHT
370
    -1
  9
$ENDCAPS
280
     0
  9
$JOINSTYLE
280
     0
  9
$LWDISPLAY
290
     1
  9
$INSUNITS
 70
     4
  9
$HYPERLINKBASE
  1

  9
$STYLESHEET
  1

  9
$XEDIT
290
     1
  9
$CEPSNTYPE
380
     0
  9
$PSTYLEMODE
290
     1
  9
$FINGERPRINTGUID
  2
{F760C5F0-FE66-4433-9FD7-38A57E64EF9F}
  9
$VERSIONGUID
  2
{FAEB1C32-E019-11D5-929B-00C0DF256EC4}
  9
$EXTNAMES
290
     1
  9
$PSVPSCALE
 40
0.0
  9
$OLESTARTUP
290
     0
  0
ENDSEC
  0
SECTION
  2
CLASSES
  0
CLASS
  1
ACDBDICTIONARYWDFLT
  2
AcDbDictionaryWithDefault
  3
ObjectDBX Classes
 90
        0
280
     0
281
     0
  0
CLASS
  1
VISUALSTYLE
  2
AcDbVisualStyle
  3
ObjectDBX Classes
 90
     4095
280
     0
281
     0
  0
CLASS
  1
MATERIAL
  2
AcDbMaterial
  3
ObjectDBX Classes
 90
     1153
280
     0
281
     0
  0
CLASS
  1
SCALE
  2
AcDbScale
  3
ObjectDBX Classes
 90
     1153
280
     0
281
     0
  0
CLASS
  1
SUN
  2
AcDbSun
  3
SCENEOE
 90
     1153
280
     0
281
     0
  0
CLASS
  1
ACDBPLACEHOLDER
  2
AcDbPlaceHolder
  3
ObjectDBX Classes
 90
        0
280
     0
281
     0
  0
CLASS
  1
LAYOUT
  2
AcDbLayout
  3
ObjectDBX Classes
 90
        0
280
     0
281
     0
  0
ENDSEC
  0
SECTION
  2
TABLES
  0
TABLE
  2
VPORT
  5
8
330
0
100
AcDbSymbolTable
 70
     1
  0
VPORT
  5
29
330
8
100
AcDbSymbolTableRecord
100
AcDbViewportTableRecord
  2
*Active
 70
     0
 10
0.0
 20
0.0
 11
1.0
 21
1.0
 12
0.0
 22
0.0
 13
0.0
 23
0.0
 14
10.0
 24
10.0
 15
10.0
 25
10.0
 16
0.0
 26
0.0
 36
1.0
 17
0.0
 27
0.0
 37
0.0
 40
3162.0
 41
1.3496774194
 42
50.0
 43
0.0
 44
0.0
 50
0.0
 51
0.0
 71
     0
 72
   100
 73
     1
 74
     3
 75
     0
 76
     0
 77
     0
 78
     0
281
     0
 65
     1
110
0.0
120
0.0
130
0.0
111
1.0
121
0.0
131
0.0
112
0.0
122
1.0
132
0.0
 79
     0
146
0.0
  0
ENDTAB
  0
TABLE
  2
LTYPE
  5
5
330
0
100
AcDbSymbolTable
 70
     6
  0
LTYPE
  5
14
330
5
100
AcDbSymbolTableRecord
100
AcDbLinetypeTableRecord
  2
ByBlock
 70
     0
  3

 72
    65
 73
     0
 40
0.0
  0
LTYPE
  5
15
330
5
100
AcDbSymbolTableRecord
100
AcDbLinetypeTableRecord
  2
ByLayer
 70
     0
  3

 72
    65
 73
     0
 40
0.0
  0
LTYPE
  5
16
330
5
100
AcDbSymbolTableRecord
100
AcDbLinetypeTableRecord
  2
Continuous
 70
     0
  3
Solid line
 72
    65
 73
     0
 40
0.0
  0
LTYPE
  5
6A
330
5
100
AcDbSymbolTableRecord
100
AcDbLinetypeTableRecord
  2
HIDDEN
 70
     0
  3
Hidden __ __ __ __ __ __ __ __ __ __ __ __ __ __
 72
    65
 73
     2
 40
1.905
 49
1.27
 74
     0
 49
-0.635
 74
     0
  0
LTYPE
  5
6B
330
5
100
AcDbSymbolTableRecord
100
AcDbLinetypeTableRecord
  2
PHANTOM
 70
     0
  3
Phantom ______  __  __  ______  __  __  ______
 72
    65
 73
     6
 40
12.7
 49
6.35
 74
     0
 49
-1.27
 74
     0
 49
1.27
 74
     0
 49
-1.27
 74
     0
 49
1.27
 74
     0
 49
-1.27
 74
     0
  0
LTYPE
  5
6C
330
5
100
AcDbSymbolTableRecord
100
AcDbLinetypeTableRecord
  2
CENTER
 70
     0
  3
Center ____ _ ____ _ ____ _ ____ _ ____ _ ____
 72
    65
 73
     4
 40
10.16
 49
6.35
 74
     0
 49
-1.27
 74
     0
 49
1.27
 74
     0
 49
-1.27
 74
     0
  0
LTYPE
  5
6D
330
5
100
AcDbSymbolTableRecord
100
AcDbLinetypeTableRecord
  2
CENTERX2
 70
     0
  3
Center (2x) ________  __  ________  __  _____
 72
    65
 73
     4
 40
20.32
 49
12.7
 74
     0
 49
-2.54
 74
     0
 49
2.54
 74
     0
 49
-2.54
 74
     0
  0
LTYPE
  5
6E
330
5
100
AcDbSymbolTableRecord
100
AcDbLinetypeTableRecord
  2
DOT2
 70
     0
  3
Dot (.5x) ........................................
 72
    65
 73
     2
 40
0.635
 49
0.0
 74
     0
 49
-0.635
 74
     0
  0
ENDTAB
  0
TABLE
  2
LAYER
  5
2
330
0
100
AcDbSymbolTable
 70
     1
  0
LAYER
  5
10
330
2
100
AcDbSymbolTableRecord
100
AcDbLayerTableRecord
  2
0
 70
     0
 62
     7
  6
Continuous
370
    -3
390
F
  0
ENDTAB
  0
TABLE
  2
STYLE
  5
3
330
0
100
AcDbSymbolTable
 70
     1
  0
STYLE
  5
11
330
3
100
AcDbSymbolTableRecord
100
AcDbTextStyleTableRecord
  2
Standard
 70
     0
 40
0.0
 41
1.0
 50
0.0
 71
     0
 42
3.0
  3
txt
  4

  0
ENDTAB
  0
TABLE
  2
VIEW
  5
6
330
0
100
AcDbSymbolTable
 70
     0
  0
ENDTAB
  0
TABLE
  2
UCS
  5
7
330
0
100
AcDbSymbolTable
 70
     0
  0
ENDTAB
  0
TABLE
  2
APPID
  5
9
330
0
100
AcDbSymbolTable
 70
     1
  0
APPID
  5
12
330
9
100
AcDbSymbolTableRecord
100
AcDbRegAppTableRecord
  2
ACAD
 70
     0
  0
ENDTAB
  0
TABLE
  2
DIMSTYLE
  5
A
330
0
100
AcDbSymbolTable
 70
     1
100
AcDbDimStyleTable
  0
DIMSTYLE
105
27
330
A
100
AcDbSymbolTableRecord
100
AcDbDimStyleTableRecord
  2
ISO-25
 70
     0
 41
2.5
 42
0.625
 43
3.75
 44
1.25
 73
     0
 74
     0
 77
     1
 78
     8
140
2.5
141
2.5
143
0.0393700787
147
0.625
171
     3
172
     1
178
     0
271
     2
272
     2
274
     3
278
    44
283
     0
284
     8
340
11
  0
ENDTAB
  0
TABLE
  2
BLOCK_RECORD
  5
1
330
0
100
AcDbSymbolTable
 70
     1
  0
BLOCK_RECORD
  5
1F
330
1
100
AcDbSymbolTableRecord
100
AcDbBlockTableRecord
  2
*Model_Space
340
22
  0
BLOCK_RECORD
  5
1B
330
1
100
AcDbSymbolTableRecord
100
AcDbBlockTableRecord
  2
*Paper_Space
340
1E
  0
BLOCK_RECORD
  5
23
330
1
100
AcDbSymbolTableRecord
100
AcDbBlockTableRecord
  2
*Paper_Space0
340
26
  0
ENDTAB
  0
ENDSEC
  0
SECTION
  2
BLOCKS
  0
BLOCK
  5
20
330
1F
100
AcDbEntity
  8
0
100
AcDbBlockBegin
  2
*Model_Space
 70
     0
 10
0.0
 20
0.0
 30
0.0
  3
*Model_Space
  1
*Model_Space
  0
ENDBLK
  5
21
330
1F
100
AcDbEntity
  8
0
100
AcDbBlockEnd
  0
BLOCK
  5
1C
330
1B
100
AcDbEntity
 67
     1
  8
0
100
AcDbBlockBegin
  2
*Paper_Space
 70
     0
 10
0.0
 20
0.0
 30
0.0
  3
*Paper_Space
  1
*Paper_Space
  0
ENDBLK
  5
1D
330
1B
100
AcDbEntity
 67
     1
  8
0
100
AcDbBlockEnd
  0
BLOCK
  5
24
330
23
100
AcDbEntity
  8
0
100
AcDbBlockBegin
  2
*Paper_Space0
 70
     0
 10
0.0
 20
0.0
 30
0.0
  3
*Paper_Space0
  1
*Paper_Space0
  0
ENDBLK
  5
25
330
23
100
AcDbEntity
  8
0
100
AcDbBlockEnd
  0
ENDSEC
  0
SECTION
  2
ENTITIES
  0
CIRCLE
  5
99
330
1F
100
AcDbEntity
  8
0
  6
Continuous
 62
     7
370
    15
100
AcDbCircle
 10
525.0
 20
0.0
 30
0.0
 40
28.50249999999936
  0
CIRCLE
  5
BE
330
1F
100
AcDbEntity
  8
0
  6
Continuous
 62
     7
370
    15
100
AcDbCircle
 10
-525.0
 20
0.0
 30
0.0
 40
28.50250000000002
  0
SPLINE
  5
D4
330
1F
100
AcDbEntity
  8
0
  6
Continuous
 62
     7
370
    15
100
AcDbSpline
210
0.0
220
0.0
230
1.0
 70
     8
 71
     3
 72
    29
 73
    25
 74
     0
 42
0.000000001
 43
0.00000001
 40
0.0
 40
0.0
 40
0.0
 40
0.0
 40
0.1250000000000015
 40
0.1250000000000015
 40
0.1874999999999952
 40
0.1874999999999952
 40
0.2499999999999888
 40
0.2499999999999888
 40
0.3749999999999884
 40
0.3749999999999884
 40
0.499999999999988
 40
0.499999999999988
 40
0.6249999999999875
 40
0.6249999999999875
 40
0.6874999999999896
 40
0.6874999999999896
 40
0.7499999999999917
 40
0.8124999999999938
 40
0.8124999999999938
 40
0.8749999999999958
 40
0.8749999999999958
 40
0.9374999999999979
 40
0.9374999999999979
 40
1.0
 40
1.0
 40
1.0
 40
1.0
 10
537.9409522551258
 20
48.29629131446698
 30
0.0
 10
537.9409522551258
 20
48.29629131446697
 30
0.0
 10
537.926668103264
 20
48.24647898087565
 30
0.0
 10
537.8846982199852
 20
48.10009778498228
 30
0.0
 10
537.8672589851337
 20
48.03927149711964
 30
0.0
 10
537.8253273718046
 20
47.89300532286325
 30
0.0
 10
537.8007160921908
 20
47.80715054470411
 30
0.0
 10
537.7177999562163
 20
47.51787047604569
 30
0.0
 10
537.6501566973491
 20
47.28183800642505
 30
0.0
 10
537.4903991673325
 20
46.7241929630609
 30
0.0
 10
537.397431375617
 20
46.39959749704926
 30
0.0
 10
537.1944285578611
 20
45.69050891737199
 30
0.0
 10
537.0837002839262
 20
45.30359816413473
 30
0.0
 10
536.9034770184104
 20
44.67352856871319
 30
0.0
 10
536.841040033283
 20
44.45519429347669
 30
0.0
 10
536.7141703496939
 20
44.01142783173245
 30
0.0
 10
536.5846394365616
 20
43.55823714619589
 30
0.0
 10
536.4498777352991
 20
43.08648295396803
 30
0.0
 10
536.3124702332074
 20
42.60532111258894
 30
0.0
 10
536.242140464229
 20
42.35897419041143
 30
0.0
 10
536.100290790354
 20
41.86195223977336
 30
0.0
 10
536.0289711887868
 20
41.61197975589292
 30
0.0
 10
535.885552782408
 20
41.10913802199864
 30
0.0
 10
535.8127145261902
 20
40.85366428748438
 30
0.0
 10
535.7413365000391
 20
40.60324728631965
 30
0.0
  0
SPLINE
  5
D6
330
1F
100
AcDbEntity
  8
0
  6
Continuous
 62
     7
370
    15
100
AcDbSpline
210
0.0
220
0.0
230
1.0
 70
     8
 71
     3
 72
    31
 73
    27
 74
     0
 42
0.000000001
 43
0.00000001
 40
0.0
 40
0.0
 40
0.0
 40
0.0
 40
0.1250000000000024
 40
0.1250000000000024
 40
0.1875000000000046
 40
0.1875000000000046
 40
0.2500000000000069
 40
0.2500000000000069
 40
0.3750000000000114
 40
0.3750000000000114
 40
0.5000000000000159
 40
0.5000000000000159
 40
0.6250000000000204
 40
0.6250000000000204
 40
0.6875000000000158
 40
0.6875000000000158
 40
0.7500000000000112
 40
0.8125000000000067
 40
0.8125000000000067
 40
0.875000000000002
 40
0.875000000000002
 40
0.9374999999999967
 40
0.9374999999999967
 40
0.9687499999999984
 40
0.9687499999999984
 40
1.0
 40
1.0
 40
1.0
 40
1.0
 10
573.2249469215685
 20
37.50889158051167
 30
0.0
 10
573.2249469215686
 20
37.50889158051167
 30
0.0
 10
573.2071235585155
 20
37.46007995322592
 30
0.0
 10
573.154722222801
 20
37.316659710378
 30
0.0
 10
573.13294502279
 20
37.25706558401655
 30
0.0
 10
573.0805621810321
 20
37.11376989076332
 30
0.0
 10
573.0498114913385
 20
37.02967209202563
 30
0.0
 10
572.946171885892
 20
36.74636761729691
 30
0.0
 10
572.8615686345593
 20
36.51524767986543
 30
0.0
 10
572.6614526748924
 20
35.9693493696854
 30
0.0
 10
572.5448957088097
 20
35.65173664594062
 30
0.0
 10
572.2899262930563
 20
34.95822901331874
 30
0.0
 10
572.1506319321884
 20
34.5799187507932
 30
0.0
 10
571.9233680764982
 20
33.96407499327666
 30
0.0
 10
571.8445944832455
 20
33.75083025106446
 30
0.0
 10
571.684317195304
 20
33.31746048685807
 30
0.0
 10
571.5204782551534
 20
32.8749556861908
 30
0.0
 10
571.3495633789582
 20
32.41448059059259
 30
0.0
 10
571.1750339981451
 20
31.94491009755158
 30
0.0
 10
571.0855625752605
 20
31.70450582878984
 30
0.0
 10
570.9049367789834
 20
31.21988993000701
 30
0.0
 10
570.8139906326854
 20
30.97623367001442
 30
0.0
 10
570.6766146542918
 20
30.6087532467765
 30
0.0
 10
570.6306629540567
 20
30.48592647552323
 30
0.0
 10
570.538435994563
 20
30.23960326530482
 30
0.0
 10
570.4917291519861
 20
30.11496906251137
 30
0.0
 10
570.4459832913541
 20
29.99297197302876
 30
0.0
  0
SPLINE
  5
D9
330
1F
100
AcDbEntity
  8
0
  6
Continuous
 62
     7
370
    15
100
AcDbSpline
210
0.0
220
0.0
230
1.0
 70
     8
 71
     3
 72
    31
 73
    27
 74
     0
 42
0.000000001
 43
0.00000001
 40
0.0
 40
0.0
 40
0.0
 40
0.0
 40
0.1249999999999929
 40
0.1249999999999929
 40
0.1874999999999854
 40
0.1874999999999854
 40
0.2499999999999779
 40
0.2499999999999779
 40
0.3749999999999853
 40
0.3749999999999853
 40
0.4999999999999927
 40
0.4999999999999927
 40
0.625
 40
0.625
 40
0.6875
 40
0.6875
 40
0.75
 40
0.8125
 40
0.8125
 40
0.875
 40
0.875
 40
0.9375
 40
0.9375
 40
0.96875
 40
0.96875
 40
1.0
 40
1.0
 40
1.0
 40
1.0
 10
592.0000000000001
 20
10.75000000001348
 30
0.0
 10
592.0000000000001
 20
10.75000000001348
 30
0.0
 10
591.9481728299445
 20
10.74853772009515
 30
0.0
 10
591.7958745425993
 20
10.74422485806549
 30
0.0
 10
591.7325898369616
 20
10.74243107611262
 30
0.0
 10
591.5804133710186
 20
10.73810830978383
 30
0.0
 10
591.4910920368591
 20
10.73556702307329
 30
0.0
 10
591.1901427553507
 20
10.72698085246914
 30
0.0
 10
590.944596050503
 20
10.71994862839348
 30
0.0
 10
590.3644987563601
 20
10.7031939277542
 30
0.0
 10
590.02686262053
 20
10.69337974481179
 30
0.0
 10
589.2893491840717
 20
10.67171098893647
 30
0.0
 10
588.8869466856029
 20
10.65978523817115
 30
0.0
 10
588.2316889350814
 20
10.64011379751724
 30
0.0
 10
588.0046581420073
 20
10.63325843537669
 30
0.0
 10
587.5432253751746
 20
10.61923180841824
 30
0.0
 10
587.0720050718858
 20
10.60481704420075
 30
0.0
 10
586.5815096362403
 20
10.58960358254132
 30
0.0
 10
586.0812476753955
 20
10.57396920958628
 30
0.0
 10
585.8251179691364
 20
10.56590607865599
 30
0.0
 10
585.3084602154287
 20
10.54950970700345
 30
0.0
 10
585.0486372714381
 20
10.54119942551237
 30
0.0
 10
584.6566837562849
 20
10.52855823905237
 30
0.0
 10
584.525662056666
 20
10.52431518729254
 30
0.0
 10
584.262873132592
 20
10.51576880545057
 30
0.0
 10
584.1301437703324
 20
10.51143058113157
 30
0.0
 10
584.0000000000002
 20
10.50716514263068
 30
0.0
  0
SPLINE
  5
EE
330
1F
100
AcDbEntity
  8
0
  6
Continuous
 62
     7
370
    15
100
AcDbSpline
210
0.0
220
0.0
230
1.0
 70
     8
 71
     3
 72
    29
 73
    25
 74
     0
 42
0.000000001
 43
0.00000001
 40
0.0
 40
0.0
 40
0.0
 40
0.0
 40
0.1250000000000097
 40
0.1250000000000097
 40
0.1875000000000074
 40
0.1875000000000074
 40
0.2500000000000052
 40
0.2500000000000052
 40
0.3750000000000013
 40
0.3750000000000013
 40
0.4999999999999975
 40
0.4999999999999975
 40
0.6249999999999936
 40
0.6249999999999936
 40
0.6874999999999947
 40
0.6874999999999947
 40
0.7499999999999957
 40
0.8124999999999968
 40
0.8124999999999968
 40
0.8749999999999979
 40
0.8749999999999979
 40
0.9374999999999989
 40
0.9374999999999989
 40
1.0
 40
1.0
 40
1.0
 40
1.0
 10
537.9409522551258
 20
-48.29629131444003
 30
0.0
 10
537.9409522551258
 20
-48.29629131444002
 30
0.0
 10
537.926668103264
 20
-48.24647898084864
 30
0.0
 10
537.8846982199855
 20
-48.10009778495528
 30
0.0
 10
537.867258985134
 20
-48.03927149709259
 30
0.0
 10
537.8253273718049
 20
-47.8930053228362
 30
0.0
 10
537.8007160921907
 20
-47.80715054467717
 30
0.0
 10
537.717799956216
 20
-47.51787047601871
 30
0.0
 10
537.6501566973491
 20
-47.28183800639803
 30
0.0
 10
537.4903991673326
 20
-46.72419296303388
 30
0.0
 10
537.3974313756171
 20
-46.39959749702226
 30
0.0
 10
537.1944285578611
 20
-45.69050891734501
 30
0.0
 10
537.0837002839262
 20
-45.30359816410774
 30
0.0
 10
536.9034770184105
 20
-44.67352856868621
 30
0.0
 10
536.8410400332829
 20
-44.45519429344968
 30
0.0
 10
536.714170349694
 20
-44.01142783170548
 30
0.0
 10
536.5846394365607
 20
-43.5582371461692
 30
0.0
 10
536.4498777352995
 20
-43.086482953941
 30
0.0
 10
536.3124702332079
 20
-42.60532111256188
 30
0.0
 10
536.2421404642291
 20
-42.35897419038445
 30
0.0
 10
536.1002907903538
 20
-41.8619522397464
 30
0.0
 10
536.0289711887866
 20
-41.6119797558659
 30
0.0
 10
535.885552782408
 20
-41.10913802197165
 30
0.0
 10
535.8127145261899
 20
-40.85366428745746
 30
0.0
 10
535.7413365000392
 20
-40.60324728629264
 30
0.0
  0
SPLINE
  5
EF
330
1F
100
AcDbEntity
  8
0
  6
Continuous
 62
     7
370
    15
100
AcDbSpline
210
0.0
220
0.0
230
1.0
 70
     8
 71
     3
 72
    31
 73
    27
 74
     0
 42
0.000000001
 43
0.00000001
 40
0.0
 40
0.0
 40
0.0
 40
0.0
 40
0.125000000000001
 40
0.125000000000001
 40
0.1875000000000007
 40
0.1875000000000007
 40
0.2500000000000004
 40
0.2500000000000004
 40
0.3749999999999999
 40
0.3749999999999999
 40
0.4999999999999994
 40
0.4999999999999994
 40
0.6249999999999989
 40
0.6249999999999989
 40
0.6874999999999981
 40
0.6874999999999981
 40
0.7499999999999973
 40
0.8124999999999967
 40
0.8124999999999967
 40
0.8749999999999959
 40
0.8749999999999959
 40
0.9374999999999937
 40
0.9374999999999937
 40
0.9687499999999969
 40
0.9687499999999969
 40
1.0
 40
1.0
 40
1.0
 40
1.0
 10
573.2249469215685
 20
-37.5088915804847
 30
0.0
 10
573.2249469215686
 20
-37.5088915804847
 30
0.0
 10
573.2071235585154
 20
-37.46007995319897
 30
0.0
 10
573.1547222228008
 20
-37.31665971035105
 30
0.0
 10
573.1329450227897
 20
-37.25706558398957
 30
0.0
 10
573.0805621810318
 20
-37.11376989073639
 30
0.0
 10
573.0498114913385
 20
-37.02967209199868
 30
0.0
 10
572.9461718858921
 20
-36.74636761726997
 30
0.0
 10
572.8615686345591
 20
-36.51524767983845
 30
0.0
 10
572.6614526748923
 20
-35.96934936965845
 30
0.0
 10
572.5448957088097
 20
-35.65173664591369
 30
0.0
 10
572.289926293056
 20
-34.95822901329183
 30
0.0
 10
572.1506319321885
 20
-34.5799187507663
 30
0.0
 10
571.9233680764983
 20
-33.96407499324976
 30
0.0
 10
571.8445944832453
 20
-33.7508302510375
 30
0.0
 10
571.6843171953037
 20
-33.3174604868311
 30
0.0
 10
571.5204782551534
 20
-32.87495568616386
 30
0.0
 10
571.3495633789582
 20
-32.41448059056568
 30
0.0
 10
571.175033998145
 20
-31.94491009752466
 30
0.0
 10
571.0855625752605
 20
-31.70450582876293
 30
0.0
 10
570.9049367789835
 20
-31.21988992998012
 30
0.0
 10
570.8139906326857
 20
-30.9762336699875
 30
0.0
 10
570.6766146542919
 20
-30.6087532467496
 30
0.0
 10
570.6306629540568
 20
-30.48592647549634
 30
0.0
 10
570.5384359945629
 20
-30.23960326527794
 30
0.0
 10
570.4917291519823
 20
-30.11496906248571
 30
0.0
 10
570.4459832913541
 20
-29.99297197300185
 30
0.0
  0
SPLINE
  5
F2
330
1F
100
AcDbEntity
  8
0
  6
Continuous
 62
     7
370
    15
100
AcDbSpline
210
0.0
220
0.0
230
1.0
 70
     8
 71
     3
 72
    31
 73
    27
 74
     0
 42
0.000000001
 43
0.00000001
 40
0.0
 40
0.0
 40
0.0
 40
0.0
 40
0.1249999999999929
 40
0.1249999999999929
 40
0.1874999999999854
 40
0.1874999999999854
 40
0.2499999999999779
 40
0.2499999999999779
 40
0.3749999999999852
 40
0.3749999999999852
 40
0.4999999999999926
 40
0.4999999999999926
 40
0.6249999999999999
 40
0.6249999999999999
 40
0.6874999999999999
 40
0.6874999999999999
 40
0.7499999999999999
 40
0.8124999999999999
 40
0.8124999999999999
 40
0.8749999999999999
 40
0.8749999999999999
 40
0.9374999999999999
 40
0.9374999999999999
 40
0.9687499999999999
 40
0.9687499999999999
 40
1.0
 40
1.0
 40
1.0
 40
1.0
 10
592.0000000000002
 20
-10.74999999998651
 30
0.0
 10
592.0000000000003
 20
-10.74999999998651
 30
0.0
 10
591.9481728299445
 20
-10.74853772006808
 30
0.0
 10
591.7958745425993
 20
-10.74422485803842
 30
0.0
 10
591.7325898369616
 20
-10.74243107608558
 30
0.0
 10
591.5804133710186
 20
-10.7381083097568
 30
0.0
 10
591.491092036859
 20
-10.73556702304628
 30
0.0
 10
591.1901427553505
 20
-10.72698085244214
 30
0.0
 10
590.944596050503
 20
-10.71994862836647
 30
0.0
 10
590.3644987563598
 20
-10.7031939277272
 30
0.0
 10
590.02686262053
 20
-10.69337974478478
 30
0.0
 10
589.2893491840719
 20
-10.67171098890947
 30
0.0
 10
588.886946685603
 20
-10.65978523814418
 30
0.0
 10
588.2316889350814
 20
-10.64011379749028
 30
0.0
 10
588.0046581420073
 20
-10.63325843534967
 30
0.0
 10
587.5432253751748
 20
-10.61923180839122
 30
0.0
 10
587.0720051204584
 20
-10.60481701755179
 30
0.0
 10
586.5815096362404
 20
-10.58960358251425
 30
0.0
 10
586.0812476753955
 20
-10.57396920955919
 30
0.0
 10
585.8251179691363
 20
-10.5659060786289
 30
0.0
 10
585.3084602154285
 20
-10.54950970697633
 30
0.0
 10
585.048637271438
 20
-10.54119942548525
 30
0.0
 10
584.6566837562848
 20
-10.52855823902519
 30
0.0
 10
584.525662056666
 20
-10.52431518726543
 30
0.0
 10
584.262873132592
 20
-10.51576880542332
 30
0.0
 10
584.1301437703321
 20
-10.5114305811046
 30
0.0
 10
584.0000000000002
 20
-10.50716514260371
 30
0.0
  0
SPLINE
  5
100
330
1F
100
AcDbEntity
  8
0
  6
Continuous
 62
     7
370
    15
100
AcDbSpline
210
0.0
220
0.0
230
1.0
 70
     8
 71
     3
 72
    29
 73
    25
 74
     0
 42
0.000000001
 43
0.00000001
 40
0.0
 40
0.0
 40
0.0
 40
0.0
 40
0.12500000000001
 40
0.12500000000001
 40
0.187500000000009
 40
0.187500000000009
 40
0.250000000000008
 40
0.250000000000008
 40
0.3750000000000067
 40
0.3750000000000067
 40
0.5000000000000053
 40
0.5000000000000053
 40
0.6250000000000041
 40
0.6250000000000041
 40
0.6875000000000034
 40
0.6875000000000034
 40
0.7500000000000028
 40
0.8125000000000021
 40
0.8125000000000021
 40
0.8750000000000014
 40
0.8750000000000014
 40
0.9375000000000008
 40
0.9375000000000008
 40
1.0
 40
1.0
 40
1.0
 40
1.0
 10
-537.9409522551258
 20
48.29629131446698
 30
0.0
 10
-537.9409522551257
 20
48.29629131446697
 30
0.0
 10
-537.9266681032635
 20
48.24647898087568
 30
0.0
 10
-537.8846982199851
 20
48.10009778498235
 30
0.0
 10
-537.8672589851338
 20
48.03927149711959
 30
0.0
 10
-537.8253273718045
 20
47.89300532286317
 30
0.0
 10
-537.8007160921906
 20
47.80715054470413
 30
0.0
 10
-537.717799956216
 20
47.51787047604569
 30
0.0
 10
-537.6501566973492
 20
47.28183800642503
 30
0.0
 10
-537.4903991673327
 20
46.72419296306085
 30
0.0
 10
-537.3974313756167
 20
46.39959749704924
 30
0.0
 10
-537.194428557861
 20
45.69050891737196
 30
0.0
 10
-537.0837002839261
 20
45.30359816413475
 30
0.0
 10
-536.9034770184103
 20
44.67352856871322
 30
0.0
 10
-536.8410400332828
 20
44.45519429347669
 30
0.0
 10
-536.7141703496936
 20
44.01142783173247
 30
0.0
 10
-536.5846394365608
 20
43.55823714619606
 30
0.0
 10
-536.4498777352992
 20
43.08648295396798
 30
0.0
 10
-536.3124702332077
 20
42.60532111258889
 30
0.0
 10
-536.242140464229
 20
42.35897419041147
 30
0.0
 10
-536.100290790354
 20
41.86195223977336
 30
0.0
 10
-536.0289711887867
 20
41.61197975589292
 30
0.0
 10
-535.8855527824077
 20
41.10913802199862
 30
0.0
 10
-535.8127145261899
 20
40.85366428748441
 30
0.0
 10
-535.7413365000392
 20
40.60324728631959
 30
0.0
  0
SPLINE
  5
102
330
1F
100
AcDbEntity
  8
0
  6
Continuous
 62
     7
370
    15
100
AcDbSpline
210
0.0
220
0.0
230
1.0
 70
     8
 71
     3
 72
    31
 73
    27
 74
     0
 42
0.000000001
 43
0.00000001
 40
0.0
 40
0.0
 40
0.0
 40
0.0
 40
0.1249999999999978
 40
0.1249999999999978
 40
0.1874999999999977
 40
0.1874999999999977
 40
0.2499999999999977
 40
0.2499999999999977
 40
0.3750000000000004
 40
0.3750000000000004
 40
0.5000000000000032
 40
0.5000000000000032
 40
0.625000000000006
 40
0.625000000000006
 40
0.6875000000000069
 40
0.6875000000000069
 40
0.7500000000000078
 40
0.8125000000000087
 40
0.8125000000000087
 40
0.8750000000000095
 40
0.8750000000000095
 40
0.9375000000000104
 40
0.9375000000000104
 40
0.9687500000000052
 40
0.9687500000000052
 40
1.0
 40
1.0
 40
1.0
 40
1.0
 10
-573.2249469215685
 20
37.50889158051167
 30
0.0
 10
-573.2249469215686
 20
37.50889158051168
 30
0.0
 10
-573.2071235585154
 20
37.46007995322593
 30
0.0
 10
-573.1547222228007
 20
37.31665971037798
 30
0.0
 10
-573.1329450227901
 20
37.25706558401656
 30
0.0
 10
-573.0805621810323
 20
37.11376989076332
 30
0.0
 10
-573.0498114913385
 20
37.02967209202563
 30
0.0
 10
-572.9461718858921
 20
36.74636761729693
 30
0.0
 10
-572.861568634559
 20
36.51524767986542
 30
0.0
 10
-572.6614526748923
 20
35.96934936968542
 30
0.0
 10
-572.5448957088098
 20
35.65173664594064
 30
0.0
 10
-572.2899262930562
 20
34.95822901331877
 30
0.0
 10
-572.1506319321885
 20
34.57991875079325
 30
0.0
 10
-571.9233680764982
 20
33.96407499327671
 30
0.0
 10
-571.8445944832453
 20
33.75083025106446
 30
0.0
 10
-571.684317195304
 20
33.31746048685807
 30
0.0
 10
-571.5204782551539
 20
32.8749556861908
 30
0.0
 10
-571.3495633789581
 20
32.41448059059264
 30
0.0
 10
-571.1750339981451
 20
31.94491009755163
 30
0.0
 10
-571.0855625752605
 20
31.70450582878991
 30
0.0
 10
-570.9049367789833
 20
31.2198899300071
 30
0.0
 10
-570.8139906326854
 20
30.97623367001442
 30
0.0
 10
-570.6766146542919
 20
30.60875324677652
 30
0.0
 10
-570.6306629540568
 20
30.48592647552327
 30
0.0
 10
-570.5384359945629
 20
30.23960326530485
 30
0.0
 10
-570.4917291519826
 20
30.11496906251268
 30
0.0
 10
-570.4459832913541
 20
29.99297197302882
 30
0.0
  0
SPLINE
  5
104
330
1F
100
AcDbEntity
  8
0
  6
Continuous
 62
     7
370
    15
100
AcDbSpline
210
0.0
220
0.0
230
1.0
 70
     8
 71
     3
 72
    31
 73
    27
 74
     0
 42
0.000000001
 43
0.00000001
 40
0.0
 40
0.0
 40
0.0
 40
0.0
 40
0.1249999999999929
 40
0.1249999999999929
 40
0.1874999999999854
 40
0.1874999999999854
 40
0.2499999999999779
 40
0.2499999999999779
 40
0.3749999999999853
 40
0.3749999999999853
 40
0.4999999999999927
 40
0.4999999999999927
 40
0.625
 40
0.625
 40
0.6875
 40
0.6875
 40
0.75
 40
0.8125
 40
0.8125
 40
0.875
 40
0.875
 40
0.9375
 40
0.9375
 40
0.96875
 40
0.96875
 40
1.0
 40
1.0
 40
1.0
 40
1.0
 10
-592.0000000000001
 20
10.75000000001348
 30
0.0
 10
-592.0000000000001
 20
10.75000000001348
 30
0.0
 10
-591.9481728299445
 20
10.74853772009515
 30
0.0
 10
-591.7958745425993
 20
10.74422485806549
 30
0.0
 10
-591.7325898369616
 20
10.74243107611262
 30
0.0
 10
-591.5804133710186
 20
10.73810830978383
 30
0.0
 10
-591.4910920368591
 20
10.73556702307329
 30
0.0
 10
-591.1901427553507
 20
10.72698085246914
 30
0.0
 10
-590.944596050503
 20
10.71994862839348
 30
0.0
 10
-590.3644987563601
 20
10.7031939277542
 30
0.0
 10
-590.02686262053
 20
10.69337974481179
 30
0.0
 10
-589.2893491840717
 20
10.67171098893647
 30
0.0
 10
-588.8869466856029
 20
10.65978523817115
 30
0.0
 10
-588.2316889350814
 20
10.64011379751724
 30
0.0
 10
-588.0046581420073
 20
10.63325843537669
 30
0.0
 10
-587.5432253751746
 20
10.61923180841824
 30
0.0
 10
-587.0720050718858
 20
10.60481704420075
 30
0.0
 10
-586.5815096362403
 20
10.58960358254132
 30
0.0
 10
-586.0812476753955
 20
10.57396920958628
 30
0.0
 10
-585.8251179691364
 20
10.56590607865599
 30
0.0
 10
-585.3084602154287
 20
10.54950970700345
 30
0.0
 10
-585.0486372714381
 20
10.54119942551237
 30
0.0
 10
-584.6566837562849
 20
10.52855823905237
 30
0.0
 10
-584.525662056666
 20
10.52431518729254
 30
0.0
 10
-584.262873132592
 20
10.51576880545057
 30
0.0
 10
-584.1301437703324
 20
10.51143058113157
 30
0.0
 10
-584.0000000000002
 20
10.50716514263068
 30
0.0
  0
SPLINE
  5
111
330
1F
100
AcDbEntity
  8
0
  6
Continuous
 62
     7
370
    15
100
AcDbSpline
210
0.0
220
0.0
230
1.0
 70
     8
 71
     3
 72
    29
 73
    25
 74
     0
 42
0.000000001
 43
0.00000001
 40
0.0
 40
0.0
 40
0.0
 40
0.0
 40
0.1250000000000104
 40
0.1250000000000104
 40
0.1875000000000082
 40
0.1875000000000082
 40
0.250000000000006
 40
0.250000000000006
 40
0.375000000000005
 40
0.375000000000005
 40
0.500000000000004
 40
0.500000000000004
 40
0.6250000000000029
 40
0.6250000000000029
 40
0.6875000000000024
 40
0.6875000000000024
 40
0.750000000000002
 40
0.8125000000000016
 40
0.8125000000000016
 40
0.875000000000001
 40
0.875000000000001
 40
0.9375000000000006
 40
0.9375000000000006
 40
1.0
 40
1.0
 40
1.0
 40
1.0
 10
-537.9409522551258
 20
-48.29629131444003
 30
0.0
 10
-537.9409522551258
 20
-48.29629131444003
 30
0.0
 10
-537.926668103264
 20
-48.24647898084863
 30
0.0
 10
-537.8846982199852
 20
-48.10009778495526
 30
0.0
 10
-537.8672589851338
 20
-48.03927149709261
 30
0.0
 10
-537.8253273718046
 20
-47.89300532283622
 30
0.0
 10
-537.8007160921907
 20
-47.80715054467713
 30
0.0
 10
-537.7177999562165
 20
-47.51787047601871
 30
0.0
 10
-537.6501566973492
 20
-47.28183800639802
 30
0.0
 10
-537.490399167333
 20
-46.72419296303384
 30
0.0
 10
-537.3974313756172
 20
-46.39959749702228
 30
0.0
 10
-537.1944285578612
 20
-45.69050891734501
 30
0.0
 10
-537.0837002839263
 20
-45.30359816410778
 30
0.0
 10
-536.9034770184102
 20
-44.67352856868625
 30
0.0
 10
-536.841040033283
 20
-44.45519429344967
 30
0.0
 10
-536.7141703496941
 20
-44.01142783170546
 30
0.0
 10
-536.5846394365615
 20
-43.55823714616899
 30
0.0
 10
-536.4498777352997
 20
-43.08648295394095
 30
0.0
 10
-536.312470233208
 20
-42.60532111256185
 30
0.0
 10
-536.2421404642292
 20
-42.35897419038442
 30
0.0
 10
-536.1002907903543
 20
-41.86195223974632
 30
0.0
 10
-536.0289711887868
 20
-41.61197975586587
 30
0.0
 10
-535.8855527824086
 20
-41.10913802197155
 30
0.0
 10
-535.8127145261901
 20
-40.85366428745734
 30
0.0
 10
-535.7413365000391
 20
-40.60324728629269
 30
0.0
  0
SPLINE
  5
113
330
1F
100
AcDbEntity
  8
0
  6
Continuous
 62
     7
370
    15
100
AcDbSpline
210
0.0
220
0.0
230
1.0
 70
     8
 71
     3
 72
    31
 73
    27
 74
     0
 42
0.000000001
 43
0.00000001
 40
0.0
 40
0.0
 40
0.0
 40
0.0
 40
0.1250000000000011
 40
0.1250000000000011
 40
0.1875000000000008
 40
0.1875000000000008
 40
0.2500000000000006
 40
0.2500000000000006
 40
0.3749999999999996
 40
0.3749999999999996
 40
0.4999999999999986
 40
0.4999999999999986
 40
0.6249999999999974
 40
0.6249999999999974
 40
0.6874999999999964
 40
0.6874999999999964
 40
0.7499999999999954
 40
0.8124999999999944
 40
0.8124999999999944
 40
0.8749999999999933
 40
0.8749999999999933
 40
0.9374999999999923
 40
0.9374999999999923
 40
0.9687499999999962
 40
0.9687499999999962
 40
1.0
 40
1.0
 40
1.0
 40
1.0
 10
-573.2249469215685
 20
-37.5088915804847
 30
0.0
 10
-573.2249469215687
 20
-37.5088915804847
 30
0.0
 10
-573.2071235585155
 20
-37.46007995319897
 30
0.0
 10
-573.154722222801
 20
-37.31665971035105
 30
0.0
 10
-573.1329450227898
 20
-37.2570655839896
 30
0.0
 10
-573.0805621810322
 20
-37.11376989073639
 30
0.0
 10
-573.0498114913385
 20
-37.02967209199867
 30
0.0
 10
-572.9461718858921
 20
-36.74636761726998
 30
0.0
 10
-572.8615686345591
 20
-36.51524767983848
 30
0.0
 10
-572.6614526748923
 20
-35.96934936965847
 30
0.0
 10
-572.5448957088097
 20
-35.65173664591367
 30
0.0
 10
-572.2899262930562
 20
-34.95822901329181
 30
0.0
 10
-572.1506319321884
 20
-34.57991875076629
 30
0.0
 10
-571.9233680764982
 20
-33.96407499324974
 30
0.0
 10
-571.8445944832454
 20
-33.75083025103749
 30
0.0
 10
-571.6843171953037
 20
-33.31746048683109
 30
0.0
 10
-571.520478255154
 20
-32.87495568616379
 30
0.0
 10
-571.3495633789581
 20
-32.41448059056567
 30
0.0
 10
-571.175033998145
 20
-31.94491009752465
 30
0.0
 10
-571.0855625752605
 20
-31.70450582876291
 30
0.0
 10
-570.9049367789834
 20
-31.21988992998013
 30
0.0
 10
-570.8139906326853
 20
-30.9762336699875
 30
0.0
 10
-570.6766146542917
 20
-30.60875324674961
 30
0.0
 10
-570.6306629540568
 20
-30.48592647549633
 30
0.0
 10
-570.5384359945627
 20
-30.23960326527794
 30
0.0
 10
-570.4917291519853
 20
-30.11496906248447
 30
0.0
 10
-570.4459832913542
 20
-29.99297197300179
 30
0.0
  0
SPLINE
  5
116
330
1F
100
AcDbEntity
  8
0
  6
Continuous
 62
     7
370
    15
100
AcDbSpline
210
0.0
220
0.0
230
1.0
 70
     8
 71
     3
 72
    31
 73
    27
 74
     0
 42
0.000000001
 43
0.00000001
 40
0.0
 40
0.0
 40
0.0
 40
0.0
 40
0.1249999999999929
 40
0.1249999999999929
 40
0.1874999999999854
 40
0.1874999999999854
 40
0.2499999999999779
 40
0.2499999999999779
 40
0.3749999999999852
 40
0.3749999999999852
 40
0.4999999999999926
 40
0.4999999999999926
 40
0.6249999999999999
 40
0.6249999999999999
 40
0.6874999999999999
 40
0.6874999999999999
 40
0.7499999999999999
 40
0.8124999999999999
 40
0.8124999999999999
 40
0.8749999999999999
 40
0.8749999999999999
 40
0.9374999999999999
 40
0.9374999999999999
 40
0.9687499999999999
 40
0.9687499999999999
 40
1.0
 40
1.0
 40
1.0
 40
1.0
 10
-592.0000000000002
 20
-10.74999999998651
 30
0.0
 10
-592.0000000000003
 20
-10.74999999998651
 30
0.0
 10
-591.9481728299445
 20
-10.74853772006808
 30
0.0
 10
-591.7958745425993
 20
-10.74422485803842
 30
0.0
 10
-591.7325898369616
 20
-10.74243107608558
 30
0.0
 10
-591.5804133710186
 20
-10.7381083097568
 30
0.0
 10
-591.491092036859
 20
-10.73556702304628
 30
0.0
 10
-591.1901427553505
 20
-10.72698085244214
 30
0.0
 10
-590.944596050503
 20
-10.71994862836647
 30
0.0
 10
-590.3644987563598
 20
-10.7031939277272
 30
0.0
 10
-590.02686262053
 20
-10.69337974478478
 30
0.0
 10
-589.2893491840719
 20
-10.67171098890947
 30
0.0
 10
-588.886946685603
 20
-10.65978523814418
 30
0.0
 10
-588.2316889350814
 20
-10.64011379749028
 30
0.0
 10
-588.0046581420073
 20
-10.63325843534967
 30
0.0
 10
-587.5432253751748
 20
-10.61923180839122
 30
0.0
 10
-587.0720051204584
 20
-10.60481701755179
 30
0.0
 10
-586.5815096362404
 20
-10.58960358251425
 30
0.0
 10
-586.0812476753955
 20
-10.57396920955919
 30
0.0
 10
-585.8251179691363
 20
-10.5659060786289
 30
0.0
 10
-585.3084602154285
 20
-10.54950970697633
 30
0.0
 10
-585.048637271438
 20
-10.54119942548525
 30
0.0
 10
-584.6566837562848
 20
-10.52855823902519
 30
0.0
 10
-584.525662056666
 20
-10.52431518726543
 30
0.0
 10
-584.262873132592
 20
-10.51576880542332
 30
0.0
 10
-584.1301437703321
 20
-10.5114305811046
 30
0.0
 10
-584.0000000000002
 20
-10.50716514260371
 30
0.0
  0
CIRCLE
  5
12A
330
1F
100
AcDbEntity
  8
0
  6
PHANTOM
 62
     8
370
     0
100
AcDbCircle
 10
525.0
 20
0.0
 30
0.0
 40
27.62549999999968
  0
CIRCLE
  5
131
330
1F
100
AcDbEntity
  8
0
  6
PHANTOM
 62
     8
370
     0
100
AcDbCircle
 10
-525.0
 20
0.0
 30
0.0
 40
27.62549999999991
  0
LINE
  5
15A
330
1F
100
AcDbEntity
  8
0
  6
Continuous
 62
     7
370
    15
100
AcDbLine
 10
249.0
 20
12.0
 30
0.0
 11
249.0
 21
17.0
 31
0.0
  0
LINE
  5
15B
330
1F
100
AcDbEntity
  8
0
  6
Continuous
 62
     7
370
    15
100
AcDbLine
 10
239.0
 20
10.0
 30
0.0
 11
239.0
 21
12.0
 31
0.0
  0
LINE
  5
15C
330
1F
100
AcDbEntity
  8
0
  6
Continuous
 62
     7
370
    15
100
AcDbLine
 10
-249.0
 20
17.0
 30
0.0
 11
-249.0
 21
12.0
 31
0.0
  0
LINE
  5
15D
330
1F
100
AcDbEntity
  8
0
  6
Continuous
 62
     7
370
    15
100
AcDbLine
 10
-239.0
 20
12.0
 30
0.0
 11
-239.0
 21
10.0
 31
0.0
  0
LINE
  5
15E
330
1F
100
AcDbEntity
  8
0
  6
Continuous
 62
     7
370
    15
100
AcDbLine
 10
249.0
 20
-17.0
 30
0.0
 11
249.0
 21
-12.0
 31
0.0
  0
LINE
  5
15F
330
1F
100
AcDbEntity
  8
0
  6
Continuous
 62
     7
370
    15
100
AcDbLine
 10
239.0
 20
-12.0
 30
0.0
 11
239.0
 21
-10.0
 31
0.0
  0
LINE
  5
160
330
1F
100
AcDbEntity
  8
0
  6
Continuous
 62
     7
370
    15
100
AcDbLine
 10
-249.0
 20
-12.0
 30
0.0
 11
-249.0
 21
-17.0
 31
0.0
  0
LINE
  5
161
330
1F
100
AcDbEntity
  8
0
  6
Continuous
 62
     7
370
    15
100
AcDbLine
 10
-239.0
 20
-10.0
 30
0.0
 11
-239.0
 21
-12.0
 31
0.0
  0
LINE
  5
162
330
1F
100
AcDbEntity
  8
0
  6
Continuous
 62
     7
370
    15
100
AcDbLine
 10
454.8333261701
 20
33.2732882864
 30
0.0
 11
454.8333261701
 21
32.9627054322
 31
0.0
  0
LINE
  5
163
330
1F
100
AcDbEntity
  8
0
  6
Continuous
 62
     7
370
    15
100
AcDbLine
 10
438.75
 20
11.0
 30
0.0
 11
438.75
 21
10.0
 31
0.0
  0
LINE
  5
164
330
1F
100
AcDbEntity
  8
0
  6
Continuous
 62
     7
370
    15
100
AcDbLine
 10
447.25
 20
10.0
 30
0.0
 11
447.25
 21
11.0
 31
0.0
  0
LINE
  5
165
330
1F
100
AcDbEntity
  8
0
  6
Continuous
 62
     7
370
    15
100
AcDbLine
 10
448.8140102365
 20
31.6604174429
 30
0.0
 11
448.8140102365
 21
31.3498345888
 31
0.0
  0
LINE
  5
166
330
1F
100
AcDbEntity
  8
0
  6
Continuous
 62
     7
370
    15
100
AcDbLine
 10
456.2182524503
 20
-33.6443781647
 30
0.0
 11
456.2182524503
 21
-33.3337953106
 31
0.0
  0
LINE
  5
167
330
1F
100
AcDbEntity
  8
0
  6
Continuous
 62
     7
370
    15
100
AcDbLine
 10
448.9036696707
 20
-31.3738587618
 30
0.0
 11
448.9036696707
 21
-31.6844416159
 31
0.0
  0
LINE
  5
168
330
1F
100
AcDbEntity
  8
0
  6
Continuous
 62
     7
370
    15
100
AcDbLine
 10
447.25
 20
-11.0
 30
0.0
 11
447.25
 21
-10.0
 31
0.0
  0
LINE
  5
169
330
1F
100
AcDbEntity
  8
0
  6
Continuous
 62
     7
370
    15
100
AcDbLine
 10
438.75
 20
-10.0
 30
0.0
 11
438.75
 21
-11.0
 31
0.0
  0
LINE
  5
16A
330
1F
100
AcDbEntity
  8
0
  6
Continuous
 62
     7
370
    15
100
AcDbLine
 10
448.8140102365
 20
-31.3498345888
 30
0.0
 11
448.8140102365
 21
-31.6604174429
 31
0.0
  0
LINE
  5
16B
330
1F
100
AcDbEntity
  8
0
  6
Continuous
 62
     7
370
    15
100
AcDbLine
 10
-456.2182524503
 20
33.6443781647
 30
0.0
 11
-456.2182524503
 21
33.3337953106
 31
0.0
  0
LINE
  5
16C
330
1F
100
AcDbEntity
  8
0
  6
Continuous
 62
     7
370
    15
100
AcDbLine
 10
-448.9036696707
 20
31.3738587618
 30
0.0
 11
-448.9036696707
 21
31.6844416159
 31
0.0
  0
LINE
  5
16D
330
1F
100
AcDbEntity
  8
0
  6
Continuous
 62
     7
370
    15
100
AcDbLine
 10
-447.25
 20
11.0
 30
0.0
 11
-447.25
 21
10.0
 31
0.0
  0
LINE
  5
16E
330
1F
100
AcDbEntity
  8
0
  6
Continuous
 62
     7
370
    15
100
AcDbLine
 10
-438.75
 20
10.0
 30
0.0
 11
-438.75
 21
11.0
 31
0.0
  0
LINE
  5
16F
330
1F
100
AcDbEntity
  8
0
  6
Continuous
 62
     7
370
    15
100
AcDbLine
 10
-448.8140102365
 20
31.3498345888
 30
0.0
 11
-448.8140102365
 21
31.6604174429
 31
0.0
  0
LINE
  5
170
330
1F
100
AcDbEntity
  8
0
  6
Continuous
 62
     7
370
    15
100
AcDbLine
 10
-454.8333261701
 20
-33.2732882863
 30
0.0
 11
-454.8333261701
 21
-32.9627054322
 31
0.0
  0
LINE
  5
171
330
1F
100
AcDbEntity
  8
0
  6
Continuous
 62
     7
370
    15
100
AcDbLine
 10
-438.75
 20
-11.0
 30
0.0
 11
-438.75
 21
-10.0
 31
0.0
  0
LINE
  5
172
330
1F
100
AcDbEntity
  8
0
  6
Continuous
 62
     7
370
    15
100
AcDbLine
 10
-447.25
 20
-10.0
 30
0.0
 11
-447.25
 21
-11.0
 31
0.0
  0
LINE
  5
173
330
1F
100
AcDbEntity
  8
0
  6
Continuous
 62
     7
370
    15
100
AcDbLine
 10
-448.8140102365
 20
-31.6604174429
 30
0.0
 11
-448.8140102365
 21
-31.3498345888
 31
0.0
  0
LINE
  5
174
330
1F
100
AcDbEntity
  8
0
  6
Continuous
 62
     7
370
    15
100
AcDbLine
 10
478.0
 20
11.0
 30
0.0
 11
478.0
 21
10.0
 31
0.0
  0
LINE
  5
175
330
1F
100
AcDbEntity
  8
0
  6
Continuous
 62
     7
370
    15
100
AcDbLine
 10
478.0
 20
-10.0
 30
0.0
 11
478.0
 21
-11.0
 31
0.0
  0
LINE
  5
176
330
1F
100
AcDbEntity
  8
0
  6
Continuous
 62
     7
370
    15
100
AcDbLine
 10
486.0
 20
-11.0
 30
0.0
 11
486.0
 21
-10.0
 31
0.0
  0
LINE
  5
177
330
1F
100
AcDbEntity
  8
0
  6
Continuous
 62
     7
370
    15
100
AcDbLine
 10
486.0
 20
10.0
 30
0.0
 11
486.0
 21
11.0
 31
0.0
  0
LINE
  5
178
330
1F
100
AcDbEntity
  8
0
  6
Continuous
 62
     7
370
    15
100
AcDbLine
 10
560.5
 20
0.75
 30
0.0
 11
560.5
 21
-0.75
 31
0.0
  0
LINE
  5
179
330
1F
100
AcDbEntity
  8
0
  6
Continuous
 62
     7
370
    15
100
AcDbLine
 10
568.5
 20
-0.75
 30
0.0
 11
568.5
 21
0.75
 31
0.0
  0
LINE
  5
17A
330
1F
100
AcDbEntity
  8
0
  6
Continuous
 62
     7
370
    15
100
AcDbLine
 10
-486.0
 20
11.0
 30
0.0
 11
-486.0
 21
10.0
 31
0.0
  0
LINE
  5
17B
330
1F
100
AcDbEntity
  8
0
  6
Continuous
 62
     7
370
    15
100
AcDbLine
 10
-486.0
 20
-10.0
 30
0.0
 11
-486.0
 21
-11.0
 31
0.0
  0
LINE
  5
17C
330
1F
100
AcDbEntity
  8
0
  6
Continuous
 62
     7
370
    15
100
AcDbLine
 10
-478.0
 20
-11.0
 30
0.0
 11
-478.0
 21
-10.0
 31
0.0
  0
LINE
  5
17D
330
1F
100
AcDbEntity
  8
0
  6
Continuous
 62
     7
370
    15
100
AcDbLine
 10
-478.0
 20
10.0
 30
0.0
 11
-478.0
 21
11.0
 31
0.0
  0
LINE
  5
17E
330
1F
100
AcDbEntity
  8
0
  6
Continuous
 62
     7
370
    15
100
AcDbLine
 10
-568.5
 20
0.75
 30
0.0
 11
-568.5
 21
-0.75
 31
0.0
  0
LINE
  5
17F
330
1F
100
AcDbEntity
  8
0
  6
Continuous
 62
     7
370
    15
100
AcDbLine
 10
-560.5
 20
-0.75
 30
0.0
 11
-560.5
 21
0.75
 31
0.0
  0
LINE
  5
180
330
1F
100
AcDbEntity
  8
0
  6
Continuous
 62
     7
370
    15
100
AcDbLine
 10
-494.5
 20
-10.0
 30
0.0
 11
-494.5
 21
10.0
 31
0.0
  0
LINE
  5
181
330
1F
100
AcDbEntity
  8
0
  6
Continuous
 62
     7
370
    15
100
AcDbLine
 10
494.5
 20
-10.0
 30
0.0
 11
494.5
 21
10.0
 31
0.0
  0
LINE
  5
182
330
1F
100
AcDbEntity
  8
0
  6
Continuous
 62
     7
370
    15
100
AcDbLine
 10
494.5
 20
-10.0
 30
0.0
 11
-494.5
 21
-10.0
 31
0.0
  0
LINE
  5
183
330
1F
100
AcDbEntity
  8
0
  6
Continuous
 62
     7
370
    15
100
AcDbLine
 10
494.5
 20
10.0
 30
0.0
 11
-494.5
 21
10.0
 31
0.0
  0
LINE
  5
184
330
1F
100
AcDbEntity
  8
0
  6
Continuous
 62
     7
370
    15
100
AcDbLine
 10
432.5
 20
11.0
 30
0.0
 11
432.5
 21
13.5
 31
0.0
  0
LINE
  5
185
330
1F
100
AcDbEntity
  8
0
  6
Continuous
 62
     7
370
    15
100
AcDbLine
 10
432.5
 20
11.0
 30
0.0
 11
496.0
 21
11.0
 31
0.0
  0
LINE
  5
186
330
1F
100
AcDbEntity
  8
0
  6
Continuous
 62
     7
370
    15
100
AcDbLine
 10
496.0
 20
13.5
 30
0.0
 11
496.0
 21
11.0
 31
0.0
  0
LINE
  5
187
330
1F
100
AcDbEntity
  8
0
  6
Continuous
 62
     7
370
    15
100
AcDbLine
 10
432.5
 20
-13.5
 30
0.0
 11
432.5
 21
-11.0
 31
0.0
  0
LINE
  5
188
330
1F
100
AcDbEntity
  8
0
  6
Continuous
 62
     7
370
    15
100
AcDbLine
 10
496.0
 20
-11.0
 30
0.0
 11
432.5
 21
-11.0
 31
0.0
  0
LINE
  5
189
330
1F
100
AcDbEntity
  8
0
  6
Continuous
 62
     7
370
    15
100
AcDbLine
 10
496.0
 20
-13.5
 30
0.0
 11
496.0
 21
-11.0
 31
0.0
  0
LINE
  5
18A
330
1F
100
AcDbEntity
  8
0
  6
Continuous
 62
     7
370
    15
100
AcDbLine
 10
499.897360572
 20
-13.5
 30
0.0
 11
431.0
 21
-13.5
 31
0.0
  0
LINE
  5
18B
330
1F
100
AcDbEntity
  8
0
  6
Continuous
 62
     7
370
    15
100
AcDbLine
 10
-432.5
 20
13.5
 30
0.0
 11
-432.5
 21
11.0
 31
0.0
  0
LINE
  5
18C
330
1F
100
AcDbEntity
  8
0
  6
Continuous
 62
     7
370
    15
100
AcDbLine
 10
-496.0
 20
11.0
 30
0.0
 11
-432.5
 21
11.0
 31
0.0
  0
LINE
  5
18D
330
1F
100
AcDbEntity
  8
0
  6
Continuous
 62
     7
370
    15
100
AcDbLine
 10
-499.897360572
 20
13.5
 30
0.0
 11
-431.0
 21
13.5
 31
0.0
  0
LINE
  5
18E
330
1F
100
AcDbEntity
  8
0
  6
Continuous
 62
     7
370
    15
100
AcDbLine
 10
-496.0
 20
13.5
 30
0.0
 11
-496.0
 21
11.0
 31
0.0
  0
LINE
  5
18F
330
1F
100
AcDbEntity
  8
0
  6
Continuous
 62
     7
370
    15
100
AcDbLine
 10
-496.0
 20
-13.5
 30
0.0
 11
-496.0
 21
-11.0
 31
0.0
  0
LINE
  5
190
330
1F
100
AcDbEntity
  8
0
  6
Continuous
 62
     7
370
    15
100
AcDbLine
 10
-432.5
 20
-11.0
 30
0.0
 11
-496.0
 21
-11.0
 31
0.0
  0
LINE
  5
191
330
1F
100
AcDbEntity
  8
0
  6
Continuous
 62
     7
370
    15
100
AcDbLine
 10
-432.5
 20
-11.0
 30
0.0
 11
-432.5
 21
-13.5
 31
0.0
  0
LINE
  5
192
330
1F
100
AcDbEntity
  8
0
  6
Continuous
 62
     7
370
    15
100
AcDbLine
 10
-592.0
 20
-1550.0
 30
0.0
 11
592.0
 21
-1550.0
 31
0.0
  0
LINE
  5
193
330
1F
100
AcDbEntity
  8
0
  6
Continuous
 62
     7
370
    15
100
AcDbLine
 10
-2092.0
 20
50.0
 30
0.0
 11
-2092.0
 21
-50.0
 31
0.0
  0
LINE
  5
194
330
1F
100
AcDbEntity
  8
0
  6
Continuous
 62
     7
370
    15
100
AcDbLine
 10
2092.0
 20
-50.0
 30
0.0
 11
2092.0
 21
50.0
 31
0.0
  0
LINE
  5
195
330
1F
100
AcDbEntity
  8
0
  6
Continuous
 62
     7
370
    15
100
AcDbLine
 10
592.0
 20
1550.0
 30
0.0
 11
-592.0
 21
1550.0
 31
0.0
  0
LINE
  5
196
330
1F
100
AcDbEntity
  8
0
  6
Continuous
 62
     7
370
    15
100
AcDbLine
 10
249.0
 20
12.0
 30
0.0
 11
-249.0
 21
12.0
 31
0.0
  0
LINE
  5
197
330
1F
100
AcDbEntity
  8
0
  6
Continuous
 62
     7
370
    15
100
AcDbLine
 10
-215.6403255424
 20
17.0
 30
0.0
 11
-215.6403255424
 21
12.0
 31
0.0
  0
LINE
  5
198
330
1F
100
AcDbEntity
  8
0
  6
Continuous
 62
     7
370
    15
100
AcDbLine
 10
-246.0
 20
20.0
 30
0.0
 11
246.0
 21
20.0
 31
0.0
  0
LINE
  5
199
330
1F
100
AcDbEntity
  8
0
  6
Continuous
 62
     7
370
    15
100
AcDbLine
 10
-206.9800715045
 20
12.0
 30
0.0
 11
-206.9800715045
 21
10.0
 31
0.0
  0
LINE
  5
19A
330
1F
100
AcDbEntity
  8
0
  6
Continuous
 62
     7
370
    15
100
AcDbLine
 10
-249.0
 20
-12.0
 30
0.0
 11
249.0
 21
-12.0
 31
0.0
  0
LINE
  5
19B
330
1F
100
AcDbEntity
  8
0
  6
Continuous
 62
     7
370
    15
100
AcDbLine
 10
0.0
 20
-20.0
 30
0.0
 11
0.0
 21
-10.0
 31
0.0
  0
LINE
  5
19C
330
1F
100
AcDbEntity
  8
0
  6
Continuous
 62
     7
370
    15
100
AcDbLine
 10
246.0
 20
-20.0
 30
0.0
 11
-246.0
 21
-20.0
 31
0.0
  0
LINE
  5
19D
330
1F
100
AcDbEntity
  8
0
  6
Continuous
 62
     7
370
    15
100
AcDbLine
 10
537.9409522551
 20
48.2962913145
 30
0.0
 11
573.2249469216
 21
37.5088915805
 31
0.0
  0
LINE
  5
19E
330
1F
100
AcDbEntity
  8
0
  6
Continuous
 62
     7
370
    15
100
AcDbLine
 10
431.0
 20
13.5
 30
0.0
 11
431.0
 21
20.4379690282
 31
0.0
  0
LINE
  5
19F
330
1F
100
AcDbEntity
  8
0
  6
Continuous
 62
     7
370
    15
100
AcDbLine
 10
499.897360572
 20
13.5
 30
0.0
 11
431.0
 21
13.5
 31
0.0
  0
LINE
  5
1A0
330
1F
100
AcDbEntity
  8
0
  6
Continuous
 62
     7
370
    15
100
AcDbLine
 10
592.0
 20
0.75
 30
0.0
 11
553.4926307359
 21
0.75
 31
0.0
  0
LINE
  5
1A1
330
1F
100
AcDbEntity
  8
0
  6
Continuous
 62
     7
370
    15
100
AcDbLine
 10
592.0
 20
10.75
 30
0.0
 11
592.0
 21
0.75
 31
0.0
  0
LINE
  5
1A2
330
1F
100
AcDbEntity
  8
0
  6
Continuous
 62
     7
370
    15
100
AcDbLine
 10
436.9294476392
 20
28.1653756385
 30
0.0
 11
512.0590477449
 21
48.2962913145
 31
0.0
  0
LINE
  5
1A3
330
1F
100
AcDbEntity
  8
0
  6
Continuous
 62
     7
370
    15
100
AcDbLine
 10
456.0479925353
 20
33.2881743038
 30
0.0
 11
456.0479925353
 21
33.598757158
 31
0.0
  0
LINE
  5
1A4
330
1F
100
AcDbEntity
  8
0
  6
Continuous
 62
     7
370
    15
100
AcDbLine
 10
451.9244340784
 20
32.1832701454
 30
0.0
 11
451.9244340784
 21
32.4938529995
 31
0.0
  0
LINE
  5
1A5
330
1F
100
AcDbEntity
  8
0
  6
Continuous
 62
     7
370
    15
100
AcDbLine
 10
453.0939826008
 20
32.4966497275
 30
0.0
 11
453.0939826008
 21
32.8072325816
 31
0.0
  0
LINE
  5
1A6
330
1F
100
AcDbEntity
  8
0
  6
Continuous
 62
     7
370
    15
100
AcDbLine
 10
448.8140102365
 20
31.6604174429
 30
0.0
 11
459.327304302
 21
34.4774460976
 31
0.0
  0
LINE
  5
1A7
330
1F
100
AcDbEntity
  8
0
  6
Continuous
 62
     7
370
    15
100
AcDbLine
 10
449.0
 20
31.3996703958
 30
0.0
 11
449.0
 21
31.7102532499
 31
0.0
  0
LINE
  5
1A8
330
1F
100
AcDbEntity
  8
0
  6
Continuous
 62
     7
370
    15
100
AcDbLine
 10
459.327304302
 20
34.1668632435
 30
0.0
 11
459.327304302
 21
34.4774460976
 31
0.0
  0
LINE
  5
1A9
330
1F
100
AcDbEntity
  8
0
  6
Continuous
 62
     7
370
    15
100
AcDbLine
 10
573.2249469216
 20
-37.5088915805
 30
0.0
 11
537.9409522551
 21
-48.2962913144
 31
0.0
  0
LINE
  5
1AA
330
1F
100
AcDbEntity
  8
0
  6
Continuous
 62
     7
370
    15
100
AcDbLine
 10
512.0590477449
 20
-48.2962913144
 30
0.0
 11
436.9294476392
 21
-28.1653756384
 31
0.0
  0
LINE
  5
1AB
330
1F
100
AcDbEntity
  8
0
  6
Continuous
 62
     7
370
    15
100
AcDbLine
 10
592.0
 20
-0.75
 30
0.0
 11
592.0
 21
-10.75
 31
0.0
  0
LINE
  5
1AC
330
1F
100
AcDbEntity
  8
0
  6
Continuous
 62
     7
370
    15
100
AcDbLine
 10
592.0
 20
-0.75
 30
0.0
 11
553.4926307359
 21
-0.75
 31
0.0
  0
LINE
  5
1AD
330
1F
100
AcDbEntity
  8
0
  6
Continuous
 62
     7
370
    15
100
AcDbLine
 10
431.0
 20
-20.4379690281
 30
0.0
 11
431.0
 21
-13.5
 31
0.0
  0
LINE
  5
1AE
330
1F
100
AcDbEntity
  8
0
  6
Continuous
 62
     7
370
    15
100
AcDbLine
 10
459.327304302
 20
-34.4774460975
 30
0.0
 11
448.8140102365
 21
-31.6604174429
 31
0.0
  0
LINE
  5
1AF
330
1F
100
AcDbEntity
  8
0
  6
Continuous
 62
     7
370
    15
100
AcDbLine
 10
459.327304302
 20
-34.1668632434
 30
0.0
 11
459.327304302
 21
-34.4774460975
 31
0.0
  0
LINE
  5
1B0
330
1F
100
AcDbEntity
  8
0
  6
Continuous
 62
     7
370
    15
100
AcDbLine
 10
-573.2249469216
 20
37.5088915805
 30
0.0
 11
-537.9409522551
 21
48.2962913145
 31
0.0
  0
LINE
  5
1B1
330
1F
100
AcDbEntity
  8
0
  6
Continuous
 62
     7
370
    15
100
AcDbLine
 10
-592.0
 20
0.75
 30
0.0
 11
-592.0
 21
10.75
 31
0.0
  0
LINE
  5
1B2
330
1F
100
AcDbEntity
  8
0
  6
Continuous
 62
     7
370
    15
100
AcDbLine
 10
-592.0
 20
0.75
 30
0.0
 11
-553.4926307359
 21
0.75
 31
0.0
  0
LINE
  5
1B3
330
1F
100
AcDbEntity
  8
0
  6
Continuous
 62
     7
370
    15
100
AcDbLine
 10
-431.0
 20
20.4379690282
 30
0.0
 11
-431.0
 21
13.5
 31
0.0
  0
LINE
  5
1B4
330
1F
100
AcDbEntity
  8
0
  6
Continuous
 62
     7
370
    15
100
AcDbLine
 10
-512.0590477449
 20
48.2962913145
 30
0.0
 11
-436.9294476392
 21
28.1653756385
 31
0.0
  0
LINE
  5
1B5
330
1F
100
AcDbEntity
  8
0
  6
Continuous
 62
     7
370
    15
100
AcDbLine
 10
-459.327304302
 20
34.4774460976
 30
0.0
 11
-448.8140102365
 21
31.6604174429
 31
0.0
  0
LINE
  5
1B6
330
1F
100
AcDbEntity
  8
0
  6
Continuous
 62
     7
370
    15
100
AcDbLine
 10
-459.327304302
 20
34.1668632435
 30
0.0
 11
-459.327304302
 21
34.4774460976
 31
0.0
  0
LINE
  5
1B7
330
1F
100
AcDbEntity
  8
0
  6
Continuous
 62
     7
370
    15
100
AcDbLine
 10
-537.9409522551
 20
-48.2962913144
 30
0.0
 11
-573.2249469216
 21
-37.5088915805
 31
0.0
  0
LINE
  5
1B8
330
1F
100
AcDbEntity
  8
0
  6
Continuous
 62
     7
370
    15
100
AcDbLine
 10
-592.0
 20
-10.75
 30
0.0
 11
-592.0
 21
-0.75
 31
0.0
  0
LINE
  5
1B9
330
1F
100
AcDbEntity
  8
0
  6
Continuous
 62
     7
370
    15
100
AcDbLine
 10
-592.0
 20
-0.75
 30
0.0
 11
-553.4926307359
 21
-0.75
 31
0.0
  0
LINE
  5
1BA
330
1F
100
AcDbEntity
  8
0
  6
Continuous
 62
     7
370
    15
100
AcDbLine
 10
-431.0
 20
-13.5
 30
0.0
 11
-431.0
 21
-20.4379690281
 31
0.0
  0
LINE
  5
1BB
330
1F
100
AcDbEntity
  8
0
  6
Continuous
 62
     7
370
    15
100
AcDbLine
 10
-499.897360572
 20
-13.5
 30
0.0
 11
-431.0
 21
-13.5
 31
0.0
  0
LINE
  5
1BC
330
1F
100
AcDbEntity
  8
0
  6
Continuous
 62
     7
370
    15
100
AcDbLine
 10
-436.9294476392
 20
-28.1653756384
 30
0.0
 11
-512.0590477449
 21
-48.2962913144
 31
0.0
  0
LINE
  5
1BD
330
1F
100
AcDbEntity
  8
0
  6
Continuous
 62
     7
370
    15
100
AcDbLine
 10
-456.0479925353
 20
-33.2881743038
 30
0.0
 11
-456.0479925353
 21
-33.5987571579
 31
0.0
  0
LINE
  5
1BE
330
1F
100
AcDbEntity
  8
0
  6
Continuous
 62
     7
370
    15
100
AcDbLine
 10
-453.0939826008
 20
-32.4966497274
 30
0.0
 11
-453.0939826008
 21
-32.8072325816
 31
0.0
  0
LINE
  5
1BF
330
1F
100
AcDbEntity
  8
0
  6
Continuous
 62
     7
370
    15
100
AcDbLine
 10
-451.9244340784
 20
-32.1832701453
 30
0.0
 11
-451.9244340784
 21
-32.4938529995
 31
0.0
  0
LINE
  5
1C0
330
1F
100
AcDbEntity
  8
0
  6
Continuous
 62
     7
370
    15
100
AcDbLine
 10
-448.8140102365
 20
-31.6604174429
 30
0.0
 11
-459.327304302
 21
-34.4774460975
 31
0.0
  0
LINE
  5
1C1
330
1F
100
AcDbEntity
  8
0
  6
Continuous
 62
     7
370
    15
100
AcDbLine
 10
-449.0
 20
-31.3996703957
 30
0.0
 11
-449.0
 21
-31.7102532498
 31
0.0
  0
LINE
  5
1C2
330
1F
100
AcDbEntity
  8
0
  6
Continuous
 62
     7
370
    15
100
AcDbLine
 10
-459.327304302
 20
-34.1668632434
 30
0.0
 11
-459.327304302
 21
-34.4774460975
 31
0.0
  0
LINE
  5
1C3
330
1F
100
AcDbEntity
  8
0
  6
PHANTOM
 62
     8
370
     0
100
AcDbLine
 10
-491.5
 20
-10.0
 30
0.0
 11
-491.5
 21
10.0
 31
0.0
  0
LINE
  5
1C4
330
1F
100
AcDbEntity
  8
0
  6
PHANTOM
 62
     8
370
     0
100
AcDbLine
 10
491.5
 20
-10.0
 30
0.0
 11
491.5
 21
10.0
 31
0.0
  0
LINE
  5
1C5
330
1F
100
AcDbEntity
  8
0
  6
PHANTOM
 62
     8
370
     0
100
AcDbLine
 10
440.5
 20
13.5
 30
0.0
 11
440.5
 21
11.0
 31
0.0
  0
LINE
  5
1C6
330
1F
100
AcDbEntity
  8
0
  6
PHANTOM
 62
     8
370
     0
100
AcDbLine
 10
440.5
 20
-11.0
 30
0.0
 11
440.5
 21
-13.5
 31
0.0
  0
LINE
  5
1C7
330
1F
100
AcDbEntity
  8
0
  6
PHANTOM
 62
     8
370
     0
100
AcDbLine
 10
-440.5
 20
11.0
 30
0.0
 11
-440.5
 21
13.5
 31
0.0
  0
LINE
  5
1C8
330
1F
100
AcDbEntity
  8
0
  6
PHANTOM
 62
     8
370
     0
100
AcDbLine
 10
-440.5
 20
-13.5
 30
0.0
 11
-440.5
 21
-11.0
 31
0.0
  0
LINE
  5
1C9
330
1F
100
AcDbEntity
  8
0
  6
PHANTOM
 62
     8
370
     0
100
AcDbLine
 10
249.0
 20
17.0
 30
0.0
 11
-249.0
 21
17.0
 31
0.0
  0
LINE
  5
1CA
330
1F
100
AcDbEntity
  8
0
  6
PHANTOM
 62
     8
370
     0
100
AcDbLine
 10
-249.0
 20
-17.0
 30
0.0
 11
249.0
 21
-17.0
 31
0.0
  0
LINE
  5
1CB
330
1F
100
AcDbEntity
  8
0
  6
PHANTOM
 62
     8
370
     0
100
AcDbLine
 10
570.4459832914
 20
29.992971973
 30
0.0
 11
535.7413365
 21
40.6032472863
 31
0.0
  0
LINE
  5
1CC
330
1F
100
AcDbEntity
  8
0
  6
PHANTOM
 62
     8
370
     0
100
AcDbLine
 10
512.0590477449
 20
48.2962913145
 30
0.0
 11
514.1296001057
 21
40.5688847042
 31
0.0
  0
LINE
  5
1CD
330
1F
100
AcDbEntity
  8
0
  6
PHANTOM
 62
     8
370
     0
100
AcDbLine
 10
439.0
 20
20.4379690282
 30
0.0
 11
431.0
 21
20.4379690282
 31
0.0
  0
LINE
  5
1CE
330
1F
100
AcDbEntity
  8
0
  6
PHANTOM
 62
     8
370
     0
100
AcDbLine
 10
439.0
 20
20.4379690282
 30
0.0
 11
439.0
 21
13.5
 31
0.0
  0
LINE
  5
1CF
330
1F
100
AcDbEntity
  8
0
  6
PHANTOM
 62
     8
370
     0
100
AcDbLine
 10
514.1296001057
 20
40.5688847042
 30
0.0
 11
439.0
 21
20.4379690282
 31
0.0
  0
LINE
  5
1D0
330
1F
100
AcDbEntity
  8
0
  6
PHANTOM
 62
     8
370
     0
100
AcDbLine
 10
584.0
 20
0.75
 30
0.0
 11
584.0
 21
10.5071651426
 31
0.0
  0
LINE
  5
1D1
330
1F
100
AcDbEntity
  8
0
  6
PHANTOM
 62
     8
370
     0
100
AcDbLine
 10
436.9294476392
 20
28.1653756385
 30
0.0
 11
439.0
 21
20.4379690282
 31
0.0
  0
LINE
  5
1D2
330
1F
100
AcDbEntity
  8
0
  6
PHANTOM
 62
     8
370
     0
100
AcDbLine
 10
535.7413365
 20
-40.6032472863
 30
0.0
 11
570.4459832914
 21
-29.992971973
 31
0.0
  0
LINE
  5
1D3
330
1F
100
AcDbEntity
  8
0
  6
PHANTOM
 62
     8
370
     0
100
AcDbLine
 10
514.1296001057
 20
-40.5688847041
 30
0.0
 11
512.0590477449
 21
-48.2962913144
 31
0.0
  0
LINE
  5
1D4
330
1F
100
AcDbEntity
  8
0
  6
PHANTOM
 62
     8
370
     0
100
AcDbLine
 10
439.0
 20
-20.4379690281
 30
0.0
 11
436.9294476392
 21
-28.1653756384
 31
0.0
  0
LINE
  5
1D5
330
1F
100
AcDbEntity
  8
0
  6
PHANTOM
 62
     8
370
     0
100
AcDbLine
 10
439.0
 20
-20.4379690281
 30
0.0
 11
514.1296001057
 21
-40.5688847041
 31
0.0
  0
LINE
  5
1D6
330
1F
100
AcDbEntity
  8
0
  6
PHANTOM
 62
     8
370
     0
100
AcDbLine
 10
584.0
 20
-10.5071651426
 30
0.0
 11
584.0
 21
-0.75
 31
0.0
  0
LINE
  5
1D7
330
1F
100
AcDbEntity
  8
0
  6
PHANTOM
 62
     8
370
     0
100
AcDbLine
 10
439.0
 20
-13.5
 30
0.0
 11
439.0
 21
-20.4379690281
 31
0.0
  0
LINE
  5
1D8
330
1F
100
AcDbEntity
  8
0
  6
PHANTOM
 62
     8
370
     0
100
AcDbLine
 10
439.0
 20
-20.4379690281
 30
0.0
 11
431.0
 21
-20.4379690281
 31
0.0
  0
LINE
  5
1D9
330
1F
100
AcDbEntity
  8
0
  6
PHANTOM
 62
     8
370
     0
100
AcDbLine
 10
-514.1296001057
 20
40.5688847042
 30
0.0
 11
-512.0590477449
 21
48.2962913145
 31
0.0
  0
LINE
  5
1DA
330
1F
100
AcDbEntity
  8
0
  6
PHANTOM
 62
     8
370
     0
100
AcDbLine
 10
-535.7413365
 20
40.6032472863
 30
0.0
 11
-570.4459832914
 21
29.992971973
 31
0.0
  0
LINE
  5
1DB
330
1F
100
AcDbEntity
  8
0
  6
PHANTOM
 62
     8
370
     0
100
AcDbLine
 10
-584.0
 20
10.5071651426
 30
0.0
 11
-584.0
 21
0.75
 31
0.0
  0
LINE
  5
1DC
330
1F
100
AcDbEntity
  8
0
  6
PHANTOM
 62
     8
370
     0
100
AcDbLine
 10
-439.0
 20
20.4379690282
 30
0.0
 11
-514.1296001057
 21
40.5688847042
 31
0.0
  0
LINE
  5
1DD
330
1F
100
AcDbEntity
  8
0
  6
PHANTOM
 62
     8
370
     0
100
AcDbLine
 10
-439.0
 20
13.5
 30
0.0
 11
-439.0
 21
20.4379690282
 31
0.0
  0
LINE
  5
1DE
330
1F
100
AcDbEntity
  8
0
  6
PHANTOM
 62
     8
370
     0
100
AcDbLine
 10
-439.0
 20
20.4379690282
 30
0.0
 11
-431.0
 21
20.4379690282
 31
0.0
  0
LINE
  5
1DF
330
1F
100
AcDbEntity
  8
0
  6
PHANTOM
 62
     8
370
     0
100
AcDbLine
 10
-439.0
 20
20.4379690282
 30
0.0
 11
-436.9294476392
 21
28.1653756385
 31
0.0
  0
LINE
  5
1E0
330
1F
100
AcDbEntity
  8
0
  6
PHANTOM
 62
     8
370
     0
100
AcDbLine
 10
-570.4459832914
 20
-29.992971973
 30
0.0
 11
-535.7413365
 21
-40.6032472863
 31
0.0
  0
LINE
  5
1E1
330
1F
100
AcDbEntity
  8
0
  6
PHANTOM
 62
     8
370
     0
100
AcDbLine
 10
-512.0590477449
 20
-48.2962913144
 30
0.0
 11
-514.1296001057
 21
-40.5688847041
 31
0.0
  0
LINE
  5
1E2
330
1F
100
AcDbEntity
  8
0
  6
PHANTOM
 62
     8
370
     0
100
AcDbLine
 10
-584.0
 20
-0.75
 30
0.0
 11
-584.0
 21
-10.5071651426
 31
0.0
  0
LINE
  5
1E3
330
1F
100
AcDbEntity
  8
0
  6
PHANTOM
 62
     8
370
     0
100
AcDbLine
 10
-439.0
 20
-20.4379690281
 30
0.0
 11
-431.0
 21
-20.4379690281
 31
0.0
  0
LINE
  5
1E4
330
1F
100
AcDbEntity
  8
0
  6
PHANTOM
 62
     8
370
     0
100
AcDbLine
 10
-439.0
 20
-20.4379690281
 30
0.0
 11
-439.0
 21
-13.5
 31
0.0
  0
LINE
  5
1E5
330
1F
100
AcDbEntity
  8
0
  6
PHANTOM
 62
     8
370
     0
100
AcDbLine
 10
-436.9294476392
 20
-28.1653756384
 30
0.0
 11
-439.0
 21
-20.4379690281
 31
0.0
  0
LINE
  5
1E6
330
1F
100
AcDbEntity
  8
0
  6
PHANTOM
 62
     8
370
     0
100
AcDbLine
 10
-514.1296001057
 20
-40.5688847041
 30
0.0
 11
-439.0
 21
-20.4379690281
 31
0.0
  0
ARC
  5
1E7
330
1F
100
AcDbEntity
  8
0
  6
Continuous
 62
     7
370
    15
100
AcDbCircle
 10
246.0
 20
17.0
 30
0.0
 40
3.0
100
AcDbArc
 50
0.0
 51
90.0
  0
ARC
  5
1E8
330
1F
100
AcDbEntity
  8
0
  6
Continuous
 62
     7
370
    15
100
AcDbCircle
 10
-246.0
 20
17.0
 30
0.0
 40
3.000000000000032
100
AcDbArc
 50
90.0
 51
180.0
  0
ARC
  5
1E9
330
1F
100
AcDbEntity
  8
0
  6
Continuous
 62
     7
370
    15
100
AcDbCircle
 10
246.0
 20
-17.0
 30
0.0
 40
3.000000000000085
100
AcDbArc
 50
270.0
 51
0.0
  0
ARC
  5
1EA
330
1F
100
AcDbEntity
  8
0
  6
Continuous
 62
     7
370
    15
100
AcDbCircle
 10
-246.0
 20
-17.0
 30
0.0
 40
3.0
100
AcDbArc
 50
180.0
 51
270.0
  0
ARC
  5
1EB
330
1F
100
AcDbEntity
  8
0
  6
Continuous
 62
     7
370
    15
100
AcDbCircle
 10
-592.0
 20
-50.0
 30
0.0
 40
1500.000000000005
100
AcDbArc
 50
180.0
 51
270.0
  0
ARC
  5
1EC
330
1F
100
AcDbEntity
  8
0
  6
Continuous
 62
     7
370
    15
100
AcDbCircle
 10
-592.0
 20
50.0
 30
0.0
 40
1500.000000000005
100
AcDbArc
 50
90.0
 51
180.0
  0
ARC
  5
1ED
330
1F
100
AcDbEntity
  8
0
  6
Continuous
 62
     7
370
    15
100
AcDbCircle
 10
592.0
 20
50.0
 30
0.0
 40
1500.000000000005
100
AcDbArc
 50
0.0
 51
90.0
  0
ARC
  5
1EE
330
1F
100
AcDbEntity
  8
0
  6
Continuous
 62
     7
370
    15
100
AcDbCircle
 10
592.0
 20
-50.0
 30
0.0
 40
1500.000000000005
100
AcDbArc
 50
270.0
 51
0.0
  0
ARC
  5
1EF
330
1F
100
AcDbEntity
  8
0
  6
Continuous
 62
     7
370
    15
100
AcDbCircle
 10
-212.8257429801
 20
17.1875
 30
0.0
 40
2.820821024099295
100
AcDbArc
 50
94.4019496523
 51
183.8112610495
  0
ARC
  5
1F0
330
1F
100
AcDbEntity
  8
0
  6
Continuous
 62
     7
370
    15
100
AcDbCircle
 10
525.0
 20
0.0
 30
0.0
 40
49.99999999999983
100
AcDbArc
 50
75.0
 51
105.0
  0
ARC
  5
1F1
330
1F
100
AcDbEntity
  8
0
  6
Continuous
 62
     7
370
    15
100
AcDbCircle
 10
561.0494345771
 20
9.0
 30
0.0
 40
30.9999999999997
100
AcDbArc
 50
3.2361595445
 51
66.8737517395
  0
ARC
  5
1F2
330
1F
100
AcDbEntity
  8
0
  6
Continuous
 62
     7
370
    15
100
AcDbCircle
 10
439.0
 20
20.4379690282
 30
0.0
 40
8.0
100
AcDbArc
 50
105.0
 51
180.0
  0
ARC
  5
1F3
330
1F
100
AcDbEntity
  8
0
  6
Continuous
 62
     7
370
    15
100
AcDbCircle
 10
525.0
 20
0.0
 30
0.0
 40
49.99999999999989
100
AcDbArc
 50
255.0
 51
285.0
  0
ARC
  5
1F4
330
1F
100
AcDbEntity
  8
0
  6
Continuous
 62
     7
370
    15
100
AcDbCircle
 10
561.0494345771
 20
-9.0
 30
0.0
 40
31.00000000000011
100
AcDbArc
 50
293.1262482605
 51
356.7638404555
  0
ARC
  5
1F5
330
1F
100
AcDbEntity
  8
0
  6
Continuous
 62
     7
370
    15
100
AcDbCircle
 10
439.0
 20
-20.4379690281
 30
0.0
 40
8.00000000000017
100
AcDbArc
 50
180.0
 51
255.0
  0
ARC
  5
1F6
330
1F
100
AcDbEntity
  8
0
  6
Continuous
 62
     7
370
    15
100
AcDbCircle
 10
-525.0
 20
0.0
 30
0.0
 40
49.9999999999998
100
AcDbArc
 50
75.0
 51
105.0
  0
ARC
  5
1F7
330
1F
100
AcDbEntity
  8
0
  6
Continuous
 62
     7
370
    15
100
AcDbCircle
 10
-561.0494345771
 20
9.0
 30
0.0
 40
31.00000000000048
100
AcDbArc
 50
113.1262482605
 51
176.7638404555
  0
ARC
  5
1F8
330
1F
100
AcDbEntity
  8
0
  6
Continuous
 62
     7
370
    15
100
AcDbCircle
 10
-439.0
 20
20.4379690282
 30
0.0
 40
8.0
100
AcDbArc
 50
0.0
 51
75.0
  0
ARC
  5
1F9
330
1F
100
AcDbEntity
  8
0
  6
Continuous
 62
     7
370
    15
100
AcDbCircle
 10
-525.0
 20
0.0
 30
0.0
 40
49.99999999999991
100
AcDbArc
 50
255.0
 51
285.0
  0
ARC
  5
1FA
330
1F
100
AcDbEntity
  8
0
  6
Continuous
 62
     7
370
    15
100
AcDbCircle
 10
-561.0494345771
 20
-9.0
 30
0.0
 40
31.00000000000022
100
AcDbArc
 50
183.2361595445
 51
246.8737517395
  0
ARC
  5
1FB
330
1F
100
AcDbEntity
  8
0
  6
Continuous
 62
     7
370
    15
100
AcDbCircle
 10
-439.0
 20
-20.4379690281
 30
0.0
 40
8.000000000000078
100
AcDbArc
 50
285.0
 51
0.0
  0
ARC
  5
1FC
330
1F
100
AcDbEntity
  8
0
  6
PHANTOM
 62
     8
370
     0
100
AcDbCircle
 10
525.0
 20
0.0
 30
0.0
 40
42.00000000000027
100
AcDbArc
 50
75.182200008
 51
105.0
  0
ARC
  5
1FD
330
1F
100
AcDbEntity
  8
0
  6
PHANTOM
 62
     8
370
     0
100
AcDbCircle
 10
561.0494345771
 20
9.0
 30
0.0
 40
23.00000000000035
100
AcDbArc
 50
3.7572227311
 51
65.8864958731
  0
ARC
  5
1FE
330
1F
100
AcDbEntity
  8
0
  6
PHANTOM
 62
     8
370
     0
100
AcDbCircle
 10
525.0
 20
0.0
 30
0.0
 40
42.00000000000053
100
AcDbArc
 50
255.0
 51
284.817799992
  0
ARC
  5
1FF
330
1F
100
AcDbEntity
  8
0
  6
PHANTOM
 62
     8
370
     0
100
AcDbCircle
 10
561.0494345771
 20
-9.0
 30
0.0
 40
23.00000000000063
100
AcDbArc
 50
294.1135041269
 51
356.2427772689
  0
ARC
  5
200
330
1F
100
AcDbEntity
  8
0
  6
PHANTOM
 62
     8
370
     0
100
AcDbCircle
 10
-525.0
 20
0.0
 30
0.0
 40
42.00000000000052
100
AcDbArc
 50
75.0
 51
104.817799992
  0
ARC
  5
201
330
1F
100
AcDbEntity
  8
0
  6
PHANTOM
 62
     8
370
     0
100
AcDbCircle
 10
-561.0494345771
 20
9.0
 30
0.0
 40
23.00000000000061
100
AcDbArc
 50
114.1135041269
 51
176.2427772689
  0
ARC
  5
202
330
1F
100
AcDbEntity
  8
0
  6
PHANTOM
 62
     8
370
     0
100
AcDbCircle
 10
-525.0
 20
0.0
 30
0.0
 40
42.00000000000033
100
AcDbArc
 50
255.182200008
 51
285.0
  0
ARC
  5
203
330
1F
100
AcDbEntity
  8
0
  6
PHANTOM
 62
     8
370
     0
100
AcDbCircle
 10
-561.0494345771
 20
-9.0
 30
0.0
 40
23.00000000000047
100
AcDbArc
 50
183.7572227311
 51
245.8864958731
  0
ENDSEC
  0
SECTION
  2
OBJECTS
  0
DICTIONARY
  5
C
330
0
100
AcDbDictionary
281
     1
  3
ACAD_GROUP
350
D
  3
ACAD_LAYOUT
350
1A
  3
ACAD_MLINESTYLE
350
17
  3
ACAD_PLOTSETTINGS
350
19
  3
ACAD_PLOTSTYLENAME
350
E
  3
ACAD_SCALELIST
350
47
  0
DICTIONARY
  5
D
102
{ACAD_REACTORS
330
C
102
}
330
C
100
AcDbDictionary
281
     1
  0
DICTIONARY
  5
1A
102
{ACAD_REACTORS
330
C
102
}
330
C
100
AcDbDictionary
281
     1
  3
Layout1
350
1E
  3
Layout2
350
26
  3
Model
350
22
  0
DICTIONARY
  5
17
102
{ACAD_REACTORS
330
C
102
}
330
C
100
AcDbDictionary
281
     1
  3
Standard
350
18
  0
DICTIONARY
  5
19
102
{ACAD_REACTORS
330
C
102
}
330
C
100
AcDbDictionary
281
     1
  0
ACDBDICTIONARYWDFLT
  5
E
102
{ACAD_REACTORS
330
C
102
}
330
C
100
AcDbDictionary
281
     1
  3
Normal
350
F
100
AcDbDictionaryWithDefault
340
F
  0
DICTIONARY
  5
47
102
{ACAD_REACTORS
330
C
102
}
330
C
100
AcDbDictionary
281
     1
  3
A0
350
48
  3
A1
350
49
  3
A2
350
4A
  3
A3
350
4B
  3
A4
350
4C
  3
A5
350
4D
  3
A6
350
4E
  3
A7
350
4F
  3
A8
350
50
  3
A9
350
51
  3
B0
350
52
  3
B1
350
53
  3
B2
350
54
  3
B3
350
55
  3
B4
350
56
  3
B5
350
57
  3
B6
350
58
  3
B7
350
59
  3
B8
350
5A
  3
B9
350
5B
  3
C0
350
5C
  3
C1
350
5D
  3
C2
350
5E
  3
C3
350
5F
  3
C4
350
60
  3
C5
350
61
  3
C6
350
62
  3
C7
350
63
  3
C8
350
64
  3
C9
350
65
  3
D0
350
66
  3
D1
350
67
  3
D2
350
68
  0
LAYOUT
  5
1E
102
{ACAD_REACTORS
330
1A
102
}
330
1A
100
AcDbPlotSettings
  1

  2
none_device
  4

  6

 40
0.0
 41
0.0
 42
0.0
 43
0.0
 44
0.0
 45
0.0
 46
0.0
 47
0.0
 48
0.0
 49
0.0
140
0.0
141
0.0
142
1.0
143
1.0
 70
   688
 72
     1
 73
     0
 74
     5
  7

 75
    16
147
1.0
148
0.0
149
0.0
100
AcDbLayout
  1
Layout1
 70
     1
 71
     1
 10
0.0
 20
0.0
 11
420.0
 21
297.0
 12
0.0
 22
0.0
 32
0.0
 14
1.0000000000E+20
 24
1.0000000000E+20
 34
1.0000000000E+20
 15
-1.0000000000E+20
 25
-1.0000000000E+20
 35
-1.0000000000E+20
146
0.0
 13
0.0
 23
0.0
 33
0.0
 16
1.0
 26
0.0
 36
0.0
 17
0.0
 27
1.0
 37
0.0
 76
     0
330
1B
  0
LAYOUT
  5
26
102
{ACAD_REACTORS
330
1A
102
}
330
1A
100
AcDbPlotSettings
  1

  2
none_device
  4

  6

 40
0.0
 41
0.0
 42
0.0
 43
0.0
 44
0.0
 45
0.0
 46
0.0
 47
0.0
 48
0.0
 49
0.0
140
0.0
141
0.0
142
1.0
143
1.0
 70
   688
 72
     1
 73
     0
 74
     5
  7

 75
    16
147
1.0
148
0.0
149
0.0
100
AcDbLayout
  1
Layout2
 70
     1
 71
     2
 10
0.0
 20
0.0
 11
0.0
 21
0.0
 12
0.0
 22
0.0
 32
0.0
 14
0.0
 24
0.0
 34
0.0
 15
0.0
 25
0.0
 35
0.0
146
0.0
 13
0.0
 23
0.0
 33
0.0
 16
1.0
 26
0.0
 36
0.0
 17
0.0
 27
1.0
 37
0.0
 76
     0
330
23
  0
LAYOUT
  5
22
102
{ACAD_REACTORS
330
1A
102
}
330
1A
100
AcDbPlotSettings
  1

  2
none_device
  4
ANSI_A_(11.00_x_8.50_Inches)
  6

 40
6.35
 41
19.05
 42
6.35000508
 43
19.05000254
 44
279.4
 45
215.9
 46
133.34999746
 47
88.89999873
 48
0.0
 49
0.0
140
0.0
141
0.0
142
0.0026027725
143
1.0
 70
  1696
 72
     0
 73
     0
 74
     0
  7

 75
     0
147
0.0179189148
148
-1300.4909072572
149
0.0
100
AcDbLayout
  1
Model
 70
     1
 71
     0
 10
0.0
 20
0.0
 11
420.0
 21
297.0
 12
0.0
 22
0.0
 32
0.0
 14
-2092.0
 24
-1550.0
 34
0.0
 15
2092.0
 25
1550.0
 35
0.0
146
0.0
 13
0.0
 23
0.0
 33
0.0
 16
1.0
 26
0.0
 36
0.0
 17
0.0
 27
1.0
 37
0.0
 76
     0
330
1F
331
29
  0
MLINESTYLE
  5
18
102
{ACAD_REACTORS
330
17
102
}
330
17
100
AcDbMlineStyle
  2
Standard
 70
     0
  3

 62
   256
 51
90.0
 52
90.0
 71
     2
 49
0.5
 62
   256
  6
BYLAYER
 49
-0.5
 62
   256
  6
BYLAYER
  0
ACDBPLACEHOLDER
  5
F
102
{ACAD_REACTORS
330
E
102
}
330
E
  0
SCALE
  5
48
102
{ACAD_REACTORS
330
47
102
}
330
47
100
AcDbScale
 70
     0
300
1:1
140
1.0
141
1.0
290
     1
  0
SCALE
  5
49
102
{ACAD_REACTORS
330
47
102
}
330
47
100
AcDbScale
 70
     0
300
1:2
140
1.0
141
2.0
290
     0
  0
SCALE
  5
4A
102
{ACAD_REACTORS
330
47
102
}
330
47
100
AcDbScale
 70
     0
300
1:4
140
1.0
141
4.0
290
     0
  0
SCALE
  5
4B
102
{ACAD_REACTORS
330
47
102
}
330
47
100
AcDbScale
 70
     0
300
1:5
140
1.0
141
5.0
290
     0
  0
SCALE
  5
4C
102
{ACAD_REACTORS
330
47
102
}
330
47
100
AcDbScale
 70
     0
300
1:8
140
1.0
141
8.0
290
     0
  0
SCALE
  5
4D
102
{ACAD_REACTORS
330
47
102
}
330
47
100
AcDbScale
 70
     0
300
1:10
140
1.0
141
10.0
290
     0
  0
SCALE
  5
4E
102
{ACAD_REACTORS
330
47
102
}
330
47
100
AcDbScale
 70
     0
300
1:16
140
1.0
141
16.0
290
     0
  0
SCALE
  5
4F
102
{ACAD_REACTORS
330
47
102
}
330
47
100
AcDbScale
 70
     0
300
1:20
140
1.0
141
20.0
290
     0
  0
SCALE
  5
50
102
{ACAD_REACTORS
330
47
102
}
330
47
100
AcDbScale
 70
     0
300
1:30
140
1.0
141
30.0
290
     0
  0
SCALE
  5
51
102
{ACAD_REACTORS
330
47
102
}
330
47
100
AcDbScale
 70
     0
300
1:40
140
1.0
141
40.0
290
     0
  0
SCALE
  5
52
102
{ACAD_REACTORS
330
47
102
}
330
47
100
AcDbScale
 70
     0
300
1:50
140
1.0
141
50.0
290
     0
  0
SCALE
  5
53
102
{ACAD_REACTORS
330
47
102
}
330
47
100
AcDbScale
 70
     0
300
1:100
140
1.0
141
100.0
290
     0
  0
SCALE
  5
54
102
{ACAD_REACTORS
330
47
102
}
330
47
100
AcDbScale
 70
     0
300
2:1
140
2.0
141
1.0
290
     0
  0
SCALE
  5
55
102
{ACAD_REACTORS
330
47
102
}
330
47
100
AcDbScale
 70
     0
300
4:1
140
4.0
141
1.0
290
     0
  0
SCALE
  5
56
102
{ACAD_REACTORS
330
47
102
}
330
47
100
AcDbScale
 70
     0
300
8:1
140
8.0
141
1.0
290
     0
  0
SCALE
  5
57
102
{ACAD_REACTORS
330
47
102
}
330
47
100
AcDbScale
 70
     0
300
10:1
140
10.0
141
1.0
290
     0
  0
SCALE
  5
58
102
{ACAD_REACTORS
330
47
102
}
330
47
100
AcDbScale
 70
     0
300
100:1
140
100.0
141
1.0
290
     0
  0
SCALE
  5
59
102
{ACAD_REACTORS
330
47
102
}
330
47
100
AcDbScale
 70
     0
300
1/128" = 1'-0"
140
0.0078125
141
12.0
290
     0
  0
SCALE
  5
5A
102
{ACAD_REACTORS
330
47
102
}
330
47
100
AcDbScale
 70
     0
300
1/64" = 1'-0"
140
0.015625
141
12.0
290
     0
  0
SCALE
  5
5B
102
{ACAD_REACTORS
330
47
102
}
330
47
100
AcDbScale
 70
     0
300
1/32" = 1'-0"
140
0.03125
141
12.0
290
     0
  0
SCALE
  5
5C
102
{ACAD_REACTORS
330
47
102
}
330
47
100
AcDbScale
 70
     0
300
1/16" = 1'-0"
140
0.0625
141
12.0
290
     0
  0
SCALE
  5
5D
102
{ACAD_REACTORS
330
47
102
}
330
47
100
AcDbScale
 70
     0
300
3/32" = 1'-0"
140
0.09375
141
12.0
290
     0
  0
SCALE
  5
5E
102
{ACAD_REACTORS
330
47
102
}
330
47
100
AcDbScale
 70
     0
300
1/8" = 1'-0"
140
0.125
141
12.0
290
     0
  0
SCALE
  5
5F
102
{ACAD_REACTORS
330
47
102
}
330
47
100
AcDbScale
 70
     0
300
3/16" = 1'-0"
140
0.1875
141
12.0
290
     0
  0
SCALE
  5
60
102
{ACAD_REACTORS
330
47
102
}
330
47
100
AcDbScale
 70
     0
300
1/4" = 1'-0"
140
0.25
141
12.0
290
     0
  0
SCALE
  5
61
102
{ACAD_REACTORS
330
47
102
}
330
47
100
AcDbScale
 70
     0
300
3/8" = 1'-0"
140
0.375
141
12.0
290
     0
  0
SCALE
  5
62
102
{ACAD_REACTORS
330
47
102
}
330
47
100
AcDbScale
 70
     0
300
1/2" = 1'-0"
140
0.5
141
12.0
290
     0
  0
SCALE
  5
63
102
{ACAD_REACTORS
330
47
102
}
330
47
100
AcDbScale
 70
     0
300
3/4" = 1'-0"
140
0.75
141
12.0
290
     0
  0
SCALE
  5
64
102
{ACAD_REACTORS
330
47
102
}
330
47
100
AcDbScale
 70
     0
300
1" = 1'-0"
140
1.0
141
12.0
290
     0
  0
SCALE
  5
65
102
{ACAD_REACTORS
330
47
102
}
330
47
100
AcDbScale
 70
     0
300
1-1/2" = 1'-0"
140
1.5
141
12.0
290
     0
  0
SCALE
  5
66
102
{ACAD_REACTORS
330
47
102
}
330
47
100
AcDbScale
 70
     0
300
3" = 1'-0"
140
3.0
141
12.0
290
     0
  0
SCALE
  5
67
102
{ACAD_REACTORS
330
47
102
}
330
47
100
AcDbScale
 70
     0
300
6" = 1'-0"
140
6.0
141
12.0
290
     0
  0
SCALE
  5
68
102
{ACAD_REACTORS
330
47
102
}
330
47
100
AcDbScale
 70
     0
300
1'-0" = 1'-0"
140
12.0
141
12.0
290
     0
  0
ENDSEC
  0
EOF
